  0
SECTION
  2
HEADER
  9
$ACADVER
  1
AC1015
  9
$ACADMAINTVER
 70
     6
  9
$DWGCODEPAGE
  3
ANSI_1250
  9
$INSBASE
 10
0.0
 20
0.0
 30
0.0
  9
$EXTMIN
 10
0.0
 20
0.0
 30
0.0
  9
$EXTMAX
 10
20000.0
 20
10000.0
 30
0.0
  9
$LIMMIN
 10
0.0
 20
0.0
  9
$LIMMAX
 10
20000.0
 20
10000.0
  9
$ORTHOMODE
 70
     0
  9
$REGENMODE
 70
     1
  9
$FILLMODE
 70
     1
  9
$QTEXTMODE
 70
     0
  9
$MIRRTEXT
 70
     1
  9
$LTSCALE
 40
1.0
  9
$ATTMODE
 70
     1
  9
$TEXTSIZE
 40
2.0
  9
$TRACEWID
 40
1.0
  9
$TEXTSTYLE
  7
Standard
  9
$CLAYER
  8
0
  9
$CELTYPE
  6
ByLayer
  9
$CECOLOR
 62
   256
  9
$CELTSCALE
 40
1.0
  9
$DISPSILH
 70
     0
  9
$DIMSCALE
 40
1.0
  9
$DIMASZ
 40
2.0
  9
$DIMEXO
 40
1.0
  9
$DIMDLI
 40
3.75
  9
$DIMRND
 40
0.0
  9
$DIMDLE
 40
0.0
  9
$DIMEXE
 40
1.0
  9
$DIMTP
 40
0.0
  9
$DIMTM
 40
0.0
  9
$DIMTXT
 40
2.0
  9
$DIMCEN
 40
2.5
  9
$DIMTSZ
 40
0.0
  9
$DIMTOL
 70
     0
  9
$DIMLIM
 70
     0
  9
$DIMTIH
 70
     1
  9
$DIMTOH
 70
     1
  9
$DIMSE1
 70
     0
  9
$DIMSE2
 70
     0
  9
$DIMTAD
 70
     1
  9
$DIMZIN
 70
     0
  9
$DIMBLK
  1

  9
$DIMASO
 70
     1
  9
$DIMSHO
 70
     1
  9
$DIMPOST
  1

  9
$DIMAPOST
  1

  9
$DIMALT
 70
     0
  9
$DIMALTD
 70
     3
  9
$DIMALTF
 40
0.0393700787
  9
$DIMLFAC
 40
1.0
  9
$DIMTOFL
 70
     1
  9
$DIMTVP
 40
0.0
  9
$DIMTIX
 70
     0
  9
$DIMSOXD
 70
     0
  9
$DIMSAH
 70
     0
  9
$DIMBLK1
  1

  9
$DIMBLK2
  1

  9
$DIMSTYLE
  2
ISO-25
  9
$DIMCLRD
 70
     0
  9
$DIMCLRE
 70
     0
  9
$DIMCLRT
 70
     0
  9
$DIMTFAC
 40
1.0
  9
$DIMGAP
 40
1.524
  9
$DIMJUST
 70
     0
  9
$DIMSD1
 70
     0
  9
$DIMSD2
 70
     0
  9
$DIMTOLJ
 70
     0
  9
$DIMTZIN
 70
     0
  9
$DIMALTZ
 70
     0
  9
$DIMALTTZ
 70
     0
  9
$DIMUPT
 70
     0
  9
$DIMDEC
 70
     2
  9
$DIMTDEC
 70
     0
  9
$DIMALTU
 70
     2
  9
$DIMALTTD
 70
     3
  9
$DIMTXSTY
  7
Standard
  9
$DIMAUNIT
 70
     0
  9
$DIMADEC
 70
     2
  9
$DIMALTRND
 40
0.0
  9
$DIMAZIN
 70
     0
  9
$DIMDSEP
 70
    44
  9
$DIMATFIT
 70
     3
  9
$DIMFRAC
 70
     0
  9
$DIMLDRBLK
  1

  9
$DIMLUNIT
 70
     2
  9
$DIMLWD
 70
    -2
  9
$DIMLWE
 70
    -2
  9
$DIMTMOVE
 70
     0
  9
$LUNITS
 70
     2
  9
$LUPREC
 70
     3
  9
$SKETCHINC
 40
1.0
  9
$FILLETRAD
 40
10.0
  9
$AUNITS
 70
     0
  9
$AUPREC
 70
     2
  9
$MENU
  1
.
  9
$ELEVATION
 40
0.0
  9
$PELEVATION
 40
0.0
  9
$THICKNESS
 40
0.0
  9
$LIMCHECK
 70
     0
  9
$CHAMFERA
 40
0.0
  9
$CHAMFERB
 40
0.0
  9
$CHAMFERC
 40
0.0
  9
$CHAMFERD
 40
0.0
  9
$SKPOLY
 70
     0
  9
$TDCREATE
 40
2459584.25880309
  9
$TDUCREATE
 40
2459584.217136424
  9
$TDUPDATE
 40
2459584.258803437
  9
$TDUUPDATE
 40
2459584.217136771
  9
$TDINDWG
 40
0.0000000116
  9
$TDUSRTIMER
 40
0.0000000116
  9
$USRTIMER
 70
     1
  9
$ANGBASE
 50
0.0
  9
$ANGDIR
 70
     0
  9
$PDMODE
 70
     0
  9
$PDSIZE
 40
-1.0
  9
$PLINEWID
 40
0.0
  9
$SPLFRAME
 70
     0
  9
$SPLINETYPE
 70
     6
  9
$SPLINESEGS
 70
     8
  9
$HANDSEED
  5
3F5
  9
$SURFTAB1
 70
     6
  9
$SURFTAB2
 70
     6
  9
$SURFTYPE
 70
     6
  9
$SURFU
 70
     6
  9
$SURFV
 70
     6
  9
$UCSBASE
  2

  9
$UCSNAME
  2

  9
$UCSORG
 10
0.0
 20
0.0
 30
0.0
  9
$UCSXDIR
 10
1.0
 20
0.0
 30
0.0
  9
$UCSYDIR
 10
0.0
 20
1.0
 30
0.0
  9
$UCSORTHOREF
  2

  9
$UCSORTHOVIEW
 70
     0
  9
$UCSORGTOP
 10
0.0
 20
0.0
 30
0.0
  9
$UCSORGBOTTOM
 10
0.0
 20
0.0
 30
0.0
  9
$UCSORGLEFT
 10
0.0
 20
0.0
 30
0.0
  9
$UCSORGRIGHT
 10
0.0
 20
0.0
 30
0.0
  9
$UCSORGFRONT
 10
0.0
 20
0.0
 30
0.0
  9
$UCSORGBACK
 10
0.0
 20
0.0
 30
0.0
  9
$PUCSBASE
  2

  9
$PUCSNAME
  2

  9
$PUCSORG
 10
0.0
 20
0.0
 30
0.0
  9
$PUCSXDIR
 10
1.0
 20
0.0
 30
0.0
  9
$PUCSYDIR
 10
0.0
 20
1.0
 30
0.0
  9
$PUCSORTHOREF
  2

  9
$PUCSORTHOVIEW
 70
     0
  9
$PUCSORGTOP
 10
0.0
 20
0.0
 30
0.0
  9
$PUCSORGBOTTOM
 10
0.0
 20
0.0
 30
0.0
  9
$PUCSORGLEFT
 10
0.0
 20
0.0
 30
0.0
  9
$PUCSORGRIGHT
 10
0.0
 20
0.0
 30
0.0
  9
$PUCSORGFRONT
 10
0.0
 20
0.0
 30
0.0
  9
$PUCSORGBACK
 10
0.0
 20
0.0
 30
0.0
  9
$USERI1
 70
     0
  9
$USERI2
 70
     0
  9
$USERI3
 70
     0
  9
$USERI4
 70
     0
  9
$USERI5
 70
     0
  9
$USERR1
 40
0.0
  9
$USERR2
 40
0.0
  9
$USERR3
 40
0.0
  9
$USERR4
 40
0.0
  9
$USERR5
 40
0.0
  9
$WORLDVIEW
 70
     1
  9
$SHADEDGE
 70
     3
  9
$SHADEDIF
 70
    70
  9
$TILEMODE
 70
     1
  9
$MAXACTVP
 70
    64
  9
$PINSBASE
 10
0.0
 20
0.0
 30
0.0
  9
$PLIMCHECK
 70
     0
  9
$PEXTMIN
 10
1.0000000000E+20
 20
1.0000000000E+20
 30
1.0000000000E+20
  9
$PEXTMAX
 10
-1.0000000000E+20
 20
-1.0000000000E+20
 30
-1.0000000000E+20
  9
$PLIMMIN
 10
0.0
 20
0.0
  9
$PLIMMAX
 10
420.0
 20
297.0
  9
$UNITMODE
 70
     0
  9
$VISRETAIN
 70
     1
  9
$PLINEGEN
 70
     0
  9
$PSLTSCALE
 70
     1
  9
$TREEDEPTH
 70
  3020
  9
$CMLSTYLE
  2
Standard
  9
$CMLJUST
 70
     0
  9
$CMLSCALE
 40
20.0
  9
$PROXYGRAPHICS
 70
     1
  9
$MEASUREMENT
 70
     1
  9
$CELWEIGHT
370
    -1
  9
$ENDCAPS
280
     0
  9
$JOINSTYLE
280
     0
  9
$LWDISPLAY
290
     1
  9
$INSUNITS
 70
     4
  9
$HYPERLINKBASE
  1

  9
$STYLESHEET
  1

  9
$XEDIT
290
     1
  9
$CEPSNTYPE
380
     0
  9
$PSTYLEMODE
290
     1
  9
$FINGERPRINTGUID
  2
{cd39061c-7f1f-4573-96d4-2da6523e3360}
  9
$VERSIONGUID
  2
{FAEB1C32-E019-11D5-929B-00C0DF256EC4}
  9
$EXTNAMES
290
     1
  9
$PSVPSCALE
 40
0.0
  9
$OLESTARTUP
290
     0
  0
ENDSEC
  0
SECTION
  2
CLASSES
  0
CLASS
  1
ACDBDICTIONARYWDFLT
  2
AcDbDictionaryWithDefault
  3
ObjectDBX Classes
 90
        0
280
     0
281
     0
  0
CLASS
  1
VISUALSTYLE
  2
AcDbVisualStyle
  3
ObjectDBX Classes
 90
     4095
280
     0
281
     0
  0
CLASS
  1
MATERIAL
  2
AcDbMaterial
  3
ObjectDBX Classes
 90
     1153
280
     0
281
     0
  0
CLASS
  1
SCALE
  2
AcDbScale
  3
ObjectDBX Classes
 90
     1153
280
     0
281
     0
  0
CLASS
  1
TABLESTYLE
  2
AcDbTableStyle
  3
ObjectDBX Classes
 90
     4095
280
     0
281
     0
  0
CLASS
  1
MLEADERSTYLE
  2
AcDbMLeaderStyle
  3
ACDB_MLEADERSTYLE_CLASS
 90
     4095
280
     0
281
     0
  0
CLASS
  1
SUN
  2
AcDbSun
  3
SCENEOE
 90
     1153
280
     0
281
     0
  0
CLASS
  1
ACDBPLACEHOLDER
  2
AcDbPlaceHolder
  3
ObjectDBX Classes
 90
        0
280
     0
281
     0
  0
CLASS
  1
LAYOUT
  2
AcDbLayout
  3
ObjectDBX Classes
 90
        0
280
     0
281
     0
  0
ENDSEC
  0
SECTION
  2
TABLES
  0
TABLE
  2
VPORT
  5
8
330
0
100
AcDbSymbolTable
 70
     1
  0
VPORT
  5
29
330
8
100
AcDbSymbolTableRecord
100
AcDbViewportTableRecord
  2
*Active
 70
     0
 10
0.0
 20
0.0
 11
1.0
 21
1.0
 12
10000.0
 22
5000.0
 13
0.0
 23
0.0
 14
10.0
 24
10.0
 15
10.0
 25
10.0
 16
0.0
 26
0.0
 36
1.0
 17
0.0
 27
0.0
 37
0.0
 40
10000.0
 41
2.0
 42
50.0
 43
0.0
 44
0.0
 50
0.0
 51
0.0
 71
     0
 72
  2000
 73
     1
 74
     3
 75
     0
 76
     0
 77
     0
 78
     0
281
     0
 65
     1
110
0.0
120
0.0
130
0.0
111
1.0
121
0.0
131
0.0
112
0.0
122
1.0
132
0.0
 79
     0
146
0.0
  0
ENDTAB
  0
TABLE
  2
LTYPE
  5
5
330
0
100
AcDbSymbolTable
 70
     6
  0
LTYPE
  5
14
330
5
100
AcDbSymbolTableRecord
100
AcDbLinetypeTableRecord
  2
ByBlock
 70
     0
  3

 72
    65
 73
     0
 40
0.0
  0
LTYPE
  5
15
330
5
100
AcDbSymbolTableRecord
100
AcDbLinetypeTableRecord
  2
ByLayer
 70
     0
  3

 72
    65
 73
     0
 40
0.0
  0
LTYPE
  5
16
330
5
100
AcDbSymbolTableRecord
100
AcDbLinetypeTableRecord
  2
Continuous
 70
     0
  3
Solid line
 72
    65
 73
     0
 40
0.0
  0
LTYPE
  5
6E
330
5
100
AcDbSymbolTableRecord
100
AcDbLinetypeTableRecord
  2
HIDDEN
 70
     0
  3
Hidden __ __ __ __ __ __ __ __ __ __ __ __ __ __
 72
    65
 73
     2
 40
1.905
 49
1.27
 74
     0
 49
-0.635
 74
     0
  0
LTYPE
  5
6F
330
5
100
AcDbSymbolTableRecord
100
AcDbLinetypeTableRecord
  2
PHANTOM
 70
     0
  3
Phantom ______  __  __  ______  __  __  ______
 72
    65
 73
     6
 40
12.7
 49
6.35
 74
     0
 49
-1.27
 74
     0
 49
1.27
 74
     0
 49
-1.27
 74
     0
 49
1.27
 74
     0
 49
-1.27
 74
     0
  0
LTYPE
  5
70
330
5
100
AcDbSymbolTableRecord
100
AcDbLinetypeTableRecord
  2
CENTER
 70
     0
  3
Center ____ _ ____ _ ____ _ ____ _ ____ _ ____
 72
    65
 73
     4
 40
10.16
 49
6.35
 74
     0
 49
-1.27
 74
     0
 49
1.27
 74
     0
 49
-1.27
 74
     0
  0
LTYPE
  5
71
330
5
100
AcDbSymbolTableRecord
100
AcDbLinetypeTableRecord
  2
CENTERX2
 70
     0
  3
Center (2x) ________  __  ________  __  _____
 72
    65
 73
     4
 40
20.32
 49
12.7
 74
     0
 49
-2.54
 74
     0
 49
2.54
 74
     0
 49
-2.54
 74
     0
  0
LTYPE
  5
72
330
5
100
AcDbSymbolTableRecord
100
AcDbLinetypeTableRecord
  2
DOT2
 70
     0
  3
Dot (.5x) ........................................
 72
    65
 73
     2
 40
0.635
 49
0.0
 74
     0
 49
-0.635
 74
     0
  0
ENDTAB
  0
TABLE
  2
LAYER
  5
2
330
0
100
AcDbSymbolTable
 70
    13
  0
LAYER
  5
10
330
2
100
AcDbSymbolTableRecord
100
AcDbLayerTableRecord
  2
0
 70
     0
 62
     7
  6
Continuous
370
    -3
390
F
  0
LAYER
  5
73
330
2
100
AcDbSymbolTableRecord
100
AcDbLayerTableRecord
  2
FORMAT
 70
     0
 62
     7
  6
Continuous
370
    -3
390
F
  0
LAYER
  5
74
330
2
100
AcDbSymbolTableRecord
100
AcDbLayerTableRecord
  2
OSA
 70
     0
 62
     7
  6
CENTER
370
    -3
390
F
  0
LAYER
  5
75
330
2
100
AcDbSymbolTableRecord
100
AcDbLayerTableRecord
  2
0_35
 70
     0
 62
     7
  6
Continuous
370
    35
390
F
  0
LAYER
  5
76
330
2
100
AcDbSymbolTableRecord
100
AcDbLayerTableRecord
  2
0_5
 70
     0
 62
     7
  6
Continuous
370
    50
390
F
  0
LAYER
  5
77
330
2
100
AcDbSymbolTableRecord
100
AcDbLayerTableRecord
  2
0_25
 70
     0
 62
     7
  6
Continuous
370
    25
390
F
  0
LAYER
  5
78
330
2
100
AcDbSymbolTableRecord
100
AcDbLayerTableRecord
  2
0_18
 70
     0
 62
     7
  6
Continuous
370
    -3
390
F
  0
LAYER
  5
79
330
2
100
AcDbSymbolTableRecord
100
AcDbLayerTableRecord
  2
SLD-0
 70
     0
 62
   179
  6
Continuous
370
    -3
390
F
  0
LAYER
  5
7A
330
2
100
AcDbSymbolTableRecord
100
AcDbLayerTableRecord
  2
KOTY
 70
     0
 62
     7
  6
Continuous
370
    -3
390
F
  0
LAYER
  5
7B
330
2
100
AcDbSymbolTableRecord
100
AcDbLayerTableRecord
  2
SILNA
 70
     0
 62
   179
  6
Continuous
370
    -3
390
F
  0
LAYER
  5
7C
330
2
100
AcDbSymbolTableRecord
100
AcDbLayerTableRecord
  2
0_18_1
 70
     0
 62
   179
  6
Continuous
370
    -3
390
F
  0
LAYER
  5
7D
330
2
100
AcDbSymbolTableRecord
100
AcDbLayerTableRecord
  2
0_35_1
 70
     0
 62
   179
  6
Continuous
370
    35
390
F
  0
LAYER
  5
7E
330
2
100
AcDbSymbolTableRecord
100
AcDbLayerTableRecord
  2
0_5_1
 70
     0
 62
   179
  6
Continuous
370
    50
390
F
  0
ENDTAB
  0
TABLE
  2
STYLE
  5
3
330
0
100
AcDbSymbolTable
 70
     1
  0
STYLE
  5
11
330
3
100
AcDbSymbolTableRecord
100
AcDbTextStyleTableRecord
  2
Standard
 70
     0
 40
0.0
 41
1.0
 50
0.0
 71
     0
 42
2.0
  3
txt
  4

  0
ENDTAB
  0
TABLE
  2
VIEW
  5
6
330
0
100
AcDbSymbolTable
 70
     0
  0
ENDTAB
  0
TABLE
  2
UCS
  5
7
330
0
100
AcDbSymbolTable
 70
     0
  0
ENDTAB
  0
TABLE
  2
APPID
  5
9
330
0
100
AcDbSymbolTable
 70
     1
  0
APPID
  5
12
330
9
100
AcDbSymbolTableRecord
100
AcDbRegAppTableRecord
  2
ACAD
 70
     0
  0
ENDTAB
  0
TABLE
  2
DIMSTYLE
  5
A
330
0
100
AcDbSymbolTable
 70
     1
100
AcDbDimStyleTable
  0
DIMSTYLE
105
27
330
A
100
AcDbSymbolTableRecord
100
AcDbDimStyleTableRecord
  2
ISO-25
 70
     0
 41
2.5
 42
0.625
 43
3.75
 44
1.25
 73
     0
 74
     0
 77
     1
 78
     8
140
2.5
141
2.5
143
0.0393700787
147
0.625
171
     3
172
     1
178
     0
271
     2
272
     2
274
     3
278
    44
283
     0
284
     8
340
11
  0
ENDTAB
  0
TABLE
  2
BLOCK_RECORD
  5
1
330
0
100
AcDbSymbolTable
 70
     1
  0
BLOCK_RECORD
  5
1F
330
1
100
AcDbSymbolTableRecord
100
AcDbBlockTableRecord
  2
*Model_Space
340
22
  0
BLOCK_RECORD
  5
1B
330
1
100
AcDbSymbolTableRecord
100
AcDbBlockTableRecord
  2
*Paper_Space
340
1E
  0
BLOCK_RECORD
  5
23
330
1
100
AcDbSymbolTableRecord
100
AcDbBlockTableRecord
  2
*Paper_Space0
340
26
  0
ENDTAB
  0
ENDSEC
  0
SECTION
  2
BLOCKS
  0
BLOCK
  5
20
330
1F
100
AcDbEntity
  8
0
100
AcDbBlockBegin
  2
*Model_Space
 70
     0
 10
0.0
 20
0.0
 30
0.0
  3
*Model_Space
  1

  0
ENDBLK
  5
21
330
1F
100
AcDbEntity
  8
0
100
AcDbBlockEnd
  0
BLOCK
  5
1C
330
1B
100
AcDbEntity
 67
     1
  8
0
100
AcDbBlockBegin
  2
*Paper_Space
 70
     0
 10
0.0
 20
0.0
 30
0.0
  3
*Paper_Space
  1

  0
ENDBLK
  5
1D
330
1B
100
AcDbEntity
 67
     1
  8
0
100
AcDbBlockEnd
  0
BLOCK
  5
24
330
23
100
AcDbEntity
  8
0
100
AcDbBlockBegin
  2
*Paper_Space0
 70
     0
 10
0.0
 20
0.0
 30
0.0
  3
*Paper_Space0
  1

  0
ENDBLK
  5
25
330
23
100
AcDbEntity
  8
0
100
AcDbBlockEnd
  0
ENDSEC
  0
SECTION
  2
ENTITIES
  0
LINE
  5
7F
330
1F
100
AcDbEntity
  8
0
  6
Continuous
 62
     7
370
    25
100
AcDbLine
 10
6291.2307084741
 20
5333.6145313272
 30
0.0
 11
6291.2307084741
 21
5333.6207813272
 31
0.0
  0
LINE
  5
80
330
1F
100
AcDbEntity
  8
0
  6
Continuous
 62
     7
370
    25
100
AcDbLine
 10
6287.818062958
 20
5333.6207813272
 30
0.0
 11
6287.818062958
 21
5333.6145313272
 31
0.0
  0
LINE
  5
81
330
1F
100
AcDbEntity
  8
0
  6
Continuous
 62
     7
370
    25
100
AcDbLine
 10
6287.3174891643
 20
5333.6207813272
 30
0.0
 11
6287.3174891643
 21
5333.6145313272
 31
0.0
  0
LINE
  5
82
330
1F
100
AcDbEntity
  8
0
  6
Continuous
 62
     7
370
    25
100
AcDbLine
 10
6287.2306741044
 20
5333.6145313272
 30
0.0
 11
6287.2306741044
 21
5333.6207813272
 31
0.0
  0
LINE
  5
83
330
1F
100
AcDbEntity
  8
0
  6
Continuous
 62
     7
370
    25
100
AcDbLine
 10
6288.8334697779
 20
5333.6145313272
 30
0.0
 11
6288.8334697779
 21
5333.6207813272
 31
0.0
  0
LINE
  5
84
330
1F
100
AcDbEntity
  8
0
  6
Continuous
 62
     7
370
    25
100
AcDbLine
 10
6442.0187553361
 20
5365.6145313272
 30
0.0
 11
6415.6627312186
 21
5365.6145313272
 31
0.0
  0
LINE
  5
85
330
1F
100
AcDbEntity
  8
0
  6
Continuous
 62
     7
370
    25
100
AcDbLine
 10
6374.0393422306
 20
5365.6145313272
 30
0.0
 11
6108.0187553361
 21
5365.6145313272
 31
0.0
  0
ARC
  5
86
330
1F
100
AcDbEntity
  8
0
  6
Continuous
 62
     7
370
    25
100
AcDbCircle
 10
6376.7161623486
 20
5364.1775990625
 30
0.0
 40
3.080971794514124
100
AcDbArc
 50
125.2028210637
 51
172.5436682086
  0
LINE
  5
87
330
1F
100
AcDbEntity
  8
0
  6
Continuous
 62
     7
370
    25
100
AcDbLine
 10
6373.6327949913
 20
5364.4536175156
 30
0.0
 11
6373.6327949913
 21
5333.6145313272
 31
0.0
  0
LINE
  5
88
330
1F
100
AcDbEntity
  8
0
  6
Continuous
 62
     7
370
    25
100
AcDbLine
 10
6388.0279482611
 20
5368.6642938076
 30
0.0
 11
6387.7460581728
 21
5369.5736345338
 31
0.0
  0
LINE
  5
89
330
1F
100
AcDbEntity
  8
0
  6
Continuous
 62
     7
370
    25
100
AcDbLine
 10
6375.32899155
 20
5365.7244194858
 30
0.0
 11
6375.6108816383
 21
5364.8150787597
 31
0.0
  0
ARC
  5
8A
330
1F
100
AcDbEntity
  8
0
  6
Continuous
 62
     7
370
    25
100
AcDbCircle
 10
6391.2890869733
 20
5395.7843778582
 30
0.0
 40
1.000000000000408
100
AcDbArc
 50
17.2231179148
 51
90.0
  0
LINE
  5
8B
330
1F
100
AcDbEntity
  8
0
  6
Continuous
 62
     7
370
    25
100
AcDbLine
 10
6398.9709171997
 20
5374.3811055869
 30
0.0
 11
6392.2442459443
 21
5396.0804713235
 31
0.0
  0
LWPOLYLINE
  5
8C
330
1F
100
AcDbEntity
  8
0
  6
Continuous
 62
     7
370
    25
100
AcDbPolyline
 90
        8
 70
   128
 43
0.0
 10
6407.9376131329
 20
5339.921970517
 10
6408.2019839106
 20
5340.8235048441
 10
6410.4516190034
 20
5348.4092431641
 10
6412.6443887399
 20
5355.6685359959
 10
6413.6194329017
 20
5358.8563913922
 10
6414.6035019826
 20
5362.0908733622
 10
6415.6557503763
 20
5365.590989152
 10
6416.4721414917
 20
5368.3441845202
  0
LINE
  5
8D
330
1F
100
AcDbEntity
  8
0
  6
Continuous
 62
     7
370
    25
100
AcDbLine
 10
6391.2890869733
 20
5396.7843778582
 30
0.0
 11
6376.9470281578
 21
5396.7843778582
 31
0.0
  0
ARC
  5
8E
330
1F
100
AcDbEntity
  8
0
  6
Continuous
 62
     7
370
    25
100
AcDbCircle
 10
6400.8392787187
 20
5374.8906794065
 30
0.0
 40
1.936605340080363
100
AcDbArc
 50
195.2557089188
 51
225.7426729239
  0
ARC
  5
8F
330
1F
100
AcDbEntity
  8
0
  6
Continuous
 62
     7
370
    25
100
AcDbCircle
 10
6419.8586544734
 20
5336.2315325927
 30
0.0
 40
12.49956279163448
100
AcDbArc
 50
162.3953734965
 51
181.5445485529
  0
ARC
  5
90
330
1F
100
AcDbEntity
  8
0
  6
Continuous
 62
     7
370
    25
100
AcDbCircle
 10
6373.8856769036
 20
5394.3313922853
 30
0.0
 40
0.4894846843199189
100
AcDbArc
 50
118.559155843
 51
203.1953739744
  0
LINE
  5
91
330
1F
100
AcDbEntity
  8
0
  6
Continuous
 62
     7
370
    25
100
AcDbLine
 10
6373.4271202833
 20
5394.1476525329
 30
0.0
 11
6380.0108992115
 21
5372.9092388409
 31
0.0
  0
LINE
  5
92
330
1F
100
AcDbEntity
  8
0
  6
Continuous
 62
     7
370
    25
100
AcDbLine
 10
6376.3873911749
 20
5396.6131157223
 30
0.0
 11
6373.6421995625
 21
5394.7593199468
 31
0.0
  0
ARC
  5
93
330
1F
100
AcDbEntity
  8
0
  6
Continuous
 62
     7
370
    25
100
AcDbCircle
 10
6376.9470281578
 20
5395.7843778582
 30
0.0
 40
0.9999999999990905
100
AcDbArc
 50
90.0
 51
124.0306964095
  0
LINE
  5
94
330
1F
100
AcDbEntity
  8
0
  6
Continuous
 62
     7
370
    25
100
AcDbLine
 10
6407.3656685445
 20
5333.6145313272
 30
0.0
 11
6407.3656685445
 21
5335.8735243265
 31
0.0
  0
ARC
  5
95
330
1F
100
AcDbEntity
  8
0
  6
Continuous
 62
     7
370
    25
100
AcDbCircle
 10
6377.352104886
 20
5372.0365418703
 30
0.0
 40
2.798354385713897
100
AcDbArc
 50
349.145487112
 51
18.1714053388
  0
LINE
  5
96
330
1F
100
AcDbEntity
  8
0
  6
Continuous
 62
     7
370
    25
100
AcDbLine
 10
6417.6379863039
 20
5375.4502474841
 30
0.0
 11
6418.1285308432
 21
5377.4394573659
 31
0.0
  0
ARC
  5
97
330
1F
100
AcDbEntity
  8
0
  6
Continuous
 62
     7
370
    25
100
AcDbCircle
 10
6415.0149518233
 20
5378.1609711409
 30
0.0
 40
3.174027163691993
100
AcDbArc
 50
346.9985302712
 51
57.9116565156
  0
LWPOLYLINE
  5
98
330
1F
100
AcDbEntity
  8
0
  6
Continuous
 62
     7
370
    25
100
AcDbPolyline
 90
        3
 70
   128
 43
0.0
 10
6397.6674848635
 20
5386.2097214431
 10
6396.4835890632
 20
5386.0910220964
 10
6395.426804356
 20
5385.8139522188
  0
ARC
  5
99
330
1F
100
AcDbEntity
  8
0
  6
Continuous
 62
     7
370
    25
100
AcDbCircle
 10
6400.3050954591
 20
5358.957591059
 30
0.0
 40
27.37615413168446
100
AcDbArc
 50
55.4870283504
 51
96.5385886483
  0
LINE
  5
9A
330
1F
100
AcDbEntity
  8
0
  6
Continuous
 62
     7
370
    25
100
AcDbLine
 10
6106.0187553361
 20
5030.6145313272
 30
0.0
 11
6106.0187553361
 21
5333.1145313272
 31
0.0
  0
LINE
  5
9B
330
1F
100
AcDbEntity
  8
0
  6
Continuous
 62
     7
370
    25
100
AcDbLine
 10
6442.0187553361
 20
5333.1145313272
 30
0.0
 11
6106.0187553361
 21
5333.1145313272
 31
0.0
  0
LINE
  5
9C
330
1F
100
AcDbEntity
  8
0
  6
Continuous
 62
     7
370
    25
100
AcDbLine
 10
6442.0187553361
 20
5030.6145313272
 30
0.0
 11
6442.0187553361
 21
5333.1145313272
 31
0.0
  0
LINE
  5
9D
330
1F
100
AcDbEntity
  8
0
  6
Continuous
 62
     7
370
    25
100
AcDbLine
 10
6106.0187553361
 20
5030.6145313272
 30
0.0
 11
6442.0187553361
 21
5030.6145313272
 31
0.0
  0
ARC
  5
9E
330
1F
100
AcDbEntity
  8
0
  6
Continuous
 62
     7
370
    25
100
AcDbCircle
 10
6106.5187553361
 20
5333.1145313272
 30
0.0
 40
0.5000000000009095
100
AcDbArc
 50
90.0
 51
180.0
  0
LINE
  5
9F
330
1F
100
AcDbEntity
  8
0
  6
Continuous
 62
     7
370
    25
100
AcDbLine
 10
6106.5187553361
 20
5333.6145313272
 30
0.0
 11
6441.5187553361
 21
5333.6145313272
 31
0.0
  0
ARC
  5
A0
330
1F
100
AcDbEntity
  8
0
  6
Continuous
 62
     7
370
    25
100
AcDbCircle
 10
6441.5187553361
 20
5333.1145313272
 30
0.0
 40
0.5000000000009095
100
AcDbArc
 50
0.0
 51
90.0
  0
LINE
  5
A1
330
1F
100
AcDbEntity
  8
0
  6
Continuous
 62
     7
370
    25
100
AcDbLine
 10
6108.0187553361
 20
5334.6145313272
 30
0.0
 11
6108.0187553361
 21
5333.6145313272
 31
0.0
  0
LINE
  5
A2
330
1F
100
AcDbEntity
  8
0
  6
Continuous
 62
     7
370
    25
100
AcDbLine
 10
6440.0187553361
 20
5333.6145313272
 30
0.0
 11
6440.0187553361
 21
5334.6145313272
 31
0.0
  0
LINE
  5
A3
330
1F
100
AcDbEntity
  8
0
  6
Continuous
 62
     7
370
    25
100
AcDbLine
 10
6442.0187553361
 20
5364.5645313272
 30
0.0
 11
6442.0187553361
 21
5334.6145313272
 31
0.0
  0
LINE
  5
A4
330
1F
100
AcDbEntity
  8
0
  6
Continuous
 62
     7
370
    25
100
AcDbLine
 10
6442.0187553361
 20
5334.6145313272
 30
0.0
 11
6440.0187553361
 21
5334.6145313272
 31
0.0
  0
LINE
  5
A5
330
1F
100
AcDbEntity
  8
0
  6
Continuous
 62
     7
370
    25
100
AcDbLine
 10
6108.0187553361
 20
5334.6145313272
 30
0.0
 11
6108.0187553361
 21
5364.5645313272
 31
0.0
  0
LINE
  5
A6
330
1F
100
AcDbEntity
  8
0
  6
Continuous
 62
     7
370
    25
100
AcDbLine
 10
6108.0187553361
 20
5364.5645313272
 30
0.0
 11
6108.0187553361
 21
5365.6145313272
 31
0.0
  0
LINE
  5
A7
330
1F
100
AcDbEntity
  8
0
  6
Continuous
 62
     7
370
    25
100
AcDbLine
 10
6442.0187553361
 20
5365.6145313272
 30
0.0
 11
6442.0187553361
 21
5364.5645313272
 31
0.0
  0
LINE
  5
A8
330
1F
100
AcDbEntity
  8
0
  6
Continuous
 62
     7
370
    25
100
AcDbLine
 10
6376.6688614291
 20
5368.0072932576
 30
0.0
 11
6375.0606645787
 21
5366.7092219583
 31
0.0
  0
LWPOLYLINE
  5
A9
330
1F
100
AcDbEntity
  8
0
  6
Continuous
 62
     7
370
    25
100
AcDbPolyline
 90
        3
 70
   128
 43
0.0
 10
6388.4879391893
 20
5366.7092219583
 10
6388.7734107914
 20
5366.8720323093
 10
6394.3849520934
 20
5370.1384942153
  0
ELLIPSE
  5
AA
330
1F
100
AcDbEntity
  8
0
  6
Continuous
 62
     7
370
    25
100
AcDbEllipse
 10
6383.4485094674
 20
5367.8397947501
 30
0.0
 11
9.404989870265126
 21
3.247694220668564
 31
0.0
210
0.0
220
0.0
230
1.0
 40
0.3039712164
 41
3.389610861564703
 42
5.169826844457225
  0
LWPOLYLINE
  5
AB
330
1F
100
AcDbEntity
  8
0
  6
Continuous
 62
     7
370
    25
100
AcDbPolyline
 90
       12
 70
   128
 43
0.0
 10
6377.8146966892
 20
5364.0353469
 10
6379.0251465155
 20
5364.1082427181
 10
6380.3862360764
 20
5364.3230003399
 10
6381.8245886813
 20
5364.6680421265
 10
6383.262662369
 20
5365.1247667859
 10
6384.6229302147
 20
5365.6685521733
 10
6385.8320598269
 20
5366.2700826779
 10
6386.8248667151
 20
5366.8969296345
 10
6387.547828403
 20
5367.5152995613
 10
6387.9619698389
 20
5368.0918559755
 10
6388.0449645507
 20
5368.5955165717
 10
6388.0279482611
 20
5368.6642938076
  0
LWPOLYLINE
  5
AC
330
1F
100
AcDbEntity
  8
0
  6
Continuous
 62
     7
370
    25
100
AcDbPolyline
 90
        5
 70
   128
 43
0.0
 10
6375.6108816383
 20
5364.8150787597
 10
6375.6786568786
 20
5364.6680421265
 10
6376.0950999172
 20
5364.3230003399
 10
6376.8201422609
 20
5364.1082427181
 10
6377.8146966892
 20
5364.0353469
  0
ARC
  5
AD
330
1F
100
AcDbEntity
  8
0
  6
Continuous
 62
     7
370
    25
100
AcDbCircle
 10
6388.3111259221
 20
5366.1158264292
 30
0.0
 40
0.6191778301921366
100
AcDbArc
 50
13.7587052112
 51
73.4075929361
  0
ELLIPSE
  5
AE
330
1F
100
AcDbEntity
  8
0
  6
Continuous
 62
     7
370
    25
100
AcDbEllipse
 10
6383.5894545116
 20
5367.3851243871
 30
0.0
 11
9.912290424202185
 21
3.218532319800943
 31
0.0
210
0.0
220
0.0
230
1.0
 40
0.2917224645
 41
3.020250417005064
 42
3.047151807702377
  0
LWPOLYLINE
  5
AF
330
1F
100
AcDbEntity
  8
0
  6
Continuous
 62
     7
370
    25
100
AcDbPolyline
 90
        3
 70
   128
 43
0.0
 10
6388.9158394739
 20
5366.2439004161
 10
6388.913747606
 20
5366.2594510814
 10
6388.9125370301
 20
5366.2630876411
  0
LINE
  5
B0
330
1F
100
AcDbEntity
  8
0
  6
Continuous
 62
     7
370
    25
100
AcDbLine
 10
6388.9158394739
 20
5366.2439004161
 30
0.0
 11
6388.9158394739
 21
5333.6145313272
 31
0.0
  0
LWPOLYLINE
  5
B1
330
1F
100
AcDbEntity
  8
0
  6
Continuous
 62
     7
370
    25
100
AcDbPolyline
 90
       23
 70
   128
 43
0.0
 10
6376.775935452
 20
5367.6618863995
 10
6376.532073096
 20
5367.491783659
 10
6375.8091114081
 20
5366.8734137322
 10
6375.3949699722
 20
5366.296857318
 10
6375.3119752603
 20
5365.7931967218
 10
6375.5646015389
 20
5365.3895844168
 10
6376.1392296598
 20
5365.1077792469
 10
6377.0048812723
 20
5364.9629734016
 10
6378.1148888739
 20
5364.9629734016
 10
6379.4094116675
 20
5365.1077792469
 10
6380.8186615943
 20
5365.3895844168
 10
6382.2666656258
 20
5365.7931967218
 10
6383.6753614901
 20
5366.296857318
 10
6384.9688060283
 20
5366.8734137322
 10
6386.0772693106
 20
5367.491783659
 10
6386.9409937946
 20
5368.1186306156
 10
6387.5134158698
 20
5368.7201611202
 10
6387.7636761139
 20
5369.2639465076
 10
6387.6782829324
 20
5369.720671167
 10
6387.2618398939
 20
5370.0657129536
 10
6386.5367975502
 20
5370.2804705754
 10
6385.5422431219
 20
5370.3533663935
 10
6385.5422431219
 20
5370.3533663935
  0
LINE
  5
B2
330
1F
100
AcDbEntity
  8
0
  6
Continuous
 62
     7
370
    25
100
AcDbLine
 10
6377.1221492879
 20
5366.545045638
 30
0.0
 11
6379.0028025833
 21
5365.7348652813
 31
0.0
  0
LINE
  5
B3
330
1F
100
AcDbEntity
  8
0
  6
Continuous
 62
     7
370
    25
100
AcDbLine
 10
6379.0028025833
 20
5365.7348652813
 30
0.0
 11
6383.4181781568
 21
5366.8388466531
 31
0.0
  0
LINE
  5
B4
330
1F
100
AcDbEntity
  8
0
  6
Continuous
 62
     7
370
    25
100
AcDbLine
 10
6383.4181781568
 20
5366.8388466531
 30
0.0
 11
6385.9529004349
 21
5368.7530083816
 31
0.0
  0
ELLIPSE
  5
B5
330
1F
100
AcDbEntity
  8
0
  6
Continuous
 62
     7
370
    25
100
AcDbEllipse
 10
6388.8246449669
 20
5394.1201690067
 30
0.0
 11
1.055499137206425
 21
-0.02771681468675524
 31
0.0
210
0.0
220
0.0
230
1.0
 40
0.0254772895
 41
0.8005148802459874
 42
2.371311207050613
  0
ARC
  5
B6
330
1F
100
AcDbEntity
  8
0
  6
Continuous
 62
     7
370
    25
100
AcDbCircle
 10
6388.6422817319
 20
5394.3662867761
 30
0.0
 40
0.6110051915166084
100
AcDbArc
 50
131.8411846749
 51
199.8527307314
  0
ELLIPSE
  5
B7
330
1F
100
AcDbEntity
  8
0
  6
Continuous
 62
     7
370
    25
100
AcDbEllipse
 10
6388.8246449669
 20
5394.1201690067
 30
0.0
 11
0.9073684831028003
 21
-0.5709773449761998
 31
0.0
210
0.0
220
0.0
230
1.0
 40
0.4487908768
 41
0.9512688516558231
 42
2.522065178452171
  0
LINE
  5
B8
330
1F
100
AcDbEntity
  8
0
  6
Continuous
 62
     7
370
    25
100
AcDbLine
 10
6389.5601351625
 20
5394.1201690067
 30
0.0
 11
6396.0436071936
 21
5373.2053323062
 31
0.0
  0
ARC
  5
B9
330
1F
100
AcDbEntity
  8
0
  6
Continuous
 62
     7
370
    25
100
AcDbCircle
 10
6394.5825215589
 20
5375.5484094203
 30
0.0
 40
2.761300707085592
100
AcDbArc
 50
272.272360133
 51
301.9466568214
  0
LINE
  5
BA
330
1F
100
AcDbEntity
  8
0
  6
Continuous
 62
     7
370
    25
100
AcDbLine
 10
6394.6920064963
 20
5372.7892800933
 30
0.0
 11
6388.0675894211
 21
5394.1587871568
 31
0.0
  0
ARC
  5
BB
330
1F
100
AcDbEntity
  8
0
  6
Continuous
 62
     7
370
    25
100
AcDbCircle
 10
6199.7029768281
 20
5699.4750163259
 30
0.0
 40
383.2029279651275
100
AcDbArc
 50
299.5884609799
 51
300.6139997052
  0
LWPOLYLINE
  5
BC
330
1F
100
AcDbEntity
  8
0
  6
Continuous
 62
     7
370
    25
100
AcDbPolyline
 90
        3
 70
   128
 43
0.0
 10
6395.4862875183
 20
5370.2967302445
 10
6395.3828587766
 20
5370.1562931656
 10
6394.8497251173
 20
5369.6838238522
  0
ARC
  5
BD
330
1F
100
AcDbEntity
  8
0
  6
Continuous
 62
     7
370
    25
100
AcDbCircle
 10
6389.3556705152
 20
5385.5567808108
 30
0.0
 40
16.44547378837119
100
AcDbArc
 50
291.8874447343
 51
303.4404389099
  0
LINE
  5
BE
330
1F
100
AcDbEntity
  8
0
  6
Continuous
 62
     7
370
    25
100
AcDbLine
 10
6399.5270911259
 20
5372.5145313272
 30
0.0
 11
6398.4182749925
 21
5371.8337050545
 31
0.0
  0
LINE
  5
BF
330
1F
100
AcDbEntity
  8
0
  6
Continuous
 62
     7
370
    25
100
AcDbLine
 10
6404.8662584362
 20
5372.5145313272
 30
0.0
 11
6399.5270911259
 21
5372.5145313272
 31
0.0
  0
ARC
  5
C0
330
1F
100
AcDbEntity
  8
0
  6
Continuous
 62
     7
370
    25
100
AcDbCircle
 10
6013.956000266
 20
5497.4990000949
 30
0.0
 40
410.4046142233932
100
AcDbArc
 50
336.4640661263
 51
342.2695309913
  0
LINE
  5
C1
330
1F
100
AcDbEntity
  8
0
  6
Continuous
 62
     7
370
    25
100
AcDbLine
 10
6392.024577169
 20
5395.7843778582
 30
0.0
 11
6389.5601351625
 21
5394.1201690067
 31
0.0
  0
LINE
  5
C2
330
1F
100
AcDbEntity
  8
0
  6
Continuous
 62
     7
370
    25
100
AcDbLine
 10
6388.2346996277
 20
5394.8214836263
 30
0.0
 11
6391.007196885
 21
5396.6937185843
 31
0.0
  0
ARC
  5
C3
330
1F
100
AcDbEntity
  8
0
  6
Continuous
 62
     7
370
    25
100
AcDbCircle
 10
6390.8347221755
 20
5395.4769535848
 30
0.0
 40
1.228928227925972
100
AcDbArc
 50
14.486767901
 51
81.9321529994
  0
LWPOLYLINE
  5
C4
330
1F
100
AcDbEntity
  8
0
  6
Continuous
 62
     7
370
    25
100
AcDbPolyline
 90
        5
 70
   128
 43
0.0
 10
6403.2548658715
 20
5352.842380165
 10
6402.0251120315
 20
5349.3105665927
 10
6397.7256894413
 20
5337.2383903583
 10
6396.3998839988
 20
5333.6145849638
 10
6396.3998642559
 20
5333.6145313272
  0
LINE
  5
C5
330
1F
100
AcDbEntity
  8
0
  6
Continuous
 62
     7
370
    25
100
AcDbLine
 10
6405.1902494925
 20
5372.5276861233
 30
0.0
 11
6404.8662584362
 21
5372.5145313272
 31
0.0
  0
LINE
  5
C6
330
1F
100
AcDbEntity
  8
0
  6
Continuous
 62
     7
370
    25
100
AcDbLine
 10
6405.69420095
 20
5372.5785191973
 30
0.0
 11
6405.1902494925
 21
5372.5276861233
 31
0.0
  0
ARC
  5
C7
330
1F
100
AcDbEntity
  8
0
  6
Continuous
 62
     7
370
    25
100
AcDbCircle
 10
6216.1702305899
 20
5385.9843681786
 30
0.0
 40
189.9975055834934
100
AcDbArc
 50
349.9542891961
 51
355.9539609819
  0
LINE
  5
C8
330
1F
100
AcDbEntity
  8
0
  6
Continuous
 62
     7
370
    25
100
AcDbLine
 10
6373.7255306056
 20
5394.1587871568
 30
0.0
 11
6388.0675894211
 21
5394.1587871568
 31
0.0
  0
ARC
  5
C9
330
1F
100
AcDbEntity
  8
0
  6
Continuous
 62
     7
370
    25
100
AcDbCircle
 10
6374.3002229164
 20
5394.3662867761
 30
0.0
 40
0.6110051915122946
100
AcDbArc
 50
131.8411846745
 51
199.8527307316
  0
LINE
  5
CA
330
1F
100
AcDbEntity
  8
0
  6
Continuous
 62
     7
370
    25
100
AcDbLine
 10
6373.8926408123
 20
5394.8214836263
 30
0.0
 11
6388.2346996277
 21
5394.8214836263
 31
0.0
  0
LINE
  5
CB
330
1F
100
AcDbEntity
  8
0
  6
Continuous
 62
     7
370
    25
100
AcDbLine
 10
6380.3499476809
 20
5372.7892800933
 30
0.0
 11
6394.6920064963
 21
5372.7892800933
 31
0.0
  0
LINE
  5
CC
330
1F
100
AcDbEntity
  8
0
  6
Continuous
 62
     7
370
    25
100
AcDbLine
 10
6373.7255306056
 20
5394.1587871568
 30
0.0
 11
6380.3499476809
 21
5372.7892800933
 31
0.0
  0
LINE
  5
CD
330
1F
100
AcDbEntity
  8
0
  6
Continuous
 62
     7
370
    25
100
AcDbLine
 10
6398.7512484244
 20
5374.0850121217
 30
0.0
 11
6392.024577169
 21
5395.7843778582
 31
0.0
  0
ARC
  5
CE
330
1F
100
AcDbEntity
  8
0
  6
Continuous
 62
     7
370
    25
100
AcDbCircle
 10
6401.8618878758
 20
5375.0185819348
 30
0.0
 40
3.247711562452414
100
AcDbArc
 50
196.7056312519
 51
215.2534782043
  0
LINE
  5
CF
330
1F
100
AcDbEntity
  8
0
  6
Continuous
 62
     7
370
    25
100
AcDbLine
 10
6397.9427052849
 20
5372.2883754176
 30
0.0
 11
6399.2097854472
 21
5373.1440198256
 31
0.0
  0
LINE
  5
D0
330
1F
100
AcDbEntity
  8
0
  6
Continuous
 62
     7
370
    25
100
AcDbLine
 10
6396.1367208286
 20
5371.0688152454
 30
0.0
 11
6397.9427052849
 21
5372.2883754176
 31
0.0
  0
ARC
  5
D1
330
1F
100
AcDbEntity
  8
0
  6
Continuous
 62
     7
370
    25
100
AcDbCircle
 10
6391.9066434894
 20
5371.9547476853
 30
0.0
 40
4.321854993377633
100
AcDbArc
 50
348.1711488535
 51
16.8198193781
  0
LINE
  5
D2
330
1F
100
AcDbEntity
  8
0
  6
Continuous
 62
     7
370
    25
100
AcDbLine
 10
6376.6651380695
 20
5396.6937185843
 30
0.0
 11
6373.8926408123
 21
5394.8214836263
 31
0.0
  0
LINE
  5
D3
330
1F
100
AcDbEntity
  8
0
  6
Continuous
 62
     7
370
    25
100
AcDbLine
 10
6376.6651380695
 20
5396.6937185843
 30
0.0
 11
6391.007196885
 21
5396.6937185843
 31
0.0
  0
ARC
  5
D4
330
1F
100
AcDbEntity
  8
0
  6
Continuous
 62
     7
370
    25
100
AcDbCircle
 10
6394.228601863
 20
5369.5137846589
 30
0.0
 40
0.6439778135314912
100
AcDbArc
 50
15.3102208675
 51
75.9488376994
  0
LINE
  5
D5
330
1F
100
AcDbEntity
  8
0
  6
Continuous
 62
     7
370
    25
100
AcDbLine
 10
6383.2265768746
 20
5372.2912109167
 30
0.0
 11
6378.8112013011
 21
5371.1872295448
 31
0.0
  0
LINE
  5
D6
330
1F
100
AcDbEntity
  8
0
  6
Continuous
 62
     7
370
    25
100
AcDbLine
 10
6385.10723017
 20
5371.48103056
 30
0.0
 11
6383.2265768746
 21
5372.2912109167
 31
0.0
  0
LINE
  5
D7
330
1F
100
AcDbEntity
  8
0
  6
Continuous
 62
     7
370
    25
100
AcDbLine
 10
6382.5725078919
 20
5369.5668688314
 30
0.0
 11
6385.10723017
 21
5371.48103056
 31
0.0
  0
LINE
  5
D8
330
1F
100
AcDbEntity
  8
0
  6
Continuous
 62
     7
370
    25
100
AcDbLine
 10
6378.1571323184
 20
5368.4628874596
 30
0.0
 11
6382.5725078919
 21
5369.5668688314
 31
0.0
  0
LINE
  5
D9
330
1F
100
AcDbEntity
  8
0
  6
Continuous
 62
     7
370
    25
100
AcDbLine
 10
6376.276479023
 20
5369.2730678163
 30
0.0
 11
6378.1571323184
 21
5368.4628874596
 31
0.0
  0
LINE
  5
DA
330
1F
100
AcDbEntity
  8
0
  6
Continuous
 62
     7
370
    25
100
AcDbLine
 10
6378.8112013011
 20
5371.1872295448
 30
0.0
 11
6376.276479023
 21
5369.2730678163
 31
0.0
  0
LWPOLYLINE
  5
DB
330
1F
100
AcDbEntity
  8
0
  6
Continuous
 62
     7
370
    25
100
AcDbPolyline
 90
       17
 70
   128
 43
0.0
 10
6381.9583051729
 20
5371.2322684441
 10
6381.2833453224
 20
5371.1671687545
 10
6380.5183363708
 20
5370.9817805234
 10
6379.7797439961
 20
5370.7043274284
 10
6379.180012192
 20
5370.3770491881
 10
6378.8104446891
 20
5370.0497709478
 10
6378.7273047896
 20
5369.7723178528
 10
6378.9432497895
 20
5369.5869296217
 10
6379.4254040201
 20
5369.5218299322
 10
6380.1003638706
 20
5369.5869296217
 10
6380.8653728222
 20
5369.7723178528
 10
6381.6039651969
 20
5370.0497709478
 10
6382.203697001
 20
5370.3770491881
 10
6382.5732645039
 20
5370.7043274284
 10
6382.6564044034
 20
5370.9817805234
 10
6382.4404594035
 20
5371.1671687545
 10
6381.9583051729
 20
5371.2322684441
  0
LINE
  5
DC
330
1F
100
AcDbEntity
  8
0
  6
Continuous
 62
     7
370
    25
100
AcDbLine
 10
6378.1571323184
 20
5368.4628874596
 30
0.0
 11
6379.0028025833
 21
5365.7348652813
 31
0.0
  0
LINE
  5
DD
330
1F
100
AcDbEntity
  8
0
  6
Continuous
 62
     7
370
    25
100
AcDbLine
 10
6382.5725078919
 20
5369.5668688314
 30
0.0
 11
6383.4181781568
 21
5366.8388466531
 31
0.0
  0
LINE
  5
DE
330
1F
100
AcDbEntity
  8
0
  6
Continuous
 62
     7
370
    25
100
AcDbLine
 10
6385.10723017
 20
5371.48103056
 30
0.0
 11
6385.9529004349
 21
5368.7530083816
 31
0.0
  0
LWPOLYLINE
  5
DF
330
1F
100
AcDbEntity
  8
0
  6
Continuous
 62
     7
370
    25
100
AcDbPolyline
 90
        9
 70
   128
 43
0.0
 10
6406.7105045294
 20
5373.957075668
 10
6407.1058314227
 20
5373.8454947916
 10
6409.1931551653
 20
5373.1947690813
 10
6411.1941130399
 20
5372.4560371236
 10
6412.7765582961
 20
5371.762813717
 10
6414.1595219428
 20
5371.0341314067
 10
6415.9321420584
 20
5369.705322304
 10
6416.5049476587
 20
5368.5387952794
 10
6416.4366654917
 20
5368.354896039
  0
ARC
  5
E0
330
1F
100
AcDbEntity
  8
0
  6
Continuous
 62
     7
370
    25
100
AcDbCircle
 10
6169.150733588
 20
5401.9960699109
 30
0.0
 40
239.2087581336967
100
AcDbArc
 50
348.1421378847
 51
353.2685669065
  0
LINE
  5
E1
330
1F
100
AcDbEntity
  8
0
  6
Continuous
 62
     7
370
    25
100
AcDbLine
 10
6376.276479023
 20
5369.2730678163
 30
0.0
 11
6377.1221492879
 21
5366.545045638
 31
0.0
  0
LINE
  5
E2
330
1F
100
AcDbEntity
  8
0
  6
Continuous
 62
     7
370
    25
100
AcDbLine
 10
6394.3849520934
 20
5370.1384942153
 30
0.0
 11
6394.7347335598
 21
5370.4167666817
 31
0.0
  0
ARC
  5
E3
330
1F
100
AcDbEntity
  8
0
  6
Continuous
 62
     7
370
    25
100
AcDbCircle
 10
6395.3278201071
 20
5368.8483285091
 30
0.0
 40
1.676827347699639
100
AcDbArc
 50
89.8695820503
 51
110.7135252599
  0
ARC
  5
E4
330
1F
100
AcDbEntity
  8
0
  6
Continuous
 62
     7
370
    25
100
AcDbCircle
 10
6394.6747828443
 20
5369.9138712766
 30
0.0
 40
0.8972852529965101
100
AcDbArc
 50
25.2574222879
 51
42.9418061158
  0
ARC
  5
E5
330
1F
100
AcDbEntity
  8
0
  6
Continuous
 62
     7
370
    25
100
AcDbCircle
 10
6391.9340306935
 20
5371.9555570127
 30
0.0
 40
2.881236662237436
100
AcDbArc
 50
348.1711488535
 51
16.8198193782
  0
ARC
  5
E6
330
1F
100
AcDbEntity
  8
0
  6
Continuous
 62
     7
370
    25
100
AcDbCircle
 10
6398.0361621186
 20
5370.8236782385
 30
0.0
 40
3.326410609627216
100
AcDbArc
 50
170.635475907
 51
187.0264494182
  0
ARC
  5
E7
330
1F
100
AcDbEntity
  8
0
  6
Continuous
 62
     7
370
    25
100
AcDbCircle
 10
6394.6549878876
 20
5367.5262907947
 30
0.0
 40
3.839923435747744
100
AcDbArc
 50
67.301887727
 51
88.5212415337
  0
LINE
  5
E8
330
1F
100
AcDbEntity
  8
0
  6
Continuous
 62
     7
370
    25
100
AcDbLine
 10
6395.3316369362
 20
5370.5251515128
 30
0.0
 11
6396.1367208286
 21
5371.0688152454
 31
0.0
  0
ARC
  5
E9
330
1F
100
AcDbEntity
  8
0
  6
Continuous
 62
     7
370
    25
100
AcDbCircle
 10
6397.8042548476
 20
5371.6675109412
 30
0.0
 40
0.6361141577372177
100
AcDbArc
 50
15.1451124899
 51
77.4289388101
  0
LINE
  5
EA
330
1F
100
AcDbEntity
  8
0
  6
Continuous
 62
     7
370
    25
100
AcDbLine
 10
6397.9427052849
 20
5372.2883754176
 30
0.0
 11
6399.0481059433
 21
5372.9692016903
 31
0.0
  0
ARC
  5
EB
330
1F
100
AcDbEntity
  8
0
  6
Continuous
 62
     7
370
    25
100
AcDbCircle
 10
6398.9152135919
 20
5372.3495671987
 30
0.0
 40
0.6337249247172744
100
AcDbArc
 50
15.088381706
 51
77.895206243
  0
LWPOLYLINE
  5
EC
330
1F
100
AcDbEntity
  8
0
  6
Continuous
 62
     7
370
    25
100
AcDbPolyline
 90
        4
 70
   128
 43
0.0
 10
6399.4660320525
 20
5373.5148061259
 10
6399.4747873949
 20
5373.4340314917
 10
6399.3906695119
 20
5373.2940084471
 10
6399.2097854472
 20
5373.1440198256
  0
LINE
  5
ED
330
1F
100
AcDbEntity
  8
0
  6
Continuous
 62
     7
370
    25
100
AcDbLine
 10
6399.6680694801
 20
5373.5148061259
 30
0.0
 11
6399.4660320525
 21
5373.5148061259
 31
0.0
  0
ARC
  5
EE
330
1F
100
AcDbEntity
  8
0
  6
Continuous
 62
     7
370
    25
100
AcDbCircle
 10
6398.7680695859
 20
5373.9124341688
 30
0.0
 40
0.9839247278169898
100
AcDbArc
 50
286.5356314115
 51
336.1637274804
  0
LWPOLYLINE
  5
EF
330
1F
100
AcDbEntity
  8
0
  6
Continuous
 62
     7
370
    25
100
AcDbPolyline
 90
        9
 70
   128
 43
0.0
 10
6399.9508000562
 20
5373.5148061259
 10
6399.878022133
 20
5373.5914390571
 10
6399.8434213514
 20
5373.6086672738
 10
6399.8260248355
 20
5373.613012514
 10
6399.825581341
 20
5373.613086197
 10
6399.8169480289
 20
5373.6141551732
 10
6399.8125431983
 20
5373.6144333034
 10
6399.8098202228
 20
5373.6145150611
 10
6399.8079483516
 20
5373.6145313272
  0
LINE
  5
F0
330
1F
100
AcDbEntity
  8
0
  6
Continuous
 62
     7
370
    25
100
AcDbLine
 10
6399.8079483516
 20
5373.6145313272
 30
0.0
 11
6404.0831151032
 21
5373.6145313272
 31
0.0
  0
ARC
  5
F1
330
1F
100
AcDbEntity
  8
0
  6
Continuous
 62
     7
370
    25
100
AcDbCircle
 10
6403.892637034
 20
5372.6501419
 30
0.0
 40
0.9830202756179799
100
AcDbArc
 50
352.0705889284
 51
78.8272257579
  0
ARC
  5
F2
330
1F
100
AcDbEntity
  8
0
  6
Continuous
 62
     7
370
    25
100
AcDbCircle
 10
6398.8925374195
 20
5373.3732009034
 30
0.0
 40
1.067694641384341
100
AcDbArc
 50
306.4642668327
 51
7.6214277164
  0
ARC
  5
F3
330
1F
100
AcDbEntity
  8
0
  6
Continuous
 62
     7
370
    25
100
AcDbCircle
 10
6399.8094347681
 20
5373.0080075526
 30
0.0
 40
0.5261453588388891
100
AcDbArc
 50
74.4142032201
 51
105.5857967801
  0
LWPOLYLINE
  5
F4
330
1F
100
AcDbEntity
  8
0
  6
Continuous
 62
     7
370
    25
100
AcDbPolyline
 90
        9
 70
   128
 43
0.0
 10
6399.6680694801
 20
5373.5148061259
 10
6399.7398506101
 20
5373.5917089627
 10
6399.7735499875
 20
5373.6087506476
 10
6399.7904345868
 20
5373.6130353926
 10
6399.7907343893
 20
5373.613086197
 10
6399.7991659391
 20
5373.6141553075
 10
6399.8034652496
 20
5373.6144333534
 10
6399.8061216512
 20
5373.614515061
 10
6399.8079483516
 20
5373.6145313272
  0
ARC
  5
F5
330
1F
100
AcDbEntity
  8
0
  6
Continuous
 62
     7
370
    25
100
AcDbCircle
 10
6399.7827693382
 20
5373.0618962309
 30
0.0
 40
0.5526752040571088
100
AcDbArc
 50
90.6902703955
 51
124.966571793
  0
LINE
  5
F6
330
1F
100
AcDbEntity
  8
0
  6
Continuous
 62
     7
370
    25
100
AcDbLine
 10
6399.7761111496
 20
5373.6145313272
 30
0.0
 11
6399.8079483516
 21
5373.6145313272
 31
0.0
  0
LINE
  5
F7
330
1F
100
AcDbEntity
  8
0
  6
Continuous
 62
     7
370
    25
100
AcDbLine
 10
6399.1710517362
 20
5373.6145313272
 30
0.0
 11
6399.7761111496
 21
5373.6145313272
 31
0.0
  0
ARC
  5
F8
330
1F
100
AcDbEntity
  8
0
  6
Continuous
 62
     7
370
    25
100
AcDbCircle
 10
6407.5615981007
 20
5372.1647020145
 30
0.0
 40
1.912698820883504
100
AcDbArc
 50
122.8784926849
 51
167.505112053
  0
LINE
  5
F9
330
1F
100
AcDbEntity
  8
0
  6
Continuous
 62
     7
370
    25
100
AcDbLine
 10
6406.7105045294
 20
5373.957075668
 30
0.0
 11
6406.5232718712
 21
5373.7710318127
 31
0.0
  0
ARC
  5
FA
330
1F
100
AcDbEntity
  8
0
  6
Continuous
 62
     7
370
    25
100
AcDbCircle
 10
6400.1836945584
 20
5374.6949850359
 30
0.0
 40
2.345412906544643
100
AcDbArc
 50
332.5698608565
 51
5.9845529146
  0
LINE
  5
FB
330
1F
100
AcDbEntity
  8
0
  6
Continuous
 62
     7
370
    25
100
AcDbLine
 10
6404.4260739233
 20
5373.6145313272
 30
0.0
 11
6406.5232718712
 21
5373.7710318127
 31
0.0
  0
LWPOLYLINE
  5
FC
330
1F
100
AcDbEntity
  8
0
  6
Continuous
 62
     7
370
    25
100
AcDbPolyline
 90
        3
 70
   128
 43
0.0
 10
6402.5163250592
 20
5374.9395185687
 10
6404.5892662089
 20
5374.498639219
 10
6406.7105045294
 20
5373.957075668
  0
ARC
  5
FD
330
1F
100
AcDbEntity
  8
0
  6
Continuous
 62
     7
370
    25
100
AcDbCircle
 10
6404.224593234
 20
5372.6607938349
 30
0.0
 40
0.9747869882299924
100
AcDbArc
 50
352.1517090298
 51
78.0714338896
  0
LINE
  5
FE
330
1F
100
AcDbEntity
  8
0
  6
Continuous
 62
     7
370
    25
100
AcDbLine
 10
6404.0831151032
 20
5373.6145313272
 30
0.0
 11
6404.4260739233
 21
5373.6145313272
 31
0.0
  0
ARC
  5
FF
330
1F
100
AcDbEntity
  8
0
  6
Continuous
 62
     7
370
    25
100
AcDbCircle
 10
6394.5909424589
 20
5334.6955603963
 30
0.0
 40
41.01692161458322
100
AcDbArc
 50
78.859107915
 51
84.3632415732
  0
LINE
  5
100
330
1F
100
AcDbEntity
  8
0
  6
Continuous
 62
     7
370
    25
100
AcDbLine
 10
6401.7684959994
 20
5381.835402396
 30
0.0
 11
6400.1637150497
 21
5375.327846268
 31
0.0
  0
LINE
  5
101
330
1F
100
AcDbEntity
  8
0
  6
Continuous
 62
     7
370
    25
100
AcDbLine
 10
6401.7684959994
 20
5381.835402396
 30
0.0
 11
6412.2078751699
 21
5378.8452838185
 31
0.0
  0
LINE
  5
102
330
1F
100
AcDbEntity
  8
0
  6
Continuous
 62
     7
370
    25
100
AcDbLine
 10
6412.2078751699
 20
5378.8452838185
 30
0.0
 11
6410.6791531623
 21
5372.6461547284
 31
0.0
  0
LINE
  5
103
330
1F
100
AcDbEntity
  8
0
  6
Continuous
 62
     7
370
    25
100
AcDbLine
 10
6396.7618241309
 20
5381.5073522289
 30
0.0
 11
6401.7684959994
 21
5381.835402396
 31
0.0
  0
LINE
  5
104
330
1F
100
AcDbEntity
  8
0
  6
Continuous
 62
     7
370
    25
100
AcDbLine
 10
6415.512316791
 20
5375.3876655692
 30
0.0
 11
6414.395162746
 21
5370.8574880066
 31
0.0
  0
LINE
  5
105
330
1F
100
AcDbEntity
  8
0
  6
Continuous
 62
     7
370
    25
100
AcDbLine
 10
6412.2078751699
 20
5378.8452838185
 30
0.0
 11
6415.512316791
 21
5375.3876655692
 31
0.0
  0
LWPOLYLINE
  5
106
330
1F
100
AcDbEntity
  8
0
  6
Continuous
 62
     7
370
    25
100
AcDbPolyline
 90
       18
 70
   128
 43
0.0
 10
6396.4629747522
 20
5382.4714014181
 10
6397.7074683319
 20
5382.5200801365
 10
6399.3076762605
 20
5382.4595602679
 10
6401.0845797395
 20
5382.2798395278
 10
6402.9841884558
 20
5381.98637864
 10
6404.9487837598
 20
5381.5880942649
 10
6406.9186724173
 20
5381.0970880718
 10
6408.8340003583
 20
5380.5282790355
 10
6410.6365713125
 20
5379.8989501305
 10
6412.2716150736
 20
5379.2282231974
 10
6413.6894516642
 20
5378.5364779345
 10
6414.8470008372
 20
5377.8447326715
 10
6415.7090910464
 20
5377.1740057384
 10
6416.2495281173
 20
5376.5446768334
 10
6416.4518911428
 20
5375.9758677971
 10
6416.3100314249
 20
5375.484861604
 10
6415.8282592993
 20
5375.0865772289
 10
6415.392266763
 20
5374.9008500348
  0
LWPOLYLINE
  5
107
330
1F
100
AcDbEntity
  8
0
  6
Continuous
 62
     7
370
    25
100
AcDbPolyline
 90
       20
 70
   128
 43
0.0
 10
6396.3190095934
 20
5382.9358142776
 10
6396.9163123922
 20
5382.9450870471
 10
6398.588663902
 20
5382.884959365
 10
6400.4392549601
 20
5382.7062164451
 10
6402.4176062667
 20
5382.4137339283
 10
6404.4697535553
 20
5382.0154899753
 10
6406.5397195974
 20
5381.5223476429
 10
6408.5710411154
 20
5380.9477585685
 10
6410.5083089534
 20
5380.3073960441
 10
6412.298679495
 20
5379.6187274901
 10
6413.893316099
 20
5378.9005379894
 10
6415.2487212357
 20
5378.1724178795
 10
6416.3279229862
 20
5377.4542283788
 10
6417.1014835401
 20
5376.7655598248
 10
6417.5483021819
 20
5376.1251973004
 10
6417.656190864
 20
5375.550608226
 10
6417.4222066642
 20
5375.0574658936
 10
6416.8527320616
 20
5374.6592219406
 10
6415.9633008389
 20
5374.3667394238
 10
6415.2287503055
 20
5374.2377735414
  0
LWPOLYLINE
  5
108
330
1F
100
AcDbEntity
  8
0
  6
Continuous
 62
     7
370
    25
100
AcDbPolyline
 90
       12
 70
   128
 43
0.0
 10
6398.5647641511
 20
5386.2429855518
 10
6400.1765541498
 20
5386.1820276493
 10
6401.9663185953
 20
5386.0010061169
 10
6403.8796764005
 20
5385.7054212022
 10
6405.8584911569
 20
5385.3042541033
 10
6407.8426375793
 20
5384.8096940795
 10
6409.7718283827
 20
5384.2367680869
 10
6411.5874460808
 20
5383.6028841917
 10
6413.2343240486
 20
5382.9273026355
 10
6414.6624227323
 20
5382.2305506219
 10
6415.8283500762
 20
5381.5337986083
 10
6416.5794431213
 20
5380.9635968419
  0
LWPOLYLINE
  5
109
330
1F
100
AcDbEntity
  8
0
  6
Continuous
 62
     7
370
    25
100
AcDbPolyline
 90
        3
 70
   128
 43
0.0
 10
6397.0627484506
 20
5386.1700394253
 10
6397.1799220227
 20
5386.1820276493
 10
6398.5647641511
 20
5386.2429855518
  0
ARC
  5
10A
330
1F
100
AcDbEntity
  8
0
  6
Continuous
 62
     7
370
    25
100
AcDbCircle
 10
6413.7256559538
 20
5384.7314439792
 30
0.0
 40
7.89231571659001
100
AcDbArc
 50
272.8344111685
 51
285.0616351305
  0
LINE
  5
10B
330
1F
100
AcDbEntity
  8
0
  6
Continuous
 62
     8
370
    25
100
AcDbLine
 10
6440.0187553361
 20
5334.6145313272
 30
0.0
 11
6407.3656685445
 21
5334.6145313272
 31
0.0
  0
LINE
  5
10C
330
1F
100
AcDbEntity
  8
0
  6
Continuous
 62
     8
370
    25
100
AcDbLine
 10
6373.6327949913
 20
5334.6145313272
 30
0.0
 11
6108.0187553361
 21
5334.6145313272
 31
0.0
  0
LINE
  5
10D
330
1F
100
AcDbEntity
  8
0
  6
Continuous
 62
     8
370
    25
100
AcDbLine
 10
6442.0187553361
 20
5364.5645313272
 30
0.0
 11
6415.3471638431
 21
5364.5645313272
 31
0.0
  0
LINE
  5
10E
330
1F
100
AcDbEntity
  8
0
  6
Continuous
 62
     8
370
    25
100
AcDbLine
 10
6373.6552023745
 20
5364.5645313272
 30
0.0
 11
6108.0187553361
 21
5364.5645313272
 31
0.0
  0
LINE
  5
10F
330
1F
100
AcDbEntity
  8
0
  6
Continuous
 62
     8
370
    25
100
AcDbLine
 10
6394.3849520934
 20
5370.1384942153
 30
0.0
 11
6387.091555982
 21
5370.1384942153
 31
0.0
  0
ELLIPSE
  5
110
330
1F
100
AcDbEntity
  8
0
  6
Continuous
 62
     8
370
    25
100
AcDbEllipse
 10
6383.4485094674
 20
5367.8397947501
 30
0.0
 11
9.404989870265126
 21
3.247694220668564
 31
0.0
210
0.0
220
0.0
230
1.0
 40
0.3039712164
 41
2.556971903417726
 42
3.389610861564703
  0
ELLIPSE
  5
111
330
1F
100
AcDbEntity
  8
0
  6
Continuous
 62
     8
370
    25
100
AcDbEllipse
 10
6383.5894545116
 20
5367.3851243871
 30
0.0
 11
9.912290424202185
 21
3.218532319800943
 31
0.0
210
0.0
220
0.0
230
1.0
 40
0.2917224645
 41
3.047151807702377
 42
5.18201248603193
  0
ARC
  5
112
330
1F
100
AcDbEntity
  8
0
  6
Continuous
 62
     8
370
    25
100
AcDbCircle
 10
6391.2926502834
 20
5396.2897232819
 30
0.0
 40
0.4946674105790783
100
AcDbArc
 50
90.412730641
 51
125.2441115489
  0
LWPOLYLINE
  5
113
330
1F
100
AcDbEntity
  8
0
  6
Continuous
 62
     8
370
    25
100
AcDbPolyline
 90
        6
 70
   128
 43
0.0
 10
6392.024577169
 20
5395.7843778582
 10
6392.1306421272
 20
5395.8655456184
 10
6392.2043665929
 20
5395.9435941471
 10
6392.2429173761
 20
5396.0155240831
 10
6392.2448129918
 20
5396.0785711993
 10
6392.2442459443
 20
5396.0804713235
  0
LWPOLYLINE
  5
114
330
1F
100
AcDbEntity
  8
0
  6
Continuous
 62
     8
370
    25
100
AcDbPolyline
 90
        6
 70
   128
 43
0.0
 10
6398.7512484244
 20
5374.0850121217
 10
6398.8573133827
 20
5374.1661798819
 10
6398.9310378483
 20
5374.2442284106
 10
6398.9695886315
 20
5374.3161583466
 10
6398.9714842472
 20
5374.3792054628
 10
6398.9709171997
 20
5374.3811055869
  0
ARC
  5
115
330
1F
100
AcDbEntity
  8
0
  6
Continuous
 62
     8
370
    25
100
AcDbCircle
 10
6627.8223195505
 20
5247.758636164
 30
0.0
 40
238.4324087053199
100
AcDbArc
 50
157.2597177537
 51
158.8945937195
  0
ARC
  5
116
330
1F
100
AcDbEntity
  8
0
  6
Continuous
 62
     8
370
    25
100
AcDbCircle
 10
6376.950591468
 20
5396.2897232819
 30
0.0
 40
0.4946674105790718
100
AcDbArc
 50
90.4127306409
 51
125.2441115488
  0
ARC
  5
117
330
1F
100
AcDbEntity
  8
0
  6
Continuous
 62
     8
370
    25
100
AcDbCircle
 10
6377.589964419
 20
5371.9557916136
 30
0.0
 40
2.883090468831635
100
AcDbArc
 50
352.8540983921
 51
16.8038126592
  0
ARC
  5
118
330
1F
100
AcDbEntity
  8
0
  6
Continuous
 62
     8
370
    25
100
AcDbCircle
 10
6389.9567496589
 20
5339.1461574551
 30
0.0
 40
17.68378026342704
100
AcDbArc
 50
341.7714708115
 51
349.4056283613
  0
ELLIPSE
  5
119
330
1F
100
AcDbEntity
  8
0
  6
Continuous
 62
     8
370
    25
100
AcDbEllipse
 10
6374.4825861514
 20
5394.1201690067
 30
0.0
 11
1.055499137207335
 21
-0.02771681468675525
 31
0.0
210
0.0
220
0.0
230
1.0
 40
0.0254772895
 41
2.371311207049282
 42
3.153293681099425
  0
ELLIPSE
  5
11A
330
1F
100
AcDbEntity
  8
0
  6
Continuous
 62
     8
370
    25
100
AcDbEllipse
 10
6374.4825861514
 20
5394.1201690067
 30
0.0
 11
0.9073684831028003
 21
-0.5709773449761998
 31
0.0
210
0.0
220
0.0
230
1.0
 40
0.4487908768
 41
2.522065178450459
 42
2.937059028199622
  0
LWPOLYLINE
  5
11B
330
1F
100
AcDbEntity
  8
0
  6
Continuous
 62
     8
370
    25
100
AcDbPolyline
 90
        5
 70
   128
 43
0.0
 10
6380.3499476809
 20
5372.7892800933
 10
6380.2182990523
 20
5372.7972744199
 10
6380.1153863877
 20
5372.8209501822
 10
6380.0451645632
 20
5372.859397534
 10
6380.0108992115
 20
5372.9092388409
  0
ARC
  5
11C
330
1F
100
AcDbEntity
  8
0
  6
Continuous
 62
     8
370
    25
100
AcDbCircle
 10
6376.6545916672
 20
5396.2112189816
 30
0.0
 40
0.4826148497998636
100
AcDbArc
 50
88.74783702
 51
123.6178916799
  0
LINE
  5
11D
330
1F
100
AcDbEntity
  8
0
  6
Continuous
 62
     8
370
    25
100
AcDbLine
 10
6398.8254279912
 20
5374.8504348325
 30
0.0
 11
6402.5163250592
 21
5374.9395185687
 31
0.0
  0
LWPOLYLINE
  5
11E
330
1F
100
AcDbEntity
  8
0
  6
Continuous
 62
     8
370
    25
100
AcDbPolyline
 90
        3
 70
   128
 43
0.0
 10
6397.4068569315
 20
5384.9342969289
 10
6395.9583623598
 20
5384.8741692468
 10
6395.7253936781
 20
5384.8507419386
  0
LWPOLYLINE
  5
11F
330
1F
100
AcDbEntity
  8
0
  6
Continuous
 62
     8
370
    25
100
AcDbPolyline
 90
       16
 70
   128
 43
0.0
 10
6418.1285308432
 20
5377.4394573659
 10
6418.1467354033
 20
5377.5398181078
 10
6418.0388467213
 20
5378.1144071822
 10
6417.5920280795
 20
5378.7547697066
 10
6416.8184675256
 20
5379.4434382606
 10
6415.7392657751
 20
5380.1616277613
 10
6414.3838606384
 20
5380.8897478712
 10
6412.7892240344
 20
5381.6079373719
 10
6410.9988534928
 20
5382.2966059259
 10
6409.0615856547
 20
5382.9369684503
 10
6407.0302641368
 20
5383.5115575248
 10
6404.9602980947
 20
5384.0046998571
 10
6402.9081508061
 20
5384.4029438102
 10
6400.9297994995
 20
5384.6954263269
 10
6399.0792084413
 20
5384.8741692468
 10
6397.4068569315
 20
5384.9342969289
  0
LINE
  5
120
330
1F
100
AcDbEntity
  8
0
  6
Continuous
 62
     7
370
    25
100
AcDbLine
 10
7027.3562739082
 20
5030.6145313272
 30
0.0
 11
7027.3562739082
 21
5333.1145313272
 31
0.0
  0
ARC
  5
121
330
1F
100
AcDbEntity
  8
0
  6
Continuous
 62
     7
370
    25
100
AcDbCircle
 10
7026.8562739082
 20
5333.1145313272
 30
0.0
 40
0.5000000000009095
100
AcDbArc
 50
0.0
 51
90.0
  0
LINE
  5
122
330
1F
100
AcDbEntity
  8
0
  6
Continuous
 62
     7
370
    25
100
AcDbLine
 10
6668.8274245735
 20
5333.6145313272
 30
0.0
 11
6668.8274245735
 21
5333.6207813272
 31
0.0
  0
LINE
  5
123
330
1F
100
AcDbEntity
  8
0
  6
Continuous
 62
     7
370
    25
100
AcDbLine
 10
6668.7136675589
 20
5333.6145313272
 30
0.0
 11
6668.7136675589
 21
5333.6207813272
 31
0.0
  0
ARC
  5
124
330
1F
100
AcDbEntity
  8
0
  6
Continuous
 62
     7
370
    25
100
AcDbCircle
 10
6749.3550504591
 20
5362.2292005205
 30
0.0
 40
5.619385416684273
100
AcDbArc
 50
34.8766957073
 51
53.0058430603
  0
LWPOLYLINE
  5
125
330
1F
100
AcDbEntity
  8
0
  6
Continuous
 62
     7
370
    25
100
AcDbPolyline
 90
        3
 70
   128
 43
0.0
 10
6754.3911780765
 20
5364.6037454175
 10
6754.2284040386
 20
5365.067630306
 10
6753.9651072709
 20
5365.4424338848
  0
LINE
  5
126
330
1F
100
AcDbEntity
  8
0
  6
Continuous
 62
     7
370
    25
100
AcDbLine
 10
6754.4670397434
 20
5333.6145313272
 30
0.0
 11
6754.4670397434
 21
5364.2028631046
 31
0.0
  0
LINE
  5
127
330
1F
100
AcDbEntity
  8
0
  6
Continuous
 62
     7
370
    25
100
AcDbLine
 10
6752.5923700606
 20
5364.6666007295
 30
0.0
 11
6752.898372384
 21
5365.5759414556
 31
0.0
  0
LINE
  5
128
330
1F
100
AcDbEntity
  8
0
  6
Continuous
 62
     7
370
    25
100
AcDbLine
 10
6740.5772821263
 20
5369.722112564
 30
0.0
 11
6740.2712798028
 21
5368.8127718379
 31
0.0
  0
LWPOLYLINE
  5
129
330
1F
100
AcDbEntity
  8
0
  6
Continuous
 62
     7
370
    25
100
AcDbPolyline
 90
        8
 70
   128
 43
0.0
 10
6710.0939617024
 20
5368.0827154949
 10
6711.0433120094
 20
5365.1342158318
 10
6712.2389044106
 20
5361.475903849
 10
6713.3643461689
 20
5358.0742550446
 10
6714.4960646531
 20
5354.6674746231
 10
6715.6799620677
 20
5351.0683048209
 10
6717.5992207969
 20
5345.1531642689
 10
6718.5932964542
 20
5342.0530750426
  0
ARC
  5
12A
330
1F
100
AcDbEntity
  8
0
  6
Continuous
 62
     7
370
    25
100
AcDbCircle
 10
6737.3305918519
 20
5395.7843778582
 30
0.0
 40
0.9999999999993706
100
AcDbArc
 50
90.0
 51
161.4013946636
  0
LINE
  5
12B
330
1F
100
AcDbEntity
  8
0
  6
Continuous
 62
     7
370
    25
100
AcDbLine
 10
6736.3828156782
 20
5396.1033140974
 30
0.0
 11
6729.0807603072
 21
5374.4039483608
 31
0.0
  0
LINE
  5
12C
330
1F
100
AcDbEntity
  8
0
  6
Continuous
 62
     7
370
    25
100
AcDbLine
 10
6750.5425314875
 20
5396.7843778582
 30
0.0
 11
6737.3305918519
 21
5396.7843778582
 31
0.0
  0
ARC
  5
12D
330
1F
100
AcDbEntity
  8
0
  6
Continuous
 62
     7
370
    25
100
AcDbCircle
 10
6727.2949066238
 20
5374.9353380967
 30
0.0
 40
1.863236010238853
100
AcDbArc
 50
311.0198802323
 51
343.42936209
  0
ARC
  5
12E
330
1F
100
AcDbEntity
  8
0
  6
Continuous
 62
     7
370
    25
100
AcDbCircle
 10
6706.9272982379
 20
5338.0007081919
 30
0.0
 40
12.34188832628624
100
AcDbArc
 50
358.0881932056
 51
19.1034635229
  0
ARC
  5
12F
330
1F
100
AcDbEntity
  8
0
  6
Continuous
 62
     7
370
    25
100
AcDbCircle
 10
6753.8160081443
 20
5394.3371120866
 30
0.0
 40
0.4992588454645231
100
AcDbArc
 50
337.0735522742
 51
62.7848468185
  0
LINE
  5
130
330
1F
100
AcDbEntity
  8
0
  6
Continuous
 62
     7
370
    25
100
AcDbLine
 10
6747.1274989756
 20
5372.886396067
 30
0.0
 11
6754.2828396539
 21
5394.1497728092
 31
0.0
  0
LINE
  5
131
330
1F
100
AcDbEntity
  8
0
  6
Continuous
 62
     7
370
    25
100
AcDbLine
 10
6754.0582460841
 20
5394.7750330392
 30
0.0
 11
6751.0707446196
 21
5396.6334896807
 31
0.0
  0
LINE
  5
132
330
1F
100
AcDbEntity
  8
0
  6
Continuous
 62
     7
370
    25
100
AcDbLine
 10
6719.284093134
 20
5337.5902978955
 30
0.0
 11
6719.284093134
 21
5333.6145313272
 31
0.0
  0
ARC
  5
133
330
1F
100
AcDbEntity
  8
0
  6
Continuous
 62
     7
370
    25
100
AcDbCircle
 10
6750.5425314875
 20
5395.7843778582
 30
0.0
 40
1.000000000000219
100
AcDbArc
 50
58.1151973177
 51
90.0
  0
LWPOLYLINE
  5
134
330
1F
100
AcDbEntity
  8
0
  6
Continuous
 62
     7
370
    25
100
AcDbPolyline
 90
        3
 70
   128
 43
0.0
 10
6746.9963602996
 20
5371.7640515749
 10
6747.0088253979
 20
5372.3786378927
 10
6747.1274989756
 20
5372.886396067
  0
LINE
  5
135
330
1F
100
AcDbEntity
  8
0
  6
Continuous
 62
     7
370
    25
100
AcDbLine
 10
6708.1509202178
 20
5377.1924687006
 30
0.0
 11
6708.6834248182
 21
5375.2032588188
 31
0.0
  0
ARC
  5
136
330
1F
100
AcDbEntity
  8
0
  6
Continuous
 62
     7
370
    25
100
AcDbCircle
 10
6729.2772731658
 20
5381.7945482238
 30
0.0
 40
4.461681124668144
100
AcDbArc
 50
42.2866006827
 51
96.6543680379
  0
ARC
  5
137
330
1F
100
AcDbEntity
  8
0
  6
Continuous
 62
     7
370
    25
100
AcDbCircle
 10
6710.9228236772
 20
5377.9803361127
 30
0.0
 40
2.856702026533601
100
AcDbArc
 50
124.0190866929
 51
196.2043166065
  0
ARC
  5
138
330
1F
100
AcDbEntity
  8
0
  6
Continuous
 62
     7
370
    25
100
AcDbCircle
 10
6726.4065366558
 20
5358.811819255
 30
0.0
 40
27.52501717759009
100
AcDbArc
 50
83.9293734295
 51
126.0918215414
  0
LINE
  5
139
330
1F
100
AcDbEntity
  8
0
  6
Continuous
 62
     7
370
    25
100
AcDbLine
 10
6642.3562739082
 20
5333.6145313272
 30
0.0
 11
6859.3562739082
 21
5333.6145313272
 31
0.0
  0
LINE
  5
13A
330
1F
100
AcDbEntity
  8
0
  6
Continuous
 62
     7
370
    25
100
AcDbLine
 10
6859.3562739082
 20
5333.1145313272
 30
0.0
 11
6859.3562739082
 21
5333.6145313272
 31
0.0
  0
LINE
  5
13B
330
1F
100
AcDbEntity
  8
0
  6
Continuous
 62
     7
370
    25
100
AcDbLine
 10
6859.3562739082
 20
5333.1145313272
 30
0.0
 11
6642.3562739082
 21
5333.1145313272
 31
0.0
  0
LINE
  5
13C
330
1F
100
AcDbEntity
  8
0
  6
Continuous
 62
     7
370
    25
100
AcDbLine
 10
6642.3562739082
 20
5333.1145313272
 30
0.0
 11
6642.3562739082
 21
5333.6145313272
 31
0.0
  0
LINE
  5
13D
330
1F
100
AcDbEntity
  8
0
  6
Continuous
 62
     7
370
    25
100
AcDbLine
 10
6859.3562739082
 20
5030.6145313272
 30
0.0
 11
6859.3562739082
 21
5333.1145313272
 31
0.0
  0
LINE
  5
13E
330
1F
100
AcDbEntity
  8
0
  6
Continuous
 62
     7
370
    25
100
AcDbLine
 10
6641.3562739082
 20
5030.6145313272
 30
0.0
 11
6641.3562739082
 21
5333.1145313272
 31
0.0
  0
LINE
  5
13F
330
1F
100
AcDbEntity
  8
0
  6
Continuous
 62
     7
370
    25
100
AcDbLine
 10
6641.3562739082
 20
5030.6145313272
 30
0.0
 11
6859.3562739082
 21
5030.6145313272
 31
0.0
  0
LINE
  5
140
330
1F
100
AcDbEntity
  8
0
  6
Continuous
 62
     7
370
    25
100
AcDbLine
 10
6641.3562739082
 20
5333.1145313272
 30
0.0
 11
6642.3562739082
 21
5333.1145313272
 31
0.0
  0
LINE
  5
141
330
1F
100
AcDbEntity
  8
0
  6
Continuous
 62
     7
370
    25
100
AcDbLine
 10
6859.3562739082
 20
5030.6145313272
 30
0.0
 11
7027.3562739082
 21
5030.6145313272
 31
0.0
  0
LINE
  5
142
330
1F
100
AcDbEntity
  8
0
  6
Continuous
 62
     7
370
    25
100
AcDbLine
 10
6859.3562739082
 20
5333.6145313272
 30
0.0
 11
7026.8562739082
 21
5333.6145313272
 31
0.0
  0
LINE
  5
143
330
1F
100
AcDbEntity
  8
0
  6
Continuous
 62
     7
370
    25
100
AcDbLine
 10
6641.2562739082
 20
5364.5645313272
 30
0.0
 11
6641.2562739082
 21
5359.6145313272
 31
0.0
  0
LINE
  5
144
330
1F
100
AcDbEntity
  8
0
  6
Continuous
 62
     7
370
    25
100
AcDbLine
 10
6642.2562739082
 20
5364.5645313272
 30
0.0
 11
6641.2562739082
 21
5364.5645313272
 31
0.0
  0
LINE
  5
145
330
1F
100
AcDbEntity
  8
0
  6
Continuous
 62
     7
370
    25
100
AcDbLine
 10
6642.2562739082
 20
5364.5645313272
 30
0.0
 11
6642.2562739082
 21
5359.6145313272
 31
0.0
  0
LINE
  5
146
330
1F
100
AcDbEntity
  8
0
  6
Continuous
 62
     7
370
    25
100
AcDbLine
 10
6642.2562739082
 20
5359.6145313272
 30
0.0
 11
6641.2562739082
 21
5359.6145313272
 31
0.0
  0
ARC
  5
147
330
1F
100
AcDbEntity
  8
0
  6
Continuous
 62
     7
370
    25
100
AcDbCircle
 10
6642.3062739082
 20
5364.5645313272
 30
0.0
 40
1.050000000000182
100
AcDbArc
 50
0.0
 51
180.0
  0
LINE
  5
148
330
1F
100
AcDbEntity
  8
0
  6
Continuous
 62
     7
370
    25
100
AcDbLine
 10
6642.3562739082
 20
5364.5645313272
 30
0.0
 11
6643.3562739082
 21
5364.5645313272
 31
0.0
  0
ARC
  5
149
330
1F
100
AcDbEntity
  8
0
  6
Continuous
 62
     7
370
    25
100
AcDbCircle
 10
6642.3062739082
 20
5364.5645313272
 30
0.0
 40
0.0500000000001819
100
AcDbArc
 50
0.0
 51
180.0
  0
ARC
  5
14A
330
1F
100
AcDbEntity
  8
0
  6
Continuous
 62
     7
370
    25
100
AcDbCircle
 10
6644.3562739082
 20
5334.6145313272
 30
0.0
 40
2.000000000000909
100
AcDbArc
 50
180.0
 51
210.0
  0
LINE
  5
14B
330
1F
100
AcDbEntity
  8
0
  6
Continuous
 62
     7
370
    25
100
AcDbLine
 10
6642.3562739082
 20
5334.6145313272
 30
0.0
 11
6642.3562739082
 21
5364.5645313272
 31
0.0
  0
ARC
  5
14C
330
1F
100
AcDbEntity
  8
0
  6
Continuous
 62
     7
370
    25
100
AcDbCircle
 10
6644.3562739082
 20
5334.6145313272
 30
0.0
 40
1.0
100
AcDbArc
 50
180.0
 51
270.0
  0
LINE
  5
14D
330
1F
100
AcDbEntity
  8
0
  6
Continuous
 62
     7
370
    25
100
AcDbLine
 10
6643.3562739082
 20
5334.6145313272
 30
0.0
 11
6643.3562739082
 21
5364.5645313272
 31
0.0
  0
LINE
  5
14E
330
1F
100
AcDbEntity
  8
0
  6
Continuous
 62
     7
370
    25
100
AcDbLine
 10
6734.4897297349
 20
5369.8814685602
 30
0.0
 11
6740.2961777711
 21
5366.7092219583
 31
0.0
  0
LWPOLYLINE
  5
14F
330
1F
100
AcDbEntity
  8
0
  6
Continuous
 62
     7
370
    25
100
AcDbPolyline
 90
        3
 70
   128
 43
0.0
 10
6734.3622120852
 20
5370.1384942153
 10
6734.3635976337
 20
5370.1354557944
 10
6734.4896980644
 20
5369.8814862141
  0
LWPOLYLINE
  5
150
330
1F
100
AcDbEntity
  8
0
  6
Continuous
 62
     7
370
    25
100
AcDbPolyline
 90
        3
 70
   128
 43
0.0
 10
6752.6654159612
 20
5366.7092219583
 10
6752.4445729722
 20
5366.8720323093
 10
6751.192390255
 20
5367.7734531477
  0
ELLIPSE
  5
151
330
1F
100
AcDbEntity
  8
0
  6
Continuous
 62
     7
370
    25
100
AcDbEllipse
 10
6744.6633813849
 20
5367.8397947501
 30
0.0
 11
9.408319001817288
 21
-3.462025061321583
 31
0.0
210
0.0
220
0.0
230
1.0
 40
0.2758376869
 41
4.33350631089649
 42
6.064537914595076
  0
ARC
  5
152
330
1F
100
AcDbEntity
  8
0
  6
Continuous
 62
     7
370
    25
100
AcDbCircle
 10
6751.1721883805
 20
5365.826129767
 30
0.0
 40
1.833418553791144
100
AcDbArc
 50
257.6194858914
 51
320.7695554705
  0
LWPOLYLINE
  5
153
330
1F
100
AcDbEntity
  8
0
  6
Continuous
 62
     7
370
    25
100
AcDbPolyline
 90
       12
 70
   128
 43
0.0
 10
6740.2712798028
 20
5368.8127718379
 10
6740.2452064945
 20
5368.5955165717
 10
6740.4442301163
 20
5368.0918559755
 10
6740.9660465244
 20
5367.5152995613
 10
6741.7825244612
 20
5366.8969296345
 10
6742.8496473899
 20
5366.2700826779
 10
6744.109886437
 20
5365.6685521733
 10
6745.4953017894
 20
5365.1247667859
 10
6746.9312053467
 20
5364.6680421265
 10
6748.3401871767
 20
5364.3230003399
 10
6749.6462887041
 20
5364.1082427181
 10
6750.7790976574
 20
5364.0353469
  0
ARC
  5
154
330
1F
100
AcDbEntity
  8
0
  6
Continuous
 62
     7
370
    25
100
AcDbCircle
 10
6752.6535555331
 20
5366.4518249882
 30
0.0
 40
0.2576700796946518
100
AcDbArc
 50
48.196199252
 51
87.361771034
  0
ELLIPSE
  5
155
330
1F
100
AcDbEntity
  8
0
  6
Continuous
 62
     7
370
    25
100
AcDbEllipse
 10
6744.5103802231
 20
5367.3851243871
 30
0.0
 11
9.914891015680951
 21
-3.437147926746548
 31
0.0
210
0.0
220
0.0
230
1.0
 40
0.265058733
 41
0.0916293431703335
 42
0.1798203577468104
  0
ARC
  5
156
330
1F
100
AcDbEntity
  8
0
  6
Continuous
 62
     7
370
    25
100
AcDbCircle
 10
6740.5081123267
 20
5366.1141487076
 30
0.0
 40
0.6316869711341107
100
AcDbArc
 50
109.6032899313
 51
166.3624150321
  0
LINE
  5
157
330
1F
100
AcDbEntity
  8
0
  6
Continuous
 62
     7
370
    25
100
AcDbLine
 10
6739.8907722803
 20
5366.2439004161
 30
0.0
 11
6739.8907722803
 21
5333.6145313272
 31
0.0
  0
LWPOLYLINE
  5
158
330
1F
100
AcDbEntity
  8
0
  6
Continuous
 62
     7
370
    25
100
AcDbPolyline
 90
        3
 70
   128
 43
0.0
 10
6739.8942347953
 20
5366.2630876411
 10
6739.890896815
 20
5366.2478055037
 10
6739.8907722803
 20
5366.2439004161
  0
LWPOLYLINE
  5
159
330
1F
100
AcDbEntity
  8
0
  6
Continuous
 62
     7
370
    25
100
AcDbPolyline
 90
        4
 70
   128
 43
0.0
 10
6732.0782581617
 20
5333.6145313272
 10
6732.0782369899
 20
5333.6145849638
 10
6730.8482265712
 20
5336.7453095334
 10
6727.3234105588
 20
5345.9002604437
  0
ARC
  5
15A
330
1F
100
AcDbEntity
  8
0
  6
Continuous
 62
     7
370
    25
100
AcDbCircle
 10
6928.8514405251
 20
5399.7621101512
 30
0.0
 40
208.6016436080778
100
AcDbArc
 50
187.4906314995
 51
194.9635406695
  0
LINE
  5
15B
330
1F
100
AcDbEntity
  8
0
  6
Continuous
 62
     7
370
    25
100
AcDbLine
 10
6722.4931684466
 20
5372.5276861233
 30
0.0
 11
6722.0299635816
 21
5372.5679491801
 31
0.0
  0
LINE
  5
15C
330
1F
100
AcDbEntity
  8
0
  6
Continuous
 62
     7
370
    25
100
AcDbLine
 10
6722.8423369111
 20
5372.5145313272
 30
0.0
 11
6722.4931684466
 21
5372.5276861233
 31
0.0
  0
ARC
  5
15D
330
1F
100
AcDbEntity
  8
0
  6
Continuous
 62
     7
370
    25
100
AcDbCircle
 10
7114.1650505749
 20
5507.5119971731
 30
0.0
 40
413.9538404388226
100
AcDbArc
 50
199.0332737284
 51
204.8402082313
  0
LWPOLYLINE
  5
15E
330
1F
100
AcDbEntity
  8
0
  6
Continuous
 62
     7
370
    25
100
AcDbPolyline
 90
       23
 70
   128
 43
0.0
 10
6743.2213467296
 20
5370.312281007
 10
6742.3905545294
 20
5370.3533663935
 10
6741.492108174
 20
5370.2804705754
 10
6740.876459892
 20
5370.0657129536
 10
6740.5767994417
 20
5369.720671167
 10
6740.6092815955
 20
5369.2639465076
 10
6740.9721552322
 20
5368.7201611202
 10
6741.64585774
 20
5368.1186306156
 10
6742.5940696424
 20
5367.491783659
 10
6743.7656725903
 20
5366.8734137322
 10
6745.0975051655
 20
5366.296857318
 10
6746.5177679291
 20
5365.7931967218
 10
6747.9498941479
 20
5365.3895844168
 10
6749.3166775268
 20
5365.1077792469
 10
6750.5444344201
 20
5364.9629734016
 10
6751.5669761358
 20
5364.9629734016
 10
6752.3291771853
 20
5365.1077792469
 10
6752.7899471129
 20
5365.3895844168
 10
6752.9244456924
 20
5365.7931967218
 10
6752.7254220706
 20
5366.296857318
 10
6752.2036056624
 20
5366.8734137322
 10
6751.3871277256
 20
5367.491783659
 10
6751.1490104328
 20
5367.6445422342
  0
LINE
  5
15F
330
1F
100
AcDbEntity
  8
0
  6
Continuous
 62
     7
370
    25
100
AcDbLine
 10
6745.9510509154
 20
5366.545045638
 30
0.0
 11
6750.091109406
 21
5365.7348652813
 31
0.0
  0
LINE
  5
160
330
1F
100
AcDbEntity
  8
0
  6
Continuous
 62
     7
370
    25
100
AcDbLine
 10
6750.091109406
 20
5365.7348652813
 30
0.0
 11
6750.8778857457
 21
5366.8388466531
 31
0.0
  0
LINE
  5
161
330
1F
100
AcDbEntity
  8
0
  6
Continuous
 62
     7
370
    25
100
AcDbLine
 10
6742.5977687646
 20
5368.4592073665
 30
0.0
 11
6745.9510509154
 21
5366.545045638
 31
0.0
  0
ELLIPSE
  5
162
330
1F
100
AcDbEntity
  8
0
  6
Continuous
 62
     7
370
    25
100
AcDbEllipse
 10
6740.0058366062
 20
5394.1201690067
 30
0.0
 11
1.065095882584501
 21
0.02981303284923343
 31
0.0
210
0.0
220
0.0
230
1.0
 40
0.0230465484
 41
0.6888219332187752
 42
2.259618259987023
  0
ELLIPSE
  5
163
330
1F
100
AcDbEntity
  8
0
  6
Continuous
 62
     7
370
    25
100
AcDbEllipse
 10
6740.0058366062
 20
5394.1201690067
 30
0.0
 11
0.8999658923657989
 21
0.5980938315424282
 31
0.0
210
0.0
220
0.0
230
1.0
 40
0.4069399978
 41
0.5494379898669051
 42
2.120234316659876
  0
ARC
  5
164
330
1F
100
AcDbEntity
  8
0
  6
Continuous
 62
     7
370
    25
100
AcDbCircle
 10
6740.2848011101
 20
5394.3663664789
 30
0.0
 40
0.581182380371146
100
AcDbArc
 50
339.0736702698
 51
51.5442174562
  0
LINE
  5
165
330
1F
100
AcDbEntity
  8
0
  6
Continuous
 62
     7
370
    25
100
AcDbLine
 10
6740.8276489565
 20
5394.1587871568
 30
0.0
 11
6733.636594355
 21
5372.7892800933
 31
0.0
  0
ARC
  5
166
330
1F
100
AcDbEntity
  8
0
  6
Continuous
 62
     7
370
    25
100
AcDbCircle
 10
6733.810647374
 20
5375.7389337397
 30
0.0
 40
2.954784440092499
100
AcDbArc
 50
239.0322742563
 51
266.6230092842
  0
LINE
  5
167
330
1F
100
AcDbEntity
  8
0
  6
Continuous
 62
     7
370
    25
100
AcDbLine
 10
6732.2902478005
 20
5373.2053323062
 30
0.0
 11
6739.3283012402
 21
5394.1201690067
 31
0.0
  0
ARC
  5
168
330
1F
100
AcDbEntity
  8
0
  6
Continuous
 62
     7
370
    25
100
AcDbCircle
 10
6744.8737088561
 20
5397.9446673272
 30
0.0
 40
30.16330562354384
100
AcDbArc
 50
239.9573769445
 51
244.6341387011
  0
LINE
  5
169
330
1F
100
AcDbEntity
  8
0
  6
Continuous
 62
     7
370
    25
100
AcDbLine
 10
6732.9162046645
 20
5370.0572137641
 30
0.0
 11
6731.9518446295
 21
5370.6893847007
 31
0.0
  0
LWPOLYLINE
  5
16A
330
1F
100
AcDbEntity
  8
0
  6
Continuous
 62
     7
370
    25
100
AcDbPolyline
 90
        3
 70
   128
 43
0.0
 10
6734.0465715843
 20
5369.4267892446
 10
6733.3061362137
 20
5369.8392657705
 10
6732.9162046637
 20
5370.0572137619
  0
ARC
  5
16B
330
1F
100
AcDbEntity
  8
0
  6
Continuous
 62
     7
370
    25
100
AcDbCircle
 10
6975.0233802396
 20
5804.9349555637
 30
0.0
 40
497.7320415567052
100
AcDbArc
 50
241.0432200806
 51
241.8092798412
  0
LINE
  5
16C
330
1F
100
AcDbEntity
  8
0
  6
Continuous
 62
     7
370
    25
100
AcDbLine
 10
6728.5849885573
 20
5372.5145313272
 30
0.0
 11
6722.8423369111
 21
5372.5145313272
 31
0.0
  0
LINE
  5
16D
330
1F
100
AcDbEntity
  8
0
  6
Continuous
 62
     7
370
    25
100
AcDbLine
 10
6729.7726275923
 20
5371.8337050545
 30
0.0
 11
6728.5849885573
 21
5372.5145313272
 31
0.0
  0
LINE
  5
16E
330
1F
100
AcDbEntity
  8
0
  6
Continuous
 62
     7
370
    25
100
AcDbLine
 10
6737.6365941754
 20
5396.6937185843
 30
0.0
 11
6740.6462445239
 21
5394.8214836263
 31
0.0
  0
LINE
  5
16F
330
1F
100
AcDbEntity
  8
0
  6
Continuous
 62
     7
370
    25
100
AcDbLine
 10
6739.3283012402
 20
5394.1201690067
 30
0.0
 11
6736.653056486
 21
5395.7843778582
 31
0.0
  0
ARC
  5
170
330
1F
100
AcDbEntity
  8
0
  6
Continuous
 62
     7
370
    25
100
AcDbCircle
 10
6737.8592692259
 20
5395.4663098211
 30
0.0
 40
1.247443966730416
100
AcDbArc
 50
100.2826954286
 51
165.2278481549
  0
ARC
  5
171
330
1F
100
AcDbEntity
  8
0
  6
Continuous
 62
     7
370
    25
100
AcDbCircle
 10
6753.4967407457
 20
5394.3663664789
 30
0.0
 40
0.5811823803687342
100
AcDbArc
 50
339.0736702696
 51
51.5442174565
  0
LINE
  5
172
330
1F
100
AcDbEntity
  8
0
  6
Continuous
 62
     7
370
    25
100
AcDbLine
 10
6740.8276489565
 20
5394.1587871568
 30
0.0
 11
6754.039588592
 21
5394.1587871568
 31
0.0
  0
LINE
  5
173
330
1F
100
AcDbEntity
  8
0
  6
Continuous
 62
     7
370
    25
100
AcDbLine
 10
6740.6462445239
 20
5394.8214836263
 30
0.0
 11
6753.8581841595
 21
5394.8214836263
 31
0.0
  0
LINE
  5
174
330
1F
100
AcDbEntity
  8
0
  6
Continuous
 62
     7
370
    25
100
AcDbLine
 10
6746.8485339905
 20
5372.7892800933
 30
0.0
 11
6754.039588592
 21
5394.1587871568
 31
0.0
  0
LINE
  5
175
330
1F
100
AcDbEntity
  8
0
  6
Continuous
 62
     7
370
    25
100
AcDbLine
 10
6733.636594355
 20
5372.7892800933
 30
0.0
 11
6746.8485339905
 21
5372.7892800933
 31
0.0
  0
LINE
  5
176
330
1F
100
AcDbEntity
  8
0
  6
Continuous
 62
     7
370
    25
100
AcDbLine
 10
6730.2287051903
 20
5372.2883754176
 30
0.0
 11
6728.8532418811
 21
5373.1440198256
 31
0.0
  0
ARC
  5
177
330
1F
100
AcDbEntity
  8
0
  6
Continuous
 62
     7
370
    25
100
AcDbCircle
 10
6726.3577643223
 20
5375.0662059939
 30
0.0
 40
3.149953636435857
100
AcDbArc
 50
322.3940951815
 51
341.8506686655
  0
LINE
  5
178
330
1F
100
AcDbEntity
  8
0
  6
Continuous
 62
     7
370
    25
100
AcDbLine
 10
6736.653056486
 20
5395.7843778582
 30
0.0
 11
6729.3510011149
 21
5374.0850121217
 31
0.0
  0
ARC
  5
179
330
1F
100
AcDbEntity
  8
0
  6
Continuous
 62
     7
370
    25
100
AcDbCircle
 10
6736.085808691
 20
5371.9551152479
 30
0.0
 40
3.99616380626763
100
AcDbArc
 50
161.7686712425
 51
192.8140552831
  0
LINE
  5
17A
330
1F
100
AcDbEntity
  8
0
  6
Continuous
 62
     7
370
    25
100
AcDbLine
 10
6732.1891694375
 20
5371.0688152454
 30
0.0
 11
6730.2287051903
 21
5372.2883754176
 31
0.0
  0
ARC
  5
17B
330
1F
100
AcDbEntity
  8
0
  6
Continuous
 62
     7
370
    25
100
AcDbCircle
 10
6734.683450957
 20
5369.2493125184
 30
0.0
 40
0.6611987332802428
100
AcDbArc
 50
107.0396107371
 51
164.4275386378
  0
LINE
  5
17C
330
1F
100
AcDbEntity
  8
0
  6
Continuous
 62
     7
370
    25
100
AcDbLine
 10
6753.8581841595
 20
5394.8214836263
 30
0.0
 11
6750.8485338109
 21
5396.6937185843
 31
0.0
  0
LINE
  5
17D
330
1F
100
AcDbEntity
  8
0
  6
Continuous
 62
     7
370
    25
100
AcDbLine
 10
6737.6365941754
 20
5396.6937185843
 30
0.0
 11
6750.8485338109
 21
5396.6937185843
 31
0.0
  0
LINE
  5
17E
330
1F
100
AcDbEntity
  8
0
  6
Continuous
 62
     7
370
    25
100
AcDbLine
 10
6744.3025520747
 20
5372.2912109167
 30
0.0
 11
6743.5157757349
 21
5371.1872295448
 31
0.0
  0
LINE
  5
17F
330
1F
100
AcDbEntity
  8
0
  6
Continuous
 62
     7
370
    25
100
AcDbLine
 10
6748.4426105652
 20
5371.48103056
 30
0.0
 11
6744.3025520747
 21
5372.2912109167
 31
0.0
  0
LINE
  5
180
330
1F
100
AcDbEntity
  8
0
  6
Continuous
 62
     7
370
    25
100
AcDbLine
 10
6751.7958927161
 20
5369.5668688314
 30
0.0
 11
6748.4426105652
 21
5371.48103056
 31
0.0
  0
LINE
  5
181
330
1F
100
AcDbEntity
  8
0
  6
Continuous
 62
     7
370
    25
100
AcDbLine
 10
6751.0091163764
 20
5368.4628874596
 30
0.0
 11
6751.7958927161
 21
5369.5668688314
 31
0.0
  0
LINE
  5
182
330
1F
100
AcDbEntity
  8
0
  6
Continuous
 62
     7
370
    25
100
AcDbLine
 10
6746.8690578858
 20
5369.2730678163
 30
0.0
 11
6751.0091163764
 21
5368.4628874596
 31
0.0
  0
LINE
  5
183
330
1F
100
AcDbEntity
  8
0
  6
Continuous
 62
     7
370
    25
100
AcDbLine
 10
6743.5157757349
 20
5371.1872295448
 30
0.0
 11
6746.8690578858
 21
5369.2730678163
 31
0.0
  0
LWPOLYLINE
  5
184
330
1F
100
AcDbEntity
  8
0
  6
Continuous
 62
     7
370
    25
100
AcDbPolyline
 90
       17
 70
   128
 43
0.0
 10
6746.2810543556
 20
5371.2322684441
 10
6745.8527350821
 20
5371.1671687545
 10
6745.6989213081
 20
5370.9817805234
 10
6745.8430297863
 20
5370.7043274284
 10
6746.2631213072
 20
5370.3770491881
 10
6746.895240745
 20
5370.0497709478
 10
6747.6431536454
 20
5369.7723178528
 10
6748.3929970491
 20
5369.5869296217
 10
6749.0306140954
 20
5369.5218299322
 10
6749.4589333689
 20
5369.5869296217
 10
6749.6127471429
 20
5369.7723178528
 10
6749.4686386647
 20
5370.0497709478
 10
6749.0485471438
 20
5370.3770491881
 10
6748.416427706
 20
5370.7043274284
 10
6747.6685148056
 20
5370.9817805234
 10
6746.9186714019
 20
5371.1671687545
 10
6746.2810543556
 20
5371.2322684441
  0
LINE
  5
185
330
1F
100
AcDbEntity
  8
0
  6
Continuous
 62
     7
370
    25
100
AcDbLine
 10
6746.8690578858
 20
5369.2730678163
 30
0.0
 11
6745.9510509154
 21
5366.545045638
 31
0.0
  0
LINE
  5
186
330
1F
100
AcDbEntity
  8
0
  6
Continuous
 62
     7
370
    25
100
AcDbLine
 10
6751.0091163764
 20
5368.4628874596
 30
0.0
 11
6750.091109406
 21
5365.7348652813
 31
0.0
  0
LWPOLYLINE
  5
187
330
1F
100
AcDbEntity
  8
0
  6
Continuous
 62
     7
370
    25
100
AcDbPolyline
 90
       10
 70
   128
 43
0.0
 10
6710.1476741244
 20
5368.0997317983
 10
6710.0673918962
 20
5368.4310000586
 10
6710.3485098229
 20
5369.0502236884
 10
6711.0543238686
 20
5369.7726202222
 10
6712.1171937986
 20
5370.5214324527
 10
6713.5903973165
 20
5371.3300894896
 10
6715.0860008354
 20
5372.0134516443
 10
6716.7603615054
 20
5372.6748863009
 10
6718.6235709811
 20
5373.3166402755
 10
6720.5522078248
 20
5373.896471867
  0
LWPOLYLINE
  5
188
330
1F
100
AcDbEntity
  8
0
  6
Continuous
 62
     7
370
    25
100
AcDbPolyline
 90
        5
 70
   128
 43
0.0
 10
6727.3234105588
 20
5345.9002604437
 10
6724.6356735773
 20
5356.6215405709
 10
6721.8478353952
 20
5367.288088488
 10
6720.5942666565
 20
5373.6145313272
 10
6720.5522078248
 20
5373.896471867
  0
LINE
  5
189
330
1F
100
AcDbEntity
  8
0
  6
Continuous
 62
     7
370
    25
100
AcDbLine
 10
6743.5157757349
 20
5371.1872295448
 30
0.0
 11
6742.5977687646
 21
5368.4592073665
 31
0.0
  0
LINE
  5
18A
330
1F
100
AcDbEntity
  8
0
  6
Continuous
 62
     7
370
    25
100
AcDbLine
 10
6751.7958927161
 20
5369.5668688314
 30
0.0
 11
6750.8778857457
 21
5366.8388466531
 31
0.0
  0
LINE
  5
18B
330
1F
100
AcDbEntity
  8
0
  6
Continuous
 62
     7
370
    25
100
AcDbLine
 10
6733.3626306483
 20
5370.5118841249
 30
0.0
 11
6734.4897457957
 21
5369.8814596076
 31
0.0
  0
ARC
  5
18C
330
1F
100
AcDbEntity
  8
0
  6
Continuous
 62
     7
370
    25
100
AcDbCircle
 10
6733.5504313448
 20
5369.8809880219
 30
0.0
 40
0.65825450576425
100
AcDbArc
 50
106.5768441504
 51
164.4715563013
  0
ARC
  5
18D
330
1F
100
AcDbEntity
  8
0
  6
Continuous
 62
     7
370
    25
100
AcDbCircle
 10
6736.1697855629
 20
5377.9409155759
 30
0.0
 40
7.94172951501688
100
AcDbArc
 50
239.9187318342
 51
249.3003093615
  0
ARC
  5
18E
330
1F
100
AcDbEntity
  8
0
  6
Continuous
 62
     7
370
    25
100
AcDbCircle
 10
6735.8079857404
 20
5371.9589628049
 30
0.0
 40
2.324729521467194
100
AcDbArc
 50
159.0736702695
 51
231.5442174575
  0
LWPOLYLINE
  5
18F
330
1F
100
AcDbEntity
  8
0
  6
Continuous
 62
     7
370
    25
100
AcDbPolyline
 90
       11
 70
   128
 43
0.0
 10
6734.4897457893
 20
5369.8814596187
 10
6734.4593422863
 20
5369.9365591267
 10
6734.4151772572
 20
5370.024372545
 10
6734.3942269498
 20
5370.068747347
 10
6734.3778968399
 20
5370.0914514796
 10
6734.3494508473
 20
5370.115686037
 10
6734.3117884972
 20
5370.1397188681
 10
6734.2629132989
 20
5370.1653652225
 10
6734.1494131001
 20
5370.2144969378
 10
6733.9061339153
 20
5370.3048263732
 10
6733.3626306443
 20
5370.5118841271
  0
ARC
  5
190
330
1F
100
AcDbEntity
  8
0
  6
Continuous
 62
     7
370
    25
100
AcDbCircle
 10
6732.7389449744
 20
5370.4610078923
 30
0.0
 40
0.8195626391716406
100
AcDbArc
 50
132.1300570175
 51
163.8199375944
  0
ARC
  5
191
330
1F
100
AcDbEntity
  8
0
  6
Continuous
 62
     7
370
    25
100
AcDbCircle
 10
6730.3992664819
 20
5371.6612064517
 30
0.0
 40
0.6499477409812711
100
AcDbArc
 50
105.2138881724
 51
164.6090517276
  0
LWPOLYLINE
  5
192
330
1F
100
AcDbEntity
  8
0
  6
Continuous
 62
     7
370
    25
100
AcDbPolyline
 90
        3
 70
   128
 43
0.0
 10
6720.7455222293
 20
5373.784156263
 10
6720.6625537282
 20
5373.8289305912
 10
6720.5522078248
 20
5373.896471867
  0
ARC
  5
193
330
1F
100
AcDbEntity
  8
0
  6
Continuous
 62
     7
370
    25
100
AcDbCircle
 10
6719.9626140037
 20
5371.6709681684
 30
0.0
 40
2.253554794712068
100
AcDbArc
 50
23.4550430078
 51
69.6709988158
  0
ARC
  5
194
330
1F
100
AcDbEntity
  8
0
  6
Continuous
 62
     7
370
    25
100
AcDbCircle
 10
6729.208907256
 20
5372.3434256035
 30
0.0
 40
0.6469557259004081
100
AcDbArc
 50
104.7011601541
 51
164.6640468504
  0
LINE
  5
195
330
1F
100
AcDbEntity
  8
0
  6
Continuous
 62
     7
370
    25
100
AcDbLine
 10
6729.0447244297
 20
5372.9692016903
 30
0.0
 11
6730.2287051903
 21
5372.2883754176
 31
0.0
  0
ARC
  5
196
330
1F
100
AcDbEntity
  8
0
  6
Continuous
 62
     7
370
    25
100
AcDbCircle
 10
6729.4699103001
 20
5374.24458422
 30
0.0
 40
1.344389683651639
100
AcDbArc
 50
212.8766521757
 51
251.562691579
  0
LINE
  5
197
330
1F
100
AcDbEntity
  8
0
  6
Continuous
 62
     7
370
    25
100
AcDbLine
 10
6728.5269539124
 20
5373.5148061259
 30
0.0
 11
6728.3408365404
 21
5373.5148061259
 31
0.0
  0
LWPOLYLINE
  5
198
330
1F
100
AcDbEntity
  8
0
  6
Continuous
 62
     7
370
    25
100
AcDbPolyline
 90
        4
 70
   128
 43
0.0
 10
6728.8532418811
 20
5373.1440198256
 10
6728.6337143317
 20
5373.3094278165
 10
6728.5302078228
 20
5373.4561670352
 10
6728.5269539124
 20
5373.5148061259
  0
ARC
  5
199
330
1F
100
AcDbEntity
  8
0
  6
Continuous
 62
     7
370
    25
100
AcDbCircle
 10
6729.332223019
 20
5373.5459019013
 30
0.0
 40
1.273610851788736
100
AcDbArc
 50
181.3990409589
 51
234.0764342984
  0
LWPOLYLINE
  5
19A
330
1F
100
AcDbEntity
  8
0
  6
Continuous
 62
     7
370
    25
100
AcDbPolyline
 90
        9
 70
   128
 43
0.0
 10
6722.8423369111
 20
5372.5145313272
 10
6722.8561187712
 20
5372.7291306814
 10
6722.8969347223
 20
5372.9354831028
 10
6722.9632162303
 20
5373.1256585835
 10
6723.0524161341
 20
5373.2923487865
 10
6723.1611065314
 20
5373.4291479007
 10
6723.2851105111
 20
5373.530798813
 10
6723.4196626698
 20
5373.5933951356
 10
6723.5595922437
 20
5373.6145313272
  0
LINE
  5
19B
330
1F
100
AcDbEntity
  8
0
  6
Continuous
 62
     7
370
    25
100
AcDbLine
 10
6723.5595922437
 20
5373.6145313272
 30
0.0
 11
6728.1610228484
 21
5373.6145313272
 31
0.0
  0
LWPOLYLINE
  5
19C
330
1F
100
AcDbEntity
  8
0
  6
Continuous
 62
     7
370
    25
100
AcDbPolyline
 90
        9
 70
   128
 43
0.0
 10
6728.0589918324
 20
5373.5148061259
 10
6728.1109457194
 20
5373.5914390571
 10
6728.1356660527
 20
5373.6086672738
 10
6728.14809974
 20
5373.613012514
 10
6728.148416758
 20
5373.613086197
 10
6728.1545884273
 20
5373.6141551732
 10
6728.1577376025
 20
5373.6144333034
 10
6728.1596844615
 20
5373.6145150611
 10
6728.1610228484
 20
5373.6145313272
  0
ARC
  5
19D
330
1F
100
AcDbEntity
  8
0
  6
Continuous
 62
     7
370
    25
100
AcDbCircle
 10
6728.1999141864
 20
5373.011234481
 30
0.0
 40
0.522918264571827
100
AcDbArc
 50
74.3659524638
 51
105.6340475363
  0
ARC
  5
19E
330
1F
100
AcDbEntity
  8
0
  6
Continuous
 62
     7
370
    25
100
AcDbCircle
 10
6728.1574716595
 20
5373.3961553109
 30
0.0
 40
0.2184048887580473
100
AcDbArc
 50
32.9058928676
 51
89.0683491454
  0
LINE
  5
19F
330
1F
100
AcDbEntity
  8
0
  6
Continuous
 62
     7
370
    25
100
AcDbLine
 10
6728.1610228484
 20
5373.6145313272
 30
0.0
 11
6728.1903513566
 21
5373.6145313272
 31
0.0
  0
ARC
  5
1A0
330
1F
100
AcDbEntity
  8
0
  6
Continuous
 62
     7
370
    25
100
AcDbCircle
 10
6728.1851463494
 20
5372.9790328165
 30
0.0
 40
0.6355198260025584
100
AcDbArc
 50
57.4633259454
 51
89.5307333198
  0
LINE
  5
1A1
330
1F
100
AcDbEntity
  8
0
  6
Continuous
 62
     7
370
    25
100
AcDbLine
 10
6728.1903513566
 20
5373.6145313272
 30
0.0
 11
6728.774421802
 21
5373.6145313272
 31
0.0
  0
ARC
  5
1A2
330
1F
100
AcDbEntity
  8
0
  6
Continuous
 62
     7
370
    25
100
AcDbCircle
 10
6726.5965683765
 20
5374.7212245404
 30
0.0
 40
1.676652782672593
100
AcDbArc
 50
172.5190627493
 51
221.3045297483
  0
LINE
  5
1A3
330
1F
100
AcDbEntity
  8
0
  6
Continuous
 62
     7
370
    25
100
AcDbLine
 10
6720.7455222293
 20
5373.784156263
 30
0.0
 11
6723.1899916294
 21
5373.6145313272
 31
0.0
  0
LWPOLYLINE
  5
1A4
330
1F
100
AcDbEntity
  8
0
  6
Continuous
 62
     7
370
    25
100
AcDbPolyline
 90
        3
 70
   128
 43
0.0
 10
6720.5522078248
 20
5373.896471867
 10
6722.5458591234
 20
5374.4166559006
 10
6724.9341868707
 20
5374.9395185687
  0
LWPOLYLINE
  5
1A5
330
1F
100
AcDbEntity
  8
0
  6
Continuous
 62
     7
370
    25
100
AcDbPolyline
 90
        9
 70
   128
 43
0.0
 10
6722.4931684466
 20
5372.5276861233
 10
6722.5079688812
 20
5372.7404082717
 10
6722.5485827519
 20
5372.9445813504
 10
6722.6134728908
 20
5373.1324777449
 10
6722.7001833129
 20
5373.2969858868
 10
6722.805432172
 20
5373.4318794142
 10
6722.9252359722
 20
5373.5320528296
 10
6723.0550603374
 20
5373.5937147344
 10
6723.1899916294
 20
5373.6145313272
  0
LINE
  5
1A6
330
1F
100
AcDbEntity
  8
0
  6
Continuous
 62
     7
370
    25
100
AcDbLine
 10
6723.1899916294
 20
5373.6145313272
 30
0.0
 11
6723.5595922437
 21
5373.6145313272
 31
0.0
  0
ARC
  5
1A7
330
1F
100
AcDbEntity
  8
0
  6
Continuous
 62
     7
370
    25
100
AcDbCircle
 10
6732.6075331734
 20
5337.863744871
 30
0.0
 40
37.86150074635326
100
AcDbArc
 50
94.7354070315
 51
101.6930688808
  0
LINE
  5
1A8
330
1F
100
AcDbEntity
  8
0
  6
Continuous
 62
     7
370
    25
100
AcDbLine
 10
6712.8701478466
 20
5377.9102844749
 30
0.0
 11
6714.5181641292
 21
5371.7539991155
 31
0.0
  0
LINE
  5
1A9
330
1F
100
AcDbEntity
  8
0
  6
Continuous
 62
     7
370
    25
100
AcDbLine
 10
6712.8701478466
 20
5377.9102844749
 30
0.0
 11
6722.7422740081
 21
5381.3679027242
 31
0.0
  0
LINE
  5
1AA
330
1F
100
AcDbEntity
  8
0
  6
Continuous
 62
     7
370
    25
100
AcDbLine
 10
6722.7422740081
 20
5381.3679027242
 30
0.0
 11
6724.4892082751
 21
5374.8421019993
 31
0.0
  0
LINE
  5
1AB
330
1F
100
AcDbEntity
  8
0
  6
Continuous
 62
     7
370
    25
100
AcDbLine
 10
6731.0613751347
 20
5381.835402396
 30
0.0
 11
6731.2918275122
 21
5380.9745306846
 31
0.0
  0
LINE
  5
1AC
330
1F
100
AcDbEntity
  8
0
  6
Continuous
 62
     7
370
    25
100
AcDbLine
 10
6722.7422740081
 20
5381.3679027242
 30
0.0
 11
6731.0613751347
 21
5381.835402396
 31
0.0
  0
LINE
  5
1AD
330
1F
100
AcDbEntity
  8
0
  6
Continuous
 62
     7
370
    25
100
AcDbLine
 10
6711.3171228117
 20
5374.9201658974
 30
0.0
 11
6712.4462905672
 21
5370.7020771596
 31
0.0
  0
LINE
  5
1AE
330
1F
100
AcDbEntity
  8
0
  6
Continuous
 62
     7
370
    25
100
AcDbLine
 10
6711.3171228117
 20
5374.9201658974
 30
0.0
 11
6712.8701478466
 21
5377.9102844749
 31
0.0
  0
LWPOLYLINE
  5
1AF
330
1F
100
AcDbEntity
  8
0
  6
Continuous
 62
     7
370
    25
100
AcDbPolyline
 90
       21
 70
   128
 43
0.0
 10
6711.3822612895
 20
5374.6768363492
 10
6710.8715066084
 20
5374.7931163411
 10
6710.2178270262
 20
5375.0865772289
 10
6709.8958574438
 20
5375.484861604
 10
6709.915380744
 20
5375.9758677971
 10
6710.2758037212
 20
5376.5446768334
 10
6710.9661751056
 20
5377.1740057384
 10
6711.9655183121
 20
5377.8447326715
 10
6713.2434688031
 20
5378.5364779345
 10
6714.7611966994
 20
5379.2282231974
 10
6716.4725866071
 20
5379.8989501305
 10
6718.3256388098
 20
5380.5282790355
 10
6720.2640492539
 20
5381.0970880718
 10
6722.2289203191
 20
5381.5880942649
 10
6724.1605503922
 20
5381.98637864
 10
6726.000247871
 20
5382.2798395278
 10
6727.6921144785
 20
5382.4595602679
 10
6729.184743704
 20
5382.5200801365
 10
6730.4327827637
 20
5382.4595602679
 10
6731.3983106223
 20
5382.2798395278
 10
6731.6963313834
 20
5382.1765864071
  0
LWPOLYLINE
  5
1B0
330
1F
100
AcDbEntity
  8
0
  6
Continuous
 62
     7
370
    25
100
AcDbPolyline
 90
       22
 70
   128
 43
0.0
 10
6711.5250585998
 20
5374.1434065523
 10
6710.9102809685
 20
5374.1879965039
 10
6709.8732192129
 20
5374.3667394238
 10
6709.1433469872
 20
5374.6592219406
 10
6708.7405733031
 20
5375.0574658936
 10
6708.6758847766
 20
5375.550608226
 10
6708.9510459423
 20
5376.1251973004
 10
6709.5585511206
 20
5376.7655598248
 10
6710.4818291542
 20
5377.4542283788
 10
6711.6956954249
 20
5378.1724178795
 10
6713.1670388253
 20
5378.9005379894
 10
6714.8557249428
 20
5379.6187274901
 10
6716.7156908224
 20
5380.3073960441
 10
6718.6962014433
 20
5380.9477585685
 10
6720.7432336386
 20
5381.5223476429
 10
6722.8009497062
 20
5382.0154899753
 10
6724.813220516
 20
5382.4137339283
 10
6726.7251565657
 20
5382.7062164451
 10
6728.484605224
 20
5382.884959365
 10
6730.0435733181
 20
5382.9450870471
 10
6731.3595362623
 20
5382.884959365
 10
6731.9098358751
 20
5382.8110532545
  0
LINE
  5
1B1
330
1F
100
AcDbEntity
  8
0
  6
Continuous
 62
     7
370
    25
100
AcDbLine
 10
6728.2541167559
 20
5386.2429855518
 30
0.0
 11
6729.4502800306
 21
5386.1884175996
 31
0.0
  0
LWPOLYLINE
  5
1B2
330
1F
100
AcDbEntity
  8
0
  6
Continuous
 62
     7
370
    25
100
AcDbPolyline
 90
       13
 70
   128
 43
0.0
 10
6709.4539950617
 20
5380.4777183222
 10
6709.9036848329
 20
5380.8582170521
 10
6710.9102611388
 20
5381.5337986083
 10
6712.1974612478
 20
5382.2305506219
 10
6713.7261742358
 20
5382.9273026355
 10
6715.4499509324
 20
5383.6028841917
 10
6717.3164152548
 20
5384.2367680869
 10
6719.2688556292
 20
5384.8096940795
 10
6721.2479481426
 20
5385.3042541033
 10
6723.1935590706
 20
5385.7054212022
 10
6725.0465720096
 20
5386.0010061169
 10
6726.7506840992
 20
5386.1820276493
 10
6728.2541167559
 20
5386.2429855518
  0
LWPOLYLINE
  5
1B3
330
1F
100
AcDbEntity
  8
0
  6
Continuous
 62
     7
370
    25
100
AcDbPolyline
 90
        3
 70
   128
 43
0.0
 10
6712.3028993248
 20
5376.8181318664
 10
6711.2309048431
 20
5376.8776371433
 10
6710.6967848996
 20
5376.9554785227
  0
LWPOLYLINE
  5
1B4
330
1F
100
AcDbEntity
  8
0
  6
Continuous
 62
     7
370
    25
100
AcDbPolyline
 90
        3
 70
   128
 43
0.0
 10
6730.966902705
 20
5382.3817189011
 10
6730.6975125012
 20
5382.1631916728
 10
6730.1645212844
 20
5381.7850028548
  0
LINE
  5
1B5
330
1F
100
AcDbEntity
  8
0
  6
Continuous
 62
     8
370
    25
100
AcDbLine
 10
7027.3562739082
 20
5333.1145313272
 30
0.0
 11
6859.3562739082
 21
5333.1145313272
 31
0.0
  0
LINE
  5
1B6
330
1F
100
AcDbEntity
  8
0
  6
Continuous
 62
     8
370
    25
100
AcDbLine
 10
6741.0156141109
 20
5370.1384942153
 30
0.0
 11
6734.3622120852
 21
5370.1384942153
 31
0.0
  0
ELLIPSE
  5
1B7
330
1F
100
AcDbEntity
  8
0
  6
Continuous
 62
     8
370
    25
100
AcDbEllipse
 10
6744.6633813849
 20
5367.8397947501
 30
0.0
 11
9.408319001817288
 21
-3.462025061321583
 31
0.0
210
0.0
220
0.0
230
1.0
 40
0.2758376869
 41
6.064537914595076
 42
6.94636125193582
  0
ELLIPSE
  5
1B8
330
1F
100
AcDbEntity
  8
0
  6
Continuous
 62
     8
370
    25
100
AcDbEllipse
 10
6744.5103802231
 20
5367.3851243871
 30
0.0
 11
9.914891015680951
 21
-3.437147926746548
 31
0.0
210
0.0
220
0.0
230
1.0
 40
0.265058733
 41
4.321937436083451
 42
6.374814650349919
  0
LWPOLYLINE
  5
1B9
330
1F
100
AcDbEntity
  8
0
  6
Continuous
 62
     8
370
    25
100
AcDbPolyline
 90
        7
 70
   128
 43
0.0
 10
6718.6139845546
 20
5342.0595350461
 10
6718.8604884832
 20
5341.4003724889
 10
6719.4554771419
 20
5340.2043390548
 10
6720.7714568732
 20
5337.5729412876
 10
6722.4669749826
 20
5333.614582652
 10
6722.4669950724
 20
5333.6145313272
 10
6722.4669950724
 20
5333.6145313272
  0
LWPOLYLINE
  5
1BA
330
1F
100
AcDbEntity
  8
0
  6
Continuous
 62
     8
370
    25
100
AcDbPolyline
 90
        6
 70
   128
 43
0.0
 10
6736.3828156782
 20
5396.1033140974
 10
6736.3785810734
 20
5396.0785711993
 10
6736.395670196
 20
5396.0155240831
 10
6736.4486878335
 20
5395.9435941471
 10
6736.5355965479
 20
5395.8655456184
 10
6736.653056486
 20
5395.7843778582
  0
ARC
  5
1BB
330
1F
100
AcDbEntity
  8
0
  6
Continuous
 62
     8
370
    25
100
AcDbCircle
 10
6737.3278062512
 20
5396.2132210309
 30
0.0
 40
0.5711636201731484
100
AcDbArc
 50
57.2734954748
 51
89.7205637893
  0
LWPOLYLINE
  5
1BC
330
1F
100
AcDbEntity
  8
0
  6
Continuous
 62
     8
370
    25
100
AcDbPolyline
 90
        6
 70
   128
 43
0.0
 10
6729.0807603072
 20
5374.4039483608
 10
6729.0765257024
 20
5374.3792054628
 10
6729.093614825
 20
5374.3161583466
 10
6729.1466324625
 20
5374.2442284106
 10
6729.2335411769
 20
5374.1661798819
 10
6729.3510011149
 20
5374.0850121217
  0
ARC
  5
1BD
330
1F
100
AcDbEntity
  8
0
  6
Continuous
 62
     8
370
    25
100
AcDbCircle
 10
6750.5397458867
 20
5396.2132210309
 30
0.0
 40
0.5711636201770776
100
AcDbArc
 50
57.2734954749
 51
89.7205637891
  0
ARC
  5
1BE
330
1F
100
AcDbEntity
  8
0
  6
Continuous
 62
     8
370
    25
100
AcDbCircle
 10
6749.3547341693
 20
5371.9600672916
 30
0.0
 40
2.639816888822387
100
AcDbArc
 50
161.6924509519
 51
183.076649771
  0
ARC
  5
1BF
330
1F
100
AcDbEntity
  8
0
  6
Continuous
 62
     8
370
    25
100
AcDbCircle
 10
6689.3339996265
 20
5325.3704224081
 30
0.0
 40
32.34936207197996
100
AcDbArc
 50
14.764466336
 51
22.1931180596
  0
ARC
  5
1C0
330
1F
100
AcDbEntity
  8
0
  6
Continuous
 62
     8
370
    25
100
AcDbCircle
 10
6733.1851000297
 20
5637.712788024
 30
0.0
 40
262.9027742497594
100
AcDbArc
 50
268.2015399364
 51
269.1374516989
  0
ELLIPSE
  5
1C1
330
1F
100
AcDbEntity
  8
0
  6
Continuous
 62
     8
370
    25
100
AcDbEllipse
 10
6753.2177762417
 20
5394.1201690067
 30
0.0
 11
1.065095882583591
 21
0.02981303284923342
 31
0.0
210
0.0
220
0.0
230
1.0
 40
0.0230465484
 41
6.273875539586915
 42
6.972007240398151
  0
ELLIPSE
  5
1C2
330
1F
100
AcDbEntity
  8
0
  6
Continuous
 62
     8
370
    25
100
AcDbEllipse
 10
6753.2177762417
 20
5394.1201690067
 30
0.0
 11
0.8999658923648894
 21
0.5980938315424282
 31
0.0
210
0.0
220
0.0
230
1.0
 40
0.4069399978
 41
0.1964012445826754
 42
0.5494379898665409
  0
LWPOLYLINE
  5
1C3
330
1F
100
AcDbEntity
  8
0
  6
Continuous
 62
     8
370
    25
100
AcDbPolyline
 90
        5
 70
   128
 43
0.0
 10
6747.1274989756
 20
5372.886396067
 10
6747.1122374627
 20
5372.859397534
 10
6747.0569053296
 20
5372.8209501822
 10
6746.9678635638
 20
5372.7972744199
 10
6746.8485339905
 20
5372.7892800933
  0
LWPOLYLINE
  5
1C4
330
1F
100
AcDbEntity
  8
0
  6
Continuous
 62
     8
370
    25
100
AcDbPolyline
 90
        3
 70
   128
 43
0.0
 10
6751.0707446196
 20
5396.6334896807
 10
6750.9748346548
 20
5396.6762458573
 10
6750.8485338109
 20
5396.6937185843
  0
LWPOLYLINE
  5
1C5
330
1F
100
AcDbEntity
  8
0
  6
Continuous
 62
     8
370
    25
100
AcDbPolyline
 90
       16
 70
   128
 43
0.0
 10
6729.5110687178
 20
5384.9342969289
 10
6727.9521006237
 20
5384.8741692468
 10
6726.1926519654
 20
5384.6954263269
 10
6724.2807159156
 20
5384.4029438102
 10
6722.2684451059
 20
5384.0046998571
 10
6720.2107290382
 20
5383.5115575248
 10
6718.1636968429
 20
5382.9369684503
 10
6716.183186222
 20
5382.2966059259
 10
6714.3232203425
 20
5381.6079373719
 10
6712.6345342249
 20
5380.8897478712
 10
6711.1631908246
 20
5380.1616277613
 10
6709.9493245538
 20
5379.4434382606
 10
6709.0260465203
 20
5378.7547697066
 10
6708.4185413419
 20
5378.1144071822
 10
6708.1433801763
 20
5377.5398181078
 10
6708.1509202178
 20
5377.1924687006
  0
ARC
  5
1C6
330
1F
100
AcDbEntity
  8
0
  6
Continuous
 62
     8
370
    25
100
AcDbCircle
 10
6729.9544818106
 20
5378.0692631555
 30
0.0
 40
6.879338913103416
100
AcDbArc
 50
68.5609084904
 51
93.6956055829
  0
LINE
  5
1C7
330
1F
100
AcDbEntity
  8
0
  6
Continuous
 62
     7
370
    25
100
AcDbLine
 10
6373.6948181735
 20
4734.3972384356
 30
0.0
 11
6388.0368769889
 21
4721.1852988
 31
0.0
  0
LWPOLYLINE
  5
1C8
330
1F
100
AcDbEntity
  8
0
  6
Continuous
 62
     7
370
    25
100
AcDbPolyline
 90
       10
 70
   128
 43
0.0
 10
6393.0557205106
 20
4761.6869032617
 10
6392.4852963487
 20
4761.0676864329
 10
6391.249195372
 20
4759.7258524877
 10
6390.1480296399
 20
4758.5304958392
 10
6389.1111959329
 20
4757.40497403
 10
6388.0682769098
 20
4756.2728463799
 10
6386.9773036561
 20
4755.0885540491
 10
6385.20895758
 20
4753.1689481323
 10
6383.4566118908
 20
4751.2667112371
 10
6381.8135210879
 20
4749.4830746403
  0
LWPOLYLINE
  5
1C9
330
1F
100
AcDbEntity
  8
0
  6
Continuous
 62
     7
370
    25
100
AcDbPolyline
 90
        9
 70
   128
 43
0.0
 10
6402.4086731332
 20
4730.5137555303
 10
6404.5227236889
 20
4732.8086375303
 10
6406.7725517389
 20
4735.2509111228
 10
6408.9659060839
 20
4737.6318803795
 10
6409.941199569
 20
4738.6905984263
 10
6410.9252639769
 20
4739.7588376406
 10
6411.9772780475
 20
4740.9008387772
 10
6413.1564198817
 20
4742.1808418965
 10
6413.6508085418
 20
4742.717519501
  0
LWPOLYLINE
  5
1CA
330
1F
100
AcDbEntity
  8
0
  6
Continuous
 62
     7
370
    25
100
AcDbPolyline
 90
       22
 70
   128
 43
0.0
 10
6415.6083948893
 20
4746.5534913705
 10
6415.8061961508
 20
4746.773898157
 10
6416.8351891649
 20
4748.3916527097
 10
6417.5888595314
 20
4750.1608762897
 10
6418.0497429647
 20
4752.0388954409
 10
6418.2070072177
 20
4753.9807287361
 10
6418.0566791315
 20
4755.939814739
 10
6417.601887939
 20
4757.8688691876
 10
6416.8530093733
 20
4759.7209185814
 10
6415.8276062439
 20
4761.4504637377
 10
6414.5501224054
 20
4763.0146754373
 10
6413.0513507353
 20
4764.3745301524
 10
6411.3677393283
 20
4765.4958280414
 10
6409.5407710249
 20
4766.3500281282
 10
6407.615610643
 20
4766.915315341
 10
6405.6402054763
 20
4767.1771151371
 10
6403.6640605157
 20
4767.1286474753
 10
6401.7368490173
 20
4766.7712651502
 10
6399.9069082446
 20
4766.114477319
 10
6398.2197430565
 20
4765.1755864912
 10
6396.7167056018
 20
4763.9789516046
 10
6396.6449157244
 20
4763.8992568569
  0
LINE
  5
1CB
330
1F
100
AcDbEntity
  8
0
  6
Continuous
 62
     7
370
    25
100
AcDbLine
 10
6396.1331376711
 20
4763.3891932584
 30
0.0
 11
6395.6425931317
 21
4762.8566886581
 31
0.0
  0
LINE
  5
1CC
330
1F
100
AcDbEntity
  8
0
  6
Continuous
 62
     7
370
    25
100
AcDbLine
 10
6414.60339905
 20
4745.3899479023
 30
0.0
 11
6415.0939435893
 21
4745.9224525027
 31
0.0
  0
LINE
  5
1CD
330
1F
100
AcDbEntity
  8
0
  6
Continuous
 62
     7
370
    25
100
AcDbLine
 10
6108.0187553361
 20
4831.9019529873
 30
0.0
 11
6108.0187553361
 21
4834.0019529873
 31
0.0
  0
LINE
  5
1CE
330
1F
100
AcDbEntity
  8
0
  6
Continuous
 62
     7
370
    25
100
AcDbLine
 10
6442.0187553361
 20
4834.0019529873
 30
0.0
 11
6108.0187553361
 21
4834.0019529873
 31
0.0
  0
LINE
  5
1CF
330
1F
100
AcDbEntity
  8
0
  6
Continuous
 62
     7
370
    25
100
AcDbLine
 10
6442.0187553361
 20
4834.0019529873
 30
0.0
 11
6442.0187553361
 21
4831.9019529873
 31
0.0
  0
LINE
  5
1D0
330
1F
100
AcDbEntity
  8
0
  6
Continuous
 62
     7
370
    25
100
AcDbLine
 10
6442.0187553361
 20
4831.9019529873
 30
0.0
 11
6108.0187553361
 21
4831.9019529873
 31
0.0
  0
LINE
  5
1D1
330
1F
100
AcDbEntity
  8
0
  6
Continuous
 62
     7
370
    25
100
AcDbLine
 10
6108.0187553361
 20
4830.9019529873
 30
0.0
 11
6440.0187553361
 21
4830.9019529873
 31
0.0
  0
LINE
  5
1D2
330
1F
100
AcDbEntity
  8
0
  6
Continuous
 62
     7
370
    25
100
AcDbLine
 10
6440.0187553361
 20
4830.9019529873
 30
0.0
 11
6440.0187553361
 21
4831.9019529873
 31
0.0
  0
LINE
  5
1D3
330
1F
100
AcDbEntity
  8
0
  6
Continuous
 62
     7
370
    25
100
AcDbLine
 10
6108.0187553361
 20
4831.9019529873
 30
0.0
 11
6108.0187553361
 21
4830.9019529873
 31
0.0
  0
LINE
  5
1D4
330
1F
100
AcDbEntity
  8
0
  6
Continuous
 62
     7
370
    25
100
AcDbLine
 10
6442.0187553361
 20
4831.9019529873
 30
0.0
 11
6442.0187553361
 21
4615.9019529873
 31
0.0
  0
LINE
  5
1D5
330
1F
100
AcDbEntity
  8
0
  6
Continuous
 62
     7
370
    25
100
AcDbLine
 10
6442.0187553361
 20
4615.9019529873
 30
0.0
 11
6441.5187553361
 21
4615.9019529873
 31
0.0
  0
ARC
  5
1D6
330
1F
100
AcDbEntity
  8
0
  6
Continuous
 62
     7
370
    25
100
AcDbCircle
 10
6262.1567559333
 20
4813.880439522
 30
0.0
 40
1.857677347414614
100
AcDbArc
 50
357.0076979382
 51
91.0595859788
  0
LINE
  5
1D7
330
1F
100
AcDbEntity
  8
0
  6
Continuous
 62
     7
370
    25
100
AcDbLine
 10
6262.1224033738
 20
4815.7377992149
 30
0.0
 11
6262.0235980353
 21
4815.7293931819
 31
0.0
  0
LINE
  5
1D8
330
1F
100
AcDbEntity
  8
0
  6
Continuous
 62
     7
370
    25
100
AcDbLine
 10
6262.0235980353
 20
4815.7293931819
 30
0.0
 11
6261.9601393764
 21
4815.7293931819
 31
0.0
  0
ARC
  5
1D9
330
1F
100
AcDbEntity
  8
0
  6
Continuous
 62
     7
370
    25
100
AcDbCircle
 10
6262.0971846454
 20
4813.7137193235
 30
0.0
 40
2.020327327184289
100
AcDbArc
 50
93.8895428609
 51
181.6254812535
  0
LINE
  5
1DA
330
1F
100
AcDbEntity
  8
0
  6
Continuous
 62
     7
370
    25
100
AcDbLine
 10
6260.0776703009
 20
4813.656410326
 30
0.0
 11
6260.0579643547
 21
4812.2241463286
 31
0.0
  0
LINE
  5
1DB
330
1F
100
AcDbEntity
  8
0
  6
Continuous
 62
     7
370
    25
100
AcDbLine
 10
6260.0579643547
 20
4812.2241463286
 30
0.0
 11
6259.1294422193
 21
4812.2227682904
 31
0.0
  0
LINE
  5
1DC
330
1F
100
AcDbEntity
  8
0
  6
Continuous
 62
     7
370
    25
100
AcDbLine
 10
6259.1294422193
 20
4812.2227682904
 30
0.0
 11
6259.5075758999
 21
4811.0825794883
 31
0.0
  0
LINE
  5
1DD
330
1F
100
AcDbEntity
  8
0
  6
Continuous
 62
     7
370
    25
100
AcDbLine
 10
6259.5075758999
 20
4811.0825794883
 30
0.0
 11
6260.0029117289
 21
4811.0755514935
 31
0.0
  0
LINE
  5
1DE
330
1F
100
AcDbEntity
  8
0
  6
Continuous
 62
     7
370
    25
100
AcDbLine
 10
6260.0029117289
 20
4811.0755514935
 30
0.0
 11
6260.0085616855
 21
4807.3742098052
 31
0.0
  0
LINE
  5
1DF
330
1F
100
AcDbEntity
  8
0
  6
Continuous
 62
     7
370
    25
100
AcDbLine
 10
6260.0085616855
 20
4807.3742098052
 30
0.0
 11
6261.1007258565
 21
4807.3897127348
 31
0.0
  0
LINE
  5
1E0
330
1F
100
AcDbEntity
  8
0
  6
Continuous
 62
     7
370
    25
100
AcDbLine
 10
6261.1007258565
 20
4807.3897127348
 30
0.0
 11
6261.0950758999
 21
4811.0628046402
 31
0.0
  0
LINE
  5
1E1
330
1F
100
AcDbEntity
  8
0
  6
Continuous
 62
     7
370
    25
100
AcDbLine
 10
6261.0950758999
 20
4811.0628046402
 30
0.0
 11
6262.0320729702
 21
4811.0712795751
 31
0.0
  0
LINE
  5
1E2
330
1F
100
AcDbEntity
  8
0
  6
Continuous
 62
     7
370
    25
100
AcDbLine
 10
6262.0320729702
 20
4811.0712795751
 30
0.0
 11
6262.8956895066
 21
4811.07975451
 31
0.0
  0
LINE
  5
1E3
330
1F
100
AcDbEntity
  8
0
  6
Continuous
 62
     7
370
    25
100
AcDbLine
 10
6262.8956895066
 20
4811.07975451
 30
0.0
 11
6262.8872145718
 21
4807.3784128216
 31
0.0
  0
LINE
  5
1E4
330
1F
100
AcDbEntity
  8
0
  6
Continuous
 62
     7
370
    25
100
AcDbLine
 10
6262.8872145718
 20
4807.3784128216
 30
0.0
 11
6264.0076285257
 21
4807.3939157513
 31
0.0
  0
LINE
  5
1E5
330
1F
100
AcDbEntity
  8
0
  6
Continuous
 62
     7
370
    25
100
AcDbLine
 10
6264.0076285257
 20
4807.3939157513
 30
0.0
 11
6264.0119004441
 21
4813.7834654475
 31
0.0
  0
ARC
  5
1E6
330
1F
100
AcDbEntity
  8
0
  6
Continuous
 62
     7
370
    25
100
AcDbCircle
 10
6281.0899695961
 20
4813.8761646107
 30
0.0
 40
1.869370984866915
100
AcDbArc
 50
357.3732782631
 51
91.4987318942
  0
LINE
  5
1E7
330
1F
100
AcDbEntity
  8
0
  6
Continuous
 62
     7
370
    25
100
AcDbLine
 10
6281.0410765283
 20
4815.7448960914
 30
0.0
 11
6280.8845313895
 21
4815.7448960914
 31
0.0
  0
ARC
  5
1E8
330
1F
100
AcDbEntity
  8
0
  6
Continuous
 62
     7
370
    25
100
AcDbCircle
 10
6281.0260196453
 20
4813.7167335974
 30
0.0
 40
2.033091741387845
100
AcDbArc
 50
93.9905911162
 51
181.4593857113
  0
LINE
  5
1E9
330
1F
100
AcDbEntity
  8
0
  6
Continuous
 62
     7
370
    25
100
AcDbLine
 10
6278.993587379
 20
4813.6649541427
 30
0.0
 11
6278.9752594711
 21
4812.2312432052
 31
0.0
  0
LINE
  5
1EA
330
1F
100
AcDbEntity
  8
0
  6
Continuous
 62
     7
370
    25
100
AcDbLine
 10
6278.9752594711
 20
4812.2312432052
 30
0.0
 11
6278.2669478391
 21
4812.2312432052
 31
0.0
  0
LINE
  5
1EB
330
1F
100
AcDbEntity
  8
0
  6
Continuous
 62
     7
370
    25
100
AcDbLine
 10
6278.2669478391
 20
4812.2312432052
 30
0.0
 11
6278.0679591238
 21
4812.229796265
 31
0.0
  0
LINE
  5
1EC
330
1F
100
AcDbEntity
  8
0
  6
Continuous
 62
     7
370
    25
100
AcDbLine
 10
6278.0679591238
 20
4812.229796265
 30
0.0
 11
6278.2683258773
 21
4811.6145711131
 31
0.0
  0
LINE
  5
1ED
330
1F
100
AcDbEntity
  8
0
  6
Continuous
 62
     7
370
    25
100
AcDbLine
 10
6278.2683258773
 20
4811.6145711131
 30
0.0
 11
6278.4376867714
 21
4811.0896763649
 31
0.0
  0
LINE
  5
1EE
330
1F
100
AcDbEntity
  8
0
  6
Continuous
 62
     7
370
    25
100
AcDbLine
 10
6278.4376867714
 20
4811.0896763649
 30
0.0
 11
6278.9273037419
 21
4811.1108292512
 31
0.0
  0
LINE
  5
1EF
330
1F
100
AcDbEntity
  8
0
  6
Continuous
 62
     7
370
    25
100
AcDbLine
 10
6278.9273037419
 20
4811.1108292512
 30
0.0
 11
6278.9259257037
 21
4807.3967407095
 31
0.0
  0
LINE
  5
1F0
330
1F
100
AcDbEntity
  8
0
  6
Continuous
 62
     7
370
    25
100
AcDbLine
 10
6278.9259257037
 20
4807.3967407095
 30
0.0
 11
6280.039242761
 21
4807.3981876496
 31
0.0
  0
LINE
  5
1F1
330
1F
100
AcDbEntity
  8
0
  6
Continuous
 62
     7
370
    25
100
AcDbLine
 10
6280.039242761
 20
4807.3981876496
 30
0.0
 11
6280.047648794
 21
4811.0840264083
 31
0.0
  0
LINE
  5
1F2
330
1F
100
AcDbEntity
  8
0
  6
Continuous
 62
     7
370
    25
100
AcDbLine
 10
6280.047648794
 20
4811.0840264083
 30
0.0
 11
6280.9480589502
 21
4811.0854044465
 31
0.0
  0
LINE
  5
1F3
330
1F
100
AcDbEntity
  8
0
  6
Continuous
 62
     7
370
    25
100
AcDbLine
 10
6280.9480589502
 20
4811.0854044465
 30
0.0
 11
6281.8130535249
 21
4811.0868513866
 31
0.0
  0
LINE
  5
1F4
330
1F
100
AcDbEntity
  8
0
  6
Continuous
 62
     7
370
    25
100
AcDbLine
 10
6281.8130535249
 20
4811.0868513866
 30
0.0
 11
6281.8187034815
 21
4807.4010126279
 31
0.0
  0
LINE
  5
1F5
330
1F
100
AcDbEntity
  8
0
  6
Continuous
 62
     7
370
    25
100
AcDbLine
 10
6281.8187034815
 20
4807.4010126279
 30
0.0
 11
6282.9460765284
 21
4807.4023906661
 31
0.0
  0
LINE
  5
1F6
330
1F
100
AcDbEntity
  8
0
  6
Continuous
 62
     7
370
    25
100
AcDbLine
 10
6282.9460765284
 20
4807.4023906661
 30
0.0
 11
6282.9573764415
 21
4813.7904934222
 31
0.0
  0
LWPOLYLINE
  5
1F7
330
1F
100
AcDbEntity
  8
0
  6
Continuous
 62
     7
370
    25
100
AcDbPolyline
 90
        3
 70
   128
 43
0.0
 10
6392.6412274326
 20
4724.7075571628
 10
6393.3420734419
 20
4725.2710547737
 10
6393.4735986862
 20
4725.3878321723
  0
LINE
  5
1F8
330
1F
100
AcDbEntity
  8
0
  6
Continuous
 62
     7
370
    25
100
AcDbLine
 10
6394.9015027046
 20
4726.950516778
 30
0.0
 11
6395.4007894218
 21
4727.6740583175
 31
0.0
  0
LWPOLYLINE
  5
1F9
330
1F
100
AcDbEntity
  8
0
  6
Continuous
 62
     7
370
    25
100
AcDbPolyline
 90
        3
 70
   128
 43
0.0
 10
6379.9703743231
 20
4742.6855290589
 10
6379.6391096813
 20
4742.4540278379
 10
6379.200955873
 20
4742.1185820081
  0
LWPOLYLINE
  5
1FA
330
1F
100
AcDbEntity
  8
0
  6
Continuous
 62
     7
370
    25
100
AcDbPolyline
 90
        3
 70
   128
 43
0.0
 10
6377.6125906129
 20
4740.5464982243
 10
6376.9244416656
 20
4739.6147076957
 10
6376.502373135
 20
4738.9208829598
  0
LINE
  5
1FB
330
1F
100
AcDbEntity
  8
0
  6
Continuous
 62
     7
370
    25
100
AcDbLine
 10
6107.0187553361
 20
4832.9019529873
 30
0.0
 11
6107.0187553361
 21
4829.9019529873
 31
0.0
  0
LINE
  5
1FC
330
1F
100
AcDbEntity
  8
0
  6
Continuous
 62
     7
370
    25
100
AcDbLine
 10
6107.0187553361
 20
4829.9019529873
 30
0.0
 11
6108.0187553361
 21
4829.9019529873
 31
0.0
  0
LINE
  5
1FD
330
1F
100
AcDbEntity
  8
0
  6
Continuous
 62
     7
370
    25
100
AcDbLine
 10
6440.0187553361
 20
4830.9019529873
 30
0.0
 11
6440.0187553361
 21
4829.9019529873
 31
0.0
  0
ARC
  5
1FE
330
1F
100
AcDbEntity
  8
0
  6
Continuous
 62
     7
370
    25
100
AcDbCircle
 10
6274.0187553361
 20
4615.9019529873
 30
0.0
 40
167.5000000000009
100
AcDbArc
 50
180.0
 51
0.0
  0
LINE
  5
1FF
330
1F
100
AcDbEntity
  8
0
  6
Continuous
 62
     7
370
    25
100
AcDbLine
 10
6106.5187553361
 20
4832.9019529873
 30
0.0
 11
6106.5187553361
 21
4615.9019529873
 31
0.0
  0
CIRCLE
  5
200
330
1F
100
AcDbEntity
  8
0
  6
Continuous
 62
     7
370
    25
100
AcDbCircle
 10
6274.0187553361
 20
4615.9019529873
 30
0.0
 40
134.0
  0
LINE
  5
201
330
1F
100
AcDbEntity
  8
0
  6
Continuous
 62
     7
370
    25
100
AcDbLine
 10
6274.3185927865
 20
4811.1051792157
 30
0.0
 11
6271.8153863865
 21
4811.1150324157
 31
0.0
  0
LINE
  5
202
330
1F
100
AcDbEntity
  8
0
  6
Continuous
 62
     7
370
    25
100
AcDbLine
 10
6273.9264031865
 20
4812.2876740157
 30
0.0
 11
6274.3185927865
 21
4811.1051792157
 31
0.0
  0
LINE
  5
203
330
1F
100
AcDbEntity
  8
0
  6
Continuous
 62
     7
370
    25
100
AcDbLine
 10
6271.8914539865
 20
4812.2848488157
 30
0.0
 11
6273.9264031865
 21
4812.2876740157
 31
0.0
  0
LINE
  5
204
330
1F
100
AcDbEntity
  8
0
  6
Continuous
 62
     7
370
    25
100
AcDbLine
 10
6271.8886979865
 20
4814.3916624157
 30
0.0
 11
6271.8914539865
 21
4812.2848488157
 31
0.0
  0
LINE
  5
205
330
1F
100
AcDbEntity
  8
0
  6
Continuous
 62
     7
370
    25
100
AcDbLine
 10
6273.9800087865
 20
4814.3944876157
 30
0.0
 11
6271.8886979865
 21
4814.3916624157
 31
0.0
  0
LINE
  5
206
330
1F
100
AcDbEntity
  8
0
  6
Continuous
 62
     7
370
    25
100
AcDbLine
 10
6273.9784927865
 20
4815.5854572157
 30
0.0
 11
6273.9800087865
 21
4814.3944876157
 31
0.0
  0
LINE
  5
207
330
1F
100
AcDbEntity
  8
0
  6
Continuous
 62
     7
370
    25
100
AcDbLine
 10
6270.7598091865
 20
4815.5798072157
 30
0.0
 11
6273.9784927865
 21
4815.5854572157
 31
0.0
  0
LINE
  5
208
330
1F
100
AcDbEntity
  8
0
  6
Continuous
 62
     7
370
    25
100
AcDbLine
 10
6270.7654591865
 20
4812.2623180157
 30
0.0
 11
6270.7598091865
 21
4815.5798072157
 31
0.0
  0
LINE
  5
209
330
1F
100
AcDbEntity
  8
0
  6
Continuous
 62
     7
370
    25
100
AcDbLine
 10
6269.8708367865
 20
4812.2608708157
 30
0.0
 11
6270.7654591865
 21
4812.2623180157
 31
0.0
  0
LINE
  5
20A
330
1F
100
AcDbEntity
  8
0
  6
Continuous
 62
     7
370
    25
100
AcDbLine
 10
6269.8595367865
 20
4815.5784292157
 30
0.0
 11
6269.8708367865
 21
4812.2608708157
 31
0.0
  0
LINE
  5
20B
330
1F
100
AcDbEntity
  8
0
  6
Continuous
 62
     7
370
    25
100
AcDbLine
 10
6269.6111451865
 20
4815.5784292157
 30
0.0
 11
6269.8595367865
 21
4815.5784292157
 31
0.0
  0
LINE
  5
20C
330
1F
100
AcDbEntity
  8
0
  6
Continuous
 62
     7
370
    25
100
AcDbLine
 10
6268.5542587865
 20
4815.5769820157
 30
0.0
 11
6269.6111451865
 21
4815.5784292157
 31
0.0
  0
LINE
  5
20D
330
1F
100
AcDbEntity
  8
0
  6
Continuous
 62
     7
370
    25
100
AcDbLine
 10
6268.5584619865
 20
4812.7759128157
 30
0.0
 11
6268.5542587865
 21
4815.5769820157
 31
0.0
  0
LINE
  5
20E
330
1F
100
AcDbEntity
  8
0
  6
Continuous
 62
     7
370
    25
100
AcDbLine
 10
6264.9163759865
 20
4815.6771656157
 30
0.0
 11
6268.5584619865
 21
4812.7759128157
 31
0.0
  0
LINE
  5
20F
330
1F
100
AcDbEntity
  8
0
  6
Continuous
 62
     7
370
    25
100
AcDbLine
 10
6264.9375975865
 20
4807.3742096157
 30
0.0
 11
6264.9163759865
 21
4815.6771656157
 31
0.0
  0
LINE
  5
210
330
1F
100
AcDbEntity
  8
0
  6
Continuous
 62
     7
370
    25
100
AcDbLine
 10
6266.1059675865
 20
4807.3770348157
 30
0.0
 11
6264.9375975865
 21
4807.3742096157
 31
0.0
  0
LINE
  5
211
330
1F
100
AcDbEntity
  8
0
  6
Continuous
 62
     7
370
    25
100
AcDbLine
 10
6266.1129955865
 20
4812.9424488157
 30
0.0
 11
6266.1059675865
 21
4807.3770348157
 31
0.0
  0
LINE
  5
212
330
1F
100
AcDbEntity
  8
0
  6
Continuous
 62
     7
370
    25
100
AcDbLine
 10
6268.5824399865
 20
4811.0670764157
 30
0.0
 11
6266.1129955865
 21
4812.9424488157
 31
0.0
  0
LINE
  5
213
330
1F
100
AcDbEntity
  8
0
  6
Continuous
 62
     7
370
    25
100
AcDbLine
 10
6268.5880899865
 20
4807.3600848157
 30
0.0
 11
6268.5824399865
 21
4811.0670764157
 31
0.0
  0
LINE
  5
214
330
1F
100
AcDbEntity
  8
0
  6
Continuous
 62
     7
370
    25
100
AcDbLine
 10
6269.6224451865
 20
4807.3742096157
 30
0.0
 11
6268.5880899865
 21
4807.3600848157
 31
0.0
  0
LINE
  5
215
330
1F
100
AcDbEntity
  8
0
  6
Continuous
 62
     7
370
    25
100
AcDbLine
 10
6269.8510619865
 20
4807.3826848157
 30
0.0
 11
6269.6224451865
 21
4807.3742096157
 31
0.0
  0
LINE
  5
216
330
1F
100
AcDbEntity
  8
0
  6
Continuous
 62
     7
370
    25
100
AcDbLine
 10
6269.8242587865
 20
4811.0910544157
 30
0.0
 11
6269.8510619865
 21
4807.3826848157
 31
0.0
  0
LINE
  5
217
330
1F
100
AcDbEntity
  8
0
  6
Continuous
 62
     7
370
    25
100
AcDbLine
 10
6270.7950867865
 20
4811.0925012157
 30
0.0
 11
6269.8242587865
 21
4811.0910544157
 31
0.0
  0
LINE
  5
218
330
1F
100
AcDbEntity
  8
0
  6
Continuous
 62
     7
370
    25
100
AcDbLine
 10
6270.8007367865
 20
4807.4052844157
 30
0.0
 11
6270.7950867865
 21
4811.0925012157
 31
0.0
  0
LINE
  5
219
330
1F
100
AcDbEntity
  8
0
  6
Continuous
 62
     7
370
    25
100
AcDbLine
 10
6273.9348091865
 20
4807.4094876157
 30
0.0
 11
6270.8007367865
 21
4807.4052844157
 31
0.0
  0
LINE
  5
21A
330
1F
100
AcDbEntity
  8
0
  6
Continuous
 62
     7
370
    25
100
AcDbLine
 10
6273.9320531865
 20
4808.6089320157
 30
0.0
 11
6273.9348091865
 21
4807.4094876157
 31
0.0
  0
LINE
  5
21B
330
1F
100
AcDbEntity
  8
0
  6
Continuous
 62
     7
370
    25
100
AcDbLine
 10
6271.8195203865
 20
4808.6047288157
 30
0.0
 11
6273.9320531865
 21
4808.6089320157
 31
0.0
  0
LINE
  5
21C
330
1F
100
AcDbEntity
  8
0
  6
Continuous
 62
     7
370
    25
100
AcDbLine
 10
6271.8153863865
 20
4811.1150324157
 30
0.0
 11
6271.8195203865
 21
4808.6047288157
 31
0.0
  0
LINE
  5
21D
330
1F
100
AcDbEntity
  8
0
  6
Continuous
 62
     7
370
    25
100
AcDbLine
 10
6275.9499143865
 20
4815.5882820157
 30
0.0
 11
6275.9541863865
 21
4808.4339212157
 31
0.0
  0
LINE
  5
21E
330
1F
100
AcDbEntity
  8
0
  6
Continuous
 62
     7
370
    25
100
AcDbLine
 10
6274.7377919865
 20
4815.5798072157
 30
0.0
 11
6275.9499143865
 21
4815.5882820157
 31
0.0
  0
LINE
  5
21F
330
1F
100
AcDbEntity
  8
0
  6
Continuous
 62
     7
370
    25
100
AcDbLine
 10
6274.7643879865
 20
4807.3967408157
 30
0.0
 11
6274.7377919865
 21
4815.5798072157
 31
0.0
  0
LINE
  5
220
330
1F
100
AcDbEntity
  8
0
  6
Continuous
 62
     7
370
    25
100
AcDbLine
 10
6278.2738379865
 20
4807.3953628157
 30
0.0
 11
6274.7643879865
 21
4807.3967408157
 31
0.0
  0
LINE
  5
221
330
1F
100
AcDbEntity
  8
0
  6
Continuous
 62
     7
370
    25
100
AcDbLine
 10
6278.4644207865
 20
4807.3953628157
 30
0.0
 11
6278.2738379865
 21
4807.3953628157
 31
0.0
  0
LINE
  5
222
330
1F
100
AcDbEntity
  8
0
  6
Continuous
 62
     7
370
    25
100
AcDbLine
 10
6278.4700707865
 20
4808.4452212157
 30
0.0
 11
6278.4644207865
 21
4807.3953628157
 31
0.0
  0
LINE
  5
223
330
1F
100
AcDbEntity
  8
0
  6
Continuous
 62
     7
370
    25
100
AcDbLine
 10
6278.2725975865
 20
4808.4438428157
 30
0.0
 11
6278.4700707865
 21
4808.4452212157
 31
0.0
  0
LINE
  5
224
330
1F
100
AcDbEntity
  8
0
  6
Continuous
 62
     7
370
    25
100
AcDbLine
 10
6275.9541863865
 20
4808.4339212157
 30
0.0
 11
6278.2725975865
 21
4808.4438428157
 31
0.0
  0
ARC
  5
225
330
1F
100
AcDbEntity
  8
0
  6
Continuous
 62
     7
370
    25
100
AcDbCircle
 10
6253.8016858505
 20
4808.8183649891
 30
0.0
 40
4.146089747531406
100
AcDbArc
 50
14.9618466759
 51
54.7549362228
  0
LWPOLYLINE
  5
226
330
1F
100
AcDbEntity
  8
0
  6
Continuous
 62
     7
370
    25
100
AcDbPolyline
 90
        7
 70
   128
 43
0.0
 10
6256.7023036733
 20
4808.6032820001
 10
6257.0432089702
 20
4808.6342338084
 10
6257.3084314051
 20
4808.7224660629
 10
6257.5067523766
 20
4808.8628671525
 10
6257.646953283
 20
4809.0503254662
 10
6257.7709641787
 20
4809.4276829243
 10
6257.8072146976
 20
4809.8887849298
  0
LINE
  5
227
330
1F
100
AcDbEntity
  8
0
  6
Continuous
 62
     7
370
    25
100
AcDbLine
 10
6254.3062397627
 20
4808.5990789836
 30
0.0
 11
6256.7023036733
 21
4808.6032820001
 31
0.0
  0
LINE
  5
228
330
1F
100
AcDbEntity
  8
0
  6
Continuous
 62
     7
370
    25
100
AcDbLine
 10
6254.3076867028
 20
4807.3587068048
 30
0.0
 11
6254.3062397627
 21
4808.5990789836
 31
0.0
  0
LINE
  5
229
330
1F
100
AcDbEntity
  8
0
  6
Continuous
 62
     7
370
    25
100
AcDbLine
 10
6256.8109619849
 20
4807.3629098213
 30
0.0
 11
6254.3076867028
 21
4807.3587068048
 31
0.0
  0
ARC
  5
22A
330
1F
100
AcDbEntity
  8
0
  6
Continuous
 62
     7
370
    25
100
AcDbCircle
 10
6256.6814001143
 20
4809.794471553
 30
0.0
 40
2.435011033552298
100
AcDbArc
 50
273.0500295178
 51
347.9874998473
  0
ARC
  5
22B
330
1F
100
AcDbEntity
  8
0
  6
Continuous
 62
     7
370
    25
100
AcDbCircle
 10
6256.1994548669
 20
4809.7747252154
 30
0.0
 40
2.904757056720664
100
AcDbArc
 50
350.3476259222
 51
42.0169705671
  0
LWPOLYLINE
  5
22C
330
1F
100
AcDbEntity
  8
0
  6
Continuous
 62
     7
370
    25
100
AcDbPolyline
 90
        3
 70
   128
 43
0.0
 10
6257.1990175405
 20
4812.9791733847
 10
6257.9699001234
 20
4812.1993723415
 10
6258.3575342506
 20
4811.7190263578
  0
ARC
  5
22D
330
1F
100
AcDbEntity
  8
0
  6
Continuous
 62
     7
370
    25
100
AcDbCircle
 10
6258.7109340561
 20
4815.2144885238
 30
0.0
 40
2.698615445233821
100
AcDbArc
 50
179.9429340399
 51
235.926470141
  0
LWPOLYLINE
  5
22E
330
1F
100
AcDbEntity
  8
0
  6
Continuous
 62
     7
370
    25
100
AcDbPolyline
 90
        6
 70
   128
 43
0.0
 10
6257.4629118547
 20
4816.3898179159
 10
6256.8398312325
 20
4816.298554565
 10
6256.3491488246
 20
4816.0404253584
 10
6256.1682395901
 20
4815.8273857095
 10
6256.0526421212
 20
4815.5545723436
 10
6256.0123199494
 20
4815.2171763144
  0
LINE
  5
22F
330
1F
100
AcDbEntity
  8
0
  6
Continuous
 62
     7
370
    25
100
AcDbLine
 10
6262.0235981612
 20
4816.3898179159
 30
0.0
 11
6257.4629118547
 21
4816.3898179159
 31
0.0
  0
LINE
  5
230
330
1F
100
AcDbEntity
  8
0
  6
Continuous
 62
     7
370
    25
100
AcDbLine
 10
6269.6097673235
 20
4816.3940209324
 30
0.0
 11
6262.0235981612
 21
4816.3898179159
 31
0.0
  0
LINE
  5
231
330
1F
100
AcDbEntity
  8
0
  6
Continuous
 62
     7
370
    25
100
AcDbLine
 10
6278.2599197757
 20
4816.4066988838
 30
0.0
 11
6269.6097673235
 21
4816.3940209324
 31
0.0
  0
LINE
  5
232
330
1F
100
AcDbEntity
  8
0
  6
Continuous
 62
     7
370
    25
100
AcDbLine
 10
6280.9410308869
 20
4816.4039428074
 30
0.0
 11
6278.2599197757
 21
4816.4066988838
 31
0.0
  0
LINE
  5
233
330
1F
100
AcDbEntity
  8
0
  6
Continuous
 62
     7
370
    25
100
AcDbLine
 10
6283.3512196889
 20
4816.4081458239
 30
0.0
 11
6280.9410308869
 21
4816.4039428074
 31
0.0
  0
LINE
  5
234
330
1F
100
AcDbEntity
  8
0
  6
Continuous
 62
     7
370
    25
100
AcDbLine
 10
6283.3497038469
 20
4817.6273651164
 30
0.0
 11
6283.3512196889
 21
4816.4081458239
 31
0.0
  0
LINE
  5
235
330
1F
100
AcDbEntity
  8
0
  6
Continuous
 62
     7
370
    25
100
AcDbLine
 10
6280.9379992028
 20
4817.623093198
 30
0.0
 11
6283.3497038469
 21
4817.6273651164
 31
0.0
  0
LINE
  5
236
330
1F
100
AcDbEntity
  8
0
  6
Continuous
 62
     7
370
    25
100
AcDbLine
 10
6278.2584039337
 20
4817.6202682197
 30
0.0
 11
6280.9379992028
 21
4817.623093198
 31
0.0
  0
LINE
  5
237
330
1F
100
AcDbEntity
  8
0
  6
Continuous
 62
     7
370
    25
100
AcDbLine
 10
6269.6083203834
 20
4817.6061433282
 30
0.0
 11
6278.2584039337
 21
4817.6202682197
 31
0.0
  0
LINE
  5
238
330
1F
100
AcDbEntity
  8
0
  6
Continuous
 62
     7
370
    25
100
AcDbLine
 10
6262.0207731829
 20
4817.5878154203
 30
0.0
 11
6269.6083203834
 21
4817.6061433282
 31
0.0
  0
LINE
  5
239
330
1F
100
AcDbEntity
  8
0
  6
Continuous
 62
     7
370
    25
100
AcDbLine
 10
6257.3768533695
 20
4817.5807874255
 30
0.0
 11
6262.0207731829
 21
4817.5878154203
 31
0.0
  0
ARC
  5
23A
330
1F
100
AcDbEntity
  8
0
  6
Continuous
 62
     7
370
    25
100
AcDbCircle
 10
6257.1920547377
 20
4815.1170340575
 30
0.0
 40
2.470674238473133
100
AcDbArc
 50
85.7104505517
 51
175.7435393215
  0
ARC
  5
23B
330
1F
100
AcDbEntity
  8
0
  6
Continuous
 62
     7
370
    25
100
AcDbCircle
 10
6258.4849731482
 20
4815.1843112361
 30
0.0
 40
3.758571603868256
100
AcDbArc
 50
178.2299080862
 51
232.4498360063
  0
ARC
  5
23C
330
1F
100
AcDbEntity
  8
0
  6
Continuous
 62
     7
370
    25
100
AcDbCircle
 10
6292.9570159147
 20
4817.9122189878
 30
0.0
 40
0.9354013219640374
100
AcDbArc
 50
0.4761050662
 51
89.2936033129
  0
LINE
  5
23D
330
1F
100
AcDbEntity
  8
0
  6
Continuous
 62
     7
370
    25
100
AcDbLine
 10
6292.9685481369
 20
4818.8475492188
 30
0.0
 11
6292.9619335535
 21
4818.8475492188
 31
0.0
  0
ARC
  5
23E
330
1F
100
AcDbEntity
  8
0
  6
Continuous
 62
     7
370
    25
100
AcDbCircle
 10
6292.9688432465
 20
4817.9269753373
 30
0.0
 40
0.920599812671044
100
AcDbArc
 50
90.4300456699
 51
180.6018970519
  0
ARC
  5
23F
330
1F
100
AcDbEntity
  8
0
  6
Continuous
 62
     7
370
    25
100
AcDbCircle
 10
6292.9610544041
 20
4817.9164185772
 30
0.0
 40
0.912760603470747
100
AcDbArc
 50
179.9443866369
 51
270.2281908817
  0
LINE
  5
240
330
1F
100
AcDbEntity
  8
0
  6
Continuous
 62
     7
370
    25
100
AcDbLine
 10
6292.9646896299
 20
4817.0036652127
 30
0.0
 11
6292.9715798209
 21
4817.0036652127
 31
0.0
  0
ARC
  5
241
330
1F
100
AcDbEntity
  8
0
  6
Continuous
 62
     7
370
    25
100
AcDbCircle
 10
6292.9706577552
 20
4817.9254078514
 30
0.0
 40
0.9217430998932051
100
AcDbArc
 50
270.05731584
 51
359.663329377
  0
ARC
  5
242
330
1F
100
AcDbEntity
  8
0
  6
Continuous
 62
     7
370
    25
100
AcDbCircle
 10
6286.2757377588
 20
4810.2522828348
 30
0.0
 40
4.958913617703228
100
AcDbArc
 50
2.3646229322
 51
51.1199972206
  0
LINE
  5
243
330
1F
100
AcDbEntity
  8
0
  6
Continuous
 62
     7
370
    25
100
AcDbLine
 10
6289.3884051853
 20
4814.112609992
 30
0.0
 11
6289.3812393867
 21
4814.1054441933
 31
0.0
  0
LWPOLYLINE
  5
244
330
1F
100
AcDbEntity
  8
0
  6
Continuous
 62
     7
370
    25
100
AcDbPolyline
 90
        3
 70
   128
 43
0.0
 10
6289.3812393867
 20
4814.1054441933
 10
6289.2936080638
 20
4814.0093206979
 10
6289.2262100898
 20
4813.9053530475
  0
LINE
  5
245
330
1F
100
AcDbEntity
  8
0
  6
Continuous
 62
     7
370
    25
100
AcDbLine
 10
6289.2262100898
 20
4813.9053530475
 30
0.0
 11
6289.0197799683
 21
4814.0815352307
 31
0.0
  0
LWPOLYLINE
  5
246
330
1F
100
AcDbEntity
  8
0
  6
Continuous
 62
     7
370
    25
100
AcDbPolyline
 90
        3
 70
   128
 43
0.0
 10
6289.0197799683
 20
4814.0815352307
 10
6289.211425032
 20
4814.3086838676
 10
6289.3806881714
 20
4814.4528476222
  0
LWPOLYLINE
  5
247
330
1F
100
AcDbEntity
  8
0
  6
Continuous
 62
     7
370
    25
100
AcDbPolyline
 90
        3
 70
   128
 43
0.0
 10
6289.3806881714
 20
4814.4528476222
 10
6290.0629781383
 20
4814.7269917624
 10
6290.8171551853
 20
4814.7950145058
  0
LINE
  5
248
330
1F
100
AcDbEntity
  8
0
  6
Continuous
 62
     7
370
    25
100
AcDbLine
 10
6290.8171551853
 20
4814.7950145058
 30
0.0
 11
6290.8363099162
 21
4814.7875730996
 31
0.0
  0
LINE
  5
249
330
1F
100
AcDbEntity
  8
0
  6
Continuous
 62
     7
370
    25
100
AcDbLine
 10
6290.8363099162
 20
4814.7875730996
 30
0.0
 11
6290.8445781454
 21
4814.7833011812
 31
0.0
  0
LINE
  5
24A
330
1F
100
AcDbEntity
  8
0
  6
Continuous
 62
     7
370
    25
100
AcDbLine
 10
6290.8445781454
 20
4814.7833011812
 30
0.0
 11
6290.8521573554
 21
4814.7991486204
 31
0.0
  0
ARC
  5
24B
330
1F
100
AcDbEntity
  8
0
  6
Continuous
 62
     7
370
    25
100
AcDbCircle
 10
6290.447948211
 20
4814.956711332
 30
0.0
 40
0.4338329638814597
100
AcDbArc
 50
338.7039188615
 51
32.9021244083
  0
LWPOLYLINE
  5
24C
330
1F
100
AcDbEntity
  8
0
  6
Continuous
 62
     7
370
    25
100
AcDbPolyline
 90
        3
 70
   128
 43
0.0
 10
6290.8121942478
 20
4815.1923718192
 10
6290.5954187592
 20
4815.797352741
 10
6290.3708086141
 20
4816.1842837116
  0
LWPOLYLINE
  5
24D
330
1F
100
AcDbEntity
  8
0
  6
Continuous
 62
     7
370
    25
100
AcDbPolyline
 90
        3
 70
   128
 43
0.0
 10
6290.3708086141
 20
4816.1842837116
 10
6291.0137067441
 20
4817.6186358227
 10
6291.160837911
 20
4818.8303926525
  0
LWPOLYLINE
  5
24E
330
1F
100
AcDbEntity
  8
0
  6
Continuous
 62
     7
370
    25
100
AcDbPolyline
 90
        3
 70
   128
 43
0.0
 10
6291.160837911
 20
4818.8303926525
 10
6290.1384661799
 20
4818.651684823
 10
6289.3746248034
 20
4818.3953459946
  0
LWPOLYLINE
  5
24F
330
1F
100
AcDbEntity
  8
0
  6
Continuous
 62
     7
370
    25
100
AcDbPolyline
 90
        3
 70
   128
 43
0.0
 10
6289.3746248034
 20
4818.3953459946
 10
6289.1421478461
 20
4818.2929329476
 10
6288.9639694214
 20
4818.203454176
  0
LWPOLYLINE
  5
250
330
1F
100
AcDbEntity
  8
0
  6
Continuous
 62
     7
370
    25
100
AcDbPolyline
 90
        3
 70
   128
 43
0.0
 10
6288.9639694214
 20
4818.203454176
 10
6288.8989017828
 20
4818.1660879008
 10
6288.8438044908
 20
4818.1320028956
  0
LWPOLYLINE
  5
251
330
1F
100
AcDbEntity
  8
0
  6
Continuous
 62
     7
370
    25
100
AcDbPolyline
 90
        3
 70
   128
 43
0.0
 10
6288.8438044908
 20
4818.1320028956
 10
6288.7018825553
 20
4818.0471224721
 10
6288.5960332235
 20
4817.9755266586
  0
LWPOLYLINE
  5
252
330
1F
100
AcDbEntity
  8
0
  6
Continuous
 62
     7
370
    25
100
AcDbPolyline
 90
        3
 70
   128
 43
0.0
 10
6288.5960332235
 20
4817.9755266586
 10
6288.346990739
 20
4817.7921986838
 10
6288.1707706367
 20
4817.6346000093
  0
LWPOLYLINE
  5
253
330
1F
100
AcDbEntity
  8
0
  6
Continuous
 62
     7
370
    25
100
AcDbPolyline
 90
        3
 70
   128
 43
0.0
 10
6288.1707706367
 20
4817.6346000093
 10
6287.9137366596
 20
4817.6710775314
 10
6287.6597940742
 20
4817.6767679781
  0
LINE
  5
254
330
1F
100
AcDbEntity
  8
0
  6
Continuous
 62
     7
370
    25
100
AcDbLine
 10
6287.6597940742
 20
4817.6767679781
 30
0.0
 11
6287.6170748902
 21
4817.6693265718
 31
0.0
  0
ARC
  5
255
330
1F
100
AcDbEntity
  8
0
  6
Continuous
 62
     7
370
    25
100
AcDbCircle
 10
6287.5111219024
 20
4815.2622968717
 30
0.0
 40
2.409360498769491
100
AcDbArc
 50
87.4795729574
 51
101.1904471722
  0
LINE
  5
256
330
1F
100
AcDbEntity
  8
0
  6
Continuous
 62
     7
370
    25
100
AcDbLine
 10
6287.0435353936
 20
4817.6258494668
 30
0.0
 11
6286.9862090047
 21
4817.6683619451
 31
0.0
  0
LWPOLYLINE
  5
257
330
1F
100
AcDbEntity
  8
0
  6
Continuous
 62
     7
370
    25
100
AcDbPolyline
 90
        3
 70
   128
 43
0.0
 10
6286.9862090047
 20
4817.6683619451
 10
6286.20459897
 20
4818.1568949794
 10
6285.5668296645
 20
4818.4603893973
  0
LWPOLYLINE
  5
258
330
1F
100
AcDbEntity
  8
0
  6
Continuous
 62
     7
370
    25
100
AcDbPolyline
 90
        3
 70
   128
 43
0.0
 10
6285.5668296645
 20
4818.4603893973
 10
6284.8256119621
 20
4818.7010587365
 10
6284.2196595256
 20
4818.8060013765
  0
LINE
  5
259
330
1F
100
AcDbEntity
  8
0
  6
Continuous
 62
     7
370
    25
100
AcDbLine
 10
6284.2196595256
 20
4818.8060013765
 30
0.0
 11
6284.2196595256
 21
4818.7846417845
 31
0.0
  0
LINE
  5
25A
330
1F
100
AcDbEntity
  8
0
  6
Continuous
 62
     7
370
    25
100
AcDbLine
 10
6284.2196595256
 20
4818.7846417845
 30
0.0
 11
6284.2202107409
 21
4818.4159476656
 31
0.0
  0
LWPOLYLINE
  5
25B
330
1F
100
AcDbEntity
  8
0
  6
Continuous
 62
     7
370
    25
100
AcDbPolyline
 90
        3
 70
   128
 43
0.0
 10
6284.2202107409
 20
4818.4159476656
 10
6284.5161509386
 20
4817.0467661689
 10
6284.9323808797
 20
4816.1690563895
  0
LWPOLYLINE
  5
25C
330
1F
100
AcDbEntity
  8
0
  6
Continuous
 62
     7
370
    25
100
AcDbPolyline
 90
        3
 70
   128
 43
0.0
 10
6284.9323808797
 20
4816.1690563895
 10
6284.662563947
 20
4815.5603364202
 10
6284.5356436836
 20
4815.1092761161
  0
LINE
  5
25D
330
1F
100
AcDbEntity
  8
0
  6
Continuous
 62
     7
370
    25
100
AcDbLine
 10
6284.5356436836
 20
4815.1092761161
 30
0.0
 11
6284.4976098294
 21
4815.0401675006
 31
0.0
  0
ARC
  5
25E
330
1F
100
AcDbEntity
  8
0
  6
Continuous
 62
     7
370
    25
100
AcDbCircle
 10
6285.3524039378
 20
4814.6985694866
 30
0.0
 40
0.9205227704362607
100
AcDbArc
 50
158.2170621676
 51
164.2128968071
  0
LWPOLYLINE
  5
25F
330
1F
100
AcDbEntity
  8
0
  6
Continuous
 62
     7
370
    25
100
AcDbPolyline
 90
        3
 70
   128
 43
0.0
 10
6284.46660397
 20
4814.9490102741
 10
6284.5337201363
 20
4814.940920868
 10
6284.5873201159
 20
4814.9338518539
  0
LINE
  5
260
330
1F
100
AcDbEntity
  8
0
  6
Continuous
 62
     7
370
    25
100
AcDbLine
 10
6284.5873201159
 20
4814.9338518539
 30
0.0
 11
6284.6177747599
 21
4814.9299244451
 31
0.0
  0
LWPOLYLINE
  5
261
330
1F
100
AcDbEntity
  8
0
  6
Continuous
 62
     7
370
    25
100
AcDbPolyline
 90
        3
 70
   128
 43
0.0
 10
6284.6177747599
 20
4814.9299244451
 10
6285.1735237261
 20
4814.8126889283
 10
6285.5726174249
 20
4814.6670636595
  0
ARC
  5
262
330
1F
100
AcDbEntity
  8
0
  6
Continuous
 62
     7
370
    25
100
AcDbCircle
 10
6285.2540216399
 20
4813.6451921863
 30
0.0
 40
1.070385249297708
100
AcDbArc
 50
338.3190486649
 51
72.6837346183
  0
LWPOLYLINE
  5
263
330
1F
100
AcDbEntity
  8
0
  6
Continuous
 62
     7
370
    25
100
AcDbPolyline
 90
        3
 70
   128
 43
0.0
 10
6286.2486829631
 20
4813.2497513765
 10
6285.8855296733
 20
4812.454495377
 10
6285.5767515395
 20
4811.9020989242
  0
LWPOLYLINE
  5
264
330
1F
100
AcDbEntity
  8
0
  6
Continuous
 62
     7
370
    25
100
AcDbPolyline
 90
        3
 70
   128
 43
0.0
 10
6285.5767515395
 20
4811.9020989242
 10
6285.2194909615
 20
4811.0496197851
 10
6284.9202541436
 20
4810.0074342107
  0
ARC
  5
265
330
1F
100
AcDbEntity
  8
0
  6
Continuous
 62
     7
370
    25
100
AcDbCircle
 10
6287.7572342952
 20
4809.262282447
 30
0.0
 40
2.93320772046609
100
AcDbArc
 50
165.2832984795
 51
222.18484723
  0
LWPOLYLINE
  5
266
330
1F
100
AcDbEntity
  8
0
  6
Continuous
 62
     7
370
    25
100
AcDbPolyline
 90
        3
 70
   128
 43
0.0
 10
6285.5837795343
 20
4807.2925611638
 10
6286.3144040608
 20
4806.7486334283
 10
6287.0032966784
 20
4806.500947123
  0
LWPOLYLINE
  5
267
330
1F
100
AcDbEntity
  8
0
  6
Continuous
 62
     7
370
    25
100
AcDbPolyline
 90
        3
 70
   128
 43
0.0
 10
6287.0032966784
 20
4806.500947123
 10
6287.3751831583
 20
4806.4434561721
 10
6287.676743944
 20
4806.4308049789
  0
LINE
  5
268
330
1F
100
AcDbEntity
  8
0
  6
Continuous
 62
     7
370
    25
100
AcDbLine
 10
6287.676743944
 20
4806.4308049789
 30
0.0
 11
6287.7551543172
 21
4806.4309427828
 31
0.0
  0
LWPOLYLINE
  5
269
330
1F
100
AcDbEntity
  8
0
  6
Continuous
 62
     7
370
    25
100
AcDbPolyline
 90
        3
 70
   128
 43
0.0
 10
6287.7551543172
 20
4806.4309427828
 10
6288.2462782927
 20
4806.4761120702
 10
6288.6133965047
 20
4806.5534503782
  0
LWPOLYLINE
  5
26A
330
1F
100
AcDbEntity
  8
0
  6
Continuous
 62
     7
370
    25
100
AcDbPolyline
 90
        3
 70
   128
 43
0.0
 10
6288.6133965047
 20
4806.5534503782
 10
6288.7549025859
 20
4806.5902580033
 10
6288.8613055759
 20
4806.6240059338
  0
LWPOLYLINE
  5
26B
330
1F
100
AcDbEntity
  8
0
  6
Continuous
 62
     7
370
    25
100
AcDbPolyline
 90
        3
 70
   128
 43
0.0
 10
6288.8613055759
 20
4806.6240059338
 10
6288.9310831859
 20
4806.6482317394
 10
6288.9816083103
 20
4806.6670007255
  0
LWPOLYLINE
  5
26C
330
1F
100
AcDbEntity
  8
0
  6
Continuous
 62
     7
370
    25
100
AcDbPolyline
 90
        3
 70
   128
 43
0.0
 10
6288.9816083103
 20
4806.6670007255
 10
6289.21699452
 20
4806.7681632457
 10
6289.3922636922
 20
4806.8518645492
  0
ARC
  5
26D
330
1F
100
AcDbEntity
  8
0
  6
Continuous
 62
     7
370
    25
100
AcDbCircle
 10
6287.6753700066
 20
4809.9369870227
 30
0.0
 40
3.530680473187544
100
AcDbArc
 50
299.0962643318
 51
357.620395613
  0
LWPOLYLINE
  5
26E
330
1F
100
AcDbEntity
  8
0
  6
Continuous
 62
     7
370
    25
100
AcDbPolyline
 90
        3
 70
   128
 43
0.0
 10
6291.2030058797
 20
4809.7903931951
 10
6291.2240218397
 20
4810.0455686065
 10
6291.2307044474
 20
4810.2368775701
  0
LINE
  5
26F
330
1F
100
AcDbEntity
  8
0
  6
Continuous
 62
     7
370
    25
100
AcDbLine
 10
6291.2307044474
 20
4810.2368775701
 30
0.0
 11
6291.2304288398
 21
4810.4568813678
 31
0.0
  0
LINE
  5
270
330
1F
100
AcDbEntity
  8
0
  6
Continuous
 62
     7
370
    25
100
AcDbLine
 10
6440.0187553361
 20
4829.9019529873
 30
0.0
 11
6441.0187553361
 21
4829.9019529873
 31
0.0
  0
LINE
  5
271
330
1F
100
AcDbEntity
  8
0
  6
Continuous
 62
     7
370
    25
100
AcDbLine
 10
6107.0187553361
 20
4832.9019529873
 30
0.0
 11
6106.5187553361
 21
4832.9019529873
 31
0.0
  0
LINE
  5
272
330
1F
100
AcDbEntity
  8
0
  6
Continuous
 62
     7
370
    25
100
AcDbLine
 10
6108.0187553361
 20
4829.9019529873
 30
0.0
 11
6108.0187553361
 21
4830.9019529873
 31
0.0
  0
LINE
  5
273
330
1F
100
AcDbEntity
  8
0
  6
Continuous
 62
     7
370
    25
100
AcDbLine
 10
6441.0187553361
 20
4829.9019529873
 30
0.0
 11
6441.0187553361
 21
4831.9019529873
 31
0.0
  0
LINE
  5
274
330
1F
100
AcDbEntity
  8
0
  6
Continuous
 62
     7
370
    25
100
AcDbLine
 10
6106.0187553361
 20
4615.9019529873
 30
0.0
 11
6106.5187553361
 21
4615.9019529873
 31
0.0
  0
LINE
  5
275
330
1F
100
AcDbEntity
  8
0
  6
Continuous
 62
     7
370
    25
100
AcDbLine
 10
6106.0187553361
 20
4615.9019529873
 30
0.0
 11
6106.0187553361
 21
4832.9019529873
 31
0.0
  0
LINE
  5
276
330
1F
100
AcDbEntity
  8
0
  6
Continuous
 62
     7
370
    25
100
AcDbLine
 10
6106.0187553361
 20
4832.9019529873
 30
0.0
 11
6106.5187553361
 21
4832.9019529873
 31
0.0
  0
LWPOLYLINE
  5
277
330
1F
100
AcDbEntity
  8
0
  6
Continuous
 62
     7
370
    25
100
AcDbPolyline
 90
        3
 70
   128
 43
0.0
 10
6288.5961710273
 20
4817.8551550223
 10
6288.7344013904
 20
4817.9494836638
 10
6288.8439422947
 20
4818.0188659598
  0
LWPOLYLINE
  5
278
330
1F
100
AcDbEntity
  8
0
  6
Continuous
 62
     7
370
    25
100
AcDbPolyline
 90
        3
 70
   128
 43
0.0
 10
6288.8439422947
 20
4818.0188659598
 10
6288.9136750843
 20
4818.0586595137
 10
6288.964245029
 20
4818.0898349269
  0
LWPOLYLINE
  5
279
330
1F
100
AcDbEntity
  8
0
  6
Continuous
 62
     7
370
    25
100
AcDbPolyline
 90
        3
 70
   128
 43
0.0
 10
6288.964245029
 20
4818.0898349269
 10
6289.1966078979
 20
4818.2090910666
 10
6289.374900411
 20
4818.2892370536
  0
LWPOLYLINE
  5
27A
330
1F
100
AcDbEntity
  8
0
  6
Continuous
 62
     7
370
    25
100
AcDbPolyline
 90
        3
 70
   128
 43
0.0
 10
6289.374900411
 20
4818.2892370536
 10
6289.7072123152
 20
4818.4081016012
 10
6289.9631849162
 20
4818.4741008774
  0
LWPOLYLINE
  5
27B
330
1F
100
AcDbEntity
  8
0
  6
Continuous
 62
     7
370
    25
100
AcDbPolyline
 90
        3
 70
   128
 43
0.0
 10
6289.9631849162
 20
4818.4741008774
 10
6289.6205885168
 20
4818.2814994595
 10
6289.3750382148
 20
4818.1114012246
  0
LWPOLYLINE
  5
27C
330
1F
100
AcDbEntity
  8
0
  6
Continuous
 62
     7
370
    25
100
AcDbPolyline
 90
        3
 70
   128
 43
0.0
 10
6289.3750382148
 20
4818.1114012246
 10
6289.1375164295
 20
4817.9300321365
 10
6288.9646584405
 20
4817.7778470796
  0
LWPOLYLINE
  5
27D
330
1F
100
AcDbEntity
  8
0
  6
Continuous
 62
     7
370
    25
100
AcDbPolyline
 90
        3
 70
   128
 43
0.0
 10
6288.9646584405
 20
4817.7778470796
 10
6288.8972030961
 20
4817.7102853639
 10
6288.8444935099
 20
4817.6567864242
  0
LWPOLYLINE
  5
27E
330
1F
100
AcDbEntity
  8
0
  6
Continuous
 62
     7
370
    25
100
AcDbPolyline
 90
        3
 70
   128
 43
0.0
 10
6288.8444935099
 20
4817.6567864242
 10
6288.7607631684
 20
4817.5656451565
 10
6288.6953897773
 20
4817.493626702
  0
LWPOLYLINE
  5
27F
330
1F
100
AcDbEntity
  8
0
  6
Continuous
 62
     7
370
    25
100
AcDbPolyline
 90
        3
 70
   128
 43
0.0
 10
6288.6953897773
 20
4817.493626702
 10
6288.6426010808
 20
4817.5132500806
 10
6288.5967222426
 20
4817.528766676
  0
LWPOLYLINE
  5
280
330
1F
100
AcDbEntity
  8
0
  6
Continuous
 62
     7
370
    25
100
AcDbPolyline
 90
        3
 70
   128
 43
0.0
 10
6288.5967222426
 20
4817.528766676
 10
6288.4281788316
 20
4817.5792979299
 10
6288.2910733711
 20
4817.6138605345
  0
LWPOLYLINE
  5
281
330
1F
100
AcDbEntity
  8
0
  6
Continuous
 62
     7
370
    25
100
AcDbPolyline
 90
        3
 70
   128
 43
0.0
 10
6288.2910733711
 20
4817.6138605345
 10
6288.4620543706
 20
4817.7514648316
 10
6288.5961710273
 20
4817.8551550223
  0
LINE
  5
282
330
1F
100
AcDbEntity
  8
0
  6
Continuous
 62
     7
370
    25
100
AcDbLine
 10
6261.0866698669
 20
4812.246746155
 30
0.0
 11
6261.0852229268
 21
4812.6517515803
 31
0.0
  0
LWPOLYLINE
  5
283
330
1F
100
AcDbEntity
  8
0
  6
Continuous
 62
     7
370
    25
100
AcDbPolyline
 90
        6
 70
   128
 43
0.0
 10
6261.0852229268
 20
4812.6517515803
 10
6261.2545752081
 20
4813.9972336224
 10
6261.3719833894
 20
4814.2491050917
 10
6261.526562267
 20
4814.4432313777
 10
6261.7218831667
 20
4814.5676396969
 10
6261.9615174146
 20
4814.6103572661
  0
LINE
  5
284
330
1F
100
AcDbEntity
  8
0
  6
Continuous
 62
     7
370
    25
100
AcDbLine
 10
6261.9615174146
 20
4814.6103572661
 30
0.0
 11
6262.0264230136
 21
4814.6033292713
 31
0.0
  0
LINE
  5
285
330
1F
100
AcDbEntity
  8
0
  6
Continuous
 62
     7
370
    25
100
AcDbLine
 10
6262.0264230136
 20
4814.6033292713
 30
0.0
 11
6262.3227701273
 21
4814.5892043798
 31
0.0
  0
LWPOLYLINE
  5
286
330
1F
100
AcDbEntity
  8
0
  6
Continuous
 62
     7
370
    25
100
AcDbPolyline
 90
        7
 70
   128
 43
0.0
 10
6262.3227701273
 20
4814.5892043798
 10
6262.4588516383
 20
4814.583591466
 10
6262.574057306
 20
4814.5368998556
 10
6262.6701455647
 20
4814.4530294446
 10
6262.7822793856
 20
4814.2660445993
 10
6262.8612902282
 20
4814.0173443673
 10
6262.9647981221
 20
4812.6686325482
  0
LINE
  5
287
330
1F
100
AcDbEntity
  8
0
  6
Continuous
 62
     7
370
    25
100
AcDbLine
 10
6262.9647981221
 20
4812.6686325482
 30
0.0
 11
6262.9577701273
 21
4812.2495711333
 31
0.0
  0
LINE
  5
288
330
1F
100
AcDbEntity
  8
0
  6
Continuous
 62
     7
370
    25
100
AcDbLine
 10
6262.9577701273
 20
4812.2495711333
 30
0.0
 11
6262.0292479919
 21
4812.2481241932
 31
0.0
  0
LINE
  5
289
330
1F
100
AcDbEntity
  8
0
  6
Continuous
 62
     7
370
    25
100
AcDbLine
 10
6262.0292479919
 20
4812.2481241932
 30
0.0
 11
6261.0866698669
 21
4812.246746155
 31
0.0
  0
LWPOLYLINE
  5
28A
330
1F
100
AcDbEntity
  8
0
  6
Continuous
 62
     7
370
    25
100
AcDbPolyline
 90
        3
 70
   128
 43
0.0
 10
6291.0831165568
 20
4818.7022351005
 10
6290.8373841157
 20
4817.3910025749
 10
6290.3068676419
 20
4816.3119589503
  0
LWPOLYLINE
  5
28B
330
1F
100
AcDbEntity
  8
0
  6
Continuous
 62
     7
370
    25
100
AcDbPolyline
 90
        3
 70
   128
 43
0.0
 10
6290.3068676419
 20
4816.3119589503
 10
6290.2355852759
 20
4816.4304319674
 10
6290.1645162964
 20
4816.5243146361
  0
LWPOLYLINE
  5
28C
330
1F
100
AcDbEntity
  8
0
  6
Continuous
 62
     7
370
    25
100
AcDbPolyline
 90
        3
 70
   128
 43
0.0
 10
6290.1645162964
 20
4816.5243146361
 10
6290.6741599939
 20
4817.5794015672
 10
6290.8358965047
 20
4818.4399255302
  0
LWPOLYLINE
  5
28D
330
1F
100
AcDbEntity
  8
0
  6
Continuous
 62
     7
370
    25
100
AcDbPolyline
 90
        3
 70
   128
 43
0.0
 10
6290.8358965047
 20
4818.4399255302
 10
6289.9815589852
 20
4818.1103161242
 10
6289.3757272339
 20
4817.6930288288
  0
LWPOLYLINE
  5
28E
330
1F
100
AcDbEntity
  8
0
  6
Continuous
 62
     7
370
    25
100
AcDbPolyline
 90
        3
 70
   128
 43
0.0
 10
6289.3757272339
 20
4817.6930288288
 10
6289.1659999102
 20
4817.5141374578
 10
6289.0007630412
 20
4817.3592679781
  0
LWPOLYLINE
  5
28F
330
1F
100
AcDbEntity
  8
0
  6
Continuous
 62
     7
370
    25
100
AcDbPolyline
 90
        3
 70
   128
 43
0.0
 10
6288.9654852634
 20
4817.3807653739
 10
6288.8948323588
 20
4817.4122241823
 10
6288.8447691176
 20
4817.4370582341
  0
LINE
  5
290
330
1F
100
AcDbEntity
  8
0
  6
Continuous
 62
     7
370
    25
100
AcDbLine
 10
6288.8447691176
 20
4817.4370582341
 30
0.0
 11
6288.7808281454
 21
4817.4582111204
 31
0.0
  0
LINE
  5
291
330
1F
100
AcDbEntity
  8
0
  6
Continuous
 62
     7
370
    25
100
AcDbLine
 10
6288.7808281454
 20
4817.4582111204
 30
0.0
 11
6288.8446313138
 21
4817.5151929998
 31
0.0
  0
LWPOLYLINE
  5
292
330
1F
100
AcDbEntity
  8
0
  6
Continuous
 62
     7
370
    25
100
AcDbPolyline
 90
        3
 70
   128
 43
0.0
 10
6289.3753138224
 20
4817.9624352958
 10
6290.2654713745
 20
4818.4893365206
 10
6291.0831165568
 20
4818.7022351005
  0
LINE
  5
293
330
1F
100
AcDbEntity
  8
0
  6
Continuous
 62
     7
370
    25
100
AcDbLine
 10
6289.0007630412
 20
4817.3592679781
 30
0.0
 11
6288.9654852634
 21
4817.3807653739
 31
0.0
  0
LWPOLYLINE
  5
294
330
1F
100
AcDbEntity
  8
0
  6
Continuous
 62
     7
370
    25
100
AcDbPolyline
 90
        3
 70
   128
 43
0.0
 10
6288.8446313138
 20
4817.5151929998
 10
6288.9144331243
 20
4817.5790031355
 10
6288.965071852
 20
4817.6288122489
  0
LWPOLYLINE
  5
295
330
1F
100
AcDbEntity
  8
0
  6
Continuous
 62
     7
370
    25
100
AcDbPolyline
 90
        3
 70
   128
 43
0.0
 10
6288.965071852
 20
4817.6288122489
 10
6289.1920203404
 20
4817.8185402212
 10
6289.3753138224
 20
4817.9624352958
  0
LWPOLYLINE
  5
296
330
1F
100
AcDbEntity
  8
0
  6
Continuous
 62
     7
370
    25
100
AcDbPolyline
 90
        3
 70
   128
 43
0.0
 10
6285.5668296645
 20
4818.3821857298
 10
6286.3109030324
 20
4818.0130394071
 10
6286.9575458103
 20
4817.5973240762
  0
LWPOLYLINE
  5
297
330
1F
100
AcDbEntity
  8
0
  6
Continuous
 62
     7
370
    25
100
AcDbPolyline
 90
        3
 70
   128
 43
0.0
 10
6286.9575458103
 20
4817.5973240762
 10
6286.6874793402
 20
4817.5359441207
 10
6286.4976944648
 20
4817.4690976222
  0
LWPOLYLINE
  5
298
330
1F
100
AcDbEntity
  8
0
  6
Continuous
 62
     7
370
    25
100
AcDbPolyline
 90
        3
 70
   128
 43
0.0
 10
6286.4976944648
 20
4817.4690976222
 10
6286.023287764
 20
4817.9608017936
 10
6285.5671052721
 20
4818.2900638765
  0
LWPOLYLINE
  5
299
330
1F
100
AcDbEntity
  8
0
  6
Continuous
 62
     7
370
    25
100
AcDbPolyline
 90
        3
 70
   128
 43
0.0
 10
6285.5671052721
 20
4818.2900638765
 10
6285.2691513659
 20
4818.449819399
 10
6285.0214021471
 20
4818.5519600354
  0
LWPOLYLINE
  5
29A
330
1F
100
AcDbEntity
  8
0
  6
Continuous
 62
     7
370
    25
100
AcDbPolyline
 90
        3
 70
   128
 43
0.0
 10
6285.0214021471
 20
4818.5519600354
 10
6285.3009801764
 20
4818.4829576457
 10
6285.5668296645
 20
4818.3821857298
  0
LWPOLYLINE
  5
29B
330
1F
100
AcDbEntity
  8
0
  6
Continuous
 62
     7
370
    25
100
AcDbPolyline
 90
        3
 70
   128
 43
0.0
 10
6284.9957706367
 20
4816.2614538505
 10
6284.4407195356
 20
4817.648764897
 10
6284.3472658624
 20
4818.6710914373
  0
LWPOLYLINE
  5
29C
330
1F
100
AcDbEntity
  8
0
  6
Continuous
 62
     7
370
    25
100
AcDbPolyline
 90
        3
 70
   128
 43
0.0
 10
6285.5677942912
 20
4817.8929821708
 10
6285.0174625454
 20
4818.2518101051
 10
6284.5321985881
 20
4818.4729295449
  0
LINE
  5
29D
330
1F
100
AcDbEntity
  8
0
  6
Continuous
 62
     7
370
    25
100
AcDbLine
 10
6285.0814846124
 20
4816.3821010944
 30
0.0
 11
6284.9957706367
 21
4816.2614538505
 31
0.0
  0
LWPOLYLINE
  5
29E
330
1F
100
AcDbEntity
  8
0
  6
Continuous
 62
     7
370
    25
100
AcDbPolyline
 90
        3
 70
   128
 43
0.0
 10
6284.3472658624
 20
4818.6710914373
 10
6285.0434629996
 20
4818.4729048152
 10
6285.5673808797
 20
4818.1907073227
  0
LWPOLYLINE
  5
29F
330
1F
100
AcDbEntity
  8
0
  6
Continuous
 62
     7
370
    25
100
AcDbPolyline
 90
        3
 70
   128
 43
0.0
 10
6285.5673808797
 20
4818.1907073227
 10
6286.0593582952
 20
4817.8059955978
 10
6286.4268633016
 20
4817.4334064329
  0
LWPOLYLINE
  5
2A0
330
1F
100
AcDbEntity
  8
0
  6
Continuous
 62
     7
370
    25
100
AcDbPolyline
 90
        3
 70
   128
 43
0.0
 10
6286.4268633016
 20
4817.4334064329
 10
6286.292784692
 20
4817.3760928499
 10
6286.1928724162
 20
4817.3268151786
  0
LWPOLYLINE
  5
2A1
330
1F
100
AcDbEntity
  8
0
  6
Continuous
 62
     7
370
    25
100
AcDbPolyline
 90
        3
 70
   128
 43
0.0
 10
6286.1928724162
 20
4817.3268151786
 10
6285.8456767999
 20
4817.6592502463
 10
6285.5677942912
 20
4817.8929821708
  0
LWPOLYLINE
  5
2A2
330
1F
100
AcDbEntity
  8
0
  6
Continuous
 62
     7
370
    25
100
AcDbPolyline
 90
        3
 70
   128
 43
0.0
 10
6284.5321985881
 20
4818.4729295449
 10
6284.70633171
 20
4817.2771556474
 10
6285.0814846124
 20
4816.3821010944
  0
LWPOLYLINE
  5
2A3
330
1F
100
AcDbEntity
  8
0
  6
Continuous
 62
     7
370
    25
100
AcDbPolyline
 90
        3
 70
   128
 43
0.0
 10
6284.7066582235
 20
4815.3746862723
 10
6285.1272837581
 20
4816.275538124
 10
6285.569447937
 20
4816.801369215
  0
LWPOLYLINE
  5
2A4
330
1F
100
AcDbEntity
  8
0
  6
Continuous
 62
     7
370
    25
100
AcDbPolyline
 90
        3
 70
   128
 43
0.0
 10
6285.569447937
 20
4816.801369215
 10
6286.3109153002
 20
4817.286693515
 10
6286.9864846124
 20
4817.4910773314
  0
LWPOLYLINE
  5
2A5
330
1F
100
AcDbEntity
  8
0
  6
Continuous
 62
     7
370
    25
100
AcDbPolyline
 90
        3
 70
   128
 43
0.0
 10
6286.9864846124
 20
4817.4910773314
 10
6287.3507439663
 20
4817.5444493724
 10
6287.6460136922
 20
4817.5632176308
  0
LINE
  5
2A6
330
1F
100
AcDbEntity
  8
0
  6
Continuous
 62
     7
370
    25
100
AcDbLine
 10
6287.6460136922
 20
4817.5632176308
 30
0.0
 11
6287.6600696818
 21
4817.5632176308
 31
0.0
  0
LWPOLYLINE
  5
2A7
330
1F
100
AcDbEntity
  8
0
  6
Continuous
 62
     7
370
    25
100
AcDbPolyline
 90
        3
 70
   128
 43
0.0
 10
6287.6600696818
 20
4817.5632176308
 10
6288.192739961
 20
4817.5300430524
 10
6288.5968600464
 20
4817.4298235336
  0
LWPOLYLINE
  5
2A8
330
1F
100
AcDbEntity
  8
0
  6
Continuous
 62
     7
370
    25
100
AcDbPolyline
 90
        3
 70
   128
 43
0.0
 10
6288.5968600464
 20
4817.4298235336
 10
6288.7384473722
 20
4817.3811891217
 10
6288.8449069214
 20
4817.3378394841
  0
LWPOLYLINE
  5
2A9
330
1F
100
AcDbEntity
  8
0
  6
Continuous
 62
     7
370
    25
100
AcDbPolyline
 90
        3
 70
   128
 43
0.0
 10
6288.8449069214
 20
4817.3378394841
 10
6288.9148712214
 20
4817.3087890014
 10
6288.9656230672
 20
4817.2814088201
  0
LWPOLYLINE
  5
2AA
330
1F
100
AcDbEntity
  8
0
  6
Continuous
 62
     7
370
    25
100
AcDbPolyline
 90
        3
 70
   128
 43
0.0
 10
6288.9656230672
 20
4817.2814088201
 10
6289.2012649879
 20
4817.1626081694
 10
6289.3768296645
 20
4817.0552038505
  0
LWPOLYLINE
  5
2AB
330
1F
100
AcDbEntity
  8
0
  6
Continuous
 62
     7
370
    25
100
AcDbPolyline
 90
        3
 70
   128
 43
0.0
 10
6289.3768296645
 20
4817.0552038505
 10
6290.1868710304
 20
4816.2911955219
 10
6290.5489889527
 20
4815.5678872272
  0
LWPOLYLINE
  5
2AC
330
1F
100
AcDbEntity
  8
0
  6
Continuous
 62
     7
370
    25
100
AcDbPolyline
 90
        3
 70
   128
 43
0.0
 10
6290.5489889527
 20
4815.5678872272
 10
6290.001385696
 20
4816.0310002943
 10
6289.3777942912
 20
4816.3887156777
  0
LWPOLYLINE
  5
2AD
330
1F
100
AcDbEntity
  8
0
  6
Continuous
 62
     7
370
    25
100
AcDbPolyline
 90
        3
 70
   128
 43
0.0
 10
6289.3777942912
 20
4816.3887156777
 10
6289.1502118963
 20
4816.4941342855
 10
6288.966587694
 20
4816.5723392671
  0
LWPOLYLINE
  5
2AE
330
1F
100
AcDbEntity
  8
0
  6
Continuous
 62
     7
370
    25
100
AcDbPolyline
 90
        3
 70
   128
 43
0.0
 10
6288.966587694
 20
4816.5723392671
 10
6288.9131768209
 20
4816.5960613061
 10
6288.8672311402
 20
4816.6145072359
  0
LINE
  5
2AF
330
1F
100
AcDbEntity
  8
0
  6
Continuous
 62
     7
370
    25
100
AcDbLine
 10
6288.8672311402
 20
4816.6145072359
 30
0.0
 11
6288.846009352
 21
4816.5934921534
 31
0.0
  0
LWPOLYLINE
  5
2B0
330
1F
100
AcDbEntity
  8
0
  6
Continuous
 62
     7
370
    25
100
AcDbPolyline
 90
        3
 70
   128
 43
0.0
 10
6288.846009352
 20
4816.5934921534
 10
6288.7097918331
 20
4816.4700039415
 10
6288.5982380846
 20
4816.3876132472
  0
LWPOLYLINE
  5
2B1
330
1F
100
AcDbEntity
  8
0
  6
Continuous
 62
     7
370
    25
100
AcDbPolyline
 90
        3
 70
   128
 43
0.0
 10
6288.5982380846
 20
4816.3876132472
 10
6288.1671682817
 20
4816.1982630999
 10
6287.7474373034
 20
4816.1523821274
  0
LINE
  5
2B2
330
1F
100
AcDbEntity
  8
0
  6
Continuous
 62
     7
370
    25
100
AcDbLine
 10
6287.7474373034
 20
4816.1523821274
 30
0.0
 11
6287.6621367391
 21
4816.1592723183
 31
0.0
  0
LWPOLYLINE
  5
2B3
330
1F
100
AcDbEntity
  8
0
  6
Continuous
 62
     7
370
    25
100
AcDbPolyline
 90
        3
 70
   128
 43
0.0
 10
6287.6621367391
 20
4816.1592723183
 10
6287.2635301294
 20
4816.2469785272
 10
6286.9881382582
 20
4816.3850638765
  0
LWPOLYLINE
  5
2B4
330
1F
100
AcDbEntity
  8
0
  6
Continuous
 62
     7
370
    25
100
AcDbPolyline
 90
        3
 70
   128
 43
0.0
 10
6286.9881382582
 20
4816.3850638765
 10
6286.7643836257
 20
4816.5490207266
 10
6286.6259898207
 20
4816.6819622055
  0
LWPOLYLINE
  5
2B5
330
1F
100
AcDbEntity
  8
0
  6
Continuous
 62
     7
370
    25
100
AcDbPolyline
 90
        3
 70
   128
 43
0.0
 10
6286.6259898207
 20
4816.6819622055
 10
6286.0684818693
 20
4816.4036721767
 10
6285.5704125638
 20
4816.0783125744
  0
LWPOLYLINE
  5
2B6
330
1F
100
AcDbEntity
  8
0
  6
Continuous
 62
     7
370
    25
100
AcDbPolyline
 90
        3
 70
   128
 43
0.0
 10
6285.5704125638
 20
4816.0783125744
 10
6285.0892893445
 20
4815.7051192644
 10
6284.7066582235
 20
4815.3746862723
  0
LWPOLYLINE
  5
2B7
330
1F
100
AcDbEntity
  8
0
  6
Continuous
 62
     7
370
    25
100
AcDbPolyline
 90
        3
 70
   128
 43
0.0
 10
6285.5713771905
 20
4815.4753519624
 10
6285.0090138174
 20
4815.2197218028
 10
6284.5104255846
 20
4814.9711277871
  0
LWPOLYLINE
  5
2B8
330
1F
100
AcDbEntity
  8
0
  6
Continuous
 62
     7
370
    25
100
AcDbPolyline
 90
        3
 70
   128
 43
0.0
 10
6289.3780698988
 20
4816.2536679347
 10
6290.2678250549
 20
4815.6959316831
 10
6290.8079223294
 20
4815.1049352958
  0
ARC
  5
2B9
330
1F
100
AcDbEntity
  8
0
  6
Continuous
 62
     7
370
    25
100
AcDbCircle
 10
6290.5348288824
 20
4814.9597215241
 30
0.0
 40
0.3093009380421203
100
AcDbArc
 50
335.8935750004
 51
28.0012120042
  0
LWPOLYLINE
  5
2BA
330
1F
100
AcDbEntity
  8
0
  6
Continuous
 62
     7
370
    25
100
AcDbPolyline
 90
        3
 70
   128
 43
0.0
 10
6290.8171551853
 20
4814.8333928696
 10
6290.1514313629
 20
4815.297559093
 10
6289.3790345256
 20
4815.6088149616
  0
LWPOLYLINE
  5
2BB
330
1F
100
AcDbEntity
  8
0
  6
Continuous
 62
     7
370
    25
100
AcDbPolyline
 90
        3
 70
   128
 43
0.0
 10
6289.3790345256
 20
4815.6088149616
 10
6289.1537051284
 20
4815.6743520416
 10
6288.9679657322
 20
4815.7216762897
  0
LWPOLYLINE
  5
2BC
330
1F
100
AcDbEntity
  8
0
  6
Continuous
 62
     7
370
    25
100
AcDbPolyline
 90
        3
 70
   128
 43
0.0
 10
6288.9679657322
 20
4815.7216762897
 10
6288.9026665831
 20
4815.7335342532
 10
6288.8473873902
 20
4815.7427602741
  0
LWPOLYLINE
  5
2BD
330
1F
100
AcDbEntity
  8
0
  6
Continuous
 62
     7
370
    25
100
AcDbPolyline
 90
        3
 70
   128
 43
0.0
 10
6288.8473873902
 20
4815.7427602741
 10
6288.7108364963
 20
4815.7691290019
 10
6288.5992027113
 20
4815.784790439
  0
LWPOLYLINE
  5
2BE
330
1F
100
AcDbEntity
  8
0
  6
Continuous
 62
     7
370
    25
100
AcDbPolyline
 90
        3
 70
   128
 43
0.0
 10
6288.5992027113
 20
4815.784790439
 10
6288.1316425452
 20
4815.8355575248
 10
6287.7406849162
 20
4815.8474222749
  0
LINE
  5
2BF
330
1F
100
AcDbEntity
  8
0
  6
Continuous
 62
     7
370
    25
100
AcDbLine
 10
6287.7406849162
 20
4815.8474222749
 30
0.0
 11
6287.6625501506
 21
4815.8472844711
 31
0.0
  0
LWPOLYLINE
  5
2C0
330
1F
100
AcDbEntity
  8
0
  6
Continuous
 62
     7
370
    25
100
AcDbPolyline
 90
        3
 70
   128
 43
0.0
 10
6287.6625501506
 20
4815.8472844711
 10
6287.27000578
 20
4815.8385527625
 10
6286.9889650811
 20
4815.8176566499
  0
LWPOLYLINE
  5
2C1
330
1F
100
AcDbEntity
  8
0
  6
Continuous
 62
     7
370
    25
100
AcDbPolyline
 90
        3
 70
   128
 43
0.0
 10
6286.9889650811
 20
4815.8176566499
 10
6286.1584079411
 20
4815.6730620964
 10
6285.5713771905
 20
4815.4753519624
  0
LWPOLYLINE
  5
2C2
330
1F
100
AcDbEntity
  8
0
  6
Continuous
 62
     7
370
    25
100
AcDbPolyline
 90
        3
 70
   128
 43
0.0
 10
6284.5104255846
 20
4814.9711277871
 10
6284.5465188611
 20
4815.0636820092
 10
6284.616947937
 20
4815.1609525484
  0
LINE
  5
2C3
330
1F
100
AcDbEntity
  8
0
  6
Continuous
 62
     7
370
    25
100
AcDbLine
 10
6284.616947937
 20
4815.1609525484
 30
0.0
 11
6284.6126760186
 21
4815.1584031777
 31
0.0
  0
LWPOLYLINE
  5
2C4
330
1F
100
AcDbEntity
  8
0
  6
Continuous
 62
     7
370
    25
100
AcDbPolyline
 90
        3
 70
   128
 43
0.0
 10
6284.6126760186
 20
4815.1584031777
 10
6285.1568721828
 20
4815.6267105977
 10
6285.5705503676
 20
4815.9432648314
  0
LWPOLYLINE
  5
2C5
330
1F
100
AcDbEntity
  8
0
  6
Continuous
 62
     7
370
    25
100
AcDbPolyline
 90
        3
 70
   128
 43
0.0
 10
6285.5705503676
 20
4815.9432648314
 10
6286.1277297594
 20
4816.310455848
 10
6286.5843730672
 20
4816.5618661769
  0
LWPOLYLINE
  5
2C6
330
1F
100
AcDbEntity
  8
0
  6
Continuous
 62
     7
370
    25
100
AcDbPolyline
 90
        3
 70
   128
 43
0.0
 10
6286.5843730672
 20
4816.5618661769
 10
6286.7843795464
 20
4816.3860108644
 10
6286.988276062
 20
4816.2573886378
  0
LWPOLYLINE
  5
2C7
330
1F
100
AcDbEntity
  8
0
  6
Continuous
 62
     7
370
    25
100
AcDbPolyline
 90
        3
 70
   128
 43
0.0
 10
6286.988276062
 20
4816.2573886378
 10
6287.3370912634
 20
4816.11041817
 10
6287.6622745429
 20
4816.0528877697
  0
LINE
  5
2C8
330
1F
100
AcDbEntity
  8
0
  6
Continuous
 62
     7
370
    25
100
AcDbLine
 10
6287.6622745429
 20
4816.0528877697
 30
0.0
 11
6287.7475751072
 21
4816.0458597749
 31
0.0
  0
LWPOLYLINE
  5
2C9
330
1F
100
AcDbEntity
  8
0
  6
Continuous
 62
     7
370
    25
100
AcDbPolyline
 90
        3
 70
   128
 43
0.0
 10
6287.7475751072
 20
4816.0458597749
 10
6288.3159458977
 20
4816.1181228808
 10
6288.5985136922
 20
4816.2525655041
  0
LWPOLYLINE
  5
2CA
330
1F
100
AcDbEntity
  8
0
  6
Continuous
 62
     7
370
    25
100
AcDbPolyline
 90
        3
 70
   128
 43
0.0
 10
6288.5985136922
 20
4816.2525655041
 10
6288.736902964
 20
4816.3625194936
 10
6288.8462849596
 20
4816.458720018
  0
LINE
  5
2CB
330
1F
100
AcDbEntity
  8
0
  6
Continuous
 62
     7
370
    25
100
AcDbLine
 10
6288.8462849596
 20
4816.458720018
 30
0.0
 11
6288.8812871297
 21
4816.4871076048
 31
0.0
  0
LWPOLYLINE
  5
2CC
330
1F
100
AcDbEntity
  8
0
  6
Continuous
 62
     7
370
    25
100
AcDbPolyline
 90
        3
 70
   128
 43
0.0
 10
6288.8812871297
 20
4816.4871076048
 10
6288.9342011506
 20
4816.4699618199
 10
6288.9668633016
 20
4816.451829827
  0
LWPOLYLINE
  5
2CD
330
1F
100
AcDbEntity
  8
0
  6
Continuous
 62
     7
370
    25
100
AcDbPolyline
 90
        3
 70
   128
 43
0.0
 10
6288.9668633016
 20
4816.451829827
 10
6289.2047788398
 20
4816.3383736715
 10
6289.3780698988
 20
4816.2536679347
  0
ARC
  5
2CE
330
1F
100
AcDbEntity
  8
0
  6
Continuous
 62
     7
370
    25
100
AcDbCircle
 10
6288.5911855415
 20
4815.4243622727
 30
0.0
 40
0.2422855740784635
100
AcDbArc
 50
272.1245052654
 51
359.77242248
  0
LINE
  5
2CF
330
1F
100
AcDbEntity
  8
0
  6
Continuous
 62
     7
370
    25
100
AcDbLine
 10
6288.6001673381
 20
4815.1822432385
 30
0.0
 11
6288.592588128
 21
4815.1821054347
 31
0.0
  0
ARC
  5
2D0
330
1F
100
AcDbEntity
  8
0
  6
Continuous
 62
     7
370
    25
100
AcDbCircle
 10
6288.5961688794
 20
4815.4203508714
 30
0.0
 40
0.2382723439846336
100
AcDbArc
 50
179.4324893839
 51
269.1389279077
  0
ARC
  5
2D1
330
1F
100
AcDbEntity
  8
0
  6
Continuous
 62
     7
370
    25
100
AcDbCircle
 10
6288.5951941842
 20
4815.4268460357
 30
0.0
 40
0.2373219890568498
100
AcDbArc
 50
90.8288163597
 51
180.9983803908
  0
LINE
  5
2D2
330
1F
100
AcDbEntity
  8
0
  6
Continuous
 62
     7
370
    25
100
AcDbLine
 10
6288.5917613051
 20
4815.6641431951
 30
0.0
 11
6288.5993405152
 21
4815.6642809989
 31
0.0
  0
ARC
  5
2D3
330
1F
100
AcDbEntity
  8
0
  6
Continuous
 62
     7
370
    25
100
AcDbCircle
 10
6288.5994715297
 20
4815.43018501
 30
0.0
 40
0.2340960255134968
100
AcDbArc
 50
358.3390946912
 51
90.0320662533
  0
ARC
  5
2D4
330
1F
100
AcDbEntity
  8
0
  6
Continuous
 62
     7
370
    25
100
AcDbCircle
 10
6289.8573645812
 20
4813.2622687354
 30
0.0
 40
2.819583582780959
100
AcDbArc
 50
260.3918670468
 51
295.2374483231
  0
LWPOLYLINE
  5
2D5
330
1F
100
AcDbEntity
  8
0
  6
Continuous
 62
     7
370
    25
100
AcDbPolyline
 90
        3
 70
   128
 43
0.0
 10
6288.7328724162
 20
4811.5163171317
 10
6288.800472717
 20
4811.4995149082
 10
6288.8540019735
 20
4811.4814527654
  0
LWPOLYLINE
  5
2D6
330
1F
100
AcDbEntity
  8
0
  6
Continuous
 62
     7
370
    25
100
AcDbPolyline
 90
        3
 70
   128
 43
0.0
 10
6288.8540019735
 20
4811.4814527654
 10
6288.920870331
 20
4811.4652786451
 10
6288.9743047079
 20
4811.4530651786
  0
LWPOLYLINE
  5
2D7
330
1F
100
AcDbEntity
  8
0
  6
Continuous
 62
     7
370
    25
100
AcDbPolyline
 90
        3
 70
   128
 43
0.0
 10
6288.9743047079
 20
4811.4530651786
 10
6289.1995564411
 20
4811.4178649149
 10
6289.3855113051
 20
4811.4041448227
  0
ARC
  5
2D8
330
1F
100
AcDbEntity
  8
0
  6
Continuous
 62
     7
370
    25
100
AcDbCircle
 10
6289.7925795016
 20
4814.0741019034
 30
0.0
 40
2.700810124707408
100
AcDbArc
 50
261.3313011464
 51
294.2608153268
  0
LWPOLYLINE
  5
2D9
330
1F
100
AcDbEntity
  8
0
  6
Continuous
 62
     7
370
    25
100
AcDbPolyline
 90
        3
 70
   128
 43
0.0
 10
6290.9023179457
 20
4811.6118151786
 10
6291.0294402538
 20
4811.055607328
 10
6291.0595521037
 20
4810.7118184338
  0
LWPOLYLINE
  5
2DA
330
1F
100
AcDbEntity
  8
0
  6
Continuous
 62
     7
370
    25
100
AcDbPolyline
 90
        3
 70
   128
 43
0.0
 10
6289.3867515395
 20
4810.4822372706
 10
6289.1539860277
 20
4810.5123147953
 10
6288.9756827461
 20
4810.5453514199
  0
LWPOLYLINE
  5
2DB
330
1F
100
AcDbEntity
  8
0
  6
Continuous
 62
     7
370
    25
100
AcDbPolyline
 90
        3
 70
   128
 43
0.0
 10
6288.9756827461
 20
4810.5453514199
 10
6288.9081583806
 20
4810.5587182757
 10
6288.8553800117
 20
4810.5736701048
  0
LWPOLYLINE
  5
2DC
330
1F
100
AcDbEntity
  8
0
  6
Continuous
 62
     7
370
    25
100
AcDbPolyline
 90
        3
 70
   128
 43
0.0
 10
6288.8553800117
 20
4810.5736701048
 10
6288.7252991857
 20
4810.6069375343
 10
6288.6278659058
 20
4810.6370598617
  0
LWPOLYLINE
  5
2DD
330
1F
100
AcDbEntity
  8
0
  6
Continuous
 62
     7
370
    25
100
AcDbPolyline
 90
        3
 70
   128
 43
0.0
 10
6288.6278659058
 20
4810.6370598617
 10
6288.6626743304
 20
4811.1565215765
 10
6288.7328724162
 20
4811.5163171317
  0
LWPOLYLINE
  5
2DE
330
1F
100
AcDbEntity
  8
0
  6
Continuous
 62
     7
370
    25
100
AcDbPolyline
 90
        3
 70
   128
 43
0.0
 10
6289.3826174249
 20
4813.2123376395
 10
6289.7104909965
 20
4813.2422307584
 10
6289.9919859145
 20
4813.2839956256
  0
LWPOLYLINE
  5
2DF
330
1F
100
AcDbEntity
  8
0
  6
Continuous
 62
     7
370
    25
100
AcDbPolyline
 90
        3
 70
   128
 43
0.0
 10
6289.9919859145
 20
4813.2839956256
 10
6290.3157260065
 20
4812.8780734102
 10
6290.4682359145
 20
4812.6041404824
  0
LWPOLYLINE
  5
2E0
330
1F
100
AcDbEntity
  8
0
  6
Continuous
 62
     7
370
    25
100
AcDbPolyline
 90
        3
 70
   128
 43
0.0
 10
6290.4682359145
 20
4812.6041404824
 10
6289.8499908657
 20
4812.4259916734
 10
6289.3838576593
 20
4812.4108017237
  0
LWPOLYLINE
  5
2E1
330
1F
100
AcDbEntity
  8
0
  6
Continuous
 62
     7
370
    25
100
AcDbPolyline
 90
        3
 70
   128
 43
0.0
 10
6289.3838576593
 20
4812.4108017237
 10
6289.1482070955
 20
4812.433386707
 10
6288.9729266697
 20
4812.4599287854
  0
LWPOLYLINE
  5
2E2
330
1F
100
AcDbEntity
  8
0
  6
Continuous
 62
     7
370
    25
100
AcDbPolyline
 90
        3
 70
   128
 43
0.0
 10
6288.9729266697
 20
4812.4599287854
 10
6288.9195157966
 20
4812.4675473919
 10
6288.8735701159
 20
4812.4740536769
  0
LWPOLYLINE
  5
2E3
330
1F
100
AcDbEntity
  8
0
  6
Continuous
 62
     7
370
    25
100
AcDbPolyline
 90
        3
 70
   128
 43
0.0
 10
6288.8735701159
 20
4812.4740536769
 10
6288.9231887865
 20
4812.738525065
 10
6288.9722376506
 20
4812.9422421534
  0
LWPOLYLINE
  5
2E4
330
1F
100
AcDbEntity
  8
0
  6
Continuous
 62
     7
370
    25
100
AcDbPolyline
 90
        3
 70
   128
 43
0.0
 10
6288.9722376506
 20
4812.9422421534
 10
6289.0206225868
 20
4813.0904343171
 10
6289.0636015829
 20
4813.2119242281
  0
LWPOLYLINE
  5
2E5
330
1F
100
AcDbEntity
  8
0
  6
Continuous
 62
     7
370
    25
100
AcDbPolyline
 90
        3
 70
   128
 43
0.0
 10
6289.0636015829
 20
4813.2119242281
 10
6289.2445322211
 20
4813.2068078479
 10
6289.3826174249
 20
4813.2123376395
  0
LINE
  5
2E6
330
1F
100
AcDbEntity
  8
0
  6
Continuous
 62
     7
370
    25
100
AcDbLine
 10
6287.0100490655
 20
4806.6211809555
 30
0.0
 11
6287.0030210707
 21
4806.6284845579
 31
0.0
  0
LWPOLYLINE
  5
2E7
330
1F
100
AcDbEntity
  8
0
  6
Continuous
 62
     7
370
    25
100
AcDbPolyline
 90
        3
 70
   128
 43
0.0
 10
6287.0030210707
 20
4806.6284845579
 10
6286.0855567724
 20
4807.0809683336
 10
6285.5833661228
 20
4807.5202130736
  0
ARC
  5
2E8
330
1F
100
AcDbEntity
  8
0
  6
Continuous
 62
     7
370
    25
100
AcDbCircle
 10
6288.5597615646
 20
4809.5099301387
 30
0.0
 40
3.580210025297229
100
AcDbArc
 50
146.408330412
 51
213.7626838309
  0
LWPOLYLINE
  5
2E9
330
1F
100
AcDbEntity
  8
0
  6
Continuous
 62
     7
370
    25
100
AcDbPolyline
 90
        3
 70
   128
 43
0.0
 10
6285.5774405586
 20
4811.4907545232
 10
6285.9955512109
 20
4812.3346445024
 10
6286.1928724162
 20
4812.7180353392
  0
LWPOLYLINE
  5
2EA
330
1F
100
AcDbEntity
  8
0
  6
Continuous
 62
     7
370
    25
100
AcDbPolyline
 90
        3
 70
   128
 43
0.0
 10
6286.9964064874
 20
4810.9611744451
 10
6287.0237469415
 20
4808.5914058536
 10
6287.0100490655
 20
4806.6211809555
  0
LWPOLYLINE
  5
2EB
330
1F
100
AcDbEntity
  8
0
  6
Continuous
 62
     7
370
    25
100
AcDbPolyline
 90
        3
 70
   128
 43
0.0
 10
6286.1928724162
 20
4812.7180353392
 10
6286.4478226761
 20
4813.3867955287
 10
6286.4887372165
 20
4813.7680315414
  0
LWPOLYLINE
  5
2EC
330
1F
100
AcDbEntity
  8
0
  6
Continuous
 62
     7
370
    25
100
AcDbPolyline
 90
        3
 70
   128
 43
0.0
 10
6286.4887372165
 20
4813.7680315414
 10
6286.8711887207
 20
4812.2273845402
 10
6286.9964064874
 20
4810.9611744451
  0
ARC
  5
2ED
330
1F
100
AcDbEntity
  8
0
  6
Continuous
 62
     7
370
    25
100
AcDbCircle
 10
6286.990311763
 20
4815.4124901272
 30
0.0
 40
0.2422158743595261
100
AcDbArc
 50
90.2533617307
 51
178.1524237866
  0
ARC
  5
2EE
330
1F
100
AcDbEntity
  8
0
  6
Continuous
 62
     7
370
    25
100
AcDbCircle
 10
6286.9898103822
 20
4815.4137366774
 30
0.0
 40
0.2409676294884628
100
AcDbArc
 50
1.6917384858
 51
90.1354582649
  0
ARC
  5
2EF
330
1F
100
AcDbEntity
  8
0
  6
Continuous
 62
     7
370
    25
100
AcDbCircle
 10
6286.9894437903
 20
4815.4237295074
 30
0.0
 40
0.2412463689933122
100
AcDbArc
 50
180.8146897131
 51
359.3162346047
  0
LWPOLYLINE
  5
2F0
330
1F
100
AcDbEntity
  8
0
  6
Continuous
 62
     7
370
    25
100
AcDbPolyline
 90
        3
 70
   128
 43
0.0
 10
6287.5738044909
 20
4813.9327071057
 10
6287.2633171663
 20
4813.9859286958
 10
6286.9917211575
 20
4814.0876675006
  0
LWPOLYLINE
  5
2F1
330
1F
100
AcDbEntity
  8
0
  6
Continuous
 62
     7
370
    25
100
AcDbPolyline
 90
        3
 70
   128
 43
0.0
 10
6286.9917211575
 20
4814.0876675006
 10
6286.5142395045
 20
4814.3266552716
 10
6286.1399557495
 20
4814.5258147446
  0
LWPOLYLINE
  5
2F2
330
1F
100
AcDbEntity
  8
0
  6
Continuous
 62
     7
370
    25
100
AcDbPolyline
 90
        3
 70
   128
 43
0.0
 10
6285.5723418172
 20
4814.7877109034
 10
6285.0856266645
 20
4814.9283389736
 10
6284.6935668606
 20
4814.9776045666
  0
LWPOLYLINE
  5
2F3
330
1F
100
AcDbEntity
  8
0
  6
Continuous
 62
     7
370
    25
100
AcDbPolyline
 90
        3
 70
   128
 43
0.0
 10
6284.6935668606
 20
4814.9776045666
 10
6285.1358451015
 20
4815.0210859888
 10
6285.5720662096
 20
4814.9574163071
  0
LWPOLYLINE
  5
2F4
330
1F
100
AcDbEntity
  8
0
  6
Continuous
 62
     7
370
    25
100
AcDbPolyline
 90
        3
 70
   128
 43
0.0
 10
6285.5720662096
 20
4814.9574163071
 10
6286.2434099936
 20
4814.7527112159
 10
6286.8208444214
 20
4814.5129300874
  0
LWPOLYLINE
  5
2F5
330
1F
100
AcDbEntity
  8
0
  6
Continuous
 62
     7
370
    25
100
AcDbPolyline
 90
        3
 70
   128
 43
0.0
 10
6286.990618727
 20
4814.7611836682
 10
6287.3724687979
 20
4815.128336038
 10
6287.6633769735
 20
4815.244461663
  0
LWPOLYLINE
  5
2F6
330
1F
100
AcDbEntity
  8
0
  6
Continuous
 62
     7
370
    25
100
AcDbPolyline
 90
        3
 70
   128
 43
0.0
 10
6288.600994161
 20
4814.7497459512
 10
6288.6643920847
 20
4814.6662780498
 10
6288.7138554891
 20
4814.6008489242
  0
LWPOLYLINE
  5
2F7
330
1F
100
AcDbEntity
  8
0
  6
Continuous
 62
     7
370
    25
100
AcDbPolyline
 90
        3
 70
   128
 43
0.0
 10
6289.3799991523
 20
4814.8570951265
 10
6290.0659517993
 20
4814.9483314679
 10
6290.6279505412
 20
4814.8876186725
  0
LWPOLYLINE
  5
2F8
330
1F
100
AcDbEntity
  8
0
  6
Continuous
 62
     7
370
    25
100
AcDbPolyline
 90
        3
 70
   128
 43
0.0
 10
6289.3804125638
 20
4814.6020202567
 10
6289.1479356065
 20
4814.488884882
 10
6288.9697571818
 20
4814.3953834295
  0
LWPOLYLINE
  5
2F9
330
1F
100
AcDbEntity
  8
0
  6
Continuous
 62
     7
370
    25
100
AcDbPolyline
 90
        3
 70
   128
 43
0.0
 10
6288.9697571818
 20
4814.3953834295
 10
6288.9046895432
 20
4814.3491519105
 10
6288.8495922513
 20
4814.3176620753
  0
ARC
  5
2FA
330
1F
100
AcDbEntity
  8
0
  6
Continuous
 62
     7
370
    25
100
AcDbCircle
 10
6287.9915275877
 20
4814.8503818812
 30
0.0
 40
0.9312959925570493
100
AcDbArc
 50
263.0369031455
 51
310.9436339501
  0
LWPOLYLINE
  5
2FB
330
1F
100
AcDbEntity
  8
0
  6
Continuous
 62
     7
370
    25
100
AcDbPolyline
 90
       12
 70
   128
 43
0.0
 10
6287.8786265395
 20
4813.9259547185
 10
6287.8647427037
 20
4813.9288732594
 10
6287.8524602318
 20
4813.9371687735
 10
6287.841881871
 20
4813.9500735831
 10
6287.8331103685
 20
4813.9668200105
 10
6287.8213989279
 20
4814.0087670087
 10
6287.8181478882
 20
4814.056868347
 10
6287.8241792276
 20
4814.1049826044
 10
6287.8403149245
 20
4814.1469683599
 10
6287.867376957
 20
4814.1766841925
 10
6287.8852622173
 20
4814.1850216936
 10
6287.9061873033
 20
4814.1879886812
  0
LINE
  5
2FC
330
1F
100
AcDbEntity
  8
0
  6
Continuous
 62
     7
370
    25
100
AcDbLine
 10
6287.9061873033
 20
4814.1879886812
 30
0.0
 11
6288.0694848294
 21
4814.1882642888
 31
0.0
  0
ARC
  5
2FD
330
1F
100
AcDbEntity
  8
0
  6
Continuous
 62
     7
370
    25
100
AcDbCircle
 10
6288.0716651904
 20
4814.2857400655
 30
0.0
 40
0.0975001590186566
100
AcDbArc
 50
268.7186082644
 51
352.9489459369
  0
ARC
  5
2FE
330
1F
100
AcDbEntity
  8
0
  6
Continuous
 62
     7
370
    25
100
AcDbCircle
 10
6288.0706812128
 20
4814.2601906881
 30
0.0
 40
0.0986857078572153
100
AcDbArc
 50
7.9099988957
 51
90.8546526499
  0
LINE
  5
2FF
330
1F
100
AcDbEntity
  8
0
  6
Continuous
 62
     7
370
    25
100
AcDbLine
 10
6288.0692092218
 20
4814.3588654173
 30
0.0
 11
6287.6647550117
 21
4814.3581763982
 31
0.0
  0
LINE
  5
300
330
1F
100
AcDbEntity
  8
0
  6
Continuous
 62
     7
370
    25
100
AcDbLine
 10
6287.6647550117
 20
4814.3581763982
 30
0.0
 11
6287.4169837443
 21
4814.3576940848
 31
0.0
  0
ARC
  5
301
330
1F
100
AcDbEntity
  8
0
  6
Continuous
 62
     7
370
    25
100
AcDbCircle
 10
6287.4223814312
 20
4814.2507054274
 30
0.0
 40
0.1071247302883829
100
AcDbArc
 50
92.8881817378
 51
168.2817231377
  0
ARC
  5
302
330
1F
100
AcDbEntity
  8
0
  6
Continuous
 62
     7
370
    25
100
AcDbCircle
 10
6287.4093719588
 20
4814.2788596181
 30
0.0
 40
0.0921050008233849
100
AcDbArc
 50
183.9827114933
 51
274.9125292089
  0
LINE
  5
303
330
1F
100
AcDbEntity
  8
0
  6
Continuous
 62
     7
370
    25
100
AcDbLine
 10
6287.417259352
 20
4814.1870929564
 30
0.0
 11
6287.5733910794
 21
4814.187368564
 31
0.0
  0
LWPOLYLINE
  5
304
330
1F
100
AcDbEntity
  8
0
  6
Continuous
 62
     7
370
    25
100
AcDbPolyline
 90
       11
 70
   128
 43
0.0
 10
6287.5733910794
 20
4814.187368564
 10
6287.5907880714
 20
4814.1845441745
 10
6287.6058745618
 20
4814.1764910787
 10
6287.6291111925
 20
4814.1476842938
 10
6287.6430912823
 20
4814.1069192594
 10
6287.6478051419
 20
4814.0601670259
 10
6287.6432430819
 20
4814.0133986435
 10
6287.6293954129
 20
4813.9725851625
 10
6287.6062524457
 20
4813.9436976331
 10
6287.5911921973
 20
4813.9355920535
 10
6287.5738044909
 20
4813.9327071057
  0
LWPOLYLINE
  5
305
330
1F
100
AcDbEntity
  8
0
  6
Continuous
 62
     7
370
    25
100
AcDbPolyline
 90
        3
 70
   128
 43
0.0
 10
6288.8495922513
 20
4814.3176620753
 10
6288.7107507007
 20
4814.2219301103
 10
6288.6018209839
 20
4814.146923143
  0
LWPOLYLINE
  5
306
330
1F
100
AcDbEntity
  8
0
  6
Continuous
 62
     7
370
    25
100
AcDbPolyline
 90
        3
 70
   128
 43
0.0
 10
6286.1399557495
 20
4814.5258147446
 10
6285.8225808974
 20
4814.6854561787
 10
6285.5723418172
 20
4814.7877109034
  0
ARC
  5
307
330
1F
100
AcDbEntity
  8
0
  6
Continuous
 62
     7
370
    25
100
AcDbCircle
 10
6287.7107044826
 20
4814.1982856177
 30
0.0
 40
1.047246012581117
100
AcDbArc
 50
31.7747674493
 51
92.5902131605
  0
LWPOLYLINE
  5
308
330
1F
100
AcDbEntity
  8
0
  6
Continuous
 62
     7
370
    25
100
AcDbPolyline
 90
        3
 70
   128
 43
0.0
 10
6288.7138554891
 20
4814.6008489242
 10
6288.7920772409
 20
4814.63673557
 10
6288.8491788398
 20
4814.6646520927
  0
LWPOLYLINE
  5
309
330
1F
100
AcDbEntity
  8
0
  6
Continuous
 62
     7
370
    25
100
AcDbPolyline
 90
        3
 70
   128
 43
0.0
 10
6288.9693437704
 20
4814.7146059772
 10
6289.1994330218
 20
4814.8024288673
 10
6289.3799991523
 20
4814.8570951265
  0
LWPOLYLINE
  5
30A
330
1F
100
AcDbEntity
  8
0
  6
Continuous
 62
     7
370
    25
100
AcDbPolyline
 90
        3
 70
   128
 43
0.0
 10
6286.8208444214
 20
4814.5129300874
 10
6286.9212109163
 20
4814.6602173849
 10
6286.990618727
 20
4814.7611836682
  0
LWPOLYLINE
  5
30B
330
1F
100
AcDbEntity
  8
0
  6
Continuous
 62
     7
370
    25
100
AcDbPolyline
 90
        3
 70
   128
 43
0.0
 10
6288.8491788398
 20
4814.6646520927
 10
6288.9188303847
 20
4814.6951565842
 10
6288.9693437704
 20
4814.7146059772
  0
LWPOLYLINE
  5
30C
330
1F
100
AcDbEntity
  8
0
  6
Continuous
 62
     7
370
    25
100
AcDbPolyline
 90
        3
 70
   128
 43
0.0
 10
6290.6279505412
 20
4814.8876186725
 10
6289.8980079518
 20
4814.7818449586
 10
6289.3804125638
 20
4814.6020202567
  0
LWPOLYLINE
  5
30D
330
1F
100
AcDbEntity
  8
0
  6
Continuous
 62
     7
370
    25
100
AcDbPolyline
 90
        3
 70
   128
 43
0.0
 10
6288.2584138659
 20
4806.5953427394
 10
6288.0069773785
 20
4806.5525617134
 10
6287.7479885186
 20
4806.5373273314
  0
LWPOLYLINE
  5
30E
330
1F
100
AcDbEntity
  8
0
  6
Continuous
 62
     7
370
    25
100
AcDbPolyline
 90
        3
 70
   128
 43
0.0
 10
6287.6274101766
 20
4806.5445620319
 10
6287.3610647888
 20
4806.5627654181
 10
6287.1306274075
 20
4806.600165873
  0
ARC
  5
30F
330
1F
100
AcDbEntity
  8
0
  6
Continuous
 62
     7
370
    25
100
AcDbCircle
 10
6285.7019658112
 20
4812.3971468619
 30
0.0
 40
2.004785168065789
100
AcDbArc
 50
49.9484998499
 51
72.9550939821
  0
LWPOLYLINE
  5
310
330
1F
100
AcDbEntity
  8
0
  6
Continuous
 62
     7
370
    25
100
AcDbPolyline
 90
        3
 70
   128
 43
0.0
 10
6288.8498678589
 20
4814.1756552394
 10
6288.9195194038
 20
4814.2180006553
 10
6288.9700327895
 20
4814.2471065197
  0
LWPOLYLINE
  5
311
330
1F
100
AcDbEntity
  8
0
  6
Continuous
 62
     7
370
    25
100
AcDbPolyline
 90
        3
 70
   128
 43
0.0
 10
6287.1306274075
 20
4806.600165873
 10
6287.147903147
 20
4810.1978173751
 10
6286.9944772339
 20
4812.1946564329
  0
ARC
  5
312
330
1F
100
AcDbEntity
  8
0
  6
Continuous
 62
     7
370
    25
100
AcDbCircle
 10
6283.8014290161
 20
4812.3094554346
 30
0.0
 40
3.195111223772778
100
AcDbArc
 50
357.9409435732
 51
38.8540510632
  0
ARC
  5
313
330
1F
100
AcDbEntity
  8
0
  6
Continuous
 62
     7
370
    25
100
AcDbCircle
 10
6287.5037437103
 20
4815.2702434349
 30
0.0
 40
1.669874906521078
100
AcDbArc
 50
277.2984266618
 51
311.1281656327
  0
LWPOLYLINE
  5
314
330
1F
100
AcDbEntity
  8
0
  6
Continuous
 62
     7
370
    25
100
AcDbPolyline
 90
        3
 70
   128
 43
0.0
 10
6287.7479885186
 20
4806.5373273314
 10
6287.6926559239
 20
4808.1501515635
 10
6287.6796378242
 20
4809.4089522229
  0
LINE
  5
315
330
1F
100
AcDbEntity
  8
0
  6
Continuous
 62
     7
370
    25
100
AcDbLine
 10
6287.6796378242
 20
4809.4089522229
 30
0.0
 11
6287.6724720256
 21
4809.3591361421
 31
0.0
  0
LWPOLYLINE
  5
316
330
1F
100
AcDbEntity
  8
0
  6
Continuous
 62
     7
370
    25
100
AcDbPolyline
 90
        3
 70
   128
 43
0.0
 10
6287.6724720256
 20
4809.3591361421
 10
6287.5857885989
 20
4807.8615916885
 10
6287.6274101766
 20
4806.5445620319
  0
LWPOLYLINE
  5
317
330
1F
100
AcDbEntity
  8
0
  6
Continuous
 62
     7
370
    25
100
AcDbPolyline
 90
        3
 70
   128
 43
0.0
 10
6286.9919967652
 20
4813.9317424789
 10
6287.3755358127
 20
4813.711675653
 10
6287.6658574422
 20
4813.6205814546
  0
LINE
  5
318
330
1F
100
AcDbEntity
  8
0
  6
Continuous
 62
     7
370
    25
100
AcDbLine
 10
6287.6658574422
 20
4813.6205814546
 30
0.0
 11
6287.7158802287
 21
4813.6138979694
 31
0.0
  0
LWPOLYLINE
  5
319
330
1F
100
AcDbEntity
  8
0
  6
Continuous
 62
     7
370
    25
100
AcDbPolyline
 90
        3
 70
   128
 43
0.0
 10
6288.6020965915
 20
4814.0124266152
 10
6288.7434195634
 20
4814.1064097814
 10
6288.8498678589
 20
4814.1756552394
  0
LWPOLYLINE
  5
31A
330
1F
100
AcDbEntity
  8
0
  6
Continuous
 62
     7
370
    25
100
AcDbPolyline
 90
        3
 70
   128
 43
0.0
 10
6288.9700327895
 20
4814.2471065197
 10
6289.0280323842
 20
4814.2735868047
 10
6289.0689759318
 20
4814.2894122923
  0
LWPOLYLINE
  5
31B
330
1F
100
AcDbEntity
  8
0
  6
Continuous
 62
     7
370
    25
100
AcDbPolyline
 90
        3
 70
   128
 43
0.0
 10
6289.0689759318
 20
4814.2894122923
 10
6289.0159919022
 20
4814.2361429802
 10
6288.9701705933
 20
4814.1895045232
  0
LWPOLYLINE
  5
31C
330
1F
100
AcDbEntity
  8
0
  6
Continuous
 62
     7
370
    25
100
AcDbPolyline
 90
        3
 70
   128
 43
0.0
 10
6288.9701705933
 20
4814.1895045232
 10
6288.9026704284
 20
4814.1051156426
 10
6288.8500056627
 20
4814.0338551091
  0
LWPOLYLINE
  5
31D
330
1F
100
AcDbEntity
  8
0
  6
Continuous
 62
     7
370
    25
100
AcDbPolyline
 90
        3
 70
   128
 43
0.0
 10
6288.8500056627
 20
4814.0338551091
 10
6288.7032339852
 20
4813.7913639373
 10
6288.6027856106
 20
4813.5725568236
  0
ARC
  5
31E
330
1F
100
AcDbEntity
  8
0
  6
Continuous
 62
     7
370
    25
100
AcDbCircle
 10
6305.1315356602
 20
4809.2596479364
 30
0.0
 40
17.08217671349145
100
AcDbArc
 50
165.3756823683
 51
188.9730509266
  0
LWPOLYLINE
  5
31F
330
1F
100
AcDbEntity
  8
0
  6
Continuous
 62
     7
370
    25
100
AcDbPolyline
 90
        3
 70
   128
 43
0.0
 10
6289.3919880846
 20
4807.0223278739
 10
6289.1700154032
 20
4806.9081564438
 10
6288.9813327027
 20
4806.8231324529
  0
LWPOLYLINE
  5
320
330
1F
100
AcDbEntity
  8
0
  6
Continuous
 62
     7
370
    25
100
AcDbPolyline
 90
        3
 70
   128
 43
0.0
 10
6288.9813327027
 20
4806.8231324529
 10
6288.9161631995
 20
4806.7949180006
 10
6288.8611677721
 20
4806.7731096664
  0
LWPOLYLINE
  5
321
330
1F
100
AcDbEntity
  8
0
  6
Continuous
 62
     7
370
    25
100
AcDbPolyline
 90
        3
 70
   128
 43
0.0
 10
6288.8611677721
 20
4806.7731096664
 10
6288.7246530556
 20
4806.7252864671
 10
6288.6132587009
 20
4806.6877402003
  0
LWPOLYLINE
  5
322
330
1F
100
AcDbEntity
  8
0
  6
Continuous
 62
     7
370
    25
100
AcDbPolyline
 90
        3
 70
   128
 43
0.0
 10
6288.6132587009
 20
4806.6877402003
 10
6288.4683691105
 20
4806.6438530484
 10
6288.3503290134
 20
4806.6091920232
  0
LWPOLYLINE
  5
323
330
1F
100
AcDbEntity
  8
0
  6
Continuous
 62
     7
370
    25
100
AcDbPolyline
 90
        3
 70
   128
 43
0.0
 10
6289.1901054891
 20
4813.8394139199
 10
6289.067155184
 20
4813.5667331724
 10
6288.9716864353
 20
4813.3036326699
  0
LWPOLYLINE
  5
324
330
1F
100
AcDbEntity
  8
0
  6
Continuous
 62
     7
370
    25
100
AcDbPolyline
 90
        3
 70
   128
 43
0.0
 10
6288.9716864353
 20
4813.3036326699
 10
6288.9042675152
 20
4813.0692759716
 10
6288.8516593086
 20
4812.8709975788
  0
LWPOLYLINE
  5
325
330
1F
100
AcDbEntity
  8
0
  6
Continuous
 62
     7
370
    25
100
AcDbPolyline
 90
        3
 70
   128
 43
0.0
 10
6288.8516593086
 20
4812.8709975788
 10
6288.7003544719
 20
4812.1648144404
 10
6288.6056794908
 20
4811.5447047185
  0
LWPOLYLINE
  5
326
330
1F
100
AcDbEntity
  8
0
  6
Continuous
 62
     7
370
    25
100
AcDbPolyline
 90
        3
 70
   128
 43
0.0
 10
6288.6056794908
 20
4811.5447047185
 10
6288.475677934
 20
4809.4709276275
 10
6288.6113294474
 20
4807.8575568236
  0
LWPOLYLINE
  5
327
330
1F
100
AcDbEntity
  8
0
  6
Continuous
 62
     7
370
    25
100
AcDbPolyline
 90
        3
 70
   128
 43
0.0
 10
6288.6113294474
 20
4807.8575568236
 10
6288.6469043876
 20
4807.6630106565
 10
6288.6751326159
 20
4807.5102911986
  0
LWPOLYLINE
  5
328
330
1F
100
AcDbEntity
  8
0
  6
Continuous
 62
     7
370
    25
100
AcDbPolyline
 90
        3
 70
   128
 43
0.0
 10
6288.6751326159
 20
4807.5102911986
 10
6288.6408882124
 20
4808.1452164185
 10
6288.6100892131
 20
4808.6305673487
  0
LWPOLYLINE
  5
329
330
1F
100
AcDbEntity
  8
0
  6
Continuous
 62
     7
370
    25
100
AcDbPolyline
 90
        3
 70
   128
 43
0.0
 10
6288.6100892131
 20
4808.6305673487
 10
6288.580012244
 20
4809.1560631509
 10
6288.5659919909
 20
4809.5873392671
  0
LINE
  5
32A
330
1F
100
AcDbEntity
  8
0
  6
Continuous
 62
     7
370
    25
100
AcDbLine
 10
6288.5659919909
 20
4809.5873392671
 30
0.0
 11
6288.6088489787
 21
4809.5808624876
 31
0.0
  0
LWPOLYLINE
  5
32B
330
1F
100
AcDbEntity
  8
0
  6
Continuous
 62
     7
370
    25
100
AcDbPolyline
 90
        3
 70
   128
 43
0.0
 10
6288.6088489787
 20
4809.5808624876
 10
6288.7503550598
 20
4809.5463468157
 10
6288.8567580499
 20
4809.5239495102
  0
LWPOLYLINE
  5
32C
330
1F
100
AcDbEntity
  8
0
  6
Continuous
 62
     7
370
    25
100
AcDbPolyline
 90
        3
 70
   128
 43
0.0
 10
6288.8567580499
 20
4809.5239495102
 10
6288.9267223499
 20
4809.5081656856
 10
6288.9774741957
 20
4809.4960442367
  0
LWPOLYLINE
  5
32D
330
1F
100
AcDbEntity
  8
0
  6
Continuous
 62
     7
370
    25
100
AcDbPolyline
 90
        3
 70
   128
 43
0.0
 10
6288.9774741957
 20
4809.4960442367
 10
6289.2100443745
 20
4809.4599333037
 10
6289.3884051853
 20
4809.4403025918
  0
LWPOLYLINE
  5
32E
330
1F
100
AcDbEntity
  8
0
  6
Continuous
 62
     7
370
    25
100
AcDbPolyline
 90
        3
 70
   128
 43
0.0
 10
6289.3884051853
 20
4809.4403025918
 10
6290.2101878953
 20
4809.4561640187
 10
6291.068509352
 20
4809.6056671751
  0
LWPOLYLINE
  5
32F
330
1F
100
AcDbEntity
  8
0
  6
Continuous
 62
     7
370
    25
100
AcDbPolyline
 90
        3
 70
   128
 43
0.0
 10
6288.3503290134
 20
4806.6091920232
 10
6288.2369450891
 20
4810.0445658357
 10
6288.5325056627
 20
4813.0263713852
  0
LWPOLYLINE
  5
330
330
1F
100
AcDbEntity
  8
0
  6
Continuous
 62
     7
370
    25
100
AcDbPolyline
 90
        3
 70
   128
 43
0.0
 10
6288.5325056627
 20
4813.0263713852
 10
6288.5743145919
 20
4813.1390847319
 10
6288.6031990221
 20
4813.2184010076
  0
LWPOLYLINE
  5
331
330
1F
100
AcDbEntity
  8
0
  6
Continuous
 62
     7
370
    25
100
AcDbPolyline
 90
        3
 70
   128
 43
0.0
 10
6288.9756827461
 20
4814.020212531
 10
6289.0956820651
 20
4813.9196192794
 10
6289.1901054891
 20
4813.8394139199
  0
LWPOLYLINE
  5
332
330
1F
100
AcDbEntity
  8
0
  6
Continuous
 62
     7
370
    25
100
AcDbPolyline
 90
        3
 70
   128
 43
0.0
 10
6288.6031990221
 20
4813.2184010076
 10
6288.7387085513
 20
4813.5650535313
 10
6288.8504190742
 20
4813.7997953218
  0
LWPOLYLINE
  5
333
330
1F
100
AcDbEntity
  8
0
  6
Continuous
 62
     7
370
    25
100
AcDbPolyline
 90
        3
 70
   128
 43
0.0
 10
6288.8504190742
 20
4813.7997953218
 10
6288.9169782572
 20
4813.9244013895
 10
6288.9704462009
 20
4814.0128400267
  0
LINE
  5
334
330
1F
100
AcDbEntity
  8
0
  6
Continuous
 62
     7
370
    25
100
AcDbLine
 10
6288.9704462009
 20
4814.0128400267
 30
0.0
 11
6288.9756827461
 21
4814.020212531
 31
0.0
  0
ARC
  5
335
330
1F
100
AcDbEntity
  8
0
  6
Continuous
 62
     7
370
    25
100
AcDbCircle
 10
6287.5587164598
 20
4810.04775377
 30
0.0
 40
3.537525505619913
100
AcDbArc
 50
301.2139727478
 51
352.820943498
  0
LWPOLYLINE
  5
336
330
1F
100
AcDbEntity
  8
0
  6
Continuous
 62
     7
370
    25
100
AcDbPolyline
 90
        7
 70
   128
 43
0.0
 10
6281.2400652436
 20
4814.6033292512
 10
6281.3762809698
 20
4814.5961135306
 10
6281.4918404775
 20
4814.5481356316
 10
6281.5884289928
 20
4814.4632559751
 10
6281.7014275865
 20
4814.2751903657
 10
6281.7812208426
 20
4814.0258106693
 10
6281.8820932384
 20
4812.6757294248
  0
LINE
  5
337
330
1F
100
AcDbEntity
  8
0
  6
Continuous
 62
     7
370
    25
100
AcDbLine
 10
6281.8820932384
 20
4812.258046048
 30
0.0
 11
6280.9465431082
 21
4812.2565991079
 31
0.0
  0
LINE
  5
338
330
1F
100
AcDbEntity
  8
0
  6
Continuous
 62
     7
370
    25
100
AcDbLine
 10
6281.8820932384
 20
4812.6757294248
 30
0.0
 11
6281.8820932384
 21
4812.258046048
 31
0.0
  0
LINE
  5
339
330
1F
100
AcDbEntity
  8
0
  6
Continuous
 62
     7
370
    25
100
AcDbLine
 10
6280.9465431082
 20
4812.2565991079
 30
0.0
 11
6280.002586945
 21
4812.2552210697
 31
0.0
  0
LINE
  5
33A
330
1F
100
AcDbEntity
  8
0
  6
Continuous
 62
     7
370
    25
100
AcDbLine
 10
6280.8646876395
 20
4814.6174541427
 30
0.0
 11
6280.9424089936
 21
4814.6174541427
 31
0.0
  0
LINE
  5
33B
330
1F
100
AcDbEntity
  8
0
  6
Continuous
 62
     7
370
    25
100
AcDbLine
 10
6280.002586945
 20
4812.2552210697
 30
0.0
 11
6280.002586945
 21
4812.658779555
 31
0.0
  0
LWPOLYLINE
  5
33C
330
1F
100
AcDbEntity
  8
0
  6
Continuous
 62
     7
370
    25
100
AcDbPolyline
 90
        6
 70
   128
 43
0.0
 10
6280.002586945
 20
4812.658779555
 10
6280.1754618365
 20
4814.0048386506
 10
6280.2896064627
 20
4814.2565616847
 10
6280.4399245915
 20
4814.4505209643
 10
6280.6303177935
 20
4814.57479296
 10
6280.8646876395
 20
4814.6174541427
  0
LINE
  5
33D
330
1F
100
AcDbEntity
  8
0
  6
Continuous
 62
     7
370
    25
100
AcDbLine
 10
6280.9424089936
 20
4814.6174541427
 30
0.0
 11
6281.2400652436
 21
4814.6033292512
 31
0.0
  0
LINE
  5
33E
330
1F
100
AcDbEntity
  8
0
  6
Continuous
 62
     7
370
    25
100
AcDbLine
 10
6292.9841200915
 20
4818.3583455657
 30
0.0
 11
6292.6507726523
 21
4818.3577943504
 31
0.0
  0
LINE
  5
33F
330
1F
100
AcDbEntity
  8
0
  6
Continuous
 62
     7
370
    25
100
AcDbLine
 10
6292.7645986072
 20
4817.8829223886
 30
0.0
 11
6292.8923427478
 21
4817.8830601924
 31
0.0
  0
LINE
  5
340
330
1F
100
AcDbEntity
  8
0
  6
Continuous
 62
     7
370
    25
100
AcDbLine
 10
6292.9988651002
 20
4817.8616316985
 30
0.0
 11
6293.05550247
 21
4817.8052010344
 31
0.0
  0
LINE
  5
341
330
1F
100
AcDbEntity
  8
0
  6
Continuous
 62
     7
370
    25
100
AcDbLine
 10
6293.0193978693
 20
4818.3583455657
 30
0.0
 11
6292.9841200915
 21
4818.3583455657
 31
0.0
  0
LWPOLYLINE
  5
342
330
1F
100
AcDbEntity
  8
0
  6
Continuous
 62
     7
370
    25
100
AcDbPolyline
 90
        3
 70
   128
 43
0.0
 10
6293.247049779
 20
4817.7489081742
 10
6293.195247996
 20
4817.8137361532
 10
6293.15472122
 20
4817.8550171151
  0
LWPOLYLINE
  5
343
330
1F
100
AcDbEntity
  8
0
  6
Continuous
 62
     7
370
    25
100
AcDbPolyline
 90
        3
 70
   128
 43
0.0
 10
6293.2613813763
 20
4817.9684296585
 10
6293.3123551546
 20
4818.04824093
 10
6293.3246333294
 20
4818.1251126012
  0
LWPOLYLINE
  5
344
330
1F
100
AcDbEntity
  8
0
  6
Continuous
 62
     7
370
    25
100
AcDbPolyline
 90
        3
 70
   128
 43
0.0
 10
6293.3246333294
 20
4818.1251126012
 10
6293.3126194822
 20
4818.1992296425
 10
6293.2893555516
 20
4818.2522366247
  0
LWPOLYLINE
  5
345
330
1F
100
AcDbEntity
  8
0
  6
Continuous
 62
     7
370
    25
100
AcDbPolyline
 90
        3
 70
   128
 43
0.0
 10
6293.2893555516
 20
4818.2522366247
 10
6293.2389193713
 20
4818.3038723376
 10
6293.189861194
 20
4818.3303713903
  0
LINE
  5
346
330
1F
100
AcDbEntity
  8
0
  6
Continuous
 62
     7
370
    25
100
AcDbLine
 10
6292.6521506905
 20
4817.5140904658
 30
0.0
 11
6292.7651498224
 21
4817.5142282696
 31
0.0
  0
LINE
  5
347
330
1F
100
AcDbEntity
  8
0
  6
Continuous
 62
     7
370
    25
100
AcDbLine
 10
6293.2546289891
 20
4817.5149172887
 30
0.0
 11
6293.3892633207
 21
4817.5150550926
 31
0.0
  0
LINE
  5
348
330
1F
100
AcDbEntity
  8
0
  6
Continuous
 62
     7
370
    25
100
AcDbLine
 10
6293.15472122
 20
4817.8550171151
 30
0.0
 11
6293.0838900568
 21
4817.8907083044
 31
0.0
  0
LWPOLYLINE
  5
349
330
1F
100
AcDbEntity
  8
0
  6
Continuous
 62
     7
370
    25
100
AcDbPolyline
 90
        3
 70
   128
 43
0.0
 10
6293.0838900568
 20
4817.8907083044
 10
6293.1991271757
 20
4817.9264640696
 10
6293.2613813763
 20
4817.9684296585
  0
LINE
  5
34A
330
1F
100
AcDbEntity
  8
0
  6
Continuous
 62
     7
370
    25
100
AcDbLine
 10
6293.1408030343
 20
4817.6917195891
 30
0.0
 11
6293.2546289891
 21
4817.5149172887
 31
0.0
  0
LINE
  5
34B
330
1F
100
AcDbEntity
  8
0
  6
Continuous
 62
     7
370
    25
100
AcDbLine
 10
6293.3892633207
 20
4817.5150550926
 30
0.0
 11
6293.247049779
 21
4817.7489081742
 31
0.0
  0
ARC
  5
34C
330
1F
100
AcDbEntity
  8
0
  6
Continuous
 62
     7
370
    25
100
AcDbCircle
 10
6292.9644547241
 20
4817.9192475114
 30
0.0
 40
0.8090889395614702
100
AcDbArc
 50
180.1278336832
 51
270.485053606
  0
ARC
  5
34D
330
1F
100
AcDbEntity
  8
0
  6
Continuous
 62
     7
370
    25
100
AcDbCircle
 10
6292.9714784294
 20
4817.9245451352
 30
0.0
 40
0.8161415390727265
100
AcDbArc
 50
90.1863678041
 51
180.4986455644
  0
ARC
  5
34E
330
1F
100
AcDbEntity
  8
0
  6
Continuous
 62
     7
370
    25
100
AcDbCircle
 10
6292.9652547761
 20
4817.9199444939
 30
0.0
 40
0.8207456227010748
100
AcDbArc
 50
359.9936761324
 51
89.7508515853
  0
LINE
  5
34F
330
1F
100
AcDbEntity
  8
0
  6
Continuous
 62
     7
370
    25
100
AcDbLine
 10
6292.6507726523
 20
4818.3577943504
 30
0.0
 11
6292.6521506905
 21
4817.5140904658
 31
0.0
  0
LINE
  5
350
330
1F
100
AcDbEntity
  8
0
  6
Continuous
 62
     7
370
    25
100
AcDbLine
 10
6292.7651498224
 20
4817.5142282696
 30
0.0
 11
6292.7645986072
 21
4817.8829223886
 31
0.0
  0
LINE
  5
351
330
1F
100
AcDbEntity
  8
0
  6
Continuous
 62
     7
370
    25
100
AcDbLine
 10
6292.8923427478
 20
4817.8830601924
 30
0.0
 11
6292.9489801176
 21
4817.8831979962
 31
0.0
  0
LINE
  5
352
330
1F
100
AcDbEntity
  8
0
  6
Continuous
 62
     7
370
    25
100
AcDbLine
 10
6292.9489801176
 20
4817.8831979962
 30
0.0
 11
6292.9846713068
 21
4817.8689353009
 31
0.0
  0
LINE
  5
353
330
1F
100
AcDbEntity
  8
0
  6
Continuous
 62
     7
370
    25
100
AcDbLine
 10
6292.9846713068
 20
4817.8689353009
 30
0.0
 11
6292.9988651002
 21
4817.8616316985
 31
0.0
  0
ARC
  5
354
330
1F
100
AcDbEntity
  8
0
  6
Continuous
 62
     7
370
    25
100
AcDbCircle
 10
6292.9684107174
 20
4817.9278108399
 30
0.0
 40
0.8176283946668594
100
AcDbArc
 50
270.2027638077
 51
359.4424045031
  0
LWPOLYLINE
  5
355
330
1F
100
AcDbEntity
  8
0
  6
Continuous
 62
     7
370
    25
100
AcDbPolyline
 90
        3
 70
   128
 43
0.0
 10
6293.189861194
 20
4818.3303713903
 10
6293.1099829388
 20
4818.351425565
 10
6293.0193978693
 20
4818.3583455657
  0
LWPOLYLINE
  5
356
330
1F
100
AcDbEntity
  8
0
  6
Continuous
 62
     7
370
    25
100
AcDbPolyline
 90
        3
 70
   128
 43
0.0
 10
6293.05550247
 20
4817.8052010344
 10
6293.0984098081
 20
4817.7520945821
 10
6293.1408030343
 20
4817.6917195891
  0
LWPOLYLINE
  5
357
330
1F
100
AcDbEntity
  8
0
  6
Continuous
 62
     7
370
    25
100
AcDbPolyline
 90
        3
 70
   128
 43
0.0
 10
6293.1193056384
 20
4817.9965416377
 10
6293.0595438481
 20
4817.9860178533
 10
6292.9987272964
 20
4817.9824167462
  0
LINE
  5
358
330
1F
100
AcDbEntity
  8
0
  6
Continuous
 62
     7
370
    25
100
AcDbLine
 10
6292.7644608033
 20
4817.9821411386
 30
0.0
 11
6292.7640473919
 21
4818.258851208
 31
0.0
  0
LINE
  5
359
330
1F
100
AcDbEntity
  8
0
  6
Continuous
 62
     7
370
    25
100
AcDbLine
 10
6292.7640473919
 20
4818.258851208
 30
0.0
 11
6292.9841200915
 21
4818.2591268157
 31
0.0
  0
LWPOLYLINE
  5
35A
330
1F
100
AcDbEntity
  8
0
  6
Continuous
 62
     7
370
    25
100
AcDbPolyline
 90
        3
 70
   128
 43
0.0
 10
6293.1613358034
 20
4818.2237112341
 10
6293.1957630692
 20
4818.1738339508
 10
6293.2039171836
 20
4818.1249747974
  0
LINE
  5
35B
330
1F
100
AcDbEntity
  8
0
  6
Continuous
 62
     7
370
    25
100
AcDbLine
 10
6293.2039171836
 20
4818.1249747974
 30
0.0
 11
6293.182971003
 21
4818.0464955223
 31
0.0
  0
LINE
  5
35C
330
1F
100
AcDbEntity
  8
0
  6
Continuous
 62
     7
370
    25
100
AcDbLine
 10
6293.182971003
 20
4818.0464955223
 30
0.0
 11
6293.1193056384
 21
4817.9965416377
 31
0.0
  0
LINE
  5
35D
330
1F
100
AcDbEntity
  8
0
  6
Continuous
 62
     7
370
    25
100
AcDbLine
 10
6292.9841200915
 20
4818.2591268157
 30
0.0
 11
6293.0265636679
 21
4818.2592646195
 31
0.0
  0
LWPOLYLINE
  5
35E
330
1F
100
AcDbEntity
  8
0
  6
Continuous
 62
     7
370
    25
100
AcDbPolyline
 90
        3
 70
   128
 43
0.0
 10
6293.0265636679
 20
4818.2592646195
 10
6293.1151480729
 20
4818.2471045811
 10
6293.1613358034
 20
4818.2237112341
  0
LINE
  5
35F
330
1F
100
AcDbEntity
  8
0
  6
Continuous
 62
     7
370
    25
100
AcDbLine
 10
6292.9987272964
 20
4817.9824167462
 30
0.0
 11
6292.984533503
 21
4817.9824167462
 31
0.0
  0
LINE
  5
360
330
1F
100
AcDbEntity
  8
0
  6
Continuous
 62
     7
370
    25
100
AcDbLine
 10
6292.984533503
 20
4817.9824167462
 30
0.0
 11
6292.7644608033
 21
4817.9821411386
 31
0.0
  0
CIRCLE
  5
361
330
1F
100
AcDbEntity
  8
0
  6
Continuous
 62
     7
370
    25
100
AcDbCircle
 10
6274.0187553361
 20
4615.9019529873
 30
0.0
 40
55.20168199351974
  0
ARC
  5
362
330
1F
100
AcDbEntity
  8
0
  6
Continuous
 62
     7
370
    25
100
AcDbCircle
 10
6274.0187553361
 20
4615.9019529873
 30
0.0
 40
168.0
100
AcDbArc
 50
180.0
 51
0.0
  0
LINE
  5
363
330
1F
100
AcDbEntity
  8
0
  6
Continuous
 62
     7
370
    25
100
AcDbLine
 10
6106.0187553361
 20
4833.9019529873
 30
0.0
 11
6108.0187553361
 21
4833.9019529873
 31
0.0
  0
LINE
  5
364
330
1F
100
AcDbEntity
  8
0
  6
Continuous
 62
     7
370
    25
100
AcDbLine
 10
6107.0187553361
 20
4832.9019529873
 30
0.0
 11
6108.0187553361
 21
4832.9019529873
 31
0.0
  0
LINE
  5
365
330
1F
100
AcDbEntity
  8
0
  6
Continuous
 62
     7
370
    25
100
AcDbLine
 10
6106.0187553361
 20
4833.9019529873
 30
0.0
 11
6106.0187553361
 21
4832.9019529873
 31
0.0
  0
CIRCLE
  5
366
330
1F
100
AcDbEntity
  8
0
  6
Continuous
 62
     7
370
    25
100
AcDbCircle
 10
6274.0187553361
 20
4615.9019529873
 30
0.0
 40
53.54008330347278
  0
CIRCLE
  5
367
330
1F
100
AcDbEntity
  8
0
  6
Continuous
 62
     7
370
    25
100
AcDbCircle
 10
6274.0187553361
 20
4615.9019529873
 30
0.0
 40
52.03233806055596
  0
CIRCLE
  5
368
330
1F
100
AcDbEntity
  8
0
  6
Continuous
 62
     7
370
    25
100
AcDbCircle
 10
6274.0187553361
 20
4615.9019529873
 30
0.0
 40
30.46438808284438
  0
CIRCLE
  5
369
330
1F
100
AcDbEntity
  8
0
  6
Continuous
 62
     7
370
    25
100
AcDbCircle
 10
6274.0187553361
 20
4615.9019529873
 30
0.0
 40
22.9403913764736
  0
CIRCLE
  5
36A
330
1F
100
AcDbEntity
  8
0
  6
Continuous
 62
     7
370
    25
100
AcDbCircle
 10
6274.0187553361
 20
4629.7099147914
 30
0.0
 40
5.5
  0
CIRCLE
  5
36B
330
1F
100
AcDbEntity
  8
0
  6
Continuous
 62
     7
370
    25
100
AcDbCircle
 10
6285.9768010329
 20
4608.9979720853
 30
0.0
 40
5.5
  0
CIRCLE
  5
36C
330
1F
100
AcDbEntity
  8
0
  6
Continuous
 62
     7
370
    25
100
AcDbCircle
 10
6274.0187553361
 20
4602.0939911833
 30
0.0
 40
5.5
  0
CIRCLE
  5
36D
330
1F
100
AcDbEntity
  8
0
  6
Continuous
 62
     7
370
    25
100
AcDbCircle
 10
6262.0607096393
 20
4608.9979720853
 30
0.0
 40
5.5
  0
CIRCLE
  5
36E
330
1F
100
AcDbEntity
  8
0
  6
Continuous
 62
     7
370
    25
100
AcDbCircle
 10
6274.0187553361
 20
4615.9019529873
 30
0.0
 40
3.700000000000728
  0
CIRCLE
  5
36F
330
1F
100
AcDbEntity
  8
0
  6
Continuous
 62
     7
370
    25
100
AcDbCircle
 10
6262.0607096393
 20
4622.8059338894
 30
0.0
 40
5.499999999999091
  0
CIRCLE
  5
370
330
1F
100
AcDbEntity
  8
0
  6
Continuous
 62
     7
370
    25
100
AcDbCircle
 10
6285.9768010329
 20
4622.8059338894
 30
0.0
 40
5.5
  0
LWPOLYLINE
  5
371
330
1F
100
AcDbEntity
  8
0
  6
Continuous
 62
     7
370
    25
100
AcDbPolyline
 90
        9
 70
   128
 43
0.0
 10
6376.6651380695
 20
4737.6216327202
 10
6376.5270674894
 20
4737.7596930618
 10
6376.4051357623
 20
4737.9042073195
 10
6376.304028656
 20
4738.0496218916
 10
6376.22763166
 20
4738.1903485774
 10
6376.178880668
 20
4738.3209793296
 10
6376.1596491532
 20
4738.4364940814
 10
6376.1706761719
 20
4738.5324536657
 10
6376.2115379622
 20
4738.6051704096
  0
ARC
  5
372
330
1F
100
AcDbEntity
  8
0
  6
Continuous
 62
     7
370
    25
100
AcDbCircle
 10
6376.8829565087
 20
4737.9219538512
 30
0.0
 40
0.957907996756071
100
AcDbArc
 50
44.7593533591
 51
134.501002748
  0
LINE
  5
373
330
1F
100
AcDbEntity
  8
0
  6
Continuous
 62
     7
370
    25
100
AcDbLine
 10
6377.5631386594
 20
4738.5964462322
 30
0.0
 11
6376.6651380695
 21
4737.6216327202
 31
0.0
  0
LINE
  5
374
330
1F
100
AcDbEntity
  8
0
  6
Continuous
 62
     7
370
    25
100
AcDbLine
 10
6391.007196885
 20
4724.4096930846
 30
0.0
 11
6391.9051974749
 21
4725.3845065967
 31
0.0
  0
LINE
  5
375
330
1F
100
AcDbEntity
  8
0
  6
Continuous
 62
     7
370
    25
100
AcDbLine
 10
6376.6651380695
 20
4737.6216327202
 30
0.0
 11
6391.007196885
 21
4724.4096930846
 31
0.0
  0
LINE
  5
376
330
1F
100
AcDbEntity
  8
0
  6
Continuous
 62
     7
370
    25
100
AcDbLine
 10
6377.5631386594
 20
4738.5964462322
 30
0.0
 11
6391.9051974749
 21
4725.3845065967
 31
0.0
  0
LWPOLYLINE
  5
377
330
1F
100
AcDbEntity
  8
0
  6
Continuous
 62
     7
370
    25
100
AcDbPolyline
 90
        9
 70
   128
 43
0.0
 10
6392.024577169
 20
4724.0381600422
 10
6391.955450903
 20
4723.9914806024
 10
6391.8607166449
 20
4723.9726323315
 10
6391.7440149791
 20
4723.9823395579
 10
6391.6098306852
 20
4724.0202292384
 10
6391.4633203903
 20
4724.0848452937
 10
6391.3101144028
 20
4724.1737045652
 10
6391.1561003431
 20
4724.2833922408
 10
6391.007196885
 20
4724.4096930846
  0
ARC
  5
378
330
1F
100
AcDbEntity
  8
0
  6
Continuous
 62
     7
370
    25
100
AcDbCircle
 10
6391.2886717961
 20
4724.6513737182
 30
0.0
 40
0.9579079967536333
100
AcDbArc
 50
320.1963037325
 51
49.9379531217
  0
LINE
  5
379
330
1F
100
AcDbEntity
  8
0
  6
Continuous
 62
     7
370
    25
100
AcDbLine
 10
6376.6651380695
 20
4737.6216327202
 30
0.0
 11
6373.8926408123
 21
4734.6119823717
 31
0.0
  0
ELLIPSE
  5
37A
330
1F
100
AcDbEntity
  8
0
  6
Continuous
 62
     7
370
    25
100
AcDbEllipse
 10
6374.4825861514
 20
4735.2523902894
 30
0.0
 11
0.7354901956641697
 21
-0.6775353659277243
 31
0.0
210
0.0
220
0.0
230
1.0
 40
0.8707225759
 41
3.141592653592053
 42
4.712388980386448
  0
LINE
  5
37B
330
1F
100
AcDbEntity
  8
0
  6
Continuous
 62
     7
370
    25
100
AcDbLine
 10
6373.7470959557
 20
4735.9299256553
 30
0.0
 11
6376.2115379622
 21
4738.6051704096
 31
0.0
  0
LINE
  5
37C
330
1F
100
AcDbEntity
  8
0
  6
Continuous
 62
     7
370
    25
100
AcDbLine
 10
6388.2346996277
 20
4721.4000427361
 30
0.0
 11
6391.007196885
 21
4724.4096930846
 31
0.0
  0
LINE
  5
37D
330
1F
100
AcDbEntity
  8
0
  6
Continuous
 62
     7
370
    25
100
AcDbLine
 10
6373.8926408123
 20
4734.6119823717
 30
0.0
 11
6388.2346996277
 21
4721.4000427361
 31
0.0
  0
LINE
  5
37E
330
1F
100
AcDbEntity
  8
0
  6
Continuous
 62
     7
370
    25
100
AcDbLine
 10
6392.024577169
 20
4724.0381600422
 30
0.0
 11
6389.5601351625
 21
4721.3629152879
 31
0.0
  0
ELLIPSE
  5
37F
330
1F
100
AcDbEntity
  8
0
  6
Continuous
 62
     7
370
    25
100
AcDbEllipse
 10
6388.8246449669
 20
4722.0404506538
 30
0.0
 11
0.7354901956650793
 21
-0.6775353659259054
 31
0.0
210
0.0
220
0.0
230
1.0
 40
0.8707225759
 41
4.712388980383461
 42
6.283185307179586
  0
LINE
  5
380
330
1F
100
AcDbEntity
  8
0
  6
Continuous
 62
     7
370
    25
100
AcDbLine
 10
6391.9051974749
 20
4725.3845065967
 30
0.0
 11
6398.6318687303
 21
4732.6865619677
 31
0.0
  0
LINE
  5
381
330
1F
100
AcDbEntity
  8
0
  6
Continuous
 62
     7
370
    25
100
AcDbLine
 10
6384.2898099149
 20
4745.8985016033
 30
0.0
 11
6377.5631386594
 21
4738.5964462322
 31
0.0
  0
LINE
  5
382
330
1F
100
AcDbEntity
  8
0
  6
Continuous
 62
     7
370
    25
100
AcDbLine
 10
6398.6318687303
 20
4732.6865619677
 30
0.0
 11
6384.2898099149
 21
4745.8985016033
 31
0.0
  0
LINE
  5
383
330
1F
100
AcDbEntity
  8
0
  6
Continuous
 62
     7
370
    25
100
AcDbLine
 10
6376.2115379622
 20
4738.6051704096
 30
0.0
 11
6382.9382092176
 21
4745.9072257806
 31
0.0
  0
ARC
  5
384
330
1F
100
AcDbEntity
  8
0
  6
Continuous
 62
     7
370
    25
100
AcDbCircle
 10
6383.6096277641
 20
4745.2240092223
 30
0.0
 40
0.9579079967547498
100
AcDbArc
 50
44.7593533589
 51
134.5010027481
  0
LINE
  5
385
330
1F
100
AcDbEntity
  8
0
  6
Continuous
 62
     7
370
    25
100
AcDbLine
 10
6398.7512484244
 20
4731.3402154132
 30
0.0
 11
6392.024577169
 21
4724.0381600422
 31
0.0
  0
ARC
  5
386
330
1F
100
AcDbEntity
  8
0
  6
Continuous
 62
     7
370
    25
100
AcDbCircle
 10
6398.0153430515
 20
4731.9534290892
 30
0.0
 40
0.9579079967552985
100
AcDbArc
 50
320.1963037327
 51
49.9379531217
  0
ELLIPSE
  5
387
330
1F
100
AcDbEntity
  8
0
  6
Continuous
 62
     7
370
    25
100
AcDbEllipse
 10
6374.4825861514
 20
4735.2523902894
 30
0.0
 11
0.7570555457641603
 21
0.8218123502992968
 31
0.0
210
0.0
220
0.0
230
1.0
 40
0.8949612346
 41
1.57079632679566
 42
3.141592653590425
  0
ELLIPSE
  5
388
330
1F
100
AcDbEntity
  8
0
  6
Continuous
 62
     7
370
    25
100
AcDbEllipse
 10
6388.8246449669
 20
4722.0404506538
 30
0.0
 11
0.7570555457641606
 21
0.8218123503002063
 31
0.0
210
0.0
220
0.0
230
1.0
 40
0.8949612346
 41
3.141592653589177
 42
4.712388980384972
  0
LINE
  5
389
330
1F
100
AcDbEntity
  8
0
  6
Continuous
 62
     7
370
    25
100
AcDbLine
 10
6393.2103084553
 20
4750.9709613348
 30
0.0
 11
6392.8955778776
 21
4750.6293094215
 31
0.0
  0
LINE
  5
38A
330
1F
100
AcDbEntity
  8
0
  6
Continuous
 62
     7
370
    25
100
AcDbLine
 10
6400.5090410162
 20
4742.8296658713
 30
0.0
 11
6400.0305154272
 21
4742.3102082949
 31
0.0
  0
LINE
  5
38B
330
1F
100
AcDbEntity
  8
0
  6
Continuous
 62
     7
370
    25
100
AcDbLine
 10
6392.8955778776
 20
4750.6293094215
 30
0.0
 11
6393.7003321876
 21
4749.690992521
 31
0.0
  0
LINE
  5
38C
330
1F
100
AcDbEntity
  8
0
  6
Continuous
 62
     7
370
    25
100
AcDbLine
 10
6398.7705393063
 20
4743.7792987661
 30
0.0
 11
6400.0305154272
 21
4742.3102082949
 31
0.0
  0
LINE
  5
38D
330
1F
100
AcDbEntity
  8
0
  6
Continuous
 62
     7
370
    25
100
AcDbLine
 10
6400.0305154272
 20
4742.3102082949
 30
0.0
 11
6401.3020872018
 21
4742.4993749845
 31
0.0
  0
LINE
  5
38E
330
1F
100
AcDbEntity
  8
0
  6
Continuous
 62
     7
370
    25
100
AcDbLine
 10
6393.1138802
 20
4751.2814946664
 30
0.0
 11
6392.8955778776
 21
4750.6293094215
 31
0.0
  0
ARC
  5
38F
330
1F
100
AcDbEntity
  8
0
  6
Continuous
 62
     7
370
    25
100
AcDbCircle
 10
6405.6241349624
 20
4754.7803418204
 30
0.0
 40
15.56031305042379
100
AcDbArc
 50
196.6418910058
 51
227.6306130125
  0
LWPOLYLINE
  5
390
330
1F
100
AcDbEntity
  8
0
  6
Continuous
 62
     7
370
    25
100
AcDbPolyline
 90
        3
 70
   128
 43
0.0
 10
6390.1884508037
 20
4754.7060190708
 10
6390.2432333277
 20
4752.7123677722
 10
6390.715589878
 20
4750.3240400249
  0
LWPOLYLINE
  5
391
330
1F
100
AcDbEntity
  8
0
  6
Continuous
 62
     7
370
    25
100
AcDbPolyline
 90
        8
 70
   128
 43
0.0
 10
6406.7105045294
 20
4739.2594728646
 10
6407.1058314227
 20
4739.3121152887
 10
6409.2275534668
 20
4739.8339856273
 10
6411.1941130399
 20
4740.736401014
 10
6412.798862499
 20
4741.8897540532
 10
6414.1595219428
 20
4743.3162918878
 10
6415.9321420584
 20
4746.6472134965
 10
6415.9956309653
 20
4747.0717223691
  0
ARC
  5
392
330
1F
100
AcDbEntity
  8
0
  6
Continuous
 62
     7
370
    25
100
AcDbCircle
 10
6400.835735368
 20
4754.3850691573
 30
0.0
 40
10.65212079542409
100
AcDbArc
 50
109.5155314391
 51
178.2734087125
  0
LWPOLYLINE
  5
393
330
1F
100
AcDbEntity
  8
0
  6
Continuous
 62
     7
370
    25
100
AcDbPolyline
 90
        3
 70
   128
 43
0.0
 10
6402.5163250592
 20
4739.4531739327
 10
6404.5892662089
 20
4739.1905125355
 10
6406.7105045294
 20
4739.2594728646
  0
ARC
  5
394
330
1F
100
AcDbEntity
  8
0
  6
Continuous
 62
     7
370
    25
100
AcDbCircle
 10
6405.6766231461
 20
4754.5607292092
 30
0.0
 40
15.4345622040812
100
AcDbArc
 50
226.9372446975
 51
258.1848642454
  0
ARC
  5
395
330
1F
100
AcDbEntity
  8
0
  6
Continuous
 62
     7
370
    25
100
AcDbCircle
 10
6404.1821786762
 20
4753.10202549
 30
0.0
 40
13.75013516681152
100
AcDbArc
 50
191.6558873246
 51
263.0414191561
  0
LINE
  5
396
330
1F
100
AcDbEntity
  8
0
  6
Continuous
 62
     7
370
    25
100
AcDbLine
 10
6402.5163250592
 20
4739.4531739327
 30
0.0
 11
6402.2654201612
 21
4737.5873217124
 31
0.0
  0
ARC
  5
397
330
1F
100
AcDbEntity
  8
0
  6
Continuous
 62
     7
370
    25
100
AcDbCircle
 10
6404.3682940831
 20
4753.3040607842
 30
0.0
 40
15.85679557104437
100
AcDbArc
 50
192.3181269539
 51
262.3791795269
  0
LINE
  5
398
330
1F
100
AcDbEntity
  8
0
  6
Continuous
 62
     7
370
    25
100
AcDbLine
 10
6390.715589878
 20
4750.3240400249
 30
0.0
 11
6388.8765516293
 21
4749.9211801289
 31
0.0
  0
LINE
  5
399
330
1F
100
AcDbEntity
  8
0
  6
Continuous
 62
     7
370
    25
100
AcDbLine
 10
6406.7105045294
 20
4739.2594728646
 30
0.0
 11
6406.5232718712
 21
4738.7768952641
 31
0.0
  0
LINE
  5
39A
330
1F
100
AcDbEntity
  8
0
  6
Continuous
 62
     7
370
    25
100
AcDbLine
 10
6404.4260739233
 20
4737.5098839987
 30
0.0
 11
6406.5232718712
 21
4738.7768952641
 31
0.0
  0
LWPOLYLINE
  5
39B
330
1F
100
AcDbEntity
  8
0
  6
Continuous
 62
     7
370
    25
100
AcDbPolyline
 90
        3
 70
   128
 43
0.0
 10
6404.4260739233
 20
4737.5098839987
 10
6403.3821533882
 20
4737.4922837687
 10
6402.2654201612
 20
4737.5873217124
  0
LINE
  5
39C
330
1F
100
AcDbEntity
  8
0
  6
Continuous
 62
     7
370
    25
100
AcDbLine
 10
6388.8765516293
 20
4749.9211801289
 30
0.0
 11
6388.6224344962
 21
4752.0682352661
 31
0.0
  0
LINE
  5
39D
330
1F
100
AcDbEntity
  8
0
  6
Continuous
 62
     7
370
    25
100
AcDbLine
 10
6389.84511385
 20
4754.5127046663
 30
0.0
 11
6388.6224344962
 21
4752.0682352661
 31
0.0
  0
LWPOLYLINE
  5
39E
330
1F
100
AcDbEntity
  8
0
  6
Continuous
 62
     7
370
    25
100
AcDbPolyline
 90
        3
 70
   128
 43
0.0
 10
6389.84511385
 20
4754.5127046663
 10
6389.9885169836
 20
4754.5956731674
 10
6390.1884508037
 20
4754.7060190708
  0
LINE
  5
39F
330
1F
100
AcDbEntity
  8
0
  6
Continuous
 62
     7
370
    25
100
AcDbLine
 10
6398.6318687303
 20
4732.6865619677
 30
0.0
 11
6399.1710517362
 21
4733.271865458
 31
0.0
  0
LINE
  5
3A0
330
1F
100
AcDbEntity
  8
0
  6
Continuous
 62
     7
370
    25
100
AcDbLine
 10
6384.8289929207
 20
4746.4838050935
 30
0.0
 11
6384.2898099149
 21
4745.8985016033
 31
0.0
  0
LINE
  5
3A1
330
1F
100
AcDbEntity
  8
0
  6
Continuous
 62
     7
370
    25
100
AcDbLine
 10
6399.1710517362
 20
4733.271865458
 30
0.0
 11
6384.8289929207
 21
4746.4838050935
 31
0.0
  0
ARC
  5
3A2
330
1F
100
AcDbEntity
  8
0
  6
Continuous
 62
     7
370
    25
100
AcDbCircle
 10
6384.1827612707
 20
4745.7700747318
 30
0.0
 40
0.9628220888639806
100
AcDbArc
 50
47.8414178467
 51
86.6718955747
  0
ARC
  5
3A3
330
1F
100
AcDbEntity
  8
0
  6
Continuous
 62
     7
370
    25
100
AcDbCircle
 10
6384.1614474371
 20
4745.6811722165
 30
0.0
 40
1.052935366763958
100
AcDbArc
 50
85.7948629343
 51
136.57347778
  0
LINE
  5
3A4
330
1F
100
AcDbEntity
  8
0
  6
Continuous
 62
     7
370
    25
100
AcDbLine
 10
6382.9382092176
 20
4745.9072257806
 30
0.0
 11
6383.3967462405
 21
4746.4049850145
 31
0.0
  0
ARC
  5
3A5
330
1F
100
AcDbEntity
  8
0
  6
Continuous
 62
     7
370
    25
100
AcDbCircle
 10
6398.4275989114
 20
4732.5402951637
 30
0.0
 40
1.051223042464796
100
AcDbArc
 50
318.0795263311
 51
8.946745916
  0
ARC
  5
3A6
330
1F
100
AcDbEntity
  8
0
  6
Continuous
 62
     7
370
    25
100
AcDbCircle
 10
6398.5004839637
 20
4732.5630439541
 30
0.0
 40
0.9757505121132427
100
AcDbArc
 50
8.2927590394
 51
46.5885405003
  0
LINE
  5
3A7
330
1F
100
AcDbEntity
  8
0
  6
Continuous
 62
     7
370
    25
100
AcDbLine
 10
6399.2097854472
 20
4731.8379746471
 30
0.0
 11
6398.7512484244
 21
4731.3402154132
 31
0.0
  0
ARC
  5
3A8
330
1F
100
AcDbEntity
  8
0
  6
Continuous
 62
     7
370
    25
100
AcDbCircle
 10
6567.5412486959
 20
4595.1111474496
 30
0.0
 40
240.1583306939699
100
AcDbArc
 50
140.4801520062
 51
141.935609082
  0
ARC
  5
3A9
330
1F
100
AcDbEntity
  8
0
  6
Continuous
 62
     7
370
    25
100
AcDbCircle
 10
6392.0880112935
 20
4739.9733506161
 30
0.0
 40
14.00000000000042
100
AcDbArc
 50
137.3486532403
 51
166.7591965219
  0
ARC
  5
3AA
330
1F
100
AcDbEntity
  8
0
  6
Continuous
 62
     7
370
    25
100
AcDbCircle
 10
6392.0880112935
 20
4739.9733506161
 30
0.0
 40
13.99999999999982
100
AcDbArc
 50
287.9381099588
 51
317.5065736393
  0
ARC
  5
3AB
330
1F
100
AcDbEntity
  8
0
  6
Continuous
 62
     7
370
    25
100
AcDbCircle
 10
6219.5189081955
 20
4917.665906913
 30
0.0
 40
260.3314458272151
100
AcDbArc
 50
312.8003056477
 51
314.8923542968
  0
LINE
  5
3AC
330
1F
100
AcDbEntity
  8
0
  6
Continuous
 62
     7
370
    25
100
AcDbLine
 10
6387.7713972449
 20
4752.765058449
 30
0.0
 11
6388.6224344962
 21
4752.0682352661
 31
0.0
  0
LINE
  5
3AD
330
1F
100
AcDbEntity
  8
0
  6
Continuous
 62
     7
370
    25
100
AcDbLine
 10
6387.7713972449
 20
4752.765058449
 30
0.0
 11
6388.1398859927
 21
4753.2282633139
 31
0.0
  0
ARC
  5
3AE
330
1F
100
AcDbEntity
  8
0
  6
Continuous
 62
     7
370
    25
100
AcDbCircle
 10
6395.5219899898
 20
4745.201915092
 30
0.0
 40
10.90494040346299
100
AcDbArc
 50
121.3710556571
 51
132.6057953558
  0
LINE
  5
3AF
330
1F
100
AcDbEntity
  8
0
  6
Continuous
 62
     7
370
    25
100
AcDbLine
 10
6405.69420095
 20
4737.1898372159
 30
0.0
 11
6405.1902494925
 21
4736.7187691835
 31
0.0
  0
LINE
  5
3B0
330
1F
100
AcDbEntity
  8
0
  6
Continuous
 62
     7
370
    25
100
AcDbLine
 10
6405.1902494925
 20
4736.7187691835
 30
0.0
 11
6404.4260739233
 21
4737.5098839987
 31
0.0
  0
ARC
  5
3B1
330
1F
100
AcDbEntity
  8
0
  6
Continuous
 62
     7
370
    25
100
AcDbCircle
 10
6396.1772515447
 20
4743.1715226001
 30
0.0
 40
11.24067996240653
100
AcDbArc
 50
327.8494185238
 51
336.9859134593
  0
LINE
  5
3B2
330
1F
100
AcDbEntity
  8
0
  6
Continuous
 62
     7
370
    25
100
AcDbLine
 10
6399.7761111496
 20
4733.0403801234
 30
0.0
 11
6399.4660320525
 21
4732.7037775676
 31
0.0
  0
ARC
  5
3B3
330
1F
100
AcDbEntity
  8
0
  6
Continuous
 62
     7
370
    25
100
AcDbCircle
 10
6399.2172788952
 20
4732.4861958189
 30
0.0
 40
0.7870284187928651
100
AcDbArc
 50
44.760734589
 51
93.3672817351
  0
LINE
  5
3B4
330
1F
100
AcDbEntity
  8
0
  6
Continuous
 62
     7
370
    25
100
AcDbLine
 10
6384.238656676
 20
4746.7312729831
 30
0.0
 11
6384.5487357731
 21
4747.0678755389
 31
0.0
  0
ARC
  5
3B5
330
1F
100
AcDbEntity
  8
0
  6
Continuous
 62
     7
370
    25
100
AcDbCircle
 10
6384.0421765187
 20
4746.4655371884
 30
0.0
 40
0.7870284409155712
100
AcDbArc
 50
1.3300254728
 51
49.9365711643
  0
ARC
  5
3B6
330
1F
100
AcDbEntity
  8
0
  6
Continuous
 62
     7
370
    25
100
AcDbCircle
 10
6383.828279119
 20
4745.9379468028
 30
0.0
 40
1.274923619093244
100
AcDbArc
 50
81.6128066004
 51
144.7788585372
  0
LWPOLYLINE
  5
3B7
330
1F
100
AcDbEntity
  8
0
  6
Continuous
 62
     7
370
    25
100
AcDbPolyline
 90
        3
 70
   128
 43
0.0
 10
6382.7867530308
 20
4746.6732383383
 10
6384.148625339
 20
4748.401111026
 10
6387.4782705023
 20
4752.4158899845
  0
LINE
  5
3B8
330
1F
100
AcDbEntity
  8
0
  6
Continuous
 62
     7
370
    25
100
AcDbLine
 10
6387.4782705023
 20
4752.4158899845
 30
0.0
 11
6388.3122637803
 21
4751.6986346519
 31
0.0
  0
LINE
  5
3B9
330
1F
100
AcDbEntity
  8
0
  6
Continuous
 62
     7
370
    25
100
AcDbLine
 10
6388.3122637803
 20
4751.6986346519
 30
0.0
 11
6384.5168985712
 21
4747.0972040472
 31
0.0
  0
LWPOLYLINE
  5
3BA
330
1F
100
AcDbEntity
  8
0
  6
Continuous
 62
     7
370
    25
100
AcDbPolyline
 90
        9
 70
   128
 43
0.0
 10
6384.0142419073
 20
4747.1992350632
 10
6384.2706604248
 20
4747.1472811762
 10
6384.3923270085
 20
4747.1225608429
 10
6384.4534393446
 20
4747.1101271556
 10
6384.4549967838
 20
4747.1098101376
 10
6384.4853096633
 20
4747.1036384682
 10
6384.5007719567
 20
4747.1004892931
 10
6384.5103291638
 20
4747.098542434
 10
6384.5168985712
 20
4747.0972040472
  0
LWPOLYLINE
  5
3BB
330
1F
100
AcDbEntity
  8
0
  6
Continuous
 62
     7
370
    25
100
AcDbPolyline
 90
        9
 70
   128
 43
0.0
 10
6383.040667224
 20
4746.2135024659
 10
6382.9688067042
 20
4746.2758965159
 10
6382.9047659485
 20
4746.3416200195
 10
6382.8508982017
 20
4746.4082578974
 10
6382.8091828909
 20
4746.4733614708
 10
6382.781152889
 20
4746.5345384404
 10
6382.7678381878
 20
4746.5895407943
 10
6382.7697280501
 20
4746.636347413
 10
6382.7867530308
 20
4746.6732383383
  0
ARC
  5
3BC
330
1F
100
AcDbEntity
  8
0
  6
Continuous
 62
     7
370
    25
100
AcDbCircle
 10
6385.5517985344
 20
4747.1795002126
 30
0.0
 40
1.537683272305936
100
AcDbArc
 50
179.2646374511
 51
189.8144281101
  0
ARC
  5
3BD
330
1F
100
AcDbEntity
  8
0
  6
Continuous
 62
     7
370
    25
100
AcDbCircle
 10
6384.3109848531
 20
4745.4726371598
 30
0.0
 40
1.470574132955689
100
AcDbArc
 50
100.7527039411
 51
149.7487223811
  0
LWPOLYLINE
  5
3BE
330
1F
100
AcDbEntity
  8
0
  6
Continuous
 62
     7
370
    25
100
AcDbPolyline
 90
        9
 70
   128
 43
0.0
 10
6399.9508000562
 20
4732.5184387444
 10
6399.878022133
 20
4732.7697414232
 10
6399.8434213514
 20
4732.8889749687
 10
6399.8260248355
 20
4732.9488638278
 10
6399.825581341
 20
4732.9503900748
 10
6399.8169480289
 20
4732.9800957324
 10
6399.8125431983
 20
4732.9952482004
 10
6399.8098202228
 20
4733.0046138756
 10
6399.8079483516
 20
4733.0110516152
  0
LINE
  5
3BF
330
1F
100
AcDbEntity
  8
0
  6
Continuous
 62
     7
370
    25
100
AcDbLine
 10
6399.8079483516
 20
4733.0110516152
 30
0.0
 11
6404.0831151032
 21
4737.1704878662
 31
0.0
  0
LINE
  5
3C0
330
1F
100
AcDbEntity
  8
0
  6
Continuous
 62
     7
370
    25
100
AcDbLine
 10
6404.8662584362
 20
4736.3980330002
 30
0.0
 11
6404.0831151032
 21
4737.1704878662
 31
0.0
  0
LWPOLYLINE
  5
3C1
330
1F
100
AcDbEntity
  8
0
  6
Continuous
 62
     7
370
    25
100
AcDbPolyline
 90
        3
 70
   128
 43
0.0
 10
6404.8662584362
 20
4736.3980330002
 10
6403.3094780518
 20
4734.843454974
 10
6399.5270911259
 20
4731.2519979685
  0
ARC
  5
3C2
330
1F
100
AcDbEntity
  8
0
  6
Continuous
 62
     7
370
    25
100
AcDbCircle
 10
6398.7089769639
 20
4732.2298115768
 30
0.0
 40
1.274923619086717
100
AcDbArc
 50
309.9184479433
 51
13.0844998805
  0
ARC
  5
3C3
330
1F
100
AcDbEntity
  8
0
  6
Continuous
 62
     7
370
    25
100
AcDbCircle
 10
6398.2057006136
 20
4732.6727910399
 30
0.0
 40
1.470574132951824
100
AcDbArc
 50
304.9485840995
 51
353.9446025397
  0
ARC
  5
3C4
330
1F
100
AcDbEntity
  8
0
  6
Continuous
 62
     7
370
    25
100
AcDbCircle
 10
6399.8052184322
 20
4734.0492149645
 30
0.0
 40
1.537683272049885
100
AcDbArc
 50
264.8828783697
 51
275.4326690305
  0
LWPOLYLINE
  5
3C5
330
1F
100
AcDbEntity
  8
0
  6
Continuous
 62
     7
370
    25
100
AcDbPolyline
 90
        9
 70
   128
 43
0.0
 10
6399.5270911259
 20
4731.2519979685
 10
6399.4917183123
 20
4731.2320091117
 10
6399.4452236698
 20
4731.2262925255
 10
6399.3893156929
 20
4731.2350582719
 10
6399.3260487789
 20
4731.2579842444
 10
6399.2577477371
 20
4731.2942280039
 10
6399.186922361
 20
4731.3424577356
 10
6399.1161752035
 20
4731.4009011871
 10
6399.0481059433
 20
4731.4674107924
  0
LINE
  5
3C6
330
1F
100
AcDbEntity
  8
0
  6
Continuous
 62
     7
370
    25
100
AcDbLine
 10
6383.040667224
 20
4746.2135024659
 30
0.0
 11
6382.1296660781
 21
4745.0295217052
 31
0.0
  0
LINE
  5
3C7
330
1F
100
AcDbEntity
  8
0
  6
Continuous
 62
     7
370
    25
100
AcDbLine
 10
6384.238656676
 20
4746.7312729831
 30
0.0
 11
6384.0366192485
 21
4746.9173903552
 31
0.0
  0
LINE
  5
3C8
330
1F
100
AcDbEntity
  8
0
  6
Continuous
 62
     7
370
    25
100
AcDbLine
 10
6397.9427052849
 20
4730.4625113378
 30
0.0
 11
6399.0481059433
 21
4731.4674107924
 31
0.0
  0
LINE
  5
3C9
330
1F
100
AcDbEntity
  8
0
  6
Continuous
 62
     7
370
    25
100
AcDbLine
 10
6399.6680694801
 20
4732.5176601956
 30
0.0
 11
6399.4660320525
 21
4732.7037775676
 31
0.0
  0
LWPOLYLINE
  5
3CA
330
1F
100
AcDbEntity
  8
0
  6
Continuous
 62
     7
370
    25
100
AcDbPolyline
 90
        9
 70
   128
 43
0.0
 10
6384.0366192485
 20
4746.9173903552
 10
6384.2829390964
 20
4747.0096529135
 10
6384.3986839697
 20
4747.0529763433
 10
6384.4567014411
 20
4747.0746850036
 10
6384.4577317496
 20
4747.0750704745
 10
6384.4867099914
 20
4747.0859115129
 10
6384.5014878303
 20
4747.0914395726
 10
6384.5106191135
 20
4747.0948552224
 10
6384.5168985712
 20
4747.0972040472
  0
LWPOLYLINE
  5
3CB
330
1F
100
AcDbEntity
  8
0
  6
Continuous
 62
     7
370
    25
100
AcDbPolyline
 90
        9
 70
   128
 43
0.0
 10
6399.6680694801
 20
4732.5176601956
 10
6399.7398506101
 20
4732.7707082474
 10
6399.7735499875
 20
4732.8896121885
 10
6399.7904345868
 20
4732.9492125512
 10
6399.7907343893
 20
4732.9502709659
 10
6399.7991659391
 20
4732.9800396673
 10
6399.8034652496
 20
4732.9952205729
 10
6399.8061216512
 20
4733.0046008996
 10
6399.8079483516
 20
4733.0110516152
  0
LINE
  5
3CC
330
1F
100
AcDbEntity
  8
0
  6
Continuous
 62
     7
370
    25
100
AcDbLine
 10
6387.4782705023
 20
4752.4158899845
 30
0.0
 11
6387.7713972449
 21
4752.765058449
 31
0.0
  0
LINE
  5
3CD
330
1F
100
AcDbEntity
  8
0
  6
Continuous
 62
     7
370
    25
100
AcDbLine
 10
6388.6224344962
 20
4752.0682352661
 30
0.0
 11
6388.3122637803
 21
4751.6986346519
 31
0.0
  0
LINE
  5
3CE
330
1F
100
AcDbEntity
  8
0
  6
Continuous
 62
     7
370
    25
100
AcDbLine
 10
6384.5168985712
 20
4747.0972040472
 30
0.0
 11
6384.5487357731
 21
4747.0678755389
 31
0.0
  0
LINE
  5
3CF
330
1F
100
AcDbEntity
  8
0
  6
Continuous
 62
     7
370
    25
100
AcDbLine
 10
6404.0831151032
 20
4737.1704878662
 30
0.0
 11
6404.4260739233
 21
4737.5098839987
 31
0.0
  0
LINE
  5
3D0
330
1F
100
AcDbEntity
  8
0
  6
Continuous
 62
     7
370
    25
100
AcDbLine
 10
6399.7761111496
 20
4733.0403801234
 30
0.0
 11
6399.8079483516
 21
4733.0110516152
 31
0.0
  0
LINE
  5
3D1
330
1F
100
AcDbEntity
  8
0
  6
Continuous
 62
     7
370
    25
100
AcDbLine
 10
6405.1902494925
 20
4736.7187691835
 30
0.0
 11
6404.8662584362
 21
4736.3980330002
 31
0.0
  0
LWPOLYLINE
  5
3D2
330
1F
100
AcDbEntity
  8
0
  6
Continuous
 62
     7
370
    25
100
AcDbPolyline
 90
        9
 70
   128
 43
0.0
 10
6382.1296660781
 20
4745.0295217052
 10
6382.0575320661
 20
4745.0911781476
 10
6381.9931890023
 20
4745.1561744863
 10
6381.9389895037
 20
4745.222134218
 10
6381.8969153019
 20
4745.2866456141
 10
6381.8685047834
 20
4745.3473499025
 10
6381.8547967403
 20
4745.4020275129
 10
6381.8562923888
 20
4745.4486792322
 10
6381.8729370424
 20
4745.4855993033
  0
LINE
  5
3D3
330
1F
100
AcDbEntity
  8
0
  6
Continuous
 62
     7
370
    25
100
AcDbLine
 10
6381.8729370424
 20
4745.4855993033
 30
0.0
 11
6382.7867530308
 21
4746.6732383383
 31
0.0
  0
LWPOLYLINE
  5
3D4
330
1F
100
AcDbEntity
  8
0
  6
Continuous
 62
     7
370
    25
100
AcDbPolyline
 90
        9
 70
   128
 43
0.0
 10
6397.9427052849
 20
4730.4625113378
 10
6398.0100618116
 20
4730.3956687551
 10
6398.0801090031
 20
4730.336864462
 10
6398.1502856784
 20
4730.2882485584
 10
6398.2180259221
 20
4730.2515986189
 10
6398.2808529036
 20
4730.2282546992
 10
6398.3364694393
 20
4730.2190703382
 10
6398.3828419854
 20
4730.2243813497
 10
6398.4182749925
 20
4730.2439935437
  0
LINE
  5
3D5
330
1F
100
AcDbEntity
  8
0
  6
Continuous
 62
     7
370
    25
100
AcDbLine
 10
6399.5270911259
 20
4731.2519979685
 30
0.0
 11
6398.4182749925
 21
4730.2439935437
 31
0.0
  0
LWPOLYLINE
  5
3D6
330
1F
100
AcDbEntity
  8
0
  6
Continuous
 62
     7
370
    25
100
AcDbPolyline
 90
        3
 70
   128
 43
0.0
 10
6396.3998642559
 20
4726.6538940195
 10
6393.5409073177
 20
4725.4698070786
 10
6393.0880231421
 20
4725.1925707581
  0
LINE
  5
3D7
330
1F
100
AcDbEntity
  8
0
  6
Continuous
 62
     7
370
    25
100
AcDbLine
 10
6405.69420095
 20
4737.1898372159
 30
0.0
 11
6403.2548658715
 21
4733.238252958
 31
0.0
  0
LINE
  5
3D8
330
1F
100
AcDbEntity
  8
0
  6
Continuous
 62
     7
370
    25
100
AcDbLine
 10
6377.3932857393
 20
4739.9899641554
 30
0.0
 11
6378.4601868065
 21
4743.1799687339
 31
0.0
  0
LINE
  5
3D9
330
1F
100
AcDbEntity
  8
0
  6
Continuous
 62
     7
370
    25
100
AcDbLine
 10
6382.2821057917
 20
4747.9348163367
 30
0.0
 11
6388.1398859927
 21
4753.2282633139
 31
0.0
  0
LINE
  5
3DA
330
1F
100
AcDbEntity
  8
0
  6
Continuous
 62
     7
370
    25
100
AcDbLine
 10
6382.5725078919
 20
4723.4623341795
 30
0.0
 11
6383.8009309871
 21
4725.0874626104
 31
0.0
  0
LINE
  5
3DB
330
1F
100
AcDbEntity
  8
0
  6
Continuous
 62
     7
370
    25
100
AcDbLine
 10
6378.1571323184
 20
4724.2491105192
 30
0.0
 11
6382.5725078919
 21
4723.4623341795
 31
0.0
  0
LINE
  5
3DC
330
1F
100
AcDbEntity
  8
0
  6
Continuous
 62
     7
370
    25
100
AcDbLine
 10
6376.276479023
 20
4728.3891690098
 30
0.0
 11
6378.1571323184
 21
4724.2491105192
 31
0.0
  0
LINE
  5
3DD
330
1F
100
AcDbEntity
  8
0
  6
Continuous
 62
     7
370
    25
100
AcDbLine
 10
6377.8939517827
 20
4730.5289862913
 30
0.0
 11
6376.276479023
 21
4728.3891690098
 31
0.0
  0
LWPOLYLINE
  5
3DE
330
1F
100
AcDbEntity
  8
0
  6
Continuous
 62
     7
370
    25
100
AcDbPolyline
 90
       11
 70
   128
 43
0.0
 10
6379.3683411604
 20
4729.1707751929
 10
6379.180012192
 20
4728.9951055883
 10
6378.8104446891
 20
4728.3629861506
 10
6378.7273047896
 20
4727.6150732502
 10
6378.9432497895
 20
4726.8652298464
 10
6379.4254040201
 20
4726.2276128002
 10
6380.1003638706
 20
4725.7992935267
 10
6380.8653728222
 20
4725.6454797527
 10
6381.6039651969
 20
4725.7895882309
 10
6382.203697001
 20
4726.2096797518
 10
6382.3633540021
 20
4726.4117620427
  0
LWPOLYLINE
  5
3DF
330
1F
100
AcDbEntity
  8
0
  6
Continuous
 62
     7
370
    25
100
AcDbPolyline
 90
        5
 70
   128
 43
0.0
 10
6380.3236816218
 20
4743.0690574581
 10
6380.2704447863
 20
4743.1430072841
 10
6380.2379532669
 20
4743.2095737891
 10
6380.2280118444
 20
4743.2650594559
 10
6380.2411727273
 20
4743.3063822661
  0
ARC
  5
3E0
330
1F
100
AcDbEntity
  8
0
  6
Continuous
 62
     7
370
    25
100
AcDbCircle
 10
6509.4391088858
 20
4648.2654765506
 30
0.0
 40
160.3897766905259
100
AcDbArc
 50
142.688422567
 51
143.6609645781
  0
ARC
  5
3E1
330
1F
100
AcDbEntity
  8
0
  6
Continuous
 62
     7
370
    25
100
AcDbCircle
 10
6395.3684023803
 20
4727.8093216899
 30
0.0
 40
0.184915294740738
100
AcDbArc
 50
258.5318506334
 51
309.6063109651
  0
ARC
  5
3E2
330
1F
100
AcDbEntity
  8
0
  6
Continuous
 62
     7
370
    25
100
AcDbCircle
 10
6289.3502060328
 20
4851.3733425213
 30
0.0
 40
162.9974320360124
100
AcDbArc
 50
310.6285037828
 51
312.0007087715
  0
LINE
  5
3E3
330
1F
100
AcDbEntity
  8
0
  6
Continuous
 62
     7
370
    25
100
AcDbLine
 10
6382.5725078919
 20
4723.4623341795
 30
0.0
 11
6383.4181781568
 21
4724.3803411498
 31
0.0
  0
LINE
  5
3E4
330
1F
100
AcDbEntity
  8
0
  6
Continuous
 62
     7
370
    25
100
AcDbLine
 10
6383.4181781568
 20
4724.3803411498
 30
0.0
 11
6383.8903919097
 21
4725.0050509898
 31
0.0
  0
LINE
  5
3E5
330
1F
100
AcDbEntity
  8
0
  6
Continuous
 62
     7
370
    25
100
AcDbLine
 10
6379.5370278194
 20
4742.3420222311
 30
0.0
 11
6380.2411727273
 21
4743.3063822661
 31
0.0
  0
LWPOLYLINE
  5
3E6
330
1F
100
AcDbEntity
  8
0
  6
Continuous
 62
     7
370
    25
100
AcDbPolyline
 90
        3
 70
   128
 43
0.0
 10
6380.5334280037
 20
4728.0974943451
 10
6380.8348544616
 20
4727.7576244174
 10
6381.1982671587
 20
4727.4850428905
  0
LWPOLYLINE
  5
3E7
330
1F
100
AcDbEntity
  8
0
  6
Continuous
 62
     7
370
    25
100
AcDbPolyline
 90
        3
 70
   128
 43
0.0
 10
6379.1167977092
 20
4741.7589394484
 10
6379.2552326461
 20
4741.9520906818
 10
6379.5370278199
 20
4742.3420222319
  0
ARC
  5
3E8
330
1F
100
AcDbEntity
  8
0
  6
Continuous
 62
     7
370
    25
100
AcDbCircle
 10
6381.9383698046
 20
4728.9555319457
 30
0.0
 40
6.600552975750808
100
AcDbArc
 50
151.2248507331
 51
303.4724557475
  0
ARC
  5
3E9
330
1F
100
AcDbEntity
  8
0
  6
Continuous
 62
     7
370
    25
100
AcDbCircle
 10
6383.5894545116
 20
4730.7478466724
 30
0.0
 40
9.956659520290053
100
AcDbArc
 50
161.1606732406
 51
293.5366332401
  0
LWPOLYLINE
  5
3EA
330
1F
100
AcDbEntity
  8
0
  6
Continuous
 62
     7
370
    25
100
AcDbPolyline
 90
       37
 70
   128
 43
0.0
 10
6398.5647641511
 20
4747.0041101397
 10
6400.1765541498
 20
4745.7470379565
 10
6401.9663185953
 20
4744.774521749
 10
6403.8796764005
 20
4744.11611093
 10
6405.8584911569
 20
4743.791810979
 10
6407.8426375793
 20
4743.811475586
 10
6409.7718283827
 20
4744.1745072517
 10
6411.5874460808
 20
4744.8698754429
 10
6413.2343240486
 20
4745.8764517488
 10
6414.6624227323
 20
4747.1636518578
 10
6415.8283500762
 20
4748.6923648458
 10
6416.6966799678
 20
4750.4161415424
 10
6417.2410286428
 20
4752.2826058648
 10
6417.4448563422
 20
4754.2350462392
 10
6417.3019698645
 20
4756.2141387526
 10
6416.816710743
 20
4758.1597496806
 10
6416.0038233305
 20
4760.0127626196
 10
6414.8880067997
 20
4761.7168747092
 10
6413.5031646713
 20
4763.2203073659
 10
6411.8913746727
 20
4764.477379549
 10
6410.1016102272
 20
4765.4498957566
 10
6408.1882524219
 20
4766.1083065756
 10
6406.2094376655
 20
4766.4326065266
 10
6404.2252912432
 20
4766.4129419196
 10
6402.2961004397
 20
4766.0499102538
 10
6400.4804827416
 20
4765.3545420627
 10
6398.8336047739
 20
4764.3479657567
 10
6397.4055060901
 20
4763.0607656478
 10
6396.2395787463
 20
4761.5320526597
 10
6395.3712488546
 20
4759.8082759632
 10
6394.8269001796
 20
4757.9418116407
 10
6394.6230724802
 20
4755.9893712664
 10
6394.7659589579
 20
4754.010278753
 10
6395.2512180795
 20
4752.064667825
 10
6396.064105492
 20
4750.2116548859
 10
6397.1799220227
 20
4748.5075427963
 10
6398.5647641511
 20
4747.0041101397
  0
LINE
  5
3EB
330
1F
100
AcDbEntity
  8
0
  6
Continuous
 62
     7
370
    25
100
AcDbLine
 10
6396.1331376711
 20
4763.3891932584
 30
0.0
 11
6396.6293975159
 21
4763.8953290407
 31
0.0
  0
LINE
  5
3EC
330
1F
100
AcDbEntity
  8
0
  6
Continuous
 62
     7
370
    25
100
AcDbLine
 10
6415.6135138285
 20
4746.5277145443
 30
0.0
 11
6415.0939435893
 21
4745.9224525027
 31
0.0
  0
LWPOLYLINE
  5
3ED
330
1F
100
AcDbEntity
  8
0
  6
Continuous
 62
     7
370
    25
100
AcDbPolyline
 90
       21
 70
   128
 43
0.0
 10
6395.6425931317
 20
4762.8566886581
 10
6394.997270946
 20
4762.0911880703
 10
6393.9180691955
 20
4760.4025019527
 10
6393.1445086416
 20
4758.5425360732
 10
6392.6976899998
 20
4756.5620254523
 10
6392.5898013177
 20
4754.514993257
 10
6392.8237855175
 20
4752.4572771894
 10
6393.3932601201
 20
4750.4450063796
 10
6394.2826913428
 20
4748.5330703299
 10
6395.4678178205
 20
4746.7736216715
 10
6396.9163123922
 20
4745.2146535775
 10
6398.588663902
 20
4743.8986906333
 10
6400.4392549601
 20
4742.8616288778
 10
6402.4176062667
 20
4742.1317566521
 10
6404.4697535553
 20
4741.7289829679
 10
6406.5397195974
 20
4741.6642944415
 10
6408.5710411154
 20
4741.9394556071
 10
6410.5083089534
 20
4742.5469607855
 10
6412.298679495
 20
4743.470238819
 10
6413.893316099
 20
4744.6841050898
 10
6414.60339905
 20
4745.3899479023
  0
LINE
  5
3EE
330
1F
100
AcDbEntity
  8
0
  6
Continuous
 62
     8
370
    25
100
AcDbLine
 10
6441.5187553361
 20
4615.9019529873
 30
0.0
 11
6441.5187553361
 21
4831.9019529873
 31
0.0
  0
LINE
  5
3EF
330
1F
100
AcDbEntity
  8
0
  6
Continuous
 62
     8
370
    25
100
AcDbLine
 10
6373.8926408123
 20
4734.6119823717
 30
0.0
 11
6373.6948181735
 21
4734.3972384356
 31
0.0
  0
LINE
  5
3F0
330
1F
100
AcDbEntity
  8
0
  6
Continuous
 62
     8
370
    25
100
AcDbLine
 10
6388.0368769889
 20
4721.1852988
 30
0.0
 11
6388.2346996277
 21
4721.4000427361
 31
0.0
  0
ARC
  5
3F1
330
1F
100
AcDbEntity
  8
0
  6
Continuous
 62
     8
370
    25
100
AcDbCircle
 10
6383.4485094674
 20
4730.5948455107
 30
0.0
 40
9.4566595202897
100
AcDbArc
 50
161.1199015616
 51
293.5774049191
  0
ARC
  5
3F2
330
1F
100
AcDbEntity
  8
0
  6
Continuous
 62
     8
370
    25
100
AcDbCircle
 10
6405.5785761417
 20
4755.2041372993
 30
0.0
 40
12.49845786304148
100
AcDbArc
 50
139.0890488668
 51
229.1698998265
  0
ARC
  5
3F3
330
1F
100
AcDbEntity
  8
0
  6
Continuous
 62
     8
370
    25
100
AcDbCircle
 10
6406.1628766911
 20
4754.6658782051
 30
0.0
 40
12.49845786303829
100
AcDbArc
 50
225.5274066542
 51
315.6082576139
  0
ENDSEC
  0
SECTION
  2
OBJECTS
  0
DICTIONARY
  5
C
330
0
100
AcDbDictionary
281
     1
  3
ACAD_GROUP
350
D
  3
ACAD_LAYOUT
350
1A
  3
ACAD_MLINESTYLE
350
17
  3
ACAD_PLOTSETTINGS
350
19
  3
ACAD_PLOTSTYLENAME
350
E
  3
ACAD_SCALELIST
350
47
  3
DWGPROPS
350
3F4
  0
DICTIONARY
  5
D
102
{ACAD_REACTORS
330
C
102
}
330
C
100
AcDbDictionary
281
     1
  0
DICTIONARY
  5
1A
102
{ACAD_REACTORS
330
C
102
}
330
C
100
AcDbDictionary
281
     1
  3
Layout1
350
1E
  3
Layout2
350
26
  3
Model
350
22
  0
DICTIONARY
  5
17
102
{ACAD_REACTORS
330
C
102
}
330
C
100
AcDbDictionary
281
     1
  3
Standard
350
18
  0
DICTIONARY
  5
19
102
{ACAD_REACTORS
330
C
102
}
330
C
100
AcDbDictionary
281
     1
  0
ACDBDICTIONARYWDFLT
  5
E
102
{ACAD_REACTORS
330
C
102
}
330
C
100
AcDbDictionary
281
     1
  3
Normal
350
F
100
AcDbDictionaryWithDefault
340
F
  0
DICTIONARY
  5
47
102
{ACAD_REACTORS
330
C
102
}
330
C
100
AcDbDictionary
281
     1
  3
A0
350
48
  3
A1
350
49
  3
A2
350
4A
  3
A3
350
4B
  3
A4
350
4C
  3
A5
350
4D
  3
A6
350
4E
  3
A7
350
4F
  3
A8
350
50
  3
A9
350
51
  3
B0
350
52
  3
B1
350
53
  3
B2
350
54
  3
B3
350
55
  3
B4
350
56
  3
B5
350
57
  3
B6
350
58
  3
B7
350
59
  3
B8
350
5A
  3
B9
350
5B
  3
C0
350
5C
  3
C1
350
5D
  3
C2
350
5E
  3
C3
350
5F
  3
C4
350
60
  3
C5
350
61
  3
C6
350
62
  3
C7
350
63
  3
C8
350
64
  3
C9
350
65
  3
D0
350
66
  3
D1
350
67
  3
D2
350
68
  0
XRECORD
  5
3F4
102
{ACAD_REACTORS
330
C
102
}
330
C
100
AcDbXrecord
280
     1
  1
DWGPROPS COOKIE
  2

  3

  4

  6

  7

  8
radek.stransky
  9

300
=
301
=
302
=
303
=
304
=
305
=
306
=
307
=
308
=
309
=
 40
0.0
 41
2459584.217136424
 42
2459584.217136771
  1

 90
        0
  0
LAYOUT
  5
1E
102
{ACAD_REACTORS
330
1A
102
}
330
1A
100
AcDbPlotSettings
  1

  2
none_device
  4

  6

 40
0.0
 41
0.0
 42
0.0
 43
0.0
 44
0.0
 45
0.0
 46
0.0
 47
0.0
 48
0.0
 49
0.0
140
0.0
141
0.0
142
1.0
143
1.0
 70
   688
 72
     1
 73
     0
 74
     5
  7

 75
    16
147
1.0
148
0.0
149
0.0
100
AcDbLayout
  1
Layout1
 70
     1
 71
     1
 10
0.0
 20
0.0
 11
420.0
 21
297.0
 12
0.0
 22
0.0
 32
0.0
 14
1.0000000000E+20
 24
1.0000000000E+20
 34
1.0000000000E+20
 15
-1.0000000000E+20
 25
-1.0000000000E+20
 35
-1.0000000000E+20
146
0.0
 13
0.0
 23
0.0
 33
0.0
 16
1.0
 26
0.0
 36
0.0
 17
0.0
 27
1.0
 37
0.0
 76
     0
330
1B
  0
LAYOUT
  5
26
102
{ACAD_REACTORS
330
1A
102
}
330
1A
100
AcDbPlotSettings
  1

  2
none_device
  4

  6

 40
0.0
 41
0.0
 42
0.0
 43
0.0
 44
0.0
 45
0.0
 46
0.0
 47
0.0
 48
0.0
 49
0.0
140
0.0
141
0.0
142
1.0
143
1.0
 70
   688
 72
     1
 73
     0
 74
     5
  7

 75
    16
147
1.0
148
0.0
149
0.0
100
AcDbLayout
  1
Layout2
 70
     1
 71
     2
 10
0.0
 20
0.0
 11
0.0
 21
0.0
 12
0.0
 22
0.0
 32
0.0
 14
0.0
 24
0.0
 34
0.0
 15
0.0
 25
0.0
 35
0.0
146
0.0
 13
0.0
 23
0.0
 33
0.0
 16
1.0
 26
0.0
 36
0.0
 17
0.0
 27
1.0
 37
0.0
 76
     0
330
23
  0
LAYOUT
  5
22
102
{ACAD_REACTORS
330
1A
102
}
330
1A
100
AcDbPlotSettings
  1

  2
none_device
  4
Letter_(8.50_x_11.00_Inches)
  6

 40
6.35
 41
6.35
 42
6.35000508
 43
6.35000508
 44
215.9
 45
279.4
 46
0.0
 47
0.0
 48
0.0
 49
0.0
140
0.0
141
0.0
142
1.0
143
1.0
 70
  1712
 72
     1
 73
     0
 74
     0
  7

 75
     0
147
1.0
148
0.0
149
0.0
100
AcDbLayout
  1
Model
 70
     1
 71
     0
 10
0.0
 20
0.0
 11
20000.0
 21
10000.0
 12
0.0
 22
0.0
 32
0.0
 14
0.0
 24
0.0
 34
0.0
 15
20000.0
 25
10000.0
 35
0.0
146
0.0
 13
0.0
 23
0.0
 33
0.0
 16
1.0
 26
0.0
 36
0.0
 17
0.0
 27
1.0
 37
0.0
 76
     0
330
1F
331
29
  0
MLINESTYLE
  5
18
102
{ACAD_REACTORS
330
17
102
}
330
17
100
AcDbMlineStyle
  2
Standard
 70
     0
  3

 62
   256
 51
90.0
 52
90.0
 71
     2
 49
0.5
 62
   256
  6
BYLAYER
 49
-0.5
 62
   256
  6
BYLAYER
  0
ACDBPLACEHOLDER
  5
F
102
{ACAD_REACTORS
330
E
102
}
330
E
  0
SCALE
  5
48
102
{ACAD_REACTORS
330
47
102
}
330
47
100
AcDbScale
 70
     0
300
1:1
140
1.0
141
1.0
290
     1
  0
SCALE
  5
49
102
{ACAD_REACTORS
330
47
102
}
330
47
100
AcDbScale
 70
     0
300
1:2
140
1.0
141
2.0
290
     0
  0
SCALE
  5
4A
102
{ACAD_REACTORS
330
47
102
}
330
47
100
AcDbScale
 70
     0
300
1:4
140
1.0
141
4.0
290
     0
  0
SCALE
  5
4B
102
{ACAD_REACTORS
330
47
102
}
330
47
100
AcDbScale
 70
     0
300
1:5
140
1.0
141
5.0
290
     0
  0
SCALE
  5
4C
102
{ACAD_REACTORS
330
47
102
}
330
47
100
AcDbScale
 70
     0
300
1:8
140
1.0
141
8.0
290
     0
  0
SCALE
  5
4D
102
{ACAD_REACTORS
330
47
102
}
330
47
100
AcDbScale
 70
     0
300
1:10
140
1.0
141
10.0
290
     0
  0
SCALE
  5
4E
102
{ACAD_REACTORS
330
47
102
}
330
47
100
AcDbScale
 70
     0
300
1:16
140
1.0
141
16.0
290
     0
  0
SCALE
  5
4F
102
{ACAD_REACTORS
330
47
102
}
330
47
100
AcDbScale
 70
     0
300
1:20
140
1.0
141
20.0
290
     0
  0
SCALE
  5
50
102
{ACAD_REACTORS
330
47
102
}
330
47
100
AcDbScale
 70
     0
300
1:30
140
1.0
141
30.0
290
     0
  0
SCALE
  5
51
102
{ACAD_REACTORS
330
47
102
}
330
47
100
AcDbScale
 70
     0
300
1:40
140
1.0
141
40.0
290
     0
  0
SCALE
  5
52
102
{ACAD_REACTORS
330
47
102
}
330
47
100
AcDbScale
 70
     0
300
1:50
140
1.0
141
50.0
290
     0
  0
SCALE
  5
53
102
{ACAD_REACTORS
330
47
102
}
330
47
100
AcDbScale
 70
     0
300
1:100
140
1.0
141
100.0
290
     0
  0
SCALE
  5
54
102
{ACAD_REACTORS
330
47
102
}
330
47
100
AcDbScale
 70
     0
300
2:1
140
2.0
141
1.0
290
     0
  0
SCALE
  5
55
102
{ACAD_REACTORS
330
47
102
}
330
47
100
AcDbScale
 70
     0
300
4:1
140
4.0
141
1.0
290
     0
  0
SCALE
  5
56
102
{ACAD_REACTORS
330
47
102
}
330
47
100
AcDbScale
 70
     0
300
8:1
140
8.0
141
1.0
290
     0
  0
SCALE
  5
57
102
{ACAD_REACTORS
330
47
102
}
330
47
100
AcDbScale
 70
     0
300
10:1
140
10.0
141
1.0
290
     0
  0
SCALE
  5
58
102
{ACAD_REACTORS
330
47
102
}
330
47
100
AcDbScale
 70
     0
300
100:1
140
100.0
141
1.0
290
     0
  0
SCALE
  5
59
102
{ACAD_REACTORS
330
47
102
}
330
47
100
AcDbScale
 70
     0
300
1/128" = 1'-0"
140
0.0078125
141
12.0
290
     0
  0
SCALE
  5
5A
102
{ACAD_REACTORS
330
47
102
}
330
47
100
AcDbScale
 70
     0
300
1/64" = 1'-0"
140
0.015625
141
12.0
290
     0
  0
SCALE
  5
5B
102
{ACAD_REACTORS
330
47
102
}
330
47
100
AcDbScale
 70
     0
300
1/32" = 1'-0"
140
0.03125
141
12.0
290
     0
  0
SCALE
  5
5C
102
{ACAD_REACTORS
330
47
102
}
330
47
100
AcDbScale
 70
     0
300
1/16" = 1'-0"
140
0.0625
141
12.0
290
     0
  0
SCALE
  5
5D
102
{ACAD_REACTORS
330
47
102
}
330
47
100
AcDbScale
 70
     0
300
3/32" = 1'-0"
140
0.09375
141
12.0
290
     0
  0
SCALE
  5
5E
102
{ACAD_REACTORS
330
47
102
}
330
47
100
AcDbScale
 70
     0
300
1/8" = 1'-0"
140
0.125
141
12.0
290
     0
  0
SCALE
  5
5F
102
{ACAD_REACTORS
330
47
102
}
330
47
100
AcDbScale
 70
     0
300
3/16" = 1'-0"
140
0.1875
141
12.0
290
     0
  0
SCALE
  5
60
102
{ACAD_REACTORS
330
47
102
}
330
47
100
AcDbScale
 70
     0
300
1/4" = 1'-0"
140
0.25
141
12.0
290
     0
  0
SCALE
  5
61
102
{ACAD_REACTORS
330
47
102
}
330
47
100
AcDbScale
 70
     0
300
3/8" = 1'-0"
140
0.375
141
12.0
290
     0
  0
SCALE
  5
62
102
{ACAD_REACTORS
330
47
102
}
330
47
100
AcDbScale
 70
     0
300
1/2" = 1'-0"
140
0.5
141
12.0
290
     0
  0
SCALE
  5
63
102
{ACAD_REACTORS
330
47
102
}
330
47
100
AcDbScale
 70
     0
300
3/4" = 1'-0"
140
0.75
141
12.0
290
     0
  0
SCALE
  5
64
102
{ACAD_REACTORS
330
47
102
}
330
47
100
AcDbScale
 70
     0
300
1" = 1'-0"
140
1.0
141
12.0
290
     0
  0
SCALE
  5
65
102
{ACAD_REACTORS
330
47
102
}
330
47
100
AcDbScale
 70
     0
300
1-1/2" = 1'-0"
140
1.5
141
12.0
290
     0
  0
SCALE
  5
66
102
{ACAD_REACTORS
330
47
102
}
330
47
100
AcDbScale
 70
     0
300
3" = 1'-0"
140
3.0
141
12.0
290
     0
  0
SCALE
  5
67
102
{ACAD_REACTORS
330
47
102
}
330
47
100
AcDbScale
 70
     0
300
6" = 1'-0"
140
6.0
141
12.0
290
     0
  0
SCALE
  5
68
102
{ACAD_REACTORS
330
47
102
}
330
47
100
AcDbScale
 70
     0
300
1'-0" = 1'-0"
140
12.0
141
12.0
290
     0
  0
ENDSEC
  0
EOF
