  0
SECTION
  2
HEADER
  9
$ACADVER
  1
AC1015
  9
$ACADMAINTVER
 70
     6
  9
$DWGCODEPAGE
  3
ANSI_1250
  9
$INSBASE
 10
0.0
 20
0.0
 30
0.0
  9
$EXTMIN
 10
0.0
 20
0.0
 30
0.0
  9
$EXTMAX
 10
20000.0
 20
10000.0
 30
0.0
  9
$LIMMIN
 10
0.0
 20
0.0
  9
$LIMMAX
 10
20000.0
 20
10000.0
  9
$ORTHOMODE
 70
     0
  9
$REGENMODE
 70
     1
  9
$FILLMODE
 70
     1
  9
$QTEXTMODE
 70
     0
  9
$MIRRTEXT
 70
     1
  9
$LTSCALE
 40
1.0
  9
$ATTMODE
 70
     1
  9
$TEXTSIZE
 40
2.0
  9
$TRACEWID
 40
1.0
  9
$TEXTSTYLE
  7
Standard
  9
$CLAYER
  8
0
  9
$CELTYPE
  6
ByLayer
  9
$CECOLOR
 62
   256
  9
$CELTSCALE
 40
1.0
  9
$DISPSILH
 70
     0
  9
$DIMSCALE
 40
1.0
  9
$DIMASZ
 40
2.0
  9
$DIMEXO
 40
1.0
  9
$DIMDLI
 40
3.75
  9
$DIMRND
 40
0.0
  9
$DIMDLE
 40
0.0
  9
$DIMEXE
 40
1.0
  9
$DIMTP
 40
0.0
  9
$DIMTM
 40
0.0
  9
$DIMTXT
 40
2.0
  9
$DIMCEN
 40
2.5
  9
$DIMTSZ
 40
0.0
  9
$DIMTOL
 70
     0
  9
$DIMLIM
 70
     0
  9
$DIMTIH
 70
     1
  9
$DIMTOH
 70
     1
  9
$DIMSE1
 70
     0
  9
$DIMSE2
 70
     0
  9
$DIMTAD
 70
     1
  9
$DIMZIN
 70
     0
  9
$DIMBLK
  1

  9
$DIMASO
 70
     1
  9
$DIMSHO
 70
     1
  9
$DIMPOST
  1

  9
$DIMAPOST
  1

  9
$DIMALT
 70
     0
  9
$DIMALTD
 70
     3
  9
$DIMALTF
 40
0.0393700787
  9
$DIMLFAC
 40
1.0
  9
$DIMTOFL
 70
     1
  9
$DIMTVP
 40
0.0
  9
$DIMTIX
 70
     0
  9
$DIMSOXD
 70
     0
  9
$DIMSAH
 70
     0
  9
$DIMBLK1
  1

  9
$DIMBLK2
  1

  9
$DIMSTYLE
  2
ISO-25
  9
$DIMCLRD
 70
     0
  9
$DIMCLRE
 70
     0
  9
$DIMCLRT
 70
     0
  9
$DIMTFAC
 40
1.0
  9
$DIMGAP
 40
1.524
  9
$DIMJUST
 70
     0
  9
$DIMSD1
 70
     0
  9
$DIMSD2
 70
     0
  9
$DIMTOLJ
 70
     0
  9
$DIMTZIN
 70
     0
  9
$DIMALTZ
 70
     0
  9
$DIMALTTZ
 70
     0
  9
$DIMUPT
 70
     0
  9
$DIMDEC
 70
     2
  9
$DIMTDEC
 70
     0
  9
$DIMALTU
 70
     2
  9
$DIMALTTD
 70
     3
  9
$DIMTXSTY
  7
Standard
  9
$DIMAUNIT
 70
     0
  9
$DIMADEC
 70
     2
  9
$DIMALTRND
 40
0.0
  9
$DIMAZIN
 70
     0
  9
$DIMDSEP
 70
    44
  9
$DIMATFIT
 70
     3
  9
$DIMFRAC
 70
     0
  9
$DIMLDRBLK
  1

  9
$DIMLUNIT
 70
     2
  9
$DIMLWD
 70
    -2
  9
$DIMLWE
 70
    -2
  9
$DIMTMOVE
 70
     0
  9
$LUNITS
 70
     2
  9
$LUPREC
 70
     3
  9
$SKETCHINC
 40
1.0
  9
$FILLETRAD
 40
10.0
  9
$AUNITS
 70
     0
  9
$AUPREC
 70
     2
  9
$MENU
  1
.
  9
$ELEVATION
 40
0.0
  9
$PELEVATION
 40
0.0
  9
$THICKNESS
 40
0.0
  9
$LIMCHECK
 70
     0
  9
$CHAMFERA
 40
0.0
  9
$CHAMFERB
 40
0.0
  9
$CHAMFERC
 40
0.0
  9
$CHAMFERD
 40
0.0
  9
$SKPOLY
 70
     0
  9
$TDCREATE
 40
2459345.403497049
  9
$TDUCREATE
 40
2459345.320163715
  9
$TDUPDATE
 40
2459345.403497442
  9
$TDUUPDATE
 40
2459345.320164109
  9
$TDINDWG
 40
0.0000000116
  9
$TDUSRTIMER
 40
0.0000000116
  9
$USRTIMER
 70
     1
  9
$ANGBASE
 50
0.0
  9
$ANGDIR
 70
     0
  9
$PDMODE
 70
     0
  9
$PDSIZE
 40
-1.0
  9
$PLINEWID
 40
0.0
  9
$SPLFRAME
 70
     0
  9
$SPLINETYPE
 70
     6
  9
$SPLINESEGS
 70
     8
  9
$HANDSEED
  5
42F
  9
$SURFTAB1
 70
     6
  9
$SURFTAB2
 70
     6
  9
$SURFTYPE
 70
     6
  9
$SURFU
 70
     6
  9
$SURFV
 70
     6
  9
$UCSBASE
  2

  9
$UCSNAME
  2

  9
$UCSORG
 10
0.0
 20
0.0
 30
0.0
  9
$UCSXDIR
 10
1.0
 20
0.0
 30
0.0
  9
$UCSYDIR
 10
0.0
 20
1.0
 30
0.0
  9
$UCSORTHOREF
  2

  9
$UCSORTHOVIEW
 70
     0
  9
$UCSORGTOP
 10
0.0
 20
0.0
 30
0.0
  9
$UCSORGBOTTOM
 10
0.0
 20
0.0
 30
0.0
  9
$UCSORGLEFT
 10
0.0
 20
0.0
 30
0.0
  9
$UCSORGRIGHT
 10
0.0
 20
0.0
 30
0.0
  9
$UCSORGFRONT
 10
0.0
 20
0.0
 30
0.0
  9
$UCSORGBACK
 10
0.0
 20
0.0
 30
0.0
  9
$PUCSBASE
  2

  9
$PUCSNAME
  2

  9
$PUCSORG
 10
0.0
 20
0.0
 30
0.0
  9
$PUCSXDIR
 10
1.0
 20
0.0
 30
0.0
  9
$PUCSYDIR
 10
0.0
 20
1.0
 30
0.0
  9
$PUCSORTHOREF
  2

  9
$PUCSORTHOVIEW
 70
     0
  9
$PUCSORGTOP
 10
0.0
 20
0.0
 30
0.0
  9
$PUCSORGBOTTOM
 10
0.0
 20
0.0
 30
0.0
  9
$PUCSORGLEFT
 10
0.0
 20
0.0
 30
0.0
  9
$PUCSORGRIGHT
 10
0.0
 20
0.0
 30
0.0
  9
$PUCSORGFRONT
 10
0.0
 20
0.0
 30
0.0
  9
$PUCSORGBACK
 10
0.0
 20
0.0
 30
0.0
  9
$USERI1
 70
     0
  9
$USERI2
 70
     0
  9
$USERI3
 70
     0
  9
$USERI4
 70
     0
  9
$USERI5
 70
     0
  9
$USERR1
 40
0.0
  9
$USERR2
 40
0.0
  9
$USERR3
 40
0.0
  9
$USERR4
 40
0.0
  9
$USERR5
 40
0.0
  9
$WORLDVIEW
 70
     1
  9
$SHADEDGE
 70
     3
  9
$SHADEDIF
 70
    70
  9
$TILEMODE
 70
     1
  9
$MAXACTVP
 70
    64
  9
$PINSBASE
 10
0.0
 20
0.0
 30
0.0
  9
$PLIMCHECK
 70
     0
  9
$PEXTMIN
 10
1.0000000000E+20
 20
1.0000000000E+20
 30
1.0000000000E+20
  9
$PEXTMAX
 10
-1.0000000000E+20
 20
-1.0000000000E+20
 30
-1.0000000000E+20
  9
$PLIMMIN
 10
0.0
 20
0.0
  9
$PLIMMAX
 10
420.0
 20
297.0
  9
$UNITMODE
 70
     0
  9
$VISRETAIN
 70
     1
  9
$PLINEGEN
 70
     0
  9
$PSLTSCALE
 70
     1
  9
$TREEDEPTH
 70
  3020
  9
$CMLSTYLE
  2
Standard
  9
$CMLJUST
 70
     0
  9
$CMLSCALE
 40
20.0
  9
$PROXYGRAPHICS
 70
     1
  9
$MEASUREMENT
 70
     1
  9
$CELWEIGHT
370
    -1
  9
$ENDCAPS
280
     0
  9
$JOINSTYLE
280
     0
  9
$LWDISPLAY
290
     1
  9
$INSUNITS
 70
     4
  9
$HYPERLINKBASE
  1

  9
$STYLESHEET
  1

  9
$XEDIT
290
     1
  9
$CEPSNTYPE
380
     0
  9
$PSTYLEMODE
290
     1
  9
$FINGERPRINTGUID
  2
{9d5fed60-f69c-46e6-aea6-2f6455be30bc}
  9
$VERSIONGUID
  2
{FAEB1C32-E019-11D5-929B-00C0DF256EC4}
  9
$EXTNAMES
290
     1
  9
$PSVPSCALE
 40
0.0
  9
$OLESTARTUP
290
     0
  0
ENDSEC
  0
SECTION
  2
CLASSES
  0
CLASS
  1
ACDBDICTIONARYWDFLT
  2
AcDbDictionaryWithDefault
  3
ObjectDBX Classes
 90
        0
280
     0
281
     0
  0
CLASS
  1
VISUALSTYLE
  2
AcDbVisualStyle
  3
ObjectDBX Classes
 90
     4095
280
     0
281
     0
  0
CLASS
  1
MATERIAL
  2
AcDbMaterial
  3
ObjectDBX Classes
 90
     1153
280
     0
281
     0
  0
CLASS
  1
SCALE
  2
AcDbScale
  3
ObjectDBX Classes
 90
     1153
280
     0
281
     0
  0
CLASS
  1
TABLESTYLE
  2
AcDbTableStyle
  3
ObjectDBX Classes
 90
     4095
280
     0
281
     0
  0
CLASS
  1
MLEADERSTYLE
  2
AcDbMLeaderStyle
  3
ACDB_MLEADERSTYLE_CLASS
 90
     4095
280
     0
281
     0
  0
CLASS
  1
SUN
  2
AcDbSun
  3
SCENEOE
 90
     1153
280
     0
281
     0
  0
CLASS
  1
ACDBPLACEHOLDER
  2
AcDbPlaceHolder
  3
ObjectDBX Classes
 90
        0
280
     0
281
     0
  0
CLASS
  1
LAYOUT
  2
AcDbLayout
  3
ObjectDBX Classes
 90
        0
280
     0
281
     0
  0
ENDSEC
  0
SECTION
  2
TABLES
  0
TABLE
  2
VPORT
  5
8
330
0
100
AcDbSymbolTable
 70
     1
  0
VPORT
  5
29
330
8
100
AcDbSymbolTableRecord
100
AcDbViewportTableRecord
  2
*Active
 70
     0
 10
0.0
 20
0.0
 11
1.0
 21
1.0
 12
10000.0
 22
5000.0
 13
0.0
 23
0.0
 14
10.0
 24
10.0
 15
10.0
 25
10.0
 16
0.0
 26
0.0
 36
1.0
 17
0.0
 27
0.0
 37
0.0
 40
10000.0
 41
2.0
 42
50.0
 43
0.0
 44
0.0
 50
0.0
 51
0.0
 71
     0
 72
  2000
 73
     1
 74
     3
 75
     0
 76
     0
 77
     0
 78
     0
281
     0
 65
     1
110
0.0
120
0.0
130
0.0
111
1.0
121
0.0
131
0.0
112
0.0
122
1.0
132
0.0
 79
     0
146
0.0
  0
ENDTAB
  0
TABLE
  2
LTYPE
  5
5
330
0
100
AcDbSymbolTable
 70
     6
  0
LTYPE
  5
14
330
5
100
AcDbSymbolTableRecord
100
AcDbLinetypeTableRecord
  2
ByBlock
 70
     0
  3

 72
    65
 73
     0
 40
0.0
  0
LTYPE
  5
15
330
5
100
AcDbSymbolTableRecord
100
AcDbLinetypeTableRecord
  2
ByLayer
 70
     0
  3

 72
    65
 73
     0
 40
0.0
  0
LTYPE
  5
16
330
5
100
AcDbSymbolTableRecord
100
AcDbLinetypeTableRecord
  2
Continuous
 70
     0
  3
Solid line
 72
    65
 73
     0
 40
0.0
  0
LTYPE
  5
6E
330
5
100
AcDbSymbolTableRecord
100
AcDbLinetypeTableRecord
  2
HIDDEN
 70
     0
  3
Hidden __ __ __ __ __ __ __ __ __ __ __ __ __ __
 72
    65
 73
     2
 40
1.905
 49
1.27
 74
     0
 49
-0.635
 74
     0
  0
LTYPE
  5
6F
330
5
100
AcDbSymbolTableRecord
100
AcDbLinetypeTableRecord
  2
PHANTOM
 70
     0
  3
Phantom ______  __  __  ______  __  __  ______
 72
    65
 73
     6
 40
12.7
 49
6.35
 74
     0
 49
-1.27
 74
     0
 49
1.27
 74
     0
 49
-1.27
 74
     0
 49
1.27
 74
     0
 49
-1.27
 74
     0
  0
LTYPE
  5
70
330
5
100
AcDbSymbolTableRecord
100
AcDbLinetypeTableRecord
  2
CENTER
 70
     0
  3
Center ____ _ ____ _ ____ _ ____ _ ____ _ ____
 72
    65
 73
     4
 40
10.16
 49
6.35
 74
     0
 49
-1.27
 74
     0
 49
1.27
 74
     0
 49
-1.27
 74
     0
  0
LTYPE
  5
71
330
5
100
AcDbSymbolTableRecord
100
AcDbLinetypeTableRecord
  2
CENTERX2
 70
     0
  3
Center (2x) ________  __  ________  __  _____
 72
    65
 73
     4
 40
20.32
 49
12.7
 74
     0
 49
-2.54
 74
     0
 49
2.54
 74
     0
 49
-2.54
 74
     0
  0
LTYPE
  5
72
330
5
100
AcDbSymbolTableRecord
100
AcDbLinetypeTableRecord
  2
DOT2
 70
     0
  3
Dot (.5x) ........................................
 72
    65
 73
     2
 40
0.635
 49
0.0
 74
     0
 49
-0.635
 74
     0
  0
ENDTAB
  0
TABLE
  2
LAYER
  5
2
330
0
100
AcDbSymbolTable
 70
    13
  0
LAYER
  5
10
330
2
100
AcDbSymbolTableRecord
100
AcDbLayerTableRecord
  2
0
 70
     0
 62
     7
  6
Continuous
370
    -3
390
F
  0
LAYER
  5
73
330
2
100
AcDbSymbolTableRecord
100
AcDbLayerTableRecord
  2
FORMAT
 70
     0
 62
     7
  6
Continuous
370
    -3
390
F
  0
LAYER
  5
74
330
2
100
AcDbSymbolTableRecord
100
AcDbLayerTableRecord
  2
OSA
 70
     0
 62
     7
  6
CENTER
370
    -3
390
F
  0
LAYER
  5
75
330
2
100
AcDbSymbolTableRecord
100
AcDbLayerTableRecord
  2
0_35
 70
     0
 62
     7
  6
Continuous
370
    35
390
F
  0
LAYER
  5
76
330
2
100
AcDbSymbolTableRecord
100
AcDbLayerTableRecord
  2
0_5
 70
     0
 62
     7
  6
Continuous
370
    50
390
F
  0
LAYER
  5
77
330
2
100
AcDbSymbolTableRecord
100
AcDbLayerTableRecord
  2
0_25
 70
     0
 62
     7
  6
Continuous
370
    25
390
F
  0
LAYER
  5
78
330
2
100
AcDbSymbolTableRecord
100
AcDbLayerTableRecord
  2
0_18
 70
     0
 62
     7
  6
Continuous
370
    -3
390
F
  0
LAYER
  5
79
330
2
100
AcDbSymbolTableRecord
100
AcDbLayerTableRecord
  2
SLD-0
 70
     0
 62
   179
  6
Continuous
370
    -3
390
F
  0
LAYER
  5
7A
330
2
100
AcDbSymbolTableRecord
100
AcDbLayerTableRecord
  2
KOTY
 70
     0
 62
     7
  6
Continuous
370
    -3
390
F
  0
LAYER
  5
7B
330
2
100
AcDbSymbolTableRecord
100
AcDbLayerTableRecord
  2
SILNA
 70
     0
 62
   179
  6
Continuous
370
    -3
390
F
  0
LAYER
  5
7C
330
2
100
AcDbSymbolTableRecord
100
AcDbLayerTableRecord
  2
0_18_1
 70
     0
 62
   179
  6
Continuous
370
    -3
390
F
  0
LAYER
  5
7D
330
2
100
AcDbSymbolTableRecord
100
AcDbLayerTableRecord
  2
0_35_1
 70
     0
 62
   179
  6
Continuous
370
    35
390
F
  0
LAYER
  5
7E
330
2
100
AcDbSymbolTableRecord
100
AcDbLayerTableRecord
  2
0_5_1
 70
     0
 62
   179
  6
Continuous
370
    50
390
F
  0
ENDTAB
  0
TABLE
  2
STYLE
  5
3
330
0
100
AcDbSymbolTable
 70
     1
  0
STYLE
  5
11
330
3
100
AcDbSymbolTableRecord
100
AcDbTextStyleTableRecord
  2
Standard
 70
     0
 40
0.0
 41
1.0
 50
0.0
 71
     0
 42
2.0
  3
txt
  4

  0
ENDTAB
  0
TABLE
  2
VIEW
  5
6
330
0
100
AcDbSymbolTable
 70
     0
  0
ENDTAB
  0
TABLE
  2
UCS
  5
7
330
0
100
AcDbSymbolTable
 70
     0
  0
ENDTAB
  0
TABLE
  2
APPID
  5
9
330
0
100
AcDbSymbolTable
 70
     1
  0
APPID
  5
12
330
9
100
AcDbSymbolTableRecord
100
AcDbRegAppTableRecord
  2
ACAD
 70
     0
  0
ENDTAB
  0
TABLE
  2
DIMSTYLE
  5
A
330
0
100
AcDbSymbolTable
 70
     1
100
AcDbDimStyleTable
  0
DIMSTYLE
105
27
330
A
100
AcDbSymbolTableRecord
100
AcDbDimStyleTableRecord
  2
ISO-25
 70
     0
 41
2.5
 42
0.625
 43
3.75
 44
1.25
 73
     0
 74
     0
 77
     1
 78
     8
140
2.5
141
2.5
143
0.0393700787
147
0.625
171
     3
172
     1
178
     0
271
     2
272
     2
274
     3
278
    44
283
     0
284
     8
340
11
  0
ENDTAB
  0
TABLE
  2
BLOCK_RECORD
  5
1
330
0
100
AcDbSymbolTable
 70
     1
  0
BLOCK_RECORD
  5
1F
330
1
100
AcDbSymbolTableRecord
100
AcDbBlockTableRecord
  2
*Model_Space
340
22
  0
BLOCK_RECORD
  5
1B
330
1
100
AcDbSymbolTableRecord
100
AcDbBlockTableRecord
  2
*Paper_Space
340
1E
  0
BLOCK_RECORD
  5
23
330
1
100
AcDbSymbolTableRecord
100
AcDbBlockTableRecord
  2
*Paper_Space0
340
26
  0
ENDTAB
  0
ENDSEC
  0
SECTION
  2
BLOCKS
  0
BLOCK
  5
20
330
1F
100
AcDbEntity
  8
0
100
AcDbBlockBegin
  2
*Model_Space
 70
     0
 10
0.0
 20
0.0
 30
0.0
  3
*Model_Space
  1

  0
ENDBLK
  5
21
330
1F
100
AcDbEntity
  8
0
100
AcDbBlockEnd
  0
BLOCK
  5
1C
330
1B
100
AcDbEntity
 67
     1
  8
0
100
AcDbBlockBegin
  2
*Paper_Space
 70
     0
 10
0.0
 20
0.0
 30
0.0
  3
*Paper_Space
  1

  0
ENDBLK
  5
1D
330
1B
100
AcDbEntity
 67
     1
  8
0
100
AcDbBlockEnd
  0
BLOCK
  5
24
330
23
100
AcDbEntity
  8
0
100
AcDbBlockBegin
  2
*Paper_Space0
 70
     0
 10
0.0
 20
0.0
 30
0.0
  3
*Paper_Space0
  1

  0
ENDBLK
  5
25
330
23
100
AcDbEntity
  8
0
100
AcDbBlockEnd
  0
ENDSEC
  0
SECTION
  2
ENTITIES
  0
ARC
  5
7F
330
1F
100
AcDbEntity
  8
0
  6
Continuous
 62
     7
370
    25
100
AcDbCircle
 10
6455.2888917363
 20
4789.1913025803
 30
0.0
 40
3.0
100
AcDbArc
 50
0.0
 51
90.0
  0
ARC
  5
80
330
1F
100
AcDbEntity
  8
0
  6
Continuous
 62
     7
370
    25
100
AcDbCircle
 10
6357.7888917363
 20
4789.1913025803
 30
0.0
 40
3.0
100
AcDbArc
 50
90.0
 51
180.0
  0
LINE
  5
81
330
1F
100
AcDbEntity
  8
0
  6
Continuous
 62
     7
370
    25
100
AcDbLine
 10
6458.2888917363
 20
4775.1913025803
 30
0.0
 11
6458.2888917363
 21
4789.1913025803
 31
0.0
  0
LINE
  5
82
330
1F
100
AcDbEntity
  8
0
  6
Continuous
 62
     7
370
    25
100
AcDbLine
 10
6354.7888917363
 20
4789.1913025803
 30
0.0
 11
6354.7888917363
 21
4775.1913025803
 31
0.0
  0
ARC
  5
83
330
1F
100
AcDbEntity
  8
0
  6
Continuous
 62
     7
370
    25
100
AcDbCircle
 10
6456.7888917363
 20
4772.6913025803
 30
0.0
 40
2.500000000000909
100
AcDbArc
 50
0.0
 51
90.0
  0
ARC
  5
84
330
1F
100
AcDbEntity
  8
0
  6
Continuous
 62
     7
370
    25
100
AcDbCircle
 10
6356.2888917363
 20
4772.6913025803
 30
0.0
 40
2.500000000000909
100
AcDbArc
 50
90.0
 51
180.0
  0
LINE
  5
85
330
1F
100
AcDbEntity
  8
0
  6
Continuous
 62
     7
370
    25
100
AcDbLine
 10
6459.2888917363
 20
4653.1913025803
 30
0.0
 11
6459.2888917363
 21
4772.6913025803
 31
0.0
  0
LINE
  5
86
330
1F
100
AcDbEntity
  8
0
  6
Continuous
 62
     7
370
    25
100
AcDbLine
 10
6353.7888917363
 20
4772.6913025803
 30
0.0
 11
6353.7888917363
 21
4653.1913025803
 31
0.0
  0
ARC
  5
87
330
1F
100
AcDbEntity
  8
0
  6
Continuous
 62
     7
370
    25
100
AcDbCircle
 10
6456.7888917363
 20
4653.1913025803
 30
0.0
 40
2.500000000000909
100
AcDbArc
 50
270.0
 51
0.0
  0
ARC
  5
88
330
1F
100
AcDbEntity
  8
0
  6
Continuous
 62
     7
370
    25
100
AcDbCircle
 10
6356.2888917363
 20
4653.1913025803
 30
0.0
 40
2.500000000000909
100
AcDbArc
 50
180.0
 51
270.0
  0
LINE
  5
89
330
1F
100
AcDbEntity
  8
0
  6
Continuous
 62
     7
370
    25
100
AcDbLine
 10
6251.1471266728
 20
4787.3255440244
 30
0.0
 11
6251.1471266728
 21
4780.3255440244
 31
0.0
  0
LINE
  5
8A
330
1F
100
AcDbEntity
  8
0
  6
Continuous
 62
     7
370
    25
100
AcDbLine
 10
6259.2471266728
 20
4780.3255440244
 30
0.0
 11
6259.2471266728
 21
4787.3255440244
 31
0.0
  0
LINE
  5
8B
330
1F
100
AcDbEntity
  8
0
  6
Continuous
 62
     7
370
    25
100
AcDbLine
 10
6281.6471266728
 20
4787.3255440244
 30
0.0
 11
6281.6471266728
 21
4780.3255440244
 31
0.0
  0
LINE
  5
8C
330
1F
100
AcDbEntity
  8
0
  6
Continuous
 62
     7
370
    25
100
AcDbLine
 10
6289.7471266728
 20
4780.3255440244
 30
0.0
 11
6289.7471266728
 21
4787.3255440244
 31
0.0
  0
LINE
  5
8D
330
1F
100
AcDbEntity
  8
0
  6
Continuous
 62
     7
370
    25
100
AcDbLine
 10
6243.0305520188
 20
4738.8069929583
 30
0.0
 11
6243.0199782828
 21
4739.041430767
 31
0.0
  0
LINE
  5
8E
330
1F
100
AcDbEntity
  8
0
  6
Continuous
 62
     7
370
    25
100
AcDbLine
 10
6243.9501149284
 20
4738.1281315706
 30
0.0
 11
6244.057558284
 21
4737.650285388
 31
0.0
  0
LWPOLYLINE
  5
8F
330
1F
100
AcDbEntity
  8
0
  6
Continuous
 62
     7
370
    25
100
AcDbPolyline
 90
        3
 70
   128
 43
0.0
 10
6244.9896950976
 20
4733.0140299273
 10
6245.0787807733
 20
4732.3983599556
 10
6245.0804027989
 20
4732.3783493317
  0
LWPOLYLINE
  5
90
330
1F
100
AcDbEntity
  8
0
  6
Continuous
 62
     7
370
    25
100
AcDbPolyline
 90
        3
 70
   128
 43
0.0
 10
6244.4745561736
 20
4731.2729474411
 10
6244.4737265514
 20
4731.3262757255
 10
6244.4145694428
 20
4731.542887452
  0
LWPOLYLINE
  5
91
330
1F
100
AcDbEntity
  8
0
  6
Continuous
 62
     7
370
    25
100
AcDbPolyline
 90
        3
 70
   128
 43
0.0
 10
6240.5672115954
 20
4739.9090381051
 10
6240.4858199592
 20
4740.0818797005
 10
6240.4697820255
 20
4740.1202695576
  0
LINE
  5
92
330
1F
100
AcDbEntity
  8
0
  6
Continuous
 62
     7
370
    25
100
AcDbLine
 10
6237.5816199337
 20
4739.7092354714
 30
0.0
 11
6237.5801559456
 21
4739.911879399
 31
0.0
  0
LINE
  5
93
330
1F
100
AcDbEntity
  8
0
  6
Continuous
 62
     7
370
    25
100
AcDbLine
 10
6235.7890634149
 20
4738.9292932434
 30
0.0
 11
6235.7903489927
 21
4738.681272531
 31
0.0
  0
LINE
  5
94
330
1F
100
AcDbEntity
  8
0
  6
Continuous
 62
     7
370
    25
100
AcDbLine
 10
6238.4997531595
 20
4740.1605533352
 30
0.0
 11
6238.5747960482
 21
4739.9778063306
 31
0.0
  0
LWPOLYLINE
  5
95
330
1F
100
AcDbEntity
  8
0
  6
Continuous
 62
     7
370
    25
100
AcDbPolyline
 90
        3
 70
   128
 43
0.0
 10
6242.2812346847
 20
4729.3770089566
 10
6242.2699250788
 20
4729.3536454626
 10
6242.0875963861
 20
4729.0066055308
  0
CIRCLE
  5
96
330
1F
100
AcDbEntity
  8
0
  6
Continuous
 62
     7
370
    25
100
AcDbCircle
 10
6299.4471266728
 20
4784.3255440244
 30
0.0
 40
2.699999999999818
  0
CIRCLE
  5
97
330
1F
100
AcDbEntity
  8
0
  6
Continuous
 62
     7
370
    25
100
AcDbCircle
 10
6299.4471266728
 20
4716.3255440244
 30
0.0
 40
2.700000000000728
  0
CIRCLE
  5
98
330
1F
100
AcDbEntity
  8
0
  6
Continuous
 62
     7
370
    25
100
AcDbCircle
 10
6229.4471266728
 20
4784.3255440244
 30
0.0
 40
2.699999999999818
  0
CIRCLE
  5
99
330
1F
100
AcDbEntity
  8
0
  6
Continuous
 62
     7
370
    25
100
AcDbCircle
 10
6229.4471266728
 20
4716.3255440244
 30
0.0
 40
2.700000000000728
  0
ARC
  5
9A
330
1F
100
AcDbEntity
  8
0
  6
Continuous
 62
     7
370
    25
100
AcDbCircle
 10
6265.1471266728
 20
4709.8255440244
 30
0.0
 40
0.5
100
AcDbArc
 50
0.0
 51
90.0
  0
LINE
  5
9B
330
1F
100
AcDbEntity
  8
0
  6
Continuous
 62
     7
370
    25
100
AcDbLine
 10
6265.6471266728
 20
4709.1317967394
 30
0.0
 11
6265.6471266728
 21
4709.8255440244
 31
0.0
  0
ARC
  5
9C
330
1F
100
AcDbEntity
  8
0
  6
Continuous
 62
     7
370
    25
100
AcDbCircle
 10
6265.1471266728
 20
4709.1317967394
 30
0.0
 40
0.5
100
AcDbArc
 50
295.9444797725
 51
0.0
  0
ARC
  5
9D
330
1F
100
AcDbEntity
  8
0
  6
Continuous
 62
     7
370
    25
100
AcDbCircle
 10
6261.6471266728
 20
4716.3255440244
 30
0.0
 40
8.499999999998844
100
AcDbArc
 50
287.1046351766
 51
295.9444797724
  0
LWPOLYLINE
  5
9E
330
1F
100
AcDbEntity
  8
0
  6
Continuous
 62
     7
370
    25
100
AcDbPolyline
 90
        3
 70
   128
 43
0.0
 10
6258.94391761
 20
4708.2668430892
 10
6258.9909247436
 20
4708.2512272539
 10
6259.1471266728
 20
4708.2015056198
  0
LINE
  5
9F
330
1F
100
AcDbEntity
  8
0
  6
Continuous
 62
     7
370
    25
100
AcDbLine
 10
6237.6471266728
 20
4709.8255440244
 30
0.0
 11
6237.6471266728
 21
4709.1317967394
 31
0.0
  0
LINE
  5
A0
330
1F
100
AcDbEntity
  8
0
  6
Continuous
 62
     7
370
    25
100
AcDbLine
 10
6245.6471266728
 20
4709.1317967394
 30
0.0
 11
6245.6471266728
 21
4709.8255440244
 31
0.0
  0
ARC
  5
A1
330
1F
100
AcDbEntity
  8
0
  6
Continuous
 62
     7
370
    25
100
AcDbCircle
 10
6238.1471266728
 20
4709.8255440244
 30
0.0
 40
0.5
100
AcDbArc
 50
90.0
 51
180.0
  0
ARC
  5
A2
330
1F
100
AcDbEntity
  8
0
  6
Continuous
 62
     7
370
    25
100
AcDbCircle
 10
6245.1471266728
 20
4709.8255440244
 30
0.0
 40
0.5
100
AcDbArc
 50
0.0
 51
90.0
  0
ARC
  5
A3
330
1F
100
AcDbEntity
  8
0
  6
Continuous
 62
     7
370
    25
100
AcDbCircle
 10
6238.1471266728
 20
4709.1317967394
 30
0.0
 40
0.5
100
AcDbArc
 50
180.0
 51
244.0555202276
  0
ARC
  5
A4
330
1F
100
AcDbEntity
  8
0
  6
Continuous
 62
     7
370
    25
100
AcDbCircle
 10
6245.1471266728
 20
4709.1317967394
 30
0.0
 40
0.5
100
AcDbArc
 50
295.9444797724
 51
0.0
  0
ARC
  5
A5
330
1F
100
AcDbEntity
  8
0
  6
Continuous
 62
     7
370
    25
100
AcDbCircle
 10
6241.6471266728
 20
4716.3255440244
 30
0.0
 40
8.49999999999911
100
AcDbArc
 50
287.1046351766
 51
295.9444797724
  0
ARC
  5
A6
330
1F
100
AcDbEntity
  8
0
  6
Continuous
 62
     7
370
    25
100
AcDbCircle
 10
6241.6471266728
 20
4716.3255440244
 30
0.0
 40
8.499999999998844
100
AcDbArc
 50
244.0555202276
 51
252.8953648234
  0
LINE
  5
A7
330
1F
100
AcDbEntity
  8
0
  6
Continuous
 62
     7
370
    25
100
AcDbLine
 10
6244.3375718762
 20
4707.135098821
 30
0.0
 11
6244.7471266728
 21
4706.7255440244
 31
0.0
  0
LINE
  5
A8
330
1F
100
AcDbEntity
  8
0
  6
Continuous
 62
     7
370
    25
100
AcDbLine
 10
6258.5471266728
 20
4706.7255440244
 30
0.0
 11
6258.9665517351
 21
4707.1449690867
 31
0.0
  0
LINE
  5
A9
330
1F
100
AcDbEntity
  8
0
  6
Continuous
 62
     7
370
    25
100
AcDbLine
 10
6290.6349118519
 20
4958.3513665987
 30
0.0
 11
6290.6821905013
 21
4957.8860633239
 31
0.0
  0
LINE
  5
AA
330
1F
100
AcDbEntity
  8
0
  6
Continuous
 62
     7
370
    25
100
AcDbLine
 10
6312.3608996192
 20
4958.9125522983
 30
0.0
 11
6312.3655198445
 21
4959.3790196607
 31
0.0
  0
LINE
  5
AB
330
1F
100
AcDbEntity
  8
0
  6
Continuous
 62
     7
370
    25
100
AcDbLine
 10
6310.2130082192
 20
5002.8054026638
 30
0.0
 11
6310.2078409245
 21
5003.7450952846
 31
0.0
  0
LINE
  5
AC
330
1F
100
AcDbEntity
  8
0
  6
Continuous
 62
     7
370
    25
100
AcDbLine
 10
6295.209927003
 20
5003.3244922067
 30
0.0
 11
6295.2132349999
 21
5002.7229201094
 31
0.0
  0
LINE
  5
AD
330
1F
100
AcDbEntity
  8
0
  6
Continuous
 62
     7
370
    25
100
AcDbLine
 10
6300.0337653716
 20
4997.3644598102
 30
0.0
 11
6300.0518509029
 21
4994.0755356374
 31
0.0
  0
LINE
  5
AE
330
1F
100
AcDbEntity
  8
0
  6
Continuous
 62
     7
370
    25
100
AcDbLine
 10
6305.0517753093
 20
4994.1030298222
 30
0.0
 11
6305.0336897781
 21
4997.391953995
 31
0.0
  0
LWPOLYLINE
  5
AF
330
1F
100
AcDbEntity
  8
0
  6
Continuous
 62
     7
370
    25
100
AcDbPolyline
 90
       29
 70
   128
 43
0.0
 10
6326.7354034987
 20
5012.4171544937
 10
6326.5716767886
 20
5015.0155975005
 10
6326.3600759203
 20
5017.2264939573
 10
6326.0652365429
 20
5019.2216583644
 10
6325.6462191812
 20
5021.1241401636
 10
6325.0573672015
 20
5023.015184708
 10
6324.2484403528
 20
5024.9436424174
 10
6323.1954706797
 20
5026.8919890021
 10
6321.8829267326
 20
5028.8236826156
 10
6320.2909380045
 20
5030.7073294067
 10
6318.4048075752
 20
5032.5032909188
 10
6316.2428137075
 20
5034.1479046289
 10
6313.9072388828
 20
5035.547686279
 10
6308.8926240286
 20
5037.5414511147
 10
6303.6669748982
 20
5038.4278083656
 10
6298.2536635538
 20
5038.1951580673
 10
6292.7773185339
 20
5036.7331467433
 10
6290.1573961452
 20
5035.53298711
 10
6287.7999399048
 20
5034.1134656145
 10
6285.7284117269
 20
5032.5368765128
 10
6283.9399447382
 20
5030.8554880777
 10
6282.434913026
 20
5029.1287789002
 10
6281.2454679436
 20
5027.4812764982
 10
6280.3285563995
 20
5025.9648882516
 10
6279.6007528997
 20
5024.5378395702
 10
6278.8871026177
 20
5022.8404472751
 10
6278.1888600063
 20
5020.7154911824
 10
6277.5331809114
 20
5017.9963805843
 10
6276.9493237969
 20
5014.4642140978
  0
LWPOLYLINE
  5
B0
330
1F
100
AcDbEntity
  8
0
  6
Continuous
 62
     7
370
    25
100
AcDbPolyline
 90
       20
 70
   128
 43
0.0
 10
6276.9556808199
 20
5014.5110987421
 10
6276.6783102603
 20
5012.2374667583
 10
6276.4447732109
 20
5009.9158259106
 10
6276.2517639791
 20
5007.682949006
 10
6276.0961801885
 20
5005.654451422
 10
6275.9752709989
 20
5003.9262214503
 10
6275.8867731802
 20
5002.5752098106
 10
6275.819319163
 20
5001.4965587227
 10
6275.7475450807
 20
5000.3030451674
 10
6275.6519913494
 20
4998.6424886292
 10
6275.533302483
 20
4996.4683160784
 10
6275.39228657
 20
4993.7293789843
 10
6275.1861129131
 20
4989.4350801911
 10
6274.94882887
 20
4984.0981700778
 10
6274.6830674101
 20
4977.6762689472
 10
6274.3916927599
 20
4970.1790575747
 10
6274.0771089337
 20
4961.6353243992
 10
6273.7412378452
 20
4952.1253276532
 10
6273.3854416105
 20
4941.8115589402
 10
6273.0103218497
 20
4930.9615766383
  0
LWPOLYLINE
  5
B1
330
1F
100
AcDbEntity
  8
0
  6
Continuous
 62
     7
370
    25
100
AcDbPolyline
 90
       19
 70
   128
 43
0.0
 10
6328.1900470457
 20
4959.9551075093
 10
6328.1453217551
 20
4961.2946272846
 10
6328.1021851656
 20
4962.6451235124
 10
6328.0607470292
 20
4964.0399318442
 10
6328.0181660008
 20
4965.5796091458
 10
6327.9460021306
 20
4968.409449887
 10
6327.8815730733
 20
4971.1107505206
 10
6327.8197179175
 20
4973.5860418945
 10
6327.7581575248
 20
4976.0120874878
 10
6327.6787876875
 20
4979.1701501947
 10
6327.5810653029
 20
4983.0818764621
 10
6327.4667737956
 20
4987.6591193855
 10
6327.3380991985
 20
4992.7574746106
 10
6327.2456031367
 20
4996.3399085812
 10
6327.1487673803
 20
4999.966540683
 10
6327.0485884658
 20
5003.5222648475
 10
6326.9461342529
 20
5006.8659660637
 10
6326.8420741595
 20
5009.8638824683
 10
6326.7365889292
 20
5012.3920926535
  0
LINE
  5
B2
330
1F
100
AcDbEntity
  8
0
  6
Continuous
 62
     7
370
    25
100
AcDbLine
 10
6328.6929127373
 20
4929.4615766383
 30
0.0
 11
6328.6929127373
 21
4930.9615766383
 31
0.0
  0
LINE
  5
B3
330
1F
100
AcDbEntity
  8
0
  6
Continuous
 62
     7
370
    25
100
AcDbLine
 10
6273.9181870524
 20
4930.9615766383
 30
0.0
 11
6273.9181870524
 21
4929.4615766383
 31
0.0
  0
LINE
  5
B4
330
1F
100
AcDbEntity
  8
0
  6
Continuous
 62
     7
370
    25
100
AcDbLine
 10
6273.9181870524
 20
4929.4615766383
 30
0.0
 11
6328.6929127373
 21
4929.4615766383
 31
0.0
  0
LINE
  5
B5
330
1F
100
AcDbEntity
  8
0
  6
Continuous
 62
     7
370
    25
100
AcDbLine
 10
6273.9181870524
 20
4930.9615766383
 30
0.0
 11
6276.6919465751
 21
4930.9615766383
 31
0.0
  0
LINE
  5
B6
330
1F
100
AcDbEntity
  8
0
  6
Continuous
 62
     7
370
    25
100
AcDbLine
 10
6325.9580074427
 20
4930.9615766383
 30
0.0
 11
6328.6929127373
 21
4930.9615766383
 31
0.0
  0
LINE
  5
B7
330
1F
100
AcDbEntity
  8
0
  6
Continuous
 62
     7
370
    25
100
AcDbLine
 10
6272.7817467718
 20
4929.4615766383
 30
0.0
 11
6272.7817467718
 21
4930.9615766383
 31
0.0
  0
LINE
  5
B8
330
1F
100
AcDbEntity
  8
0
  6
Continuous
 62
     7
370
    25
100
AcDbLine
 10
6273.9181870524
 20
4929.4615766383
 30
0.0
 11
6272.7817467718
 21
4929.4615766383
 31
0.0
  0
LINE
  5
B9
330
1F
100
AcDbEntity
  8
0
  6
Continuous
 62
     7
370
    25
100
AcDbLine
 10
6272.7817467718
 20
4930.9615766383
 30
0.0
 11
6273.9181870524
 21
4930.9615766383
 31
0.0
  0
LINE
  5
BA
330
1F
100
AcDbEntity
  8
0
  6
Continuous
 62
     7
370
    25
100
AcDbLine
 10
6329.7752410913
 20
4930.9615766383
 30
0.0
 11
6329.7752410913
 21
4929.4615766383
 31
0.0
  0
LINE
  5
BB
330
1F
100
AcDbEntity
  8
0
  6
Continuous
 62
     7
370
    25
100
AcDbLine
 10
6329.7752410913
 20
4929.4615766383
 30
0.0
 11
6328.6929127373
 21
4929.4615766383
 31
0.0
  0
LINE
  5
BC
330
1F
100
AcDbEntity
  8
0
  6
Continuous
 62
     7
370
    25
100
AcDbLine
 10
6328.6929127373
 20
4930.9615766383
 30
0.0
 11
6329.7752410913
 21
4930.9615766383
 31
0.0
  0
LINE
  5
BD
330
1F
100
AcDbEntity
  8
0
  6
Continuous
 62
     7
370
    25
100
AcDbLine
 10
6272.4980915586
 20
4930.9615766383
 30
0.0
 11
6272.4980915586
 21
4929.4615766383
 31
0.0
  0
LINE
  5
BE
330
1F
100
AcDbEntity
  8
0
  6
Continuous
 62
     7
370
    25
100
AcDbLine
 10
6272.4980915586
 20
4929.4615766383
 30
0.0
 11
6272.7817467718
 21
4929.4615766383
 31
0.0
  0
LINE
  5
BF
330
1F
100
AcDbEntity
  8
0
  6
Continuous
 62
     7
370
    25
100
AcDbLine
 10
6272.4980915586
 20
4930.9615766383
 30
0.0
 11
6272.7817467718
 21
4930.9615766383
 31
0.0
  0
LINE
  5
C0
330
1F
100
AcDbEntity
  8
0
  6
Continuous
 62
     7
370
    25
100
AcDbLine
 10
6458.2888917363
 20
4775.1913025803
 30
0.0
 11
6354.7888917363
 21
4775.1913025803
 31
0.0
  0
LINE
  5
C1
330
1F
100
AcDbEntity
  8
0
  6
Continuous
 62
     7
370
    25
100
AcDbLine
 10
6456.7888917363
 20
4650.6913025803
 30
0.0
 11
6356.2888917363
 21
4650.6913025803
 31
0.0
  0
LINE
  5
C2
330
1F
100
AcDbEntity
  8
0
  6
Continuous
 62
     7
370
    25
100
AcDbLine
 10
6459.0388917363
 20
4792.1913025803
 30
0.0
 11
6354.0388917363
 21
4792.1913025803
 31
0.0
  0
LINE
  5
C3
330
1F
100
AcDbEntity
  8
0
  6
Continuous
 62
     7
370
    25
100
AcDbLine
 10
6354.0388917363
 20
4792.1913025803
 30
0.0
 11
6354.0388917363
 21
4793.6913025803
 31
0.0
  0
LINE
  5
C4
330
1F
100
AcDbEntity
  8
0
  6
Continuous
 62
     7
370
    25
100
AcDbLine
 10
6459.0388917363
 20
4793.6913025803
 30
0.0
 11
6354.0388917363
 21
4793.6913025803
 31
0.0
  0
LINE
  5
C5
330
1F
100
AcDbEntity
  8
0
  6
Continuous
 62
     7
370
    25
100
AcDbLine
 10
6459.0388917363
 20
4793.6913025803
 30
0.0
 11
6459.0388917363
 21
4792.1913025803
 31
0.0
  0
LINE
  5
C6
330
1F
100
AcDbEntity
  8
0
  6
Continuous
 62
     7
370
    25
100
AcDbLine
 10
6354.0388917363
 20
4791.4547025803
 30
0.0
 11
6354.0388917363
 21
4792.1913025803
 31
0.0
  0
LINE
  5
C7
330
1F
100
AcDbEntity
  8
0
  6
Continuous
 62
     7
370
    25
100
AcDbLine
 10
6459.0388917363
 20
4791.4547025803
 30
0.0
 11
6459.0388917363
 21
4792.1913025803
 31
0.0
  0
LINE
  5
C8
330
1F
100
AcDbEntity
  8
0
  6
Continuous
 62
     7
370
    25
100
AcDbLine
 10
6354.0388917363
 20
4773.7810273162
 30
0.0
 11
6354.0388917363
 21
4791.4547025803
 31
0.0
  0
LINE
  5
C9
330
1F
100
AcDbEntity
  8
0
  6
Continuous
 62
     7
370
    25
100
AcDbLine
 10
6459.0388917363
 20
4773.7810273162
 30
0.0
 11
6459.0388917363
 21
4791.4547025803
 31
0.0
  0
LINE
  5
CA
330
1F
100
AcDbEntity
  8
0
  6
Continuous
 62
     7
370
    25
100
AcDbLine
 10
6247.8171360044
 20
4751.3566952527
 30
0.0
 11
6247.4186429387
 21
4750.7354357394
 31
0.0
  0
LINE
  5
CB
330
1F
100
AcDbEntity
  8
0
  6
Continuous
 62
     7
370
    25
100
AcDbLine
 10
6247.675092929
 20
4753.6159444857
 30
0.0
 11
6248.1362208082
 21
4752.7233958027
 31
0.0
  0
LINE
  5
CC
330
1F
100
AcDbEntity
  8
0
  6
Continuous
 62
     7
370
    25
100
AcDbLine
 10
6245.7756104069
 20
4753.9156523095
 30
0.0
 11
6246.1785197076
 21
4753.8968120118
 31
0.0
  0
LINE
  5
CD
330
1F
100
AcDbEntity
  8
0
  6
Continuous
 62
     7
370
    25
100
AcDbLine
 10
6245.3771173412
 20
4753.2943927962
 30
0.0
 11
6245.7756104069
 21
4753.9156523095
 31
0.0
  0
LINE
  5
CE
330
1F
100
AcDbEntity
  8
0
  6
Continuous
 62
     7
370
    25
100
AcDbLine
 10
6245.5191604166
 20
4751.0351435631
 30
0.0
 11
6245.0580325374
 21
4751.9276922462
 31
0.0
  0
LINE
  5
CF
330
1F
100
AcDbEntity
  8
0
  6
Continuous
 62
     7
370
    25
100
AcDbLine
 10
6247.4186429387
 20
4750.7354357394
 30
0.0
 11
6247.015733638
 21
4750.754276037
 31
0.0
  0
LINE
  5
D0
330
1F
100
AcDbEntity
  8
0
  6
Continuous
 62
     7
370
    25
100
AcDbLine
 10
6295.5171360044
 20
4751.3566952527
 30
0.0
 11
6295.1186429387
 21
4750.7354357394
 31
0.0
  0
LINE
  5
D1
330
1F
100
AcDbEntity
  8
0
  6
Continuous
 62
     7
370
    25
100
AcDbLine
 10
6295.375092929
 20
4753.6159444857
 30
0.0
 11
6295.8362208082
 21
4752.7233958027
 31
0.0
  0
LINE
  5
D2
330
1F
100
AcDbEntity
  8
0
  6
Continuous
 62
     7
370
    25
100
AcDbLine
 10
6293.4756104069
 20
4753.9156523095
 30
0.0
 11
6293.8785197076
 21
4753.8968120118
 31
0.0
  0
LINE
  5
D3
330
1F
100
AcDbEntity
  8
0
  6
Continuous
 62
     7
370
    25
100
AcDbLine
 10
6293.0771173412
 20
4753.2943927962
 30
0.0
 11
6293.4756104069
 21
4753.9156523095
 31
0.0
  0
LINE
  5
D4
330
1F
100
AcDbEntity
  8
0
  6
Continuous
 62
     7
370
    25
100
AcDbLine
 10
6293.2191604166
 20
4751.0351435631
 30
0.0
 11
6292.7580325374
 21
4751.9276922462
 31
0.0
  0
LINE
  5
D5
330
1F
100
AcDbEntity
  8
0
  6
Continuous
 62
     7
370
    25
100
AcDbLine
 10
6295.1186429387
 20
4750.7354357394
 30
0.0
 11
6294.715733638
 21
4750.754276037
 31
0.0
  0
ARC
  5
D6
330
1F
100
AcDbEntity
  8
0
  6
Continuous
 62
     7
370
    25
100
AcDbCircle
 10
6246.5971266728
 20
4752.3255440244
 30
0.0
 40
4.320009836443668
100
AcDbArc
 50
110.317459331
 51
292.5376327361
  0
ARC
  5
D7
330
1F
100
AcDbEntity
  8
0
  6
Continuous
 62
     7
370
    25
100
AcDbCircle
 10
6294.2971266728
 20
4752.3255440244
 30
0.0
 40
4.320009836443559
100
AcDbArc
 50
247.4623672639
 51
69.682540669
  0
CIRCLE
  5
D8
330
1F
100
AcDbEntity
  8
0
  6
Continuous
 62
     7
370
    25
100
AcDbCircle
 10
6294.2971266728
 20
4752.3255440244
 30
0.0
 40
3.764150943396489
  0
LINE
  5
D9
330
1F
100
AcDbEntity
  8
0
  6
Continuous
 62
     7
370
    25
100
AcDbLine
 10
6296.6689755841
 20
4753.2606016386
 30
0.0
 11
6296.1268881239
 21
4754.1009237111
 31
0.0
  0
LINE
  5
DA
330
1F
100
AcDbEntity
  8
0
  6
Continuous
 62
     7
370
    25
100
AcDbLine
 10
6296.1268881239
 20
4754.1009237111
 30
0.0
 11
6294.4462439789
 21
4753.0167487908
 31
0.0
  0
LINE
  5
DB
330
1F
100
AcDbEntity
  8
0
  6
Continuous
 62
     7
370
    25
100
AcDbLine
 10
6294.4462439789
 20
4753.0167487908
 30
0.0
 11
6293.3620690586
 21
4754.6973929357
 31
0.0
  0
LINE
  5
DC
330
1F
100
AcDbEntity
  8
0
  6
Continuous
 62
     7
370
    25
100
AcDbLine
 10
6293.3620690586
 20
4754.6973929357
 30
0.0
 11
6292.5217469861
 21
4754.1553054756
 31
0.0
  0
LINE
  5
DD
330
1F
100
AcDbEntity
  8
0
  6
Continuous
 62
     7
370
    25
100
AcDbLine
 10
6292.5217469861
 20
4754.1553054756
 30
0.0
 11
6293.6059219064
 21
4752.4746613306
 31
0.0
  0
LINE
  5
DE
330
1F
100
AcDbEntity
  8
0
  6
Continuous
 62
     7
370
    25
100
AcDbLine
 10
6293.6059219064
 20
4752.4746613306
 30
0.0
 11
6291.9252777615
 21
4751.3904864102
 31
0.0
  0
LINE
  5
DF
330
1F
100
AcDbEntity
  8
0
  6
Continuous
 62
     7
370
    25
100
AcDbLine
 10
6291.9252777615
 20
4751.3904864102
 30
0.0
 11
6292.4673652216
 21
4750.5501643377
 31
0.0
  0
LINE
  5
E0
330
1F
100
AcDbEntity
  8
0
  6
Continuous
 62
     7
370
    25
100
AcDbLine
 10
6292.4673652216
 20
4750.5501643377
 30
0.0
 11
6294.1480093666
 21
4751.6343392581
 31
0.0
  0
LINE
  5
E1
330
1F
100
AcDbEntity
  8
0
  6
Continuous
 62
     7
370
    25
100
AcDbLine
 10
6294.1480093666
 20
4751.6343392581
 30
0.0
 11
6295.232184287
 21
4749.9536951131
 31
0.0
  0
LINE
  5
E2
330
1F
100
AcDbEntity
  8
0
  6
Continuous
 62
     7
370
    25
100
AcDbLine
 10
6295.232184287
 20
4749.9536951131
 30
0.0
 11
6296.0725063595
 21
4750.4957825733
 31
0.0
  0
LINE
  5
E3
330
1F
100
AcDbEntity
  8
0
  6
Continuous
 62
     7
370
    25
100
AcDbLine
 10
6296.0725063595
 20
4750.4957825733
 30
0.0
 11
6294.9883314391
 21
4752.1764267183
 31
0.0
  0
LINE
  5
E4
330
1F
100
AcDbEntity
  8
0
  6
Continuous
 62
     7
370
    25
100
AcDbLine
 10
6294.9883314391
 20
4752.1764267183
 30
0.0
 11
6296.6689755841
 21
4753.2606016386
 31
0.0
  0
CIRCLE
  5
E5
330
1F
100
AcDbEntity
  8
0
  6
Continuous
 62
     7
370
    25
100
AcDbCircle
 10
6294.2971266728
 20
4752.3255440244
 30
0.0
 40
3.999999999999895
  0
CIRCLE
  5
E6
330
1F
100
AcDbEntity
  8
0
  6
Continuous
 62
     7
370
    25
100
AcDbCircle
 10
6246.5971266728
 20
4752.3255440244
 30
0.0
 40
3.764150943395996
  0
LINE
  5
E7
330
1F
100
AcDbEntity
  8
0
  6
Continuous
 62
     7
370
    25
100
AcDbLine
 10
6248.9689755841
 20
4753.2606016386
 30
0.0
 11
6248.4268881239
 21
4754.1009237111
 31
0.0
  0
LINE
  5
E8
330
1F
100
AcDbEntity
  8
0
  6
Continuous
 62
     7
370
    25
100
AcDbLine
 10
6248.4268881239
 20
4754.1009237111
 30
0.0
 11
6246.7462439789
 21
4753.0167487908
 31
0.0
  0
LINE
  5
E9
330
1F
100
AcDbEntity
  8
0
  6
Continuous
 62
     7
370
    25
100
AcDbLine
 10
6246.7462439789
 20
4753.0167487908
 30
0.0
 11
6245.6620690586
 21
4754.6973929357
 31
0.0
  0
LINE
  5
EA
330
1F
100
AcDbEntity
  8
0
  6
Continuous
 62
     7
370
    25
100
AcDbLine
 10
6245.6620690586
 20
4754.6973929357
 30
0.0
 11
6244.8217469861
 21
4754.1553054756
 31
0.0
  0
LINE
  5
EB
330
1F
100
AcDbEntity
  8
0
  6
Continuous
 62
     7
370
    25
100
AcDbLine
 10
6244.8217469861
 20
4754.1553054756
 30
0.0
 11
6245.9059219064
 21
4752.4746613306
 31
0.0
  0
LINE
  5
EC
330
1F
100
AcDbEntity
  8
0
  6
Continuous
 62
     7
370
    25
100
AcDbLine
 10
6245.9059219064
 20
4752.4746613306
 30
0.0
 11
6244.2252777615
 21
4751.3904864102
 31
0.0
  0
LINE
  5
ED
330
1F
100
AcDbEntity
  8
0
  6
Continuous
 62
     7
370
    25
100
AcDbLine
 10
6244.2252777615
 20
4751.3904864102
 30
0.0
 11
6244.7673652216
 21
4750.5501643377
 31
0.0
  0
LINE
  5
EE
330
1F
100
AcDbEntity
  8
0
  6
Continuous
 62
     7
370
    25
100
AcDbLine
 10
6244.7673652216
 20
4750.5501643377
 30
0.0
 11
6246.4480093666
 21
4751.6343392581
 31
0.0
  0
LINE
  5
EF
330
1F
100
AcDbEntity
  8
0
  6
Continuous
 62
     7
370
    25
100
AcDbLine
 10
6246.4480093666
 20
4751.6343392581
 30
0.0
 11
6247.532184287
 21
4749.9536951131
 31
0.0
  0
LINE
  5
F0
330
1F
100
AcDbEntity
  8
0
  6
Continuous
 62
     7
370
    25
100
AcDbLine
 10
6247.532184287
 20
4749.9536951131
 30
0.0
 11
6248.3725063595
 21
4750.4957825733
 31
0.0
  0
LINE
  5
F1
330
1F
100
AcDbEntity
  8
0
  6
Continuous
 62
     7
370
    25
100
AcDbLine
 10
6248.3725063595
 20
4750.4957825733
 30
0.0
 11
6247.2883314391
 21
4752.1764267183
 31
0.0
  0
LINE
  5
F2
330
1F
100
AcDbEntity
  8
0
  6
Continuous
 62
     7
370
    25
100
AcDbLine
 10
6247.2883314391
 20
4752.1764267183
 30
0.0
 11
6248.9689755841
 21
4753.2606016386
 31
0.0
  0
CIRCLE
  5
F3
330
1F
100
AcDbEntity
  8
0
  6
Continuous
 62
     7
370
    25
100
AcDbCircle
 10
6246.5971266728
 20
4752.3255440244
 30
0.0
 40
3.999999999999402
  0
LINE
  5
F4
330
1F
100
AcDbEntity
  8
0
  6
Continuous
 62
     7
370
    25
100
AcDbLine
 10
6251.1471266728
 20
4787.3255440244
 30
0.0
 11
6259.2471266728
 21
4787.3255440244
 31
0.0
  0
LINE
  5
F5
330
1F
100
AcDbEntity
  8
0
  6
Continuous
 62
     7
370
    25
100
AcDbLine
 10
6289.7471266728
 20
4787.3255440244
 30
0.0
 11
6281.6471266728
 21
4787.3255440244
 31
0.0
  0
LINE
  5
F6
330
1F
100
AcDbEntity
  8
0
  6
Continuous
 62
     7
370
    25
100
AcDbLine
 10
6298.4971266728
 20
4757.9255440244
 30
0.0
 11
6298.4971266728
 21
4780.3255440244
 31
0.0
  0
ARC
  5
F7
330
1F
100
AcDbEntity
  8
0
  6
Continuous
 62
     7
370
    25
100
AcDbCircle
 10
6294.2971266728
 20
4752.3255440244
 30
0.0
 40
7.000000000000182
100
AcDbArc
 50
273.3892739324
 51
53.1301023542
  0
ARC
  5
F8
330
1F
100
AcDbEntity
  8
0
  6
Continuous
 62
     7
370
    25
100
AcDbCircle
 10
6270.4471266728
 20
4752.3255440244
 30
0.0
 40
25.25000000000019
100
AcDbArc
 50
196.0659022549
 51
343.9340977451
  0
ARC
  5
F9
330
1F
100
AcDbEntity
  8
0
  6
Continuous
 62
     7
370
    25
100
AcDbCircle
 10
6246.5971266728
 20
4752.3255440244
 30
0.0
 40
7.000000000000182
100
AcDbArc
 50
126.8698976458
 51
266.6107260676
  0
LINE
  5
FA
330
1F
100
AcDbEntity
  8
0
  6
Continuous
 62
     7
370
    25
100
AcDbLine
 10
6242.3971266728
 20
4780.3255440244
 30
0.0
 11
6242.3971266728
 21
4757.9255440244
 31
0.0
  0
ARC
  5
FB
330
1F
100
AcDbEntity
  8
0
  6
Continuous
 62
     7
370
    25
100
AcDbCircle
 10
6296.4971266728
 20
4780.3255440244
 30
0.0
 40
1.999999999999091
100
AcDbArc
 50
0.0
 51
90.0
  0
LINE
  5
FC
330
1F
100
AcDbEntity
  8
0
  6
Continuous
 62
     7
370
    25
100
AcDbLine
 10
6296.4971266728
 20
4782.3255440244
 30
0.0
 11
6289.7471266728
 21
4782.3255440244
 31
0.0
  0
LINE
  5
FD
330
1F
100
AcDbEntity
  8
0
  6
Continuous
 62
     7
370
    25
100
AcDbLine
 10
6281.6471266728
 20
4782.3255440244
 30
0.0
 11
6259.2471266728
 21
4782.3255440244
 31
0.0
  0
LINE
  5
FE
330
1F
100
AcDbEntity
  8
0
  6
Continuous
 62
     7
370
    25
100
AcDbLine
 10
6251.1471266728
 20
4782.3255440244
 30
0.0
 11
6244.3971266728
 21
4782.3255440244
 31
0.0
  0
ARC
  5
FF
330
1F
100
AcDbEntity
  8
0
  6
Continuous
 62
     7
370
    25
100
AcDbCircle
 10
6244.3971266728
 20
4780.3255440244
 30
0.0
 40
2.0
100
AcDbArc
 50
90.0
 51
180.0
  0
CIRCLE
  5
100
330
1F
100
AcDbEntity
  8
0
  6
Continuous
 62
     7
370
    25
100
AcDbCircle
 10
6270.4471266728
 20
4752.3255440244
 30
0.0
 40
5.999999999999091
  0
CIRCLE
  5
101
330
1F
100
AcDbEntity
  8
0
  6
Continuous
 62
     7
370
    25
100
AcDbCircle
 10
6270.4471266728
 20
4752.3255440244
 30
0.0
 40
6.5
  0
LINE
  5
102
330
1F
100
AcDbEntity
  8
0
  6
Continuous
 62
     7
370
    25
100
AcDbLine
 10
6271.4471266728
 20
4758.7481603137
 30
0.0
 11
6271.4471266728
 21
4778.3255440244
 31
0.0
  0
LINE
  5
103
330
1F
100
AcDbEntity
  8
0
  6
Continuous
 62
     7
370
    25
100
AcDbLine
 10
6271.4471266728
 20
4778.3255440244
 30
0.0
 11
6269.4471266728
 21
4778.3255440244
 31
0.0
  0
LINE
  5
104
330
1F
100
AcDbEntity
  8
0
  6
Continuous
 62
     7
370
    25
100
AcDbLine
 10
6269.4471266728
 20
4778.3255440244
 30
0.0
 11
6269.4471266728
 21
4758.7481603137
 31
0.0
  0
ARC
  5
105
330
1F
100
AcDbEntity
  8
0
  6
Continuous
 62
     7
370
    25
100
AcDbCircle
 10
6270.4471266728
 20
4752.3255440244
 30
0.0
 40
22.55000000000032
100
AcDbArc
 50
190.1397370553
 51
349.8602629447
  0
ARC
  5
106
330
1F
100
AcDbEntity
  8
0
  6
Continuous
 62
     7
370
    25
100
AcDbCircle
 10
6270.4471266728
 20
4752.3255440244
 30
0.0
 40
20.5500000000007
100
AcDbArc
 50
187.139377113
 51
352.860622887
  0
ARC
  5
107
330
1F
100
AcDbEntity
  8
0
  6
Continuous
 62
     7
370
    25
100
AcDbCircle
 10
6249.0971266728
 20
4776.3255440244
 30
0.0
 40
2.000000000000909
100
AcDbArc
 50
90.0
 51
180.0
  0
LINE
  5
108
330
1F
100
AcDbEntity
  8
0
  6
Continuous
 62
     7
370
    25
100
AcDbLine
 10
6247.0971266728
 20
4776.3255440244
 30
0.0
 11
6245.0971266728
 21
4776.3255440244
 31
0.0
  0
ARC
  5
109
330
1F
100
AcDbEntity
  8
0
  6
Continuous
 62
     7
370
    25
100
AcDbCircle
 10
6249.0971266728
 20
4776.3255440244
 30
0.0
 40
4.000000000000909
100
AcDbArc
 50
90.0
 51
180.0
  0
LINE
  5
10A
330
1F
100
AcDbEntity
  8
0
  6
Continuous
 62
     7
370
    25
100
AcDbLine
 10
6249.0971266728
 20
4778.3255440244
 30
0.0
 11
6249.0971266728
 21
4780.3255440244
 31
0.0
  0
LINE
  5
10B
330
1F
100
AcDbEntity
  8
0
  6
Continuous
 62
     7
370
    25
100
AcDbLine
 10
6291.7971266728
 20
4778.3255440244
 30
0.0
 11
6271.4471266728
 21
4778.3255440244
 31
0.0
  0
LINE
  5
10C
330
1F
100
AcDbEntity
  8
0
  6
Continuous
 62
     7
370
    25
100
AcDbLine
 10
6269.4471266728
 20
4778.3255440244
 30
0.0
 11
6249.0971266728
 21
4778.3255440244
 31
0.0
  0
LINE
  5
10D
330
1F
100
AcDbEntity
  8
0
  6
Continuous
 62
     7
370
    25
100
AcDbLine
 10
6249.0971266728
 20
4780.3255440244
 30
0.0
 11
6291.7971266728
 21
4780.3255440244
 31
0.0
  0
LINE
  5
10E
330
1F
100
AcDbEntity
  8
0
  6
Continuous
 62
     7
370
    25
100
AcDbLine
 10
6291.7971266728
 20
4778.3255440244
 30
0.0
 11
6291.7971266728
 21
4780.3255440244
 31
0.0
  0
ARC
  5
10F
330
1F
100
AcDbEntity
  8
0
  6
Continuous
 62
     7
370
    25
100
AcDbCircle
 10
6291.7971266728
 20
4776.3255440244
 30
0.0
 40
2.000000000000909
100
AcDbArc
 50
0.0
 51
90.0
  0
ARC
  5
110
330
1F
100
AcDbEntity
  8
0
  6
Continuous
 62
     7
370
    25
100
AcDbCircle
 10
6291.7971266728
 20
4776.3255440244
 30
0.0
 40
4.000000000000909
100
AcDbArc
 50
0.0
 51
90.0
  0
LINE
  5
111
330
1F
100
AcDbEntity
  8
0
  6
Continuous
 62
     7
370
    25
100
AcDbLine
 10
6293.7971266728
 20
4776.3255440244
 30
0.0
 11
6295.7971266728
 21
4776.3255440244
 31
0.0
  0
LINE
  5
112
330
1F
100
AcDbEntity
  8
0
  6
Continuous
 62
     7
370
    25
100
AcDbLine
 10
6293.7971266728
 20
4756.5963753252
 30
0.0
 11
6293.7971266728
 21
4776.3255440244
 31
0.0
  0
LINE
  5
113
330
1F
100
AcDbEntity
  8
0
  6
Continuous
 62
     7
370
    25
100
AcDbLine
 10
6247.0971266728
 20
4776.3255440244
 30
0.0
 11
6247.0971266728
 21
4756.5963753252
 31
0.0
  0
ARC
  5
114
330
1F
100
AcDbEntity
  8
0
  6
Continuous
 62
     7
370
    25
100
AcDbCircle
 10
6246.5971266728
 20
4752.3255440244
 30
0.0
 40
4.30000000000084
100
AcDbArc
 50
83.3225946728
 51
323.5615272162
  0
ARC
  5
115
330
1F
100
AcDbEntity
  8
0
  6
Continuous
 62
     7
370
    25
100
AcDbCircle
 10
6294.2971266728
 20
4752.3255440244
 30
0.0
 40
4.300000000000734
100
AcDbArc
 50
216.4384727838
 51
96.6774053272
  0
LINE
  5
116
330
1F
100
AcDbEntity
  8
0
  6
Continuous
 62
     7
370
    25
100
AcDbLine
 10
6245.0971266728
 20
4756.3554323603
 30
0.0
 11
6245.0971266728
 21
4776.3255440244
 31
0.0
  0
LINE
  5
117
330
1F
100
AcDbEntity
  8
0
  6
Continuous
 62
     7
370
    25
100
AcDbLine
 10
6295.7971266728
 20
4776.3255440244
 30
0.0
 11
6295.7971266728
 21
4756.3554323603
 31
0.0
  0
CIRCLE
  5
118
330
1F
100
AcDbEntity
  8
0
  6
Continuous
 62
     7
370
    25
100
AcDbCircle
 10
6239.4471266728
 20
4734.3255440244
 30
0.0
 40
5.799999999999851
  0
CIRCLE
  5
119
330
1F
100
AcDbEntity
  8
0
  6
Continuous
 62
     7
370
    25
100
AcDbCircle
 10
6239.4471266728
 20
4734.3255440244
 30
0.0
 40
5.999999999999123
  0
CIRCLE
  5
11A
330
1F
100
AcDbEntity
  8
0
  6
Continuous
 62
     7
370
    25
100
AcDbCircle
 10
6239.4471266728
 20
4734.3255440244
 30
0.0
 40
8.899999999999167
  0
LINE
  5
11B
330
1F
100
AcDbEntity
  8
0
  6
Continuous
 62
     7
370
    25
100
AcDbLine
 10
6298.9971266728
 20
4786.0755440244
 30
0.0
 11
6299.8971266728
 21
4786.0755440244
 31
0.0
  0
LINE
  5
11C
330
1F
100
AcDbEntity
  8
0
  6
Continuous
 62
     7
370
    25
100
AcDbLine
 10
6298.9971266728
 20
4786.0755440244
 30
0.0
 11
6298.9971266728
 21
4784.7755440244
 31
0.0
  0
LINE
  5
11D
330
1F
100
AcDbEntity
  8
0
  6
Continuous
 62
     7
370
    25
100
AcDbLine
 10
6297.6971266728
 20
4784.7755440244
 30
0.0
 11
6298.9971266728
 21
4784.7755440244
 31
0.0
  0
LINE
  5
11E
330
1F
100
AcDbEntity
  8
0
  6
Continuous
 62
     7
370
    25
100
AcDbLine
 10
6297.6971266728
 20
4784.7755440244
 30
0.0
 11
6297.6971266728
 21
4783.8755440244
 31
0.0
  0
LINE
  5
11F
330
1F
100
AcDbEntity
  8
0
  6
Continuous
 62
     7
370
    25
100
AcDbLine
 10
6297.6971266728
 20
4783.8755440244
 30
0.0
 11
6298.9971266728
 21
4783.8755440244
 31
0.0
  0
LINE
  5
120
330
1F
100
AcDbEntity
  8
0
  6
Continuous
 62
     7
370
    25
100
AcDbLine
 10
6298.9971266728
 20
4783.8755440244
 30
0.0
 11
6298.9971266728
 21
4782.5755440244
 31
0.0
  0
LINE
  5
121
330
1F
100
AcDbEntity
  8
0
  6
Continuous
 62
     7
370
    25
100
AcDbLine
 10
6298.9971266728
 20
4782.5755440244
 30
0.0
 11
6299.8971266728
 21
4782.5755440244
 31
0.0
  0
LINE
  5
122
330
1F
100
AcDbEntity
  8
0
  6
Continuous
 62
     7
370
    25
100
AcDbLine
 10
6299.8971266728
 20
4783.8755440244
 30
0.0
 11
6299.8971266728
 21
4782.5755440244
 31
0.0
  0
LINE
  5
123
330
1F
100
AcDbEntity
  8
0
  6
Continuous
 62
     7
370
    25
100
AcDbLine
 10
6299.8971266728
 20
4783.8755440244
 30
0.0
 11
6301.1971266728
 21
4783.8755440244
 31
0.0
  0
LINE
  5
124
330
1F
100
AcDbEntity
  8
0
  6
Continuous
 62
     7
370
    25
100
AcDbLine
 10
6301.1971266728
 20
4784.7755440244
 30
0.0
 11
6301.1971266728
 21
4783.8755440244
 31
0.0
  0
LINE
  5
125
330
1F
100
AcDbEntity
  8
0
  6
Continuous
 62
     7
370
    25
100
AcDbLine
 10
6299.8971266728
 20
4784.7755440244
 30
0.0
 11
6301.1971266728
 21
4784.7755440244
 31
0.0
  0
LINE
  5
126
330
1F
100
AcDbEntity
  8
0
  6
Continuous
 62
     7
370
    25
100
AcDbLine
 10
6299.8971266728
 20
4786.0755440244
 30
0.0
 11
6299.8971266728
 21
4784.7755440244
 31
0.0
  0
CIRCLE
  5
127
330
1F
100
AcDbEntity
  8
0
  6
Continuous
 62
     7
370
    25
100
AcDbCircle
 10
6299.4471266728
 20
4784.3255440244
 30
0.0
 40
1.941113631820372
  0
LINE
  5
128
330
1F
100
AcDbEntity
  8
0
  6
Continuous
 62
     7
370
    25
100
AcDbLine
 10
6298.9971266728
 20
4718.0755440244
 30
0.0
 11
6299.8971266728
 21
4718.0755440244
 31
0.0
  0
LINE
  5
129
330
1F
100
AcDbEntity
  8
0
  6
Continuous
 62
     7
370
    25
100
AcDbLine
 10
6298.9971266728
 20
4718.0755440244
 30
0.0
 11
6298.9971266728
 21
4716.7755440244
 31
0.0
  0
LINE
  5
12A
330
1F
100
AcDbEntity
  8
0
  6
Continuous
 62
     7
370
    25
100
AcDbLine
 10
6297.6971266728
 20
4716.7755440244
 30
0.0
 11
6298.9971266728
 21
4716.7755440244
 31
0.0
  0
LINE
  5
12B
330
1F
100
AcDbEntity
  8
0
  6
Continuous
 62
     7
370
    25
100
AcDbLine
 10
6297.6971266728
 20
4716.7755440244
 30
0.0
 11
6297.6971266728
 21
4715.8755440244
 31
0.0
  0
LINE
  5
12C
330
1F
100
AcDbEntity
  8
0
  6
Continuous
 62
     7
370
    25
100
AcDbLine
 10
6297.6971266728
 20
4715.8755440244
 30
0.0
 11
6298.9971266728
 21
4715.8755440244
 31
0.0
  0
LINE
  5
12D
330
1F
100
AcDbEntity
  8
0
  6
Continuous
 62
     7
370
    25
100
AcDbLine
 10
6298.9971266728
 20
4715.8755440244
 30
0.0
 11
6298.9971266728
 21
4714.5755440244
 31
0.0
  0
LINE
  5
12E
330
1F
100
AcDbEntity
  8
0
  6
Continuous
 62
     7
370
    25
100
AcDbLine
 10
6298.9971266728
 20
4714.5755440244
 30
0.0
 11
6299.8971266728
 21
4714.5755440244
 31
0.0
  0
LINE
  5
12F
330
1F
100
AcDbEntity
  8
0
  6
Continuous
 62
     7
370
    25
100
AcDbLine
 10
6299.8971266728
 20
4715.8755440244
 30
0.0
 11
6299.8971266728
 21
4714.5755440244
 31
0.0
  0
LINE
  5
130
330
1F
100
AcDbEntity
  8
0
  6
Continuous
 62
     7
370
    25
100
AcDbLine
 10
6299.8971266728
 20
4715.8755440244
 30
0.0
 11
6301.1971266728
 21
4715.8755440244
 31
0.0
  0
LINE
  5
131
330
1F
100
AcDbEntity
  8
0
  6
Continuous
 62
     7
370
    25
100
AcDbLine
 10
6301.1971266728
 20
4716.7755440244
 30
0.0
 11
6301.1971266728
 21
4715.8755440244
 31
0.0
  0
LINE
  5
132
330
1F
100
AcDbEntity
  8
0
  6
Continuous
 62
     7
370
    25
100
AcDbLine
 10
6299.8971266728
 20
4716.7755440244
 30
0.0
 11
6301.1971266728
 21
4716.7755440244
 31
0.0
  0
LINE
  5
133
330
1F
100
AcDbEntity
  8
0
  6
Continuous
 62
     7
370
    25
100
AcDbLine
 10
6299.8971266728
 20
4718.0755440244
 30
0.0
 11
6299.8971266728
 21
4716.7755440244
 31
0.0
  0
CIRCLE
  5
134
330
1F
100
AcDbEntity
  8
0
  6
Continuous
 62
     7
370
    25
100
AcDbCircle
 10
6299.4471266728
 20
4716.3255440244
 30
0.0
 40
1.941113631820372
  0
LINE
  5
135
330
1F
100
AcDbEntity
  8
0
  6
Continuous
 62
     7
370
    25
100
AcDbLine
 10
6228.9971266728
 20
4786.0755440244
 30
0.0
 11
6229.8971266728
 21
4786.0755440244
 31
0.0
  0
LINE
  5
136
330
1F
100
AcDbEntity
  8
0
  6
Continuous
 62
     7
370
    25
100
AcDbLine
 10
6228.9971266728
 20
4786.0755440244
 30
0.0
 11
6228.9971266728
 21
4784.7755440244
 31
0.0
  0
LINE
  5
137
330
1F
100
AcDbEntity
  8
0
  6
Continuous
 62
     7
370
    25
100
AcDbLine
 10
6227.6971266728
 20
4784.7755440244
 30
0.0
 11
6228.9971266728
 21
4784.7755440244
 31
0.0
  0
LINE
  5
138
330
1F
100
AcDbEntity
  8
0
  6
Continuous
 62
     7
370
    25
100
AcDbLine
 10
6227.6971266728
 20
4784.7755440244
 30
0.0
 11
6227.6971266728
 21
4783.8755440244
 31
0.0
  0
LINE
  5
139
330
1F
100
AcDbEntity
  8
0
  6
Continuous
 62
     7
370
    25
100
AcDbLine
 10
6227.6971266728
 20
4783.8755440244
 30
0.0
 11
6228.9971266728
 21
4783.8755440244
 31
0.0
  0
LINE
  5
13A
330
1F
100
AcDbEntity
  8
0
  6
Continuous
 62
     7
370
    25
100
AcDbLine
 10
6228.9971266728
 20
4783.8755440244
 30
0.0
 11
6228.9971266728
 21
4782.5755440244
 31
0.0
  0
LINE
  5
13B
330
1F
100
AcDbEntity
  8
0
  6
Continuous
 62
     7
370
    25
100
AcDbLine
 10
6228.9971266728
 20
4782.5755440244
 30
0.0
 11
6229.8971266728
 21
4782.5755440244
 31
0.0
  0
LINE
  5
13C
330
1F
100
AcDbEntity
  8
0
  6
Continuous
 62
     7
370
    25
100
AcDbLine
 10
6229.8971266728
 20
4783.8755440244
 30
0.0
 11
6229.8971266728
 21
4782.5755440244
 31
0.0
  0
LINE
  5
13D
330
1F
100
AcDbEntity
  8
0
  6
Continuous
 62
     7
370
    25
100
AcDbLine
 10
6229.8971266728
 20
4783.8755440244
 30
0.0
 11
6231.1971266728
 21
4783.8755440244
 31
0.0
  0
LINE
  5
13E
330
1F
100
AcDbEntity
  8
0
  6
Continuous
 62
     7
370
    25
100
AcDbLine
 10
6231.1971266728
 20
4784.7755440244
 30
0.0
 11
6231.1971266728
 21
4783.8755440244
 31
0.0
  0
LINE
  5
13F
330
1F
100
AcDbEntity
  8
0
  6
Continuous
 62
     7
370
    25
100
AcDbLine
 10
6229.8971266728
 20
4784.7755440244
 30
0.0
 11
6231.1971266728
 21
4784.7755440244
 31
0.0
  0
LINE
  5
140
330
1F
100
AcDbEntity
  8
0
  6
Continuous
 62
     7
370
    25
100
AcDbLine
 10
6229.8971266728
 20
4786.0755440244
 30
0.0
 11
6229.8971266728
 21
4784.7755440244
 31
0.0
  0
CIRCLE
  5
141
330
1F
100
AcDbEntity
  8
0
  6
Continuous
 62
     7
370
    25
100
AcDbCircle
 10
6229.4471266728
 20
4784.3255440244
 30
0.0
 40
1.941113631819462
  0
LINE
  5
142
330
1F
100
AcDbEntity
  8
0
  6
Continuous
 62
     7
370
    25
100
AcDbLine
 10
6228.9971266728
 20
4718.0755440244
 30
0.0
 11
6229.8971266728
 21
4718.0755440244
 31
0.0
  0
LINE
  5
143
330
1F
100
AcDbEntity
  8
0
  6
Continuous
 62
     7
370
    25
100
AcDbLine
 10
6228.9971266728
 20
4718.0755440244
 30
0.0
 11
6228.9971266728
 21
4716.7755440244
 31
0.0
  0
LINE
  5
144
330
1F
100
AcDbEntity
  8
0
  6
Continuous
 62
     7
370
    25
100
AcDbLine
 10
6227.6971266728
 20
4716.7755440244
 30
0.0
 11
6228.9971266728
 21
4716.7755440244
 31
0.0
  0
LINE
  5
145
330
1F
100
AcDbEntity
  8
0
  6
Continuous
 62
     7
370
    25
100
AcDbLine
 10
6227.6971266728
 20
4716.7755440244
 30
0.0
 11
6227.6971266728
 21
4715.8755440244
 31
0.0
  0
LINE
  5
146
330
1F
100
AcDbEntity
  8
0
  6
Continuous
 62
     7
370
    25
100
AcDbLine
 10
6227.6971266728
 20
4715.8755440244
 30
0.0
 11
6228.9971266728
 21
4715.8755440244
 31
0.0
  0
LINE
  5
147
330
1F
100
AcDbEntity
  8
0
  6
Continuous
 62
     7
370
    25
100
AcDbLine
 10
6228.9971266728
 20
4715.8755440244
 30
0.0
 11
6228.9971266728
 21
4714.5755440244
 31
0.0
  0
LINE
  5
148
330
1F
100
AcDbEntity
  8
0
  6
Continuous
 62
     7
370
    25
100
AcDbLine
 10
6228.9971266728
 20
4714.5755440244
 30
0.0
 11
6229.8971266728
 21
4714.5755440244
 31
0.0
  0
LINE
  5
149
330
1F
100
AcDbEntity
  8
0
  6
Continuous
 62
     7
370
    25
100
AcDbLine
 10
6229.8971266728
 20
4715.8755440244
 30
0.0
 11
6229.8971266728
 21
4714.5755440244
 31
0.0
  0
LINE
  5
14A
330
1F
100
AcDbEntity
  8
0
  6
Continuous
 62
     7
370
    25
100
AcDbLine
 10
6229.8971266728
 20
4715.8755440244
 30
0.0
 11
6231.1971266728
 21
4715.8755440244
 31
0.0
  0
LINE
  5
14B
330
1F
100
AcDbEntity
  8
0
  6
Continuous
 62
     7
370
    25
100
AcDbLine
 10
6231.1971266728
 20
4716.7755440244
 30
0.0
 11
6231.1971266728
 21
4715.8755440244
 31
0.0
  0
LINE
  5
14C
330
1F
100
AcDbEntity
  8
0
  6
Continuous
 62
     7
370
    25
100
AcDbLine
 10
6229.8971266728
 20
4716.7755440244
 30
0.0
 11
6231.1971266728
 21
4716.7755440244
 31
0.0
  0
LINE
  5
14D
330
1F
100
AcDbEntity
  8
0
  6
Continuous
 62
     7
370
    25
100
AcDbLine
 10
6229.8971266728
 20
4718.0755440244
 30
0.0
 11
6229.8971266728
 21
4716.7755440244
 31
0.0
  0
CIRCLE
  5
14E
330
1F
100
AcDbEntity
  8
0
  6
Continuous
 62
     7
370
    25
100
AcDbCircle
 10
6229.4471266728
 20
4716.3255440244
 30
0.0
 40
1.941113631819462
  0
ARC
  5
14F
330
1F
100
AcDbEntity
  8
0
  6
Continuous
 62
     7
370
    25
100
AcDbCircle
 10
6229.4471266728
 20
4784.3255440244
 30
0.0
 40
4.146446609406667
100
AcDbArc
 50
90.0
 51
180.0
  0
LINE
  5
150
330
1F
100
AcDbEntity
  8
0
  6
Continuous
 62
     7
370
    25
100
AcDbLine
 10
6229.4471266728
 20
4788.4719906338
 30
0.0
 11
6229.4471266728
 21
4788.1184372432
 31
0.0
  0
ARC
  5
151
330
1F
100
AcDbEntity
  8
0
  6
Continuous
 62
     7
370
    25
100
AcDbCircle
 10
6229.4471266728
 20
4784.3255440244
 30
0.0
 40
3.792893218813333
100
AcDbArc
 50
90.0
 51
180.0
  0
LINE
  5
152
330
1F
100
AcDbEntity
  8
0
  6
Continuous
 62
     7
370
    25
100
AcDbLine
 10
6225.3006800634
 20
4784.3255440244
 30
0.0
 11
6225.654233454
 21
4784.3255440244
 31
0.0
  0
LINE
  5
153
330
1F
100
AcDbEntity
  8
0
  6
Continuous
 62
     7
370
    25
100
AcDbLine
 10
6229.4471266728
 20
4788.4719906338
 30
0.0
 11
6299.4471266728
 21
4788.4719906338
 31
0.0
  0
LINE
  5
154
330
1F
100
AcDbEntity
  8
0
  6
Continuous
 62
     7
370
    25
100
AcDbLine
 10
6299.4471266728
 20
4788.4719906338
 30
0.0
 11
6299.4471266728
 21
4788.1184372432
 31
0.0
  0
LINE
  5
155
330
1F
100
AcDbEntity
  8
0
  6
Continuous
 62
     7
370
    25
100
AcDbLine
 10
6299.4471266728
 20
4788.1184372432
 30
0.0
 11
6229.4471266728
 21
4788.1184372432
 31
0.0
  0
ARC
  5
156
330
1F
100
AcDbEntity
  8
0
  6
Continuous
 62
     7
370
    25
100
AcDbCircle
 10
6299.4471266728
 20
4784.3255440244
 30
0.0
 40
3.792893218813333
100
AcDbArc
 50
0.0
 51
90.0
  0
ARC
  5
157
330
1F
100
AcDbEntity
  8
0
  6
Continuous
 62
     7
370
    25
100
AcDbCircle
 10
6299.4471266728
 20
4784.3255440244
 30
0.0
 40
4.146446609406667
100
AcDbArc
 50
0.0
 51
90.0
  0
LINE
  5
158
330
1F
100
AcDbEntity
  8
0
  6
Continuous
 62
     7
370
    25
100
AcDbLine
 10
6303.2400198916
 20
4784.3255440244
 30
0.0
 11
6303.5935732822
 21
4784.3255440244
 31
0.0
  0
CIRCLE
  5
159
330
1F
100
AcDbEntity
  8
0
  6
Continuous
 62
     7
370
    25
100
AcDbCircle
 10
6299.4471266728
 20
4716.3255440244
 30
0.0
 40
3.250000000000909
  0
CIRCLE
  5
15A
330
1F
100
AcDbEntity
  8
0
  6
Continuous
 62
     7
370
    25
100
AcDbCircle
 10
6229.4471266728
 20
4784.3255440244
 30
0.0
 40
3.25
  0
CIRCLE
  5
15B
330
1F
100
AcDbEntity
  8
0
  6
Continuous
 62
     7
370
    25
100
AcDbCircle
 10
6229.4471266728
 20
4716.3255440244
 30
0.0
 40
3.25
  0
ARC
  5
15C
330
1F
100
AcDbEntity
  8
0
  6
Continuous
 62
     7
370
    25
100
AcDbCircle
 10
6299.4471266728
 20
4784.3255440244
 30
0.0
 40
3.250000000000909
100
AcDbArc
 50
0.0
 51
219.0063093499
  0
ARC
  5
15D
330
1F
100
AcDbEntity
  8
0
  6
Continuous
 62
     7
370
    25
100
AcDbCircle
 10
6299.4471266728
 20
4784.3255440244
 30
0.0
 40
3.250000000000909
100
AcDbArc
 50
248.1761415146
 51
0.0
  0
ARC
  5
15E
330
1F
100
AcDbEntity
  8
0
  6
Continuous
 62
     7
370
    25
100
AcDbCircle
 10
6299.4471266728
 20
4716.3255440244
 30
0.0
 40
3.792893218813333
100
AcDbArc
 50
270.0
 51
0.0
  0
LINE
  5
15F
330
1F
100
AcDbEntity
  8
0
  6
Continuous
 62
     7
370
    25
100
AcDbLine
 10
6229.4471266728
 20
4712.5326508056
 30
0.0
 11
6299.4471266728
 21
4712.5326508056
 31
0.0
  0
ARC
  5
160
330
1F
100
AcDbEntity
  8
0
  6
Continuous
 62
     7
370
    25
100
AcDbCircle
 10
6229.4471266728
 20
4716.3255440244
 30
0.0
 40
3.792893218813333
100
AcDbArc
 50
180.0
 51
270.0
  0
LINE
  5
161
330
1F
100
AcDbEntity
  8
0
  6
Continuous
 62
     7
370
    25
100
AcDbLine
 10
6225.654233454
 20
4784.3255440244
 30
0.0
 11
6225.654233454
 21
4716.3255440244
 31
0.0
  0
LINE
  5
162
330
1F
100
AcDbEntity
  8
0
  6
Continuous
 62
     7
370
    25
100
AcDbLine
 10
6303.2400198916
 20
4716.3255440244
 30
0.0
 11
6303.2400198916
 21
4784.3255440244
 31
0.0
  0
LINE
  5
163
330
1F
100
AcDbEntity
  8
0
  6
Continuous
 62
     7
370
    25
100
AcDbLine
 10
6225.3006800634
 20
4716.3255440244
 30
0.0
 11
6225.3006800634
 21
4784.3255440244
 31
0.0
  0
LINE
  5
164
330
1F
100
AcDbEntity
  8
0
  6
Continuous
 62
     7
370
    25
100
AcDbLine
 10
6225.3006800634
 20
4716.3255440244
 30
0.0
 11
6225.654233454
 21
4716.3255440244
 31
0.0
  0
LINE
  5
165
330
1F
100
AcDbEntity
  8
0
  6
Continuous
 62
     7
370
    25
100
AcDbLine
 10
6303.5935732822
 20
4784.3255440244
 30
0.0
 11
6303.5935732822
 21
4716.3255440244
 31
0.0
  0
LINE
  5
166
330
1F
100
AcDbEntity
  8
0
  6
Continuous
 62
     7
370
    25
100
AcDbLine
 10
6303.2400198916
 20
4716.3255440244
 30
0.0
 11
6303.5935732822
 21
4716.3255440244
 31
0.0
  0
LINE
  5
167
330
1F
100
AcDbEntity
  8
0
  6
Continuous
 62
     7
370
    25
100
AcDbLine
 10
6229.4471266728
 20
4712.5326508056
 30
0.0
 11
6229.4471266728
 21
4712.179097415
 31
0.0
  0
ARC
  5
168
330
1F
100
AcDbEntity
  8
0
  6
Continuous
 62
     7
370
    25
100
AcDbCircle
 10
6229.4471266728
 20
4716.3255440244
 30
0.0
 40
4.146446609406667
100
AcDbArc
 50
180.0
 51
270.0
  0
ARC
  5
169
330
1F
100
AcDbEntity
  8
0
  6
Continuous
 62
     7
370
    25
100
AcDbCircle
 10
6299.4471266728
 20
4716.3255440244
 30
0.0
 40
4.146446609406667
100
AcDbArc
 50
270.0
 51
0.0
  0
LINE
  5
16A
330
1F
100
AcDbEntity
  8
0
  6
Continuous
 62
     7
370
    25
100
AcDbLine
 10
6299.4471266728
 20
4712.5326508056
 30
0.0
 11
6299.4471266728
 21
4712.179097415
 31
0.0
  0
LINE
  5
16B
330
1F
100
AcDbEntity
  8
0
  6
Continuous
 62
     7
370
    25
100
AcDbLine
 10
6299.4471266728
 20
4712.179097415
 30
0.0
 11
6229.4471266728
 21
4712.179097415
 31
0.0
  0
LINE
  5
16C
330
1F
100
AcDbEntity
  8
0
  6
Continuous
 62
     7
370
    25
100
AcDbLine
 10
6299.4471266728
 20
4790.179097415
 30
0.0
 11
6229.4471266728
 21
4790.179097415
 31
0.0
  0
LINE
  5
16D
330
1F
100
AcDbEntity
  8
0
  6
Continuous
 62
     7
370
    25
100
AcDbLine
 10
6299.4471266728
 20
4788.4719906338
 30
0.0
 11
6299.4471266728
 21
4790.179097415
 31
0.0
  0
LINE
  5
16E
330
1F
100
AcDbEntity
  8
0
  6
Continuous
 62
     7
370
    25
100
AcDbLine
 10
6229.4471266728
 20
4788.4719906338
 30
0.0
 11
6229.4471266728
 21
4790.179097415
 31
0.0
  0
ARC
  5
16F
330
1F
100
AcDbEntity
  8
0
  6
Continuous
 62
     7
370
    25
100
AcDbCircle
 10
6229.4471266728
 20
4784.3255440244
 30
0.0
 40
5.853553390593333
100
AcDbArc
 50
90.0
 51
180.0
  0
LINE
  5
170
330
1F
100
AcDbEntity
  8
0
  6
Continuous
 62
     7
370
    25
100
AcDbLine
 10
6225.3006800634
 20
4784.3255440244
 30
0.0
 11
6223.5935732822
 21
4784.3255440244
 31
0.0
  0
ARC
  5
171
330
1F
100
AcDbEntity
  8
0
  6
Continuous
 62
     7
370
    25
100
AcDbCircle
 10
6299.4471266728
 20
4784.3255440244
 30
0.0
 40
5.853553390593333
100
AcDbArc
 50
0.0
 51
90.0
  0
LINE
  5
172
330
1F
100
AcDbEntity
  8
0
  6
Continuous
 62
     7
370
    25
100
AcDbLine
 10
6305.3006800634
 20
4784.3255440244
 30
0.0
 11
6303.5935732822
 21
4784.3255440244
 31
0.0
  0
LINE
  5
173
330
1F
100
AcDbEntity
  8
0
  6
Continuous
 62
     7
370
    25
100
AcDbLine
 10
6223.5935732822
 20
4784.3255440244
 30
0.0
 11
6223.5935732822
 21
4716.3255440244
 31
0.0
  0
LINE
  5
174
330
1F
100
AcDbEntity
  8
0
  6
Continuous
 62
     7
370
    25
100
AcDbLine
 10
6225.3006800634
 20
4716.3255440244
 30
0.0
 11
6223.5935732822
 21
4716.3255440244
 31
0.0
  0
LINE
  5
175
330
1F
100
AcDbEntity
  8
0
  6
Continuous
 62
     7
370
    25
100
AcDbLine
 10
6305.3006800634
 20
4716.3255440244
 30
0.0
 11
6305.3006800634
 21
4784.3255440244
 31
0.0
  0
LINE
  5
176
330
1F
100
AcDbEntity
  8
0
  6
Continuous
 62
     7
370
    25
100
AcDbLine
 10
6305.3006800634
 20
4716.3255440244
 30
0.0
 11
6303.5935732822
 21
4716.3255440244
 31
0.0
  0
ARC
  5
177
330
1F
100
AcDbEntity
  8
0
  6
Continuous
 62
     7
370
    25
100
AcDbCircle
 10
6229.4471266728
 20
4716.3255440244
 30
0.0
 40
5.853553390593333
100
AcDbArc
 50
180.0
 51
270.0
  0
LINE
  5
178
330
1F
100
AcDbEntity
  8
0
  6
Continuous
 62
     7
370
    25
100
AcDbLine
 10
6229.4471266728
 20
4710.4719906338
 30
0.0
 11
6229.4471266728
 21
4712.179097415
 31
0.0
  0
ARC
  5
179
330
1F
100
AcDbEntity
  8
0
  6
Continuous
 62
     7
370
    25
100
AcDbCircle
 10
6299.4471266728
 20
4716.3255440244
 30
0.0
 40
5.853553390593333
100
AcDbArc
 50
270.0
 51
0.0
  0
LINE
  5
17A
330
1F
100
AcDbEntity
  8
0
  6
Continuous
 62
     7
370
    25
100
AcDbLine
 10
6299.4471266728
 20
4710.4719906338
 30
0.0
 11
6299.4471266728
 21
4712.179097415
 31
0.0
  0
LINE
  5
17B
330
1F
100
AcDbEntity
  8
0
  6
Continuous
 62
     7
370
    25
100
AcDbLine
 10
6229.4471266728
 20
4710.4719906338
 30
0.0
 11
6299.4471266728
 21
4710.4719906338
 31
0.0
  0
LINE
  5
17C
330
1F
100
AcDbEntity
  8
0
  6
Continuous
 62
     7
370
    25
100
AcDbLine
 10
6229.4471266728
 20
4790.179097415
 30
0.0
 11
6229.4471266728
 21
4790.3255440244
 31
0.0
  0
LINE
  5
17D
330
1F
100
AcDbEntity
  8
0
  6
Continuous
 62
     7
370
    25
100
AcDbLine
 10
6229.4471266728
 20
4790.3255440244
 30
0.0
 11
6299.4471266728
 21
4790.3255440244
 31
0.0
  0
LINE
  5
17E
330
1F
100
AcDbEntity
  8
0
  6
Continuous
 62
     7
370
    25
100
AcDbLine
 10
6299.4471266728
 20
4790.179097415
 30
0.0
 11
6299.4471266728
 21
4790.3255440244
 31
0.0
  0
ARC
  5
17F
330
1F
100
AcDbEntity
  8
0
  6
Continuous
 62
     7
370
    25
100
AcDbCircle
 10
6229.4471266728
 20
4784.3255440244
 30
0.0
 40
6.0
100
AcDbArc
 50
90.0
 51
180.0
  0
LINE
  5
180
330
1F
100
AcDbEntity
  8
0
  6
Continuous
 62
     7
370
    25
100
AcDbLine
 10
6223.4471266728
 20
4784.3255440244
 30
0.0
 11
6223.5935732822
 21
4784.3255440244
 31
0.0
  0
ARC
  5
181
330
1F
100
AcDbEntity
  8
0
  6
Continuous
 62
     7
370
    25
100
AcDbCircle
 10
6299.4471266728
 20
4784.3255440244
 30
0.0
 40
6.0
100
AcDbArc
 50
0.0
 51
90.0
  0
LINE
  5
182
330
1F
100
AcDbEntity
  8
0
  6
Continuous
 62
     7
370
    25
100
AcDbLine
 10
6305.3006800634
 20
4784.3255440244
 30
0.0
 11
6305.4471266728
 21
4784.3255440244
 31
0.0
  0
LINE
  5
183
330
1F
100
AcDbEntity
  8
0
  6
Continuous
 62
     7
370
    25
100
AcDbLine
 10
6223.4471266728
 20
4716.3255440244
 30
0.0
 11
6223.4471266728
 21
4784.3255440244
 31
0.0
  0
LINE
  5
184
330
1F
100
AcDbEntity
  8
0
  6
Continuous
 62
     7
370
    25
100
AcDbLine
 10
6223.4471266728
 20
4716.3255440244
 30
0.0
 11
6223.5935732822
 21
4716.3255440244
 31
0.0
  0
LINE
  5
185
330
1F
100
AcDbEntity
  8
0
  6
Continuous
 62
     7
370
    25
100
AcDbLine
 10
6305.4471266728
 20
4784.3255440244
 30
0.0
 11
6305.4471266728
 21
4716.3255440244
 31
0.0
  0
LINE
  5
186
330
1F
100
AcDbEntity
  8
0
  6
Continuous
 62
     7
370
    25
100
AcDbLine
 10
6305.3006800634
 20
4716.3255440244
 30
0.0
 11
6305.4471266728
 21
4716.3255440244
 31
0.0
  0
ARC
  5
187
330
1F
100
AcDbEntity
  8
0
  6
Continuous
 62
     7
370
    25
100
AcDbCircle
 10
6229.4471266728
 20
4716.3255440244
 30
0.0
 40
6.0
100
AcDbArc
 50
180.0
 51
270.0
  0
LINE
  5
188
330
1F
100
AcDbEntity
  8
0
  6
Continuous
 62
     7
370
    25
100
AcDbLine
 10
6229.4471266728
 20
4710.3255440244
 30
0.0
 11
6229.4471266728
 21
4710.4719906338
 31
0.0
  0
ARC
  5
189
330
1F
100
AcDbEntity
  8
0
  6
Continuous
 62
     7
370
    25
100
AcDbCircle
 10
6299.4471266728
 20
4716.3255440244
 30
0.0
 40
6.0
100
AcDbArc
 50
270.0
 51
0.0
  0
LINE
  5
18A
330
1F
100
AcDbEntity
  8
0
  6
Continuous
 62
     7
370
    25
100
AcDbLine
 10
6299.4471266728
 20
4710.3255440244
 30
0.0
 11
6299.4471266728
 21
4710.4719906338
 31
0.0
  0
LINE
  5
18B
330
1F
100
AcDbEntity
  8
0
  6
Continuous
 62
     7
370
    25
100
AcDbLine
 10
6299.4471266728
 20
4710.3255440244
 30
0.0
 11
6229.4471266728
 21
4710.3255440244
 31
0.0
  0
ARC
  5
18C
330
1F
100
AcDbEntity
  8
0
  6
Continuous
 62
     7
370
    25
100
AcDbCircle
 10
6261.6471266728
 20
4716.3255440244
 30
0.0
 40
8.124038404635364
100
AcDbArc
 50
266.4714585265
 51
273.5285414735
  0
LINE
  5
18D
330
1F
100
AcDbEntity
  8
0
  6
Continuous
 62
     7
370
    25
100
AcDbLine
 10
6261.1471266728
 20
4708.2169066543
 30
0.0
 11
6261.1471266728
 21
4707.8993942512
 31
0.0
  0
ARC
  5
18E
330
1F
100
AcDbEntity
  8
0
  6
Continuous
 62
     7
370
    25
100
AcDbCircle
 10
6260.8971266728
 20
4708.793038711
 30
0.0
 40
0.9279549668288192
100
AcDbArc
 50
254.3708608478
 51
285.6291391523
  0
ARC
  5
18F
330
1F
100
AcDbEntity
  8
0
  6
Continuous
 62
     7
370
    25
100
AcDbCircle
 10
6261.6471266728
 20
4716.3255440244
 30
0.0
 40
8.485281374238216
100
AcDbArc
 50
252.8647784925
 51
263.2318986313
  0
LINE
  5
190
330
1F
100
AcDbEntity
  8
0
  6
Continuous
 62
     7
370
    25
100
AcDbLine
 10
6259.1471266728
 20
4708.2015056198
 30
0.0
 11
6259.1471266728
 21
4708.2169066543
 31
0.0
  0
LINE
  5
191
330
1F
100
AcDbEntity
  8
0
  6
Continuous
 62
     7
370
    25
100
AcDbLine
 10
6264.1471266728
 20
4708.2015056198
 30
0.0
 11
6264.1471266728
 21
4708.2169066543
 31
0.0
  0
ARC
  5
192
330
1F
100
AcDbEntity
  8
0
  6
Continuous
 62
     7
370
    25
100
AcDbCircle
 10
6261.6471266728
 20
4716.3255440244
 30
0.0
 40
8.485281374238001
100
AcDbArc
 50
276.7681013687
 51
287.1352215075
  0
ARC
  5
193
330
1F
100
AcDbEntity
  8
0
  6
Continuous
 62
     7
370
    25
100
AcDbCircle
 10
6262.3971266728
 20
4709.0974571751
 30
0.0
 40
1.223868771416949
100
AcDbArc
 50
258.2132155186
 51
281.7867844813
  0
LINE
  5
194
330
1F
100
AcDbEntity
  8
0
  6
Continuous
 62
     7
370
    25
100
AcDbLine
 10
6262.1471266728
 20
4708.2169066543
 30
0.0
 11
6262.1471266728
 21
4707.8993942512
 31
0.0
  0
ARC
  5
195
330
1F
100
AcDbEntity
  8
0
  6
Continuous
 62
     7
370
    25
100
AcDbCircle
 10
6241.6471266728
 20
4716.3255440244
 30
0.0
 40
8.124038404635364
100
AcDbArc
 50
266.4714585265
 51
273.5285414735
  0
LINE
  5
196
330
1F
100
AcDbEntity
  8
0
  6
Continuous
 62
     7
370
    25
100
AcDbLine
 10
6241.1471266728
 20
4708.2169066543
 30
0.0
 11
6241.1471266728
 21
4707.8993942512
 31
0.0
  0
ARC
  5
197
330
1F
100
AcDbEntity
  8
0
  6
Continuous
 62
     7
370
    25
100
AcDbCircle
 10
6240.8971266728
 20
4708.793038711
 30
0.0
 40
0.9279549668204463
100
AcDbArc
 50
254.3708608476
 51
285.6291391524
  0
ARC
  5
198
330
1F
100
AcDbEntity
  8
0
  6
Continuous
 62
     7
370
    25
100
AcDbCircle
 10
6241.6471266728
 20
4716.3255440244
 30
0.0
 40
8.485281374238001
100
AcDbArc
 50
252.8647784925
 51
263.2318986313
  0
LINE
  5
199
330
1F
100
AcDbEntity
  8
0
  6
Continuous
 62
     7
370
    25
100
AcDbLine
 10
6239.1471266728
 20
4708.2015056198
 30
0.0
 11
6239.1471266728
 21
4708.2169066543
 31
0.0
  0
LINE
  5
19A
330
1F
100
AcDbEntity
  8
0
  6
Continuous
 62
     7
370
    25
100
AcDbLine
 10
6244.1471266728
 20
4708.2015056198
 30
0.0
 11
6244.1471266728
 21
4708.2169066543
 31
0.0
  0
ARC
  5
19B
330
1F
100
AcDbEntity
  8
0
  6
Continuous
 62
     7
370
    25
100
AcDbCircle
 10
6241.6471266728
 20
4716.3255440244
 30
0.0
 40
8.48528137423811
100
AcDbArc
 50
276.7681013687
 51
287.1352215075
  0
ARC
  5
19C
330
1F
100
AcDbEntity
  8
0
  6
Continuous
 62
     7
370
    25
100
AcDbCircle
 10
6242.3971266728
 20
4709.0974571751
 30
0.0
 40
1.223868771414983
100
AcDbArc
 50
258.2132155186
 51
281.7867844814
  0
LINE
  5
19D
330
1F
100
AcDbEntity
  8
0
  6
Continuous
 62
     7
370
    25
100
AcDbLine
 10
6242.1471266728
 20
4708.2169066543
 30
0.0
 11
6242.1471266728
 21
4707.8993942512
 31
0.0
  0
ARC
  5
19E
330
1F
100
AcDbEntity
  8
0
  6
Continuous
 62
     7
370
    25
100
AcDbCircle
 10
6247.3045345722
 20
4686.4813313903
 30
0.0
 40
21.28057777530422
100
AcDbArc
 50
93.3500433464
 51
97.9883740598
  0
LWPOLYLINE
  5
19F
330
1F
100
AcDbEntity
  8
0
  6
Continuous
 62
     7
370
    25
100
AcDbPolyline
 90
        6
 70
   128
 43
0.0
 10
6246.0609832025
 20
4707.7255440244
 10
6248.6239276258
 20
4707.7880440232
 10
6251.6471266728
 20
4707.8505440217
 10
6254.6703257885
 20
4707.9130440217
 10
6257.2332702441
 20
4707.9755440217
 10
6258.9471266728
 20
4708.0381170828
  0
LINE
  5
1A0
330
1F
100
AcDbEntity
  8
0
  6
Continuous
 62
     7
370
    25
100
AcDbLine
 10
6258.9471266728
 20
4708.0381170828
 30
0.0
 11
6258.9471266728
 21
4707.768519238
 31
0.0
  0
LWPOLYLINE
  5
1A1
330
1F
100
AcDbEntity
  8
0
  6
Continuous
 62
     7
370
    25
100
AcDbPolyline
 90
        9
 70
   128
 43
0.0
 10
6244.3471266728
 20
4707.3075688081
 10
6245.04569305
 20
4707.3611462519
 10
6246.443715872
 20
4707.4130440231
 10
6248.83106104
 20
4707.4755440231
 10
6251.6471266728
 20
4707.538044023
 10
6254.4631923056
 20
4707.6005440231
 10
6256.8505374735
 20
4707.6630440231
 10
6258.2485602956
 20
4707.7149417942
 10
6258.9471266728
 20
4707.768519238
  0
LINE
  5
1A2
330
1F
100
AcDbEntity
  8
0
  6
Continuous
 62
     7
370
    25
100
AcDbLine
 10
6244.3471266728
 20
4707.3075688081
 30
0.0
 11
6244.3471266728
 21
4707.3654856673
 31
0.0
  0
LWPOLYLINE
  5
1A3
330
1F
100
AcDbEntity
  8
0
  6
Continuous
 62
     7
370
    25
100
AcDbPolyline
 90
        9
 70
   128
 43
0.0
 10
6244.3471266728
 20
4708.0575688081
 10
6245.04569305
 20
4708.1111462519
 10
6246.443715872
 20
4708.1630440231
 10
6248.83106104
 20
4708.2255440231
 10
6251.6471266728
 20
4708.288044023
 10
6254.4631923056
 20
4708.3505440231
 10
6256.8505374735
 20
4708.4130440231
 10
6258.2485602956
 20
4708.4649417942
 10
6258.9471266728
 20
4708.518519238
  0
LINE
  5
1A4
330
1F
100
AcDbEntity
  8
0
  6
Continuous
 62
     7
370
    25
100
AcDbLine
 10
6258.9471266728
 20
4708.518519238
 30
0.0
 11
6258.9471266728
 21
4708.1631170855
 31
0.0
  0
LWPOLYLINE
  5
1A5
330
1F
100
AcDbEntity
  8
0
  6
Continuous
 62
     7
370
    25
100
AcDbPolyline
 90
        7
 70
   128
 43
0.0
 10
6244.3471266728
 20
4707.7879709633
 10
6246.0609831014
 20
4707.8505440244
 10
6248.6239275571
 20
4707.9130440244
 10
6251.6471266728
 20
4707.9755440244
 10
6254.6703257885
 20
4708.0380440244
 10
6257.2332702441
 20
4708.1005440244
 10
6258.9471266728
 20
4708.1631170855
  0
LINE
  5
1A6
330
1F
100
AcDbEntity
  8
0
  6
Continuous
 62
     7
370
    25
100
AcDbLine
 10
6244.3471266728
 20
4707.7879709633
 30
0.0
 11
6244.3471266728
 21
4708.0575688081
 31
0.0
  0
LINE
  5
1A7
330
1F
100
AcDbEntity
  8
0
  6
Continuous
 62
     7
370
    25
100
AcDbLine
 10
6258.9471266728
 20
4708.0381170828
 30
0.0
 11
6258.9471266728
 21
4708.1631170855
 31
0.0
  0
LINE
  5
1A8
330
1F
100
AcDbEntity
  8
0
  6
Continuous
 62
     7
370
    25
100
AcDbLine
 10
6244.3471266728
 20
4707.7255440244
 30
0.0
 11
6246.0609832025
 21
4707.7255440244
 31
0.0
  0
LINE
  5
1A9
330
1F
100
AcDbEntity
  8
0
  6
Continuous
 62
     7
370
    25
100
AcDbLine
 10
6244.3471266728
 20
4707.7879709633
 30
0.0
 11
6244.3471266728
 21
4707.7255440244
 31
0.0
  0
LWPOLYLINE
  5
1AA
330
1F
100
AcDbEntity
  8
0
  6
Continuous
 62
     7
370
    25
100
AcDbPolyline
 90
        5
 70
   128
 43
0.0
 10
6245.5320764086
 20
4710.129201903
 10
6246.443715872
 20
4710.1630440231
 10
6248.83106104
 20
4710.2255440231
 10
6251.6471266728
 20
4710.2880440231
 10
6253.336766114
 20
4710.3255440244
  0
LINE
  5
1AB
330
1F
100
AcDbEntity
  8
0
  6
Continuous
 62
     7
370
    25
100
AcDbLine
 10
6258.9471266728
 20
4710.3255440244
 30
0.0
 11
6258.9471266728
 21
4710.1631170855
 31
0.0
  0
LWPOLYLINE
  5
1AC
330
1F
100
AcDbEntity
  8
0
  6
Continuous
 62
     7
370
    25
100
AcDbPolyline
 90
        7
 70
   128
 43
0.0
 10
6245.6458359352
 20
4709.8353869619
 10
6246.0609831014
 20
4709.8505440244
 10
6248.6239275571
 20
4709.9130440244
 10
6251.6471266728
 20
4709.9755440244
 10
6254.6703257885
 20
4710.0380440244
 10
6257.2332702441
 20
4710.1005440244
 10
6258.9471266728
 20
4710.1631170855
  0
LINE
  5
1AD
330
1F
100
AcDbEntity
  8
0
  6
Continuous
 62
     7
370
    25
100
AcDbLine
 10
6258.9471266728
 20
4710.0381170828
 30
0.0
 11
6258.9471266728
 21
4710.1631170855
 31
0.0
  0
LWPOLYLINE
  5
1AE
330
1F
100
AcDbEntity
  8
0
  6
Continuous
 62
     7
370
    25
100
AcDbPolyline
 90
        7
 70
   128
 43
0.0
 10
6245.6471266728
 20
4709.7104340841
 10
6246.0609831014
 20
4709.7255440217
 10
6248.6239275571
 20
4709.7880440217
 10
6251.6471266728
 20
4709.8505440217
 10
6254.6703257885
 20
4709.9130440217
 10
6257.2332702441
 20
4709.9755440217
 10
6258.9471266728
 20
4710.0381170828
  0
LINE
  5
1AF
330
1F
100
AcDbEntity
  8
0
  6
Continuous
 62
     7
370
    25
100
AcDbLine
 10
6258.9471266728
 20
4710.0381170828
 30
0.0
 11
6258.9471266728
 21
4709.768519238
 31
0.0
  0
LWPOLYLINE
  5
1B0
330
1F
100
AcDbEntity
  8
0
  6
Continuous
 62
     7
370
    25
100
AcDbPolyline
 90
        8
 70
   128
 43
0.0
 10
6245.6471266728
 20
4709.3834728292
 10
6246.443715872
 20
4709.4130440231
 10
6248.83106104
 20
4709.4755440231
 10
6251.6471266728
 20
4709.5380440231
 10
6254.4631923056
 20
4709.6005440231
 10
6256.8505374735
 20
4709.6630440231
 10
6258.2485602956
 20
4709.7149417942
 10
6258.9471266728
 20
4709.768519238
  0
LWPOLYLINE
  5
1B1
330
1F
100
AcDbEntity
  8
0
  6
Continuous
 62
     7
370
    25
100
AcDbPolyline
 90
        8
 70
   128
 43
0.0
 10
6245.5517287173
 20
4709.1299314412
 10
6246.443715872
 20
4709.1630440231
 10
6248.83106104
 20
4709.2255440231
 10
6251.6471266728
 20
4709.2880440231
 10
6254.4631923056
 20
4709.3505440231
 10
6256.8505374735
 20
4709.4130440231
 10
6258.2485602956
 20
4709.4649417942
 10
6258.9471266728
 20
4709.518519238
  0
LINE
  5
1B2
330
1F
100
AcDbEntity
  8
0
  6
Continuous
 62
     7
370
    25
100
AcDbLine
 10
6258.9471266728
 20
4709.518519238
 30
0.0
 11
6258.9471266728
 21
4709.1631170855
 31
0.0
  0
LWPOLYLINE
  5
1B3
330
1F
100
AcDbEntity
  8
0
  6
Continuous
 62
     7
370
    25
100
AcDbPolyline
 90
        7
 70
   128
 43
0.0
 10
6245.5366429631
 20
4708.8314003161
 10
6246.0609831014
 20
4708.8505440244
 10
6248.6239275571
 20
4708.9130440244
 10
6251.6471266728
 20
4708.9755440244
 10
6254.6703257885
 20
4709.0380440244
 10
6257.2332702441
 20
4709.1005440244
 10
6258.9471266728
 20
4709.1631170855
  0
LWPOLYLINE
  5
1B4
330
1F
100
AcDbEntity
  8
0
  6
Continuous
 62
     7
370
    25
100
AcDbPolyline
 90
        7
 70
   128
 43
0.0
 10
6245.3581967594
 20
4708.6998852255
 10
6246.0609831014
 20
4708.7255440217
 10
6248.6239275571
 20
4708.7880440217
 10
6251.6471266728
 20
4708.8505440217
 10
6254.6703257885
 20
4708.9130440217
 10
6257.2332702441
 20
4708.9755440217
 10
6258.9471266728
 20
4709.0381170828
  0
LINE
  5
1B5
330
1F
100
AcDbEntity
  8
0
  6
Continuous
 62
     7
370
    25
100
AcDbLine
 10
6258.9471266728
 20
4709.0381170828
 30
0.0
 11
6258.9471266728
 21
4708.768519238
 31
0.0
  0
LWPOLYLINE
  5
1B6
330
1F
100
AcDbEntity
  8
0
  6
Continuous
 62
     7
370
    25
100
AcDbPolyline
 90
        9
 70
   128
 43
0.0
 10
6244.3471266728
 20
4708.3075688081
 10
6245.04569305
 20
4708.3611462519
 10
6246.443715872
 20
4708.4130440231
 10
6248.83106104
 20
4708.4755440231
 10
6251.6471266728
 20
4708.5380440231
 10
6254.4631923056
 20
4708.6005440231
 10
6256.8505374735
 20
4708.6630440231
 10
6258.2485602956
 20
4708.7149417942
 10
6258.9471266728
 20
4708.768519238
  0
LINE
  5
1B7
330
1F
100
AcDbEntity
  8
0
  6
Continuous
 62
     7
370
    25
100
AcDbLine
 10
6258.9471266728
 20
4709.0381170828
 30
0.0
 11
6258.9471266728
 21
4709.1631170855
 31
0.0
  0
LINE
  5
1B8
330
1F
100
AcDbEntity
  8
0
  6
Continuous
 62
     7
370
    25
100
AcDbLine
 10
6251.6471266728
 20
4706.7255440244
 30
0.0
 11
6244.7471266728
 21
4706.7255440244
 31
0.0
  0
LINE
  5
1B9
330
1F
100
AcDbEntity
  8
0
  6
Continuous
 62
     7
370
    25
100
AcDbLine
 10
6258.5471266728
 20
4706.7255440244
 30
0.0
 11
6251.6471266728
 21
4706.7255440244
 31
0.0
  0
LINE
  5
1BA
330
1F
100
AcDbEntity
  8
0
  6
Continuous
 62
     7
370
    25
100
AcDbLine
 10
6247.2046476635
 20
4707.1842781494
 30
0.0
 11
6244.3471266728
 21
4707.1842781494
 31
0.0
  0
LWPOLYLINE
  5
1BB
330
1F
100
AcDbEntity
  8
0
  6
Continuous
 62
     7
370
    25
100
AcDbPolyline
 90
       10
 70
   128
 43
0.0
 10
6258.9471266728
 20
4707.3824776671
 10
6258.6276577501
 20
4707.3693290385
 10
6258.0427780546
 20
4707.3521704752
 10
6256.3390014776
 20
4707.3186898384
 10
6254.1151082199
 20
4707.2839488504
 10
6252.9110937812
 20
4707.2668873107
 10
6251.674856269
 20
4707.2504206115
 10
6250.4533160234
 20
4707.2341308331
 10
6248.1190766724
 20
4707.1994653821
 10
6247.2046476635
 20
4707.1842781494
  0
LINE
  5
1BC
330
1F
100
AcDbEntity
  8
0
  6
Continuous
 62
     7
370
    25
100
AcDbLine
 10
6258.9471266728
 20
4707.3824776671
 30
0.0
 11
6258.9471266728
 21
4707.164394149
 31
0.0
  0
LWPOLYLINE
  5
1BD
330
1F
100
AcDbEntity
  8
0
  6
Continuous
 62
     7
370
    25
100
AcDbPolyline
 90
        7
 70
   128
 43
0.0
 10
6247.2046476635
 20
4707.1842781494
 10
6249.3167201
 20
4707.2370429828
 10
6251.6471266728
 20
4707.2880440231
 10
6254.4631923056
 20
4707.350544023
 10
6256.8505374735
 20
4707.4130440231
 10
6258.2485602956
 20
4707.4649417942
 10
6258.9471266728
 20
4707.518519238
  0
LINE
  5
1BE
330
1F
100
AcDbEntity
  8
0
  6
Continuous
 62
     7
370
    25
100
AcDbLine
 10
6258.9471266728
 20
4707.518519238
 30
0.0
 11
6258.9471266728
 21
4707.3824776671
 31
0.0
  0
LINE
  5
1BF
330
1F
100
AcDbEntity
  8
0
  6
Continuous
 62
     7
370
    25
100
AcDbLine
 10
6258.9471266728
 20
4709.768519238
 30
0.0
 11
6258.9471266728
 21
4709.518519238
 31
0.0
  0
LINE
  5
1C0
330
1F
100
AcDbEntity
  8
0
  6
Continuous
 62
     7
370
    25
100
AcDbLine
 10
6258.9471266728
 20
4708.768519238
 30
0.0
 11
6258.9471266728
 21
4708.518519238
 31
0.0
  0
LINE
  5
1C1
330
1F
100
AcDbEntity
  8
0
  6
Continuous
 62
     7
370
    25
100
AcDbLine
 10
6244.3471266728
 20
4708.0575688081
 30
0.0
 11
6244.3471266728
 21
4708.3075688081
 31
0.0
  0
LINE
  5
1C2
330
1F
100
AcDbEntity
  8
0
  6
Continuous
 62
     7
370
    25
100
AcDbLine
 10
6258.9471266728
 20
4707.768519238
 30
0.0
 11
6258.9471266728
 21
4707.518519238
 31
0.0
  0
LINE
  5
1C3
330
1F
100
AcDbEntity
  8
0
  6
Continuous
 62
     7
370
    25
100
AcDbLine
 10
6244.3471266728
 20
4707.1842781494
 30
0.0
 11
6244.3471266728
 21
4707.3075688081
 31
0.0
  0
LINE
  5
1C4
330
1F
100
AcDbEntity
  8
0
  6
Continuous
 62
     7
370
    25
100
AcDbLine
 10
6244.3471266728
 20
4707.5554085698
 30
0.0
 11
6244.3471266728
 21
4707.7255440244
 31
0.0
  0
LWPOLYLINE
  5
1C5
330
1F
100
AcDbEntity
  8
0
  6
Continuous
 62
     7
370
    25
100
AcDbPolyline
 90
       20
 70
   128
 43
0.0
 10
6290.6270538325
 20
4959.0557929736
 10
6291.2716585618
 20
4962.419385764
 10
6293.0425874655
 20
4965.3313304626
 10
6295.7823537231
 20
4967.5376714277
 10
6299.1929642269
 20
4968.7906180356
 10
6302.8181007949
 20
4968.9571263848
 10
6306.2410294121
 20
4968.0683751323
 10
6309.1614939459
 20
4966.2051309386
 10
6311.2722840766
 20
4963.4954116732
 10
6312.2922972101
 20
4960.2052116757
 10
6312.0966008548
 20
4956.746609067
 10
6310.7430360426
 20
4953.5000911744
 10
6308.3564684487
 20
4950.7917720623
 10
6305.1606029336
 20
4948.9697264387
 10
6301.5619941281
 20
4948.3129686865
 10
6298.0207926878
 20
4948.8741596414
 10
6294.8708556451
 20
4950.5485014427
 10
6292.4067178416
 20
4953.1724366987
 10
6290.9411478149
 20
4956.4488284336
 10
6290.6270487892
 20
4959.0553668597
  0
ARC
  5
1C6
330
1F
100
AcDbEntity
  8
0
  6
Continuous
 62
     7
370
    25
100
AcDbCircle
 10
6290.9742423589
 20
4959.3585021787
 30
0.0
 40
0.4609060603487534
100
AcDbArc
 50
221.1242681682
 51
277.6997483102
  0
LWPOLYLINE
  5
1C7
330
1F
100
AcDbEntity
  8
0
  6
Continuous
 62
     7
370
    25
100
AcDbPolyline
 90
       20
 70
   128
 43
0.0
 10
6291.0359953974
 20
4958.901751745
 10
6291.5708098492
 20
4955.6427028327
 10
6293.1831979257
 20
4952.686630039
 10
6295.7308142482
 20
4950.3455172851
 10
6298.9643965834
 20
4948.936938013
 10
6302.4637526579
 20
4948.6810574102
 10
6305.818986872
 20
4949.5833570669
 10
6308.7068571821
 20
4951.5275070582
 10
6310.8173143907
 20
4954.3050925498
 10
6311.8720963286
 20
4957.5523221445
 10
6311.7620713985
 20
4960.8161174251
 10
6310.55190046
 20
4963.7604509743
 10
6308.3503160186
 20
4966.1567254089
 10
6305.3428076454
 20
4967.7668130625
 10
6301.8933620105
 20
4968.3893192404
 10
6298.4374927785
 20
4967.9739834823
 10
6295.330773284
 20
4966.5776265466
 10
6292.8781050622
 20
4964.2935267136
 10
6291.3934285966
 20
4961.333766107
 10
6291.0360002078
 20
4958.9021581847
  0
ARC
  5
1C8
330
1F
100
AcDbEntity
  8
0
  6
Continuous
 62
     7
370
    25
100
AcDbCircle
 10
6290.9742677282
 20
4959.3589239983
 30
0.0
 40
0.4609185476345841
100
AcDbArc
 50
221.1222042701
 51
277.6969595798
  0
LWPOLYLINE
  5
1C9
330
1F
100
AcDbEntity
  8
0
  6
Continuous
 62
     7
370
    25
100
AcDbPolyline
 90
        3
 70
   128
 43
0.0
 10
6290.5417189382
 20
4959.3669846479
 10
6290.5206703409
 20
4959.4807433031
 10
6290.5601592514
 20
4960.0206261086
  0
LINE
  5
1CA
330
1F
100
AcDbEntity
  8
0
  6
Continuous
 62
     7
370
    25
100
AcDbLine
 10
6290.6270487892
 20
4959.0553668597
 30
0.0
 11
6290.6270538325
 21
4959.0557929736
 31
0.0
  0
LINE
  5
1CB
330
1F
100
AcDbEntity
  8
0
  6
Continuous
 62
     7
370
    25
100
AcDbLine
 10
6291.0360002078
 20
4958.9021581847
 30
0.0
 11
6291.0359953974
 21
4958.901751745
 31
0.0
  0
ARC
  5
1CC
330
1F
100
AcDbEntity
  8
0
  6
Continuous
 62
     7
370
    25
100
AcDbCircle
 10
6310.6423982027
 20
5002.8506883343
 30
0.0
 40
1.323135430063835
100
AcDbArc
 50
320.5552187161
 51
354.975269663
  0
LINE
  5
1CD
330
1F
100
AcDbEntity
  8
0
  6
Continuous
 62
     7
370
    25
100
AcDbLine
 10
6311.77261314
 20
5002.9345144265
 30
0.0
 11
6311.7749384226
 21
5002.5116527471
 31
0.0
  0
ARC
  5
1CE
330
1F
100
AcDbEntity
  8
0
  6
Continuous
 62
     7
370
    25
100
AcDbCircle
 10
6309.319319004
 20
5000.8174973097
 30
0.0
 40
2.983325221167693
100
AcDbArc
 50
34.6021668891
 51
62.5032891909
  0
LINE
  5
1CF
330
1F
100
AcDbEntity
  8
0
  6
Continuous
 62
     7
370
    25
100
AcDbLine
 10
6310.6951364598
 20
5003.7505858102
 30
0.0
 11
6310.6967133721
 21
5003.4638181765
 31
0.0
  0
LINE
  5
1D0
330
1F
100
AcDbEntity
  8
0
  6
Continuous
 62
     7
370
    25
100
AcDbLine
 10
6307.7913950363
 20
5004.6764972306
 30
0.0
 11
6307.7923983804
 21
5004.4940351915
 31
0.0
  0
ARC
  5
1D1
330
1F
100
AcDbEntity
  8
0
  6
Continuous
 62
     7
370
    25
100
AcDbCircle
 10
6303.3503099579
 20
4983.7964302794
 30
0.0
 40
21.16891585912633
100
AcDbArc
 50
77.8870153628
 51
85.3934839472
  0
LINE
  5
1D2
330
1F
100
AcDbEntity
  8
0
  6
Continuous
 62
     7
370
    25
100
AcDbLine
 10
6305.0495604309
 20
5005.0558165736
 30
0.0
 11
6305.0504339415
 21
5004.8969652748
 31
0.0
  0
LINE
  5
1D3
330
1F
100
AcDbEntity
  8
0
  6
Continuous
 62
     7
370
    25
100
AcDbLine
 10
6300.8366507275
 20
5005.0695792926
 30
0.0
 11
6300.8375138241
 21
5004.9126218293
 31
0.0
  0
ARC
  5
1D4
330
1F
100
AcDbEntity
  8
0
  6
Continuous
 62
     7
370
    25
100
AcDbCircle
 10
6302.4675707584
 20
4982.5369578698
 30
0.0
 40
22.43495984487331
100
AcDbArc
 50
94.1666110465
 51
101.3872884025
  0
LINE
  5
1D5
330
1F
100
AcDbEntity
  8
0
  6
Continuous
 62
     7
370
    25
100
AcDbLine
 10
6298.0370432136
 20
5004.7071137642
 30
0.0
 11
6298.0380155776
 21
5004.5302855884
 31
0.0
  0
LINE
  5
1D6
330
1F
100
AcDbEntity
  8
0
  6
Continuous
 62
     7
370
    25
100
AcDbLine
 10
6294.9828981043
 20
5003.7883893796
 30
0.0
 11
6294.9843618018
 21
5003.5222102853
 31
0.0
  0
ARC
  5
1D7
330
1F
100
AcDbEntity
  8
0
  6
Continuous
 62
     7
370
    25
100
AcDbCircle
 10
6296.5606066105
 20
5000.2323749749
 30
0.0
 40
3.647953407925139
100
AcDbArc
 50
115.6002808991
 51
139.9725023051
  0
LINE
  5
1D8
330
1F
100
AcDbEntity
  8
0
  6
Continuous
 62
     7
370
    25
100
AcDbLine
 10
6293.7646823021
 20
5003.0433119292
 30
0.0
 11
6293.7672378527
 21
5002.5785751047
 31
0.0
  0
ARC
  5
1D9
330
1F
100
AcDbEntity
  8
0
  6
Continuous
 62
     7
370
    25
100
AcDbCircle
 10
6294.7009545614
 20
5002.7438896103
 30
0.0
 40
1.239239895992881
100
AcDbArc
 50
185.1289406278
 51
212.5586267317
  0
LINE
  5
1DA
330
1F
100
AcDbEntity
  8
0
  6
Continuous
 62
     7
370
    25
100
AcDbLine
 10
6293.6564720911
 20
5002.0769774053
 30
0.0
 11
6293.6616393858
 21
5001.1372847845
 31
0.0
  0
ARC
  5
1DB
330
1F
100
AcDbEntity
  8
0
  6
Continuous
 62
     7
370
    25
100
AcDbCircle
 10
6296.1172588044
 20
5002.831440222
 30
0.0
 40
2.983325221168824
100
AcDbArc
 50
214.6021668891
 51
242.5032891908
  0
ARC
  5
1DC
330
1F
100
AcDbEntity
  8
0
  6
Continuous
 62
     7
370
    25
100
AcDbCircle
 10
6299.8654862671
 20
5011.1590672906
 30
0.0
 40
11.28626311056702
100
AcDbArc
 50
245.6364312147
 51
258.6224677835
  0
LINE
  5
1DD
330
1F
100
AcDbEntity
  8
0
  6
Continuous
 62
     7
370
    25
100
AcDbLine
 10
6297.6390121333
 20
5000.094594961
 30
0.0
 11
6297.6441794279
 21
4999.1549023402
 31
0.0
  0
ARC
  5
1DE
330
1F
100
AcDbEntity
  8
0
  6
Continuous
 62
     7
370
    25
100
AcDbCircle
 10
6302.0862678505
 20
5019.8525072524
 30
0.0
 40
21.16891585927243
100
AcDbArc
 50
257.8870153628
 51
265.3934839472
  0
ARC
  5
1DF
330
1F
100
AcDbEntity
  8
0
  6
Continuous
 62
     7
370
    25
100
AcDbCircle
 10
6302.5852680492
 20
5026.3141701681
 30
0.0
 40
26.71384484183386
100
AcDbArc
 50
265.7115726339
 51
273.9223160142
  0
ARC
  5
1E0
330
1F
100
AcDbEntity
  8
0
  6
Continuous
 62
     7
370
    25
100
AcDbCircle
 10
6302.96900705
 20
5021.1119796617
 30
0.0
 40
22.43495984467605
100
AcDbArc
 50
274.1666110465
 51
281.3872884026
  0
LINE
  5
1E1
330
1F
100
AcDbEntity
  8
0
  6
Continuous
 62
     7
370
    25
100
AcDbLine
 10
6307.3933949362
 20
5000.058344564
 30
0.0
 11
6307.3985622308
 21
4999.1186519432
 31
0.0
  0
ARC
  5
1E2
330
1F
100
AcDbEntity
  8
0
  6
Continuous
 62
     7
370
    25
100
AcDbCircle
 10
6304.8802461983
 20
5013.008777164
 30
0.0
 40
13.1920286956118
100
AcDbArc
 50
280.9822626817
 51
292.7660766102
  0
ARC
  5
1E3
330
1F
100
AcDbEntity
  8
0
  6
Continuous
 62
     7
370
    25
100
AcDbCircle
 10
6308.8759711979
 20
5003.4165625567
 30
0.0
 40
3.647953407872476
100
AcDbArc
 50
295.6002808989
 51
319.9725023053
  0
LINE
  5
1E4
330
1F
100
AcDbEntity
  8
0
  6
Continuous
 62
     7
370
    25
100
AcDbLine
 10
6311.664172661
 20
5002.0100550477
 30
0.0
 11
6311.6693399557
 21
5001.0703624269
 31
0.0
  0
LWPOLYLINE
  5
1E5
330
1F
100
AcDbEntity
  8
0
  6
Continuous
 62
     7
370
    25
100
AcDbPolyline
 90
        6
 70
   128
 43
0.0
 10
6296.9470060759
 20
5000.7183446983
 10
6296.30757085
 20
5000.9550500374
 10
6295.3666145995
 20
5001.4447934684
 10
6294.7467359577
 20
5001.9921996085
 10
6294.4750265959
 20
5002.5733441826
 10
6294.4647304326
 20
5002.7778847578
  0
LWPOLYLINE
  5
1E6
330
1F
100
AcDbEntity
  8
0
  6
Continuous
 62
     7
370
    25
100
AcDbPolyline
 90
        7
 70
   128
 43
0.0
 10
6310.960863047
 20
5002.868595673
 10
6310.8628817021
 20
5002.3654943891
 10
6310.4183631581
 20
5001.7934338484
 10
6309.6370885846
 20
5001.2637987591
 10
6308.5532034294
 20
5000.7997367163
 10
6307.2140786748
 20
5000.4215294578
 10
6305.6782404985
 20
5000.1457064559
  0
LINE
  5
1E7
330
1F
100
AcDbEntity
  8
0
  6
Continuous
 62
     7
370
    25
100
AcDbLine
 10
6311.2006908194
 20
5002.0781634354
 30
0.0
 11
6311.664172661
 21
5002.0100550477
 31
0.0
  0
ARC
  5
1E8
330
1F
100
AcDbEntity
  8
0
  6
Continuous
 62
     7
370
    25
100
AcDbCircle
 10
6308.5318430279
 20
5004.2637533493
 30
0.0
 40
3.449572699058013
100
AcDbArc
 50
294.8877353383
 51
320.685047866
  0
LINE
  5
1E9
330
1F
100
AcDbEntity
  8
0
  6
Continuous
 62
     7
370
    25
100
AcDbLine
 10
6307.3933949362
 20
5000.058344564
 30
0.0
 11
6307.2111395703
 21
5000.2192917231
 31
0.0
  0
ARC
  5
1EA
330
1F
100
AcDbEntity
  8
0
  6
Continuous
 62
     7
370
    25
100
AcDbCircle
 10
6302.9484932994
 20
5020.9904983067
 30
0.0
 40
21.20408395030583
100
AcDbArc
 50
273.9567319495
 51
281.5971674995
  0
ARC
  5
1EB
330
1F
100
AcDbEntity
  8
0
  6
Continuous
 62
     7
370
    25
100
AcDbCircle
 10
6302.1175544412
 20
5019.7997445119
 30
0.0
 40
20.0072262628968
100
AcDbArc
 50
257.6687493924
 51
265.6117499177
  0
LINE
  5
1EC
330
1F
100
AcDbEntity
  8
0
  6
Continuous
 62
     7
370
    25
100
AcDbLine
 10
6297.8447459646
 20
5000.2541002284
 30
0.0
 11
6297.6390121333
 21
5000.094594961
 31
0.0
  0
ARC
  5
1ED
330
1F
100
AcDbEntity
  8
0
  6
Continuous
 62
     7
370
    25
100
AcDbCircle
 10
6296.4752937131
 20
5003.7111916501
 30
0.0
 40
2.822323731238352
100
AcDbArc
 50
213.788776977
 51
243.3166791029
  0
LINE
  5
1EE
330
1F
100
AcDbEntity
  8
0
  6
Continuous
 62
     7
370
    25
100
AcDbLine
 10
6293.6564720911
 20
5002.0769774053
 30
0.0
 11
6294.1296790315
 21
5002.1416047588
 31
0.0
  0
LWPOLYLINE
  5
1EF
330
1F
100
AcDbEntity
  8
0
  6
Continuous
 62
     7
370
    25
100
AcDbPolyline
 90
        3
 70
   128
 43
0.0
 10
6295.2548943453
 20
5002.4579371047
 10
6294.7415686631
 20
5002.9318922293
 10
6294.7015533573
 20
5002.9845769794
  0
LWPOLYLINE
  5
1F0
330
1F
100
AcDbEntity
  8
0
  6
Continuous
 62
     7
370
    25
100
AcDbPolyline
 90
        3
 70
   128
 43
0.0
 10
6310.7217813447
 20
5003.072670933
 10
6310.4131958635
 20
5002.7331264692
 10
6310.1742655458
 20
5002.5399775348
  0
LINE
  5
1F1
330
1F
100
AcDbEntity
  8
0
  6
Continuous
 62
     7
370
    25
100
AcDbLine
 10
6310.1742746878
 20
5003.9825504047
 30
0.0
 11
6310.2078409245
 21
5003.7450952846
 31
0.0
  0
ARC
  5
1F2
330
1F
100
AcDbEntity
  8
0
  6
Continuous
 62
     7
370
    25
100
AcDbCircle
 10
6303.3138560725
 20
4984.7888856402
 30
0.0
 40
20.00722626320594
100
AcDbArc
 50
77.6687493924
 51
85.6117499176
  0
LINE
  5
1F3
330
1F
100
AcDbEntity
  8
0
  6
Continuous
 62
     7
370
    25
100
AcDbLine
 10
6304.8447001102
 20
5004.7374600073
 30
0.0
 11
6305.0504339415
 21
5004.8969652748
 31
0.0
  0
LINE
  5
1F4
330
1F
100
AcDbEntity
  8
0
  6
Continuous
 62
     7
370
    25
100
AcDbLine
 10
6307.5866645491
 20
5004.334529924
 30
0.0
 11
6307.7923983804
 21
5004.4940351915
 31
0.0
  0
LWPOLYLINE
  5
1F5
330
1F
100
AcDbEntity
  8
0
  6
Continuous
 62
     7
370
    25
100
AcDbPolyline
 90
       14
 70
   128
 43
0.0
 10
6305.4086842359
 20
5000.3837478132
 10
6303.8411400536
 20
5000.2339230847
 10
6302.2208509826
 20
5000.202409487
 10
6300.6235799389
 20
5000.290680561
 10
6299.1240135415
 20
5000.4946088493
 10
6297.7922698483
 20
5000.8046588918
 10
6296.6906197143
 20
5001.2063330932
 10
6295.8705750754
 20
5001.6808496141
 10
6295.3704803075
 20
5002.2060205895
 10
6295.2137192861
 20
5002.7572896083
 10
6295.4076219824
 20
5003.3088799438
 10
6295.9431217217
 20
5003.8349998449
 10
6296.7951791315
 20
5004.3110485299
 10
6297.6162584303
 20
5004.6209950925
  0
LWPOLYLINE
  5
1F6
330
1F
100
AcDbEntity
  8
0
  6
Continuous
 62
     7
370
    25
100
AcDbPolyline
 90
       11
 70
   128
 43
0.0
 10
6307.7892560161
 20
5004.6769355933
 10
6308.2170627768
 20
5004.5331969429
 10
6309.1835759046
 20
5004.0925183047
 10
6309.847537781
 20
5003.5897271734
 10
6310.1779022865
 20
5003.0483335034
 10
6310.1592219441
 20
5002.4936522611
 10
6309.7923702258
 20
5001.9516197249
 10
6309.0945007102
 20
5001.4475807336
 10
6308.0982450002
 20
5001.0051035905
 10
6306.8501869057
 20
5000.6448780348
 10
6305.4086842359
 20
5000.3837478132
  0
LINE
  5
1F7
330
1F
100
AcDbEntity
  8
0
  6
Continuous
 62
     7
370
    25
100
AcDbLine
 10
6298.0380155776
 20
5004.5302855884
 30
0.0
 11
6298.2202709435
 21
5004.3693384294
 31
0.0
  0
LINE
  5
1F8
330
1F
100
AcDbEntity
  8
0
  6
Continuous
 62
     7
370
    25
100
AcDbLine
 10
6300.8375138241
 20
5004.9126218293
 30
0.0
 11
6301.0197691899
 21
5004.7516746703
 31
0.0
  0
ARC
  5
1F9
330
1F
100
AcDbEntity
  8
0
  6
Continuous
 62
     7
370
    25
100
AcDbCircle
 10
6302.4829172143
 20
4983.5981318458
 30
0.0
 40
21.20408395025427
100
AcDbArc
 50
93.9567319495
 51
101.5971674995
  0
LINE
  5
1FA
330
1F
100
AcDbEntity
  8
0
  6
Continuous
 62
     7
370
    25
100
AcDbLine
 10
6301.0179521591
 20
5005.0821087998
 30
0.0
 11
6301.0197691899
 21
5004.7516746703
 31
0.0
  0
LINE
  5
1FB
330
1F
100
AcDbEntity
  8
0
  6
Continuous
 62
     7
370
    25
100
AcDbLine
 10
6304.8428632726
 20
5005.0714960762
 30
0.0
 11
6304.8447001102
 21
5004.7374600073
 31
0.0
  0
LINE
  5
1FC
330
1F
100
AcDbEntity
  8
0
  6
Continuous
 62
     7
370
    25
100
AcDbLine
 10
6295.4449302633
 20
5003.9839114081
 30
0.0
 11
6295.4478436434
 21
5003.4541018976
 31
0.0
  0
LINE
  5
1FD
330
1F
100
AcDbEntity
  8
0
  6
Continuous
 62
     7
370
    25
100
AcDbLine
 10
6295.4478436434
 20
5003.4541018976
 30
0.0
 11
6294.9843618018
 21
5003.5222102853
 31
0.0
  0
ARC
  5
1FE
330
1F
100
AcDbEntity
  8
0
  6
Continuous
 62
     7
370
    25
100
AcDbCircle
 10
6296.8995674859
 20
5000.3248768032
 30
0.0
 40
3.449572699075893
100
AcDbArc
 50
114.8877353384
 51
140.685047866
  0
LINE
  5
1FF
330
1F
100
AcDbEntity
  8
0
  6
Continuous
 62
     7
370
    25
100
AcDbLine
 10
6294.2307196943
 20
5002.510466717
 30
0.0
 11
6293.7672378527
 21
5002.5785751047
 31
0.0
  0
LINE
  5
200
330
1F
100
AcDbEntity
  8
0
  6
Continuous
 62
     7
370
    25
100
AcDbLine
 10
6310.6967133721
 20
5003.4638181765
 30
0.0
 11
6310.2235064317
 21
5003.399190823
 31
0.0
  0
LINE
  5
201
330
1F
100
AcDbEntity
  8
0
  6
Continuous
 62
     7
370
    25
100
AcDbLine
 10
6311.7749384226
 20
5002.5116527471
 30
0.0
 11
6311.3017314822
 21
5002.4470253937
 31
0.0
  0
ARC
  5
202
330
1F
100
AcDbEntity
  8
0
  6
Continuous
 62
     7
370
    25
100
AcDbCircle
 10
6308.9561168007
 20
5000.8774385023
 30
0.0
 40
2.822323731211493
100
AcDbArc
 50
33.7887769769
 51
63.3166791031
  0
LINE
  5
203
330
1F
100
AcDbEntity
  8
0
  6
Continuous
 62
     7
370
    25
100
AcDbLine
 10
6310.2204023916
 20
5003.9636725721
 30
0.0
 11
6310.2235064317
 21
5003.399190823
 31
0.0
  0
LINE
  5
204
330
1F
100
AcDbEntity
  8
0
  6
Continuous
 62
     7
370
    25
100
AcDbLine
 10
6293.6616393858
 20
5001.1372847845
 30
0.0
 11
6294.1348463262
 21
5001.201912138
 31
0.0
  0
ARC
  5
205
330
1F
100
AcDbEntity
  8
0
  6
Continuous
 62
     7
370
    25
100
AcDbCircle
 10
6296.4804610077
 20
5002.7714990294
 30
0.0
 40
2.822323731240422
100
AcDbArc
 50
213.788776977
 51
243.3166791028
  0
LINE
  5
206
330
1F
100
AcDbEntity
  8
0
  6
Continuous
 62
     7
370
    25
100
AcDbLine
 10
6294.7398644363
 20
5000.1851193552
 30
0.0
 11
6295.2130713767
 21
5000.2497467086
 31
0.0
  0
LINE
  5
207
330
1F
100
AcDbEntity
  8
0
  6
Continuous
 62
     7
370
    25
100
AcDbLine
 10
6294.1296790315
 20
5002.1416047588
 30
0.0
 11
6294.1348463262
 21
5001.201912138
 31
0.0
  0
LINE
  5
208
330
1F
100
AcDbEntity
  8
0
  6
Continuous
 62
     7
370
    25
100
AcDbLine
 10
6295.2079040821
 20
5001.1894393294
 30
0.0
 11
6295.2130713767
 21
5000.2497467086
 31
0.0
  0
LINE
  5
209
330
1F
100
AcDbEntity
  8
0
  6
Continuous
 62
     7
370
    25
100
AcDbLine
 10
6311.2006908194
 20
5002.0781634354
 30
0.0
 11
6311.2058581141
 21
5001.1384708146
 31
0.0
  0
LINE
  5
20A
330
1F
100
AcDbEntity
  8
0
  6
Continuous
 62
     7
370
    25
100
AcDbLine
 10
6311.2058581141
 20
5001.1384708146
 30
0.0
 11
6311.6693399557
 21
5001.0703624269
 31
0.0
  0
LINE
  5
20B
330
1F
100
AcDbEntity
  8
0
  6
Continuous
 62
     7
370
    25
100
AcDbLine
 10
6309.9887341649
 20
5000.1948356341
 30
0.0
 11
6310.4522160065
 21
5000.1267272464
 31
0.0
  0
ARC
  5
20C
330
1F
100
AcDbEntity
  8
0
  6
Continuous
 62
     7
370
    25
100
AcDbCircle
 10
6308.5370103225
 20
5003.3240607285
 30
0.0
 40
3.44957269908959
100
AcDbArc
 50
294.8877353384
 51
320.6850478659
  0
LINE
  5
20D
330
1F
100
AcDbEntity
  8
0
  6
Continuous
 62
     7
370
    25
100
AcDbLine
 10
6309.9835668703
 20
5001.1345282549
 30
0.0
 11
6309.9887341649
 21
5000.1948356341
 31
0.0
  0
LINE
  5
20E
330
1F
100
AcDbEntity
  8
0
  6
Continuous
 62
     7
370
    25
100
AcDbLine
 10
6300.5867104035
 20
4999.8511701452
 30
0.0
 11
6300.5918776982
 21
4998.9114775244
 31
0.0
  0
ARC
  5
20F
330
1F
100
AcDbEntity
  8
0
  6
Continuous
 62
     7
370
    25
100
AcDbCircle
 10
6302.1227217359
 20
5018.8600518914
 30
0.0
 40
20.00722626316943
100
AcDbArc
 50
257.6687493924
 51
265.6117499176
  0
LINE
  5
210
330
1F
100
AcDbEntity
  8
0
  6
Continuous
 62
     7
370
    25
100
AcDbLine
 10
6297.8447459646
 20
5000.2541002284
 30
0.0
 11
6297.8499132593
 21
4999.3144076077
 31
0.0
  0
LINE
  5
211
330
1F
100
AcDbEntity
  8
0
  6
Continuous
 62
     7
370
    25
100
AcDbLine
 10
6300.5918776982
 20
4998.9114775244
 30
0.0
 11
6300.3861438668
 21
4998.7519722569
 31
0.0
  0
LINE
  5
212
330
1F
100
AcDbEntity
  8
0
  6
Continuous
 62
     7
370
    25
100
AcDbLine
 10
6297.8499132593
 20
4999.3144076077
 30
0.0
 11
6297.6441794279
 21
4999.1549023402
 31
0.0
  0
ARC
  5
213
330
1F
100
AcDbEntity
  8
0
  6
Continuous
 62
     7
370
    25
100
AcDbCircle
 10
6302.9536605941
 20
5020.0508056855
 30
0.0
 40
21.20408394983884
100
AcDbArc
 50
273.9567319494
 51
281.5971674996
  0
LINE
  5
214
330
1F
100
AcDbEntity
  8
0
  6
Continuous
 62
     7
370
    25
100
AcDbLine
 10
6304.4116413238
 20
4999.8369554822
 30
0.0
 11
6304.4168086184
 21
4998.8972628614
 31
0.0
  0
LINE
  5
215
330
1F
100
AcDbEntity
  8
0
  6
Continuous
 62
     7
370
    25
100
AcDbLine
 10
6307.2111395703
 20
5000.2192917231
 30
0.0
 11
6307.2163068649
 21
4999.2795991023
 31
0.0
  0
LINE
  5
216
330
1F
100
AcDbEntity
  8
0
  6
Continuous
 62
     7
370
    25
100
AcDbLine
 10
6304.5990639843
 20
4998.7363157023
 30
0.0
 11
6304.4168086184
 21
4998.8972628614
 31
0.0
  0
LINE
  5
217
330
1F
100
AcDbEntity
  8
0
  6
Continuous
 62
     7
370
    25
100
AcDbLine
 10
6307.3985622308
 20
4999.1186519432
 30
0.0
 11
6307.2163068649
 21
4999.2795991023
 31
0.0
  0
ELLIPSE
  5
218
330
1F
100
AcDbEntity
  8
0
  6
Continuous
 62
     7
370
    25
100
AcDbEllipse
 10
6302.7075961589
 20
5001.5668701355
 30
0.0
 11
17.00049927815871
 21
0.1489718999264369
 31
0.0
210
0.0
220
0.0
230
1.0
 40
0.4174252713
 41
4.846912385230504
 42
6.189904194651819
  0
ELLIPSE
  5
219
330
1F
100
AcDbEntity
  8
0
  6
Continuous
 62
     7
370
    25
100
AcDbEllipse
 10
6302.7075961589
 20
5001.5668701355
 30
0.0
 11
17.00049927815871
 21
0.1489718999264369
 31
0.0
210
0.0
220
0.0
230
1.0
 40
0.4174252713
 41
3.234785475595672
 42
4.55172263052501
  0
LWPOLYLINE
  5
21A
330
1F
100
AcDbEntity
  8
0
  6
Continuous
 62
     7
370
    25
100
AcDbPolyline
 90
       10
 70
   128
 43
0.0
 10
6305.0336897781
 20
4997.391953995
 10
6304.8567452052
 20
4997.7054205086
 10
6304.3263897964
 20
4997.9828188092
 10
6303.5231178149
 20
4998.1681704279
 10
6302.5692201382
 20
4998.2332572609
 10
6301.6099190404
 20
4998.1681704279
 10
6300.7912594177
 20
4997.9828188092
 10
6300.2378747764
 20
4997.7054205086
 10
6300.0340129117
 20
4997.3782069026
 10
6300.0337653716
 20
4997.3644598102
  0
LWPOLYLINE
  5
21B
330
1F
100
AcDbEntity
  8
0
  6
Continuous
 62
     7
370
    25
100
AcDbPolyline
 90
       34
 70
   128
 43
0.0
 10
6302.5805777585
 20
4998.5068733756
 10
6300.7475388293
 20
4998.5668266462
 10
6298.9857279427
 20
4998.7445195908
 10
6297.3588215343
 20
4999.0335299233
 10
6295.9256202405
 20
4999.4234120572
 10
6294.7379236904
 20
4999.9000746365
 10
6293.8386583318
 20
5000.4462898337
 10
6293.2603259577
 20
5001.0423160082
 10
6293.023829007
 20
5001.6666112212
 10
6293.1377150956
 20
5002.2966118173
 10
6293.5978680837
 20
5002.9095479332
 10
6294.3876568432
 20
5003.483266461
 10
6295.4785363506
 20
5003.997031718
 10
6296.8310793783
 20
5004.4322748894
 10
6298.3964014972
 20
5004.773265153
 10
6300.1179278876
 20
5005.0076782321
 10
6301.9334381004
 20
5005.1270418273
 10
6303.777314866
 20
5005.1270418273
 10
6305.5829156742
 20
5005.0076782321
 10
6307.2849814072
 20
5004.773265153
 10
6308.8219949747
 20
5004.4322748894
 10
6310.1384047017
 20
5003.997031718
 10
6311.186632111
 20
5003.483266461
 10
6311.9287915326
 20
5002.9095479332
 10
6312.3380593916
 20
5002.2966118173
 10
6312.3996436811
 20
5001.6666112212
 10
6312.1113185844
 20
5001.0423160082
 10
6311.4835049218
 20
5000.4462898337
 10
6310.5388935147
 20
4999.9000746365
 10
6309.3116250806
 20
4999.4234120572
 10
6307.8460562984
 20
4999.0335299233
 10
6306.1951566423
 20
4998.7445195908
 10
6304.4185939272
 20
4998.5668266462
 10
6302.5805777585
 20
4998.5068733756
  0
LINE
  5
21C
330
1F
100
AcDbEntity
  8
0
  6
Continuous
 62
     7
370
    25
100
AcDbLine
 10
6302.5832866777
 20
4998.8913872048
 30
0.0
 11
6304.4165023457
 21
4998.9529597439
 31
0.0
  0
ARC
  5
21D
330
1F
100
AcDbEntity
  8
0
  6
Continuous
 62
     7
370
    25
100
AcDbCircle
 10
6304.8263978856
 20
5012.7968112122
 30
0.0
 40
13.69890915585644
100
AcDbArc
 50
280.8171187705
 51
292.8404378284
  0
ARC
  5
21E
330
1F
100
AcDbEntity
  8
0
  6
Continuous
 62
     7
370
    25
100
AcDbCircle
 10
6310.7504658656
 20
5002.1552636446
 30
0.0
 40
1.34728414924756
100
AcDbArc
 50
312.9699844859
 51
51.0348729891
  0
ARC
  5
21F
330
1F
100
AcDbEntity
  8
0
  6
Continuous
 62
     7
370
    25
100
AcDbCircle
 10
6294.6641293813
 20
5002.0738066809
 30
0.0
 40
1.330006301766665
100
AcDbArc
 50
129.1595332412
 51
221.0612063067
  0
ARC
  5
220
330
1F
100
AcDbEntity
  8
0
  6
Continuous
 62
     7
370
    25
100
AcDbCircle
 10
6300.1286584343
 20
5011.5449099882
 30
0.0
 40
12.42058416864621
100
AcDbArc
 50
245.7148432112
 51
258.4556221378
  0
LWPOLYLINE
  5
221
330
1F
100
AcDbEntity
  8
0
  6
Continuous
 62
     7
370
    25
100
AcDbPolyline
 90
        3
 70
   128
 43
0.0
 10
6300.5915854389
 20
4998.9646260087
 10
6300.7522112001
 20
4998.9531623236
 10
6302.5832866777
 20
4998.8913872048
  0
LWPOLYLINE
  5
222
330
1F
100
AcDbEntity
  8
0
  6
Continuous
 62
     7
370
    25
100
AcDbPolyline
 90
       17
 70
   128
 43
0.0
 10
6302.5731086441
 20
4994.6023129448
 10
6301.9975279854
 20
4994.563260845
 10
6301.5063322118
 20
4994.4520498738
 10
6301.174301427
 20
4994.2856108934
 10
6301.0519843082
 20
4994.0892827298
 10
6301.1580025279
 20
4993.8929545663
 10
6301.4762157731
 20
4993.7265155859
 10
6301.9581789621
 20
4993.6153046147
 10
6302.5305175681
 20
4993.5762525149
 10
6303.1060982267
 20
4993.6153046147
 10
6303.5972940004
 20
4993.7265155859
 10
6303.9293247851
 20
4993.8929545663
 10
6304.051641904
 20
4994.0892827298
 10
6303.9456236843
 20
4994.2856108934
 10
6303.627410439
 20
4994.4520498738
 10
6303.1454472501
 20
4994.563260845
 10
6302.5731086441
 20
4994.6023129448
  0
LWPOLYLINE
  5
223
330
1F
100
AcDbEntity
  8
0
  6
Continuous
 62
     7
370
    25
100
AcDbPolyline
 90
       17
 70
   128
 43
0.0
 10
6302.5873056694
 20
4994.9443330882
 10
6301.6280045717
 20
4994.8792462552
 10
6300.809344949
 20
4994.6938946365
 10
6300.2559603076
 20
4994.4164963358
 10
6300.0520984429
 20
4994.0892827298
 10
6300.2287954757
 20
4993.7620691239
 10
6300.7591508845
 20
4993.4846708232
 10
6301.562422866
 20
4993.2993192045
 10
6302.5163205427
 20
4993.2342323715
 10
6303.4756216405
 20
4993.2993192045
 10
6304.2942812632
 20
4993.4846708232
 10
6304.8476659045
 20
4993.7620691239
 10
6305.0515277692
 20
4994.0892827298
 10
6304.8748307364
 20
4994.4164963358
 10
6304.3444753276
 20
4994.6938946365
 10
6303.5412033461
 20
4994.8792462552
 10
6302.5873056694
 20
4994.9443330882
  0
LINE
  5
224
330
1F
100
AcDbEntity
  8
0
  6
Continuous
 62
     7
370
    25
100
AcDbLine
 10
6326.7538058496
 20
5010.9242597712
 30
0.0
 11
6326.5558156627
 21
5002.5687264758
 31
0.0
  0
LINE
  5
225
330
1F
100
AcDbEntity
  8
0
  6
Continuous
 62
     7
370
    25
100
AcDbLine
 10
6326.5548979611
 20
5002.5794669434
 30
0.0
 11
6326.5558187011
 21
5002.5688546996
 31
0.0
  0
ARC
  5
226
330
1F
100
AcDbEntity
  8
0
  6
Continuous
 62
     7
370
    25
100
AcDbCircle
 10
6434.1839915993
 20
4991.5289084342
 30
0.0
 40
109.1908701478275
100
AcDbArc
 50
172.4769654217
 51
178.767136396
  0
LWPOLYLINE
  5
227
330
1F
100
AcDbEntity
  8
0
  6
Continuous
 62
     7
370
    25
100
AcDbPolyline
 90
        3
 70
   128
 43
0.0
 10
6326.1438600111
 20
5005.8049805192
 10
6326.3473948041
 20
5004.7150478333
 10
6326.554889454
 20
5002.57906751
  0
LINE
  5
228
330
1F
100
AcDbEntity
  8
0
  6
Continuous
 62
     7
370
    25
100
AcDbLine
 10
6325.0183983842
 20
4993.878244861
 30
0.0
 11
6325.2593536007
 21
4999.6830902931
 31
0.0
  0
LWPOLYLINE
  5
229
330
1F
100
AcDbEntity
  8
0
  6
Continuous
 62
     7
370
    25
100
AcDbPolyline
 90
       17
 70
   128
 43
0.0
 10
6325.2593536007
 20
4999.6830902931
 10
6324.8893900542
 20
5001.1843987408
 10
6323.6690803056
 20
5002.6280127468
 10
6321.645320174
 20
5003.9584550344
 10
6318.8958816264
 20
5005.1245974527
 10
6315.5264240442
 20
5006.0816258025
 10
6311.6664337928
 20
5006.792762021
 10
6307.4642481328
 20
5007.2306775421
 10
6303.0813547024
 20
5007.378543518
 10
6298.6861856383
 20
5007.2306775421
 10
6294.4476448228
 20
5006.792762021
 10
6290.5286170023
 20
5006.0816258025
 10
6287.0797082183
 20
5005.1245974527
 10
6284.2334581011
 20
5003.9584550344
 10
6282.0992464465
 20
5002.6280127468
 10
6280.7590898116
 20
5001.1843987408
 10
6280.2644896642
 20
4999.6830902931
  0
LINE
  5
22A
330
1F
100
AcDbEntity
  8
0
  6
Continuous
 62
     7
370
    25
100
AcDbLine
 10
6280.2644896642
 20
4999.6830902931
 30
0.0
 11
6280.0235344477
 21
4993.8782448603
 31
0.0
  0
LWPOLYLINE
  5
22B
330
1F
100
AcDbEntity
  8
0
  6
Continuous
 62
     7
370
    25
100
AcDbPolyline
 90
        8
 70
   128
 43
0.0
 10
6278.4779517076
 20
5005.5501061815
 10
6278.6380036082
 20
5005.2485818388
 10
6279.0370983397
 20
5003.4827823082
 10
6279.430163726
 20
5000.6259682464
 10
6279.7321537373
 20
4997.5775769778
 10
6280.0235312235
 20
4993.8782901954
 10
6280.0235344477
 20
4993.8782448603
 10
6280.0235344477
 20
4993.8782448603
  0
LINE
  5
22C
330
1F
100
AcDbEntity
  8
0
  6
Continuous
 62
     7
370
    25
100
AcDbLine
 10
6277.0911116774
 20
5002.5688546996
 30
0.0
 11
6277.0928599581
 21
5002.5794669434
 31
0.0
  0
LINE
  5
22D
330
1F
100
AcDbEntity
  8
0
  6
Continuous
 62
     7
370
    25
100
AcDbLine
 10
6277.0911164694
 20
5002.5687264758
 30
0.0
 11
6276.7788485835
 21
5010.9242597707
 31
0.0
  0
ELLIPSE
  5
22E
330
1F
100
AcDbEntity
  8
0
  6
Continuous
 62
     7
370
    25
100
AcDbEllipse
 10
6302.7406260944
 20
4999.1700600781
 30
0.0
 11
17.50023137193602
 21
0.1309911625339737
 31
0.0
210
0.0
220
0.0
230
1.0
 40
0.3908033208
 41
0.0
 42
6.283185307179586
  0
ARC
  5
22F
330
1F
100
AcDbEntity
  8
0
  6
Continuous
 62
     7
370
    25
100
AcDbCircle
 10
6324.5958136898
 20
4994.0416269318
 30
0.0
 40
0.4530690071349791
100
AcDbArc
 50
271.7041905844
 51
338.8622208933
  0
ARC
  5
230
330
1F
100
AcDbEntity
  8
0
  6
Continuous
 62
     7
370
    25
100
AcDbCircle
 10
6302.5089511486
 20
5083.4573194562
 30
0.0
 40
92.5461087843871
100
AcDbArc
 50
256.1840699723
 51
283.8159292285
  0
ARC
  5
231
330
1F
100
AcDbEntity
  8
0
  6
Continuous
 62
     7
370
    25
100
AcDbCircle
 10
6280.4485069238
 20
4994.0426870073
 30
0.0
 40
0.455678423004889
100
AcDbArc
 50
201.153834108
 51
264.9773371934
  0
LWPOLYLINE
  5
232
330
1F
100
AcDbEntity
  8
0
  6
Continuous
 62
     7
370
    25
100
AcDbPolyline
 90
        8
 70
   128
 43
0.0
 10
6285.5815386478
 20
5000.0648868856
 10
6286.3113190125
 20
4998.9679170035
 10
6287.8601411343
 20
4997.7061402885
 10
6290.0561645748
 20
4996.5659073315
 10
6292.1364215429
 20
4995.818091123
 10
6294.5486491623
 20
4995.1987299641
 10
6297.2796619559
 20
4994.7379602486
 10
6300.0495921886
 20
4994.4862916112
  0
LWPOLYLINE
  5
233
330
1F
100
AcDbEntity
  8
0
  6
Continuous
 62
     7
370
    25
100
AcDbPolyline
 90
       11
 70
   128
 43
0.0
 10
6305.0495555176
 20
4994.5067075765
 10
6305.4247513239
 20
4994.5220819746
 10
6307.7450236591
 20
4994.7601353465
 10
6309.9360821339
 20
4995.1176130032
 10
6312.0995261005
 20
4995.6185837769
 10
6314.0356706766
 20
4996.2199395781
 10
6315.9649063059
 20
4997.0181544296
 10
6317.5450306244
 20
4997.9013615289
 10
6318.9274865304
 20
4999.0081214106
 10
6319.8132062833
 20
5000.1711540094
 10
6319.8741296303
 20
5000.3800154747
  0
ARC
  5
234
330
1F
100
AcDbEntity
  8
0
  6
Continuous
 62
     7
370
    25
100
AcDbCircle
 10
6278.0067913227
 20
5002.6227800906
 30
0.0
 40
0.9149618320467253
100
AcDbArc
 50
182.7379970885
 51
230.4237833834
  0
LINE
  5
235
330
1F
100
AcDbEntity
  8
0
  6
Continuous
 62
     7
370
    25
100
AcDbLine
 10
6326.231413266
 20
5001.9170565691
 30
0.0
 11
6325.4210384785
 21
5001.3519737209
 31
0.0
  0
LINE
  5
236
330
1F
100
AcDbEntity
  8
0
  6
Continuous
 62
     7
370
    25
100
AcDbLine
 10
6279.440193588
 20
5000.5247233622
 30
0.0
 11
6277.424431683
 21
5001.9170565691
 31
0.0
  0
ARC
  5
237
330
1F
100
AcDbEntity
  8
0
  6
Continuous
 62
     7
370
    25
100
AcDbCircle
 10
6325.654530862
 20
5002.6089662263
 30
0.0
 40
0.9008498854526678
100
AcDbArc
 50
309.7733722891
 51
358.1236322464
  0
LWPOLYLINE
  5
238
330
1F
100
AcDbEntity
  8
0
  6
Continuous
 62
     7
370
    25
100
AcDbPolyline
 90
       15
 70
   128
 43
0.0
 10
6273.2904385091
 20
4930.9615766383
 10
6273.2904411213
 20
4930.9616365721
 10
6273.6362067016
 20
4939.0961420668
 10
6273.9704552476
 20
4947.1905025855
 10
6274.3063209181
 20
4955.3119271072
 10
6274.6454510356
 20
4963.3149065941
 10
6274.9914447189
 20
4971.1059563999
 10
6275.3378913167
 20
4978.385583978
 10
6275.7010417794
 20
4985.2808491721
 10
6276.0824651006
 20
4991.5517471533
 10
6276.3657559057
 20
4995.4783179504
 10
6276.6601417482
 20
4998.8744438462
 10
6276.9605470038
 20
5001.6134682801
 10
6277.0911180229
 20
5002.5685763186
 10
6277.0911212607
 20
5002.5685982728
  0
ARC
  5
239
330
1F
100
AcDbEntity
  8
0
  6
Continuous
 62
     7
370
    25
100
AcDbCircle
 10
6278.0165342473
 20
5002.6096538334
 30
0.0
 40
0.9263214839047839
100
AcDbArc
 50
182.5243644463
 51
230.0791711452
  0
LWPOLYLINE
  5
23A
330
1F
100
AcDbEntity
  8
0
  6
Continuous
 62
     7
370
    25
100
AcDbPolyline
 90
       14
 70
   128
 43
0.0
 10
6277.4220722026
 20
5001.8992413849
 10
6277.2920362467
 20
5000.9601558702
 10
6276.9939990702
 20
4998.2635364456
 10
6276.7047023538
 20
4994.9189577148
 10
6276.4296924635
 20
4991.051891999
 10
6276.0621809737
 20
4984.8414233395
 10
6275.7158831108
 20
4978.0137306033
 10
6275.388131089
 20
4970.8077771017
 10
6275.0617028629
 20
4963.0686648608
 10
6274.743036086
 20
4955.1205858077
 10
6274.4272021631
 20
4947.0564310445
 10
6274.1111212168
 20
4939.0283146048
 10
6273.7787000342
 20
4930.9616365757
 10
6273.7786974726
 20
4930.9615766383
  0
LINE
  5
23B
330
1F
100
AcDbEntity
  8
0
  6
Continuous
 62
     7
370
    25
100
AcDbLine
 10
6273.7786974726
 20
4930.9615766383
 30
0.0
 11
6273.2904385091
 21
4930.9615766383
 31
0.0
  0
LWPOLYLINE
  5
23C
330
1F
100
AcDbEntity
  8
0
  6
Continuous
 62
     7
370
    25
100
AcDbPolyline
 90
       26
 70
   128
 43
0.0
 10
6301.4519575625
 20
4948.323863578
 10
6304.9647939328
 20
4948.9343859819
 10
6308.0793404173
 20
4950.6610758978
 10
6310.5754108721
 20
4953.3712285879
 10
6311.4954981193
 20
4955.0399700297
 10
6312.1253319922
 20
4956.8207728439
 10
6312.4321805525
 20
4958.5958170649
 10
6312.4335475275
 20
4960.3629586649
 10
6311.6046415378
 20
4963.4704361561
 10
6309.7864961086
 20
4966.0551806805
 10
6306.9748465777
 20
4968.0237466389
 10
6305.2580618902
 20
4968.6817216471
 10
6303.4171917503
 20
4969.0823876544
 10
6299.817433806
 20
4969.0994239044
 10
6296.5790261794
 20
4968.2339442697
 10
6293.7291276955
 20
4966.4905507615
 10
6291.5559494684
 20
4963.794448359
 10
6290.8914547806
 20
4962.1911930022
 10
6290.5334951034
 20
4960.4637965942
 10
6290.7366203801
 20
4957.0877604473
 10
6291.9999733423
 20
4953.9085418424
 10
6294.3090232152
 20
4951.0923856191
 10
6295.8426213396
 20
4949.9483337775
 10
6297.5486602645
 20
4949.0820120192
 10
6299.4646594519
 20
4948.5180313212
 10
6301.4519575625
 20
4948.323863578
  0
LINE
  5
23D
330
1F
100
AcDbEntity
  8
0
  6
Continuous
 62
     7
370
    25
100
AcDbLine
 10
6326.2324094892
 20
5001.8992283251
 30
0.0
 11
6326.230851898
 21
5001.9165901872
 31
0.0
  0
LWPOLYLINE
  5
23E
330
1F
100
AcDbEntity
  8
0
  6
Continuous
 62
     7
370
    25
100
AcDbPolyline
 90
       14
 70
   128
 43
0.0
 10
6328.8211479932
 20
4930.9615766383
 10
6328.8211454621
 20
4930.9616365757
 10
6328.5003176561
 20
4939.0283146048
 10
6328.2109148056
 20
4947.0564310445
 10
6327.9380470719
 20
4955.1205858077
 10
6327.6800547877
 20
4963.0686648608
 10
6327.4338130081
 20
4970.8077771017
 10
6327.2041394402
 20
4978.0137306033
 10
6326.9791368347
 20
4984.8414233395
 10
6326.7580613288
 20
4991.051891999
 10
6326.6031539907
 20
4994.9189577148
 10
6326.4483000081
 20
4998.2635364456
 10
6326.2964086718
 20
5000.9601558702
 10
6326.2324245272
 20
5001.8992413849
  0
LINE
  5
23F
330
1F
100
AcDbEntity
  8
0
  6
Continuous
 62
     7
370
    25
100
AcDbLine
 10
6273.7787162442
 20
4930.9615766383
 30
0.0
 11
6328.8211278334
 21
4930.9615766383
 31
0.0
  0
LINE
  5
240
330
1F
100
AcDbEntity
  8
0
  6
Continuous
 62
     7
370
    25
100
AcDbLine
 10
6277.4249994296
 20
5001.9165901872
 30
0.0
 11
6277.422087371
 21
5001.8992283251
 31
0.0
  0
LWPOLYLINE
  5
241
330
1F
100
AcDbEntity
  8
0
  6
Continuous
 62
     7
370
    25
100
AcDbPolyline
 90
       15
 70
   128
 43
0.0
 10
6326.5558126249
 20
5002.5685982728
 10
6326.5558141769
 20
5002.5685763186
 10
6326.6191182591
 20
5001.6134682801
 10
6326.7708065168
 20
4998.8744438462
 10
6326.9283242769
 20
4995.4783179504
 10
6327.0892665841
 20
4991.5517471533
 10
6327.3221912083
 20
4985.2808491721
 10
6327.5621713892
 20
4978.385583978
 10
6327.8089089769
 20
4971.1059563999
 10
6328.0735722396
 20
4963.3149065941
 10
6328.3510130807
 20
4955.3119271072
 10
6328.6430558825
 20
4947.1905025855
 10
6328.9499581466
 20
4939.0961420668
 10
6329.2836727646
 20
4930.9616365721
 10
6329.2836753437
 20
4930.9615766383
  0
LINE
  5
242
330
1F
100
AcDbEntity
  8
0
  6
Continuous
 62
     7
370
    25
100
AcDbLine
 10
6329.2836753437
 20
4930.9615766383
 30
0.0
 11
6328.8211479932
 21
4930.9615766383
 31
0.0
  0
ARC
  5
243
330
1F
100
AcDbEntity
  8
0
  6
Continuous
 62
     7
370
    25
100
AcDbCircle
 10
6325.6430368701
 20
5002.5967918459
 30
0.0
 40
0.9132110687242028
100
AcDbArc
 50
310.1957740286
 51
358.230825788
  0
LINE
  5
244
330
1F
100
AcDbEntity
  8
0
  6
Continuous
 62
     8
370
    25
100
AcDbLine
 10
6458.2888917363
 20
4789.1913025803
 30
0.0
 11
6354.7888917363
 21
4789.1913025803
 31
0.0
  0
LINE
  5
245
330
1F
100
AcDbEntity
  8
0
  6
Continuous
 62
     8
370
    25
100
AcDbLine
 10
6459.2888917363
 20
4772.6913025803
 30
0.0
 11
6353.7888917363
 21
4772.6913025803
 31
0.0
  0
LINE
  5
246
330
1F
100
AcDbEntity
  8
0
  6
Continuous
 62
     8
370
    25
100
AcDbLine
 10
6459.2888917363
 20
4653.1913025803
 30
0.0
 11
6353.7888917363
 21
4653.1913025803
 31
0.0
  0
LINE
  5
247
330
1F
100
AcDbEntity
  8
0
  6
Continuous
 62
     8
370
    25
100
AcDbLine
 10
6354.0388917363
 20
4791.4547025803
 30
0.0
 11
6355.8198766424
 21
4791.4547025803
 31
0.0
  0
LINE
  5
248
330
1F
100
AcDbEntity
  8
0
  6
Continuous
 62
     8
370
    25
100
AcDbLine
 10
6457.2579068302
 20
4791.4547025803
 30
0.0
 11
6459.0388917363
 21
4791.4547025803
 31
0.0
  0
LINE
  5
249
330
1F
100
AcDbEntity
  8
0
  6
Continuous
 62
     8
370
    25
100
AcDbLine
 10
6265.6471266728
 20
4709.8255440244
 30
0.0
 11
6258.9062806647
 21
4709.8255440244
 31
0.0
  0
LINE
  5
24A
330
1F
100
AcDbEntity
  8
0
  6
Continuous
 62
     8
370
    25
100
AcDbLine
 10
6258.9471266728
 20
4709.1317967394
 30
0.0
 11
6265.6471266728
 21
4709.1317967394
 31
0.0
  0
LINE
  5
24B
330
1F
100
AcDbEntity
  8
0
  6
Continuous
 62
     8
370
    25
100
AcDbLine
 10
6265.3658766728
 20
4708.6821875341
 30
0.0
 11
6258.9276905635
 21
4708.6821875341
 31
0.0
  0
LINE
  5
24C
330
1F
100
AcDbEntity
  8
0
  6
Continuous
 62
     8
370
    25
100
AcDbLine
 10
6245.6471266728
 20
4709.8255440244
 30
0.0
 11
6237.6471266728
 21
4709.8255440244
 31
0.0
  0
LINE
  5
24D
330
1F
100
AcDbEntity
  8
0
  6
Continuous
 62
     8
370
    25
100
AcDbLine
 10
6237.6471266728
 20
4709.1317967394
 30
0.0
 11
6245.6471266728
 21
4709.1317967394
 31
0.0
  0
LINE
  5
24E
330
1F
100
AcDbEntity
  8
0
  6
Continuous
 62
     8
370
    25
100
AcDbLine
 10
6245.3658766728
 20
4708.6821875341
 30
0.0
 11
6237.9283766728
 21
4708.6821875341
 31
0.0
  0
LINE
  5
24F
330
1F
100
AcDbEntity
  8
0
  6
Continuous
 62
     8
370
    25
100
AcDbLine
 10
6276.7788485835
 20
5010.9242597707
 30
0.0
 11
6277.0140531899
 21
5014.4610835986
 31
0.0
  0
LINE
  5
250
330
1F
100
AcDbEntity
  8
0
  6
Continuous
 62
     8
370
    25
100
AcDbLine
 10
6326.6345790453
 20
5012.4112762718
 30
0.0
 11
6326.7538058496
 21
5010.9242597712
 31
0.0
  0
LWPOLYLINE
  5
251
330
1F
100
AcDbEntity
  8
0
  6
Continuous
 62
     8
370
    25
100
AcDbPolyline
 90
        3
 70
   128
 43
0.0
 10
6325.9330030593
 20
5005.8246981559
 10
6325.9629964011
 20
5005.9382628369
 10
6326.1438600111
 20
5005.8049805192
  0
LWPOLYLINE
  5
252
330
1F
100
AcDbEntity
  8
0
  6
Continuous
 62
     8
370
    25
100
AcDbPolyline
 90
        5
 70
   128
 43
0.0
 10
6277.0928731208
 20
5002.57906751
 10
6277.4974190918
 20
5004.7150478334
 10
6277.9059073639
 20
5005.8049805192
 10
6278.2719145769
 20
5005.9382628369
 10
6278.4779517076
 20
5005.5501061815
  0
LWPOLYLINE
  5
253
330
1F
100
AcDbEntity
  8
0
  6
Continuous
 62
     8
370
    25
100
AcDbPolyline
 90
        7
 70
   128
 43
0.0
 10
6278.6557982942
 20
5005.1667430762
 10
6278.6419489077
 20
5005.1922523698
 10
6278.2642406688
 20
5005.0686020184
 10
6277.8485838749
 20
5004.0227744937
 10
6277.4238646889
 20
5001.9175434024
 10
6277.4238609889
 20
5001.9175199887
 10
6277.4238609889
 20
5001.9175199887
  0
LWPOLYLINE
  5
254
330
1F
100
AcDbEntity
  8
0
  6
Continuous
 62
     8
370
    25
100
AcDbPolyline
 90
        5
 70
   128
 43
0.0
 10
6326.2319776219
 20
5001.9175199887
 10
6326.2319755889
 20
5001.9175434024
 10
6326.0090696656
 20
5003.9843160997
 10
6325.7870054627
 20
5005.0686020184
 10
6325.629692863
 20
5005.1747697666
  0
LINE
  5
255
330
1F
100
AcDbEntity
  8
0
  6
Continuous
 62
     7
370
    25
100
AcDbLine
 10
6797.3747568233
 20
4930.9615766383
 30
0.0
 11
6797.3747568233
 21
4929.4615766383
 31
0.0
  0
LINE
  5
256
330
1F
100
AcDbEntity
  8
0
  6
Continuous
 62
     7
370
    25
100
AcDbLine
 10
6850.378995565
 20
4929.4615766383
 30
0.0
 11
6850.378995565
 21
4930.9615766383
 31
0.0
  0
LINE
  5
257
330
1F
100
AcDbEntity
  8
0
  6
Continuous
 62
     7
370
    25
100
AcDbLine
 10
6854.3565852947
 20
4775.1913025803
 30
0.0
 11
6854.3565852947
 21
4789.1913025803
 31
0.0
  0
ARC
  5
258
330
1F
100
AcDbEntity
  8
0
  6
Continuous
 62
     7
370
    25
100
AcDbCircle
 10
6851.3565852947
 20
4789.1913025803
 30
0.0
 40
3.0
100
AcDbArc
 50
360.0
 51
90.0
  0
ARC
  5
259
330
1F
100
AcDbEntity
  8
0
  6
Continuous
 62
     7
370
    25
100
AcDbCircle
 10
6753.8565852947
 20
4789.1913025803
 30
0.0
 40
2.999999999999723
100
AcDbArc
 50
90.0
 51
157.7851661642
  0
ARC
  5
25A
330
1F
100
AcDbEntity
  8
0
  6
Continuous
 62
     7
370
    25
100
AcDbCircle
 10
6852.8565852947
 20
4772.6913025803
 30
0.0
 40
2.500000000000909
100
AcDbArc
 50
0.0
 51
90.0
  0
ARC
  5
25B
330
1F
100
AcDbEntity
  8
0
  6
Continuous
 62
     7
370
    25
100
AcDbCircle
 10
6852.8565852947
 20
4653.1913025803
 30
0.0
 40
2.500000000000909
100
AcDbArc
 50
270.0
 51
0.0
  0
ARC
  5
25C
330
1F
100
AcDbEntity
  8
0
  6
Continuous
 62
     7
370
    25
100
AcDbCircle
 10
6752.3565852947
 20
4653.1913025803
 30
0.0
 40
2.500000000000909
100
AcDbArc
 50
180.0
 51
270.0
  0
LINE
  5
25D
330
1F
100
AcDbEntity
  8
0
  6
Continuous
 62
     7
370
    25
100
AcDbLine
 10
6855.3565852947
 20
4653.1913025803
 30
0.0
 11
6855.3565852947
 21
4772.6913025803
 31
0.0
  0
LINE
  5
25E
330
1F
100
AcDbEntity
  8
0
  6
Continuous
 62
     7
370
    25
100
AcDbLine
 10
6749.8565852947
 20
4707.8887485592
 30
0.0
 11
6749.8565852947
 21
4653.1913025803
 31
0.0
  0
LINE
  5
25F
330
1F
100
AcDbEntity
  8
0
  6
Continuous
 62
     7
370
    25
100
AcDbLine
 10
6855.1065852947
 20
4792.1913025803
 30
0.0
 11
6855.1065852947
 21
4793.6913025803
 31
0.0
  0
LINE
  5
260
330
1F
100
AcDbEntity
  8
0
  6
Continuous
 62
     7
370
    25
100
AcDbLine
 10
6802.954876341
 20
4756.6455538609
 30
0.0
 11
6802.254876341
 21
4756.6455538609
 31
0.0
  0
LINE
  5
261
330
1F
100
AcDbEntity
  8
0
  6
Continuous
 62
     7
370
    25
100
AcDbLine
 10
6802.254876341
 20
4748.005534188
 30
0.0
 11
6802.954876341
 21
4748.005534188
 31
0.0
  0
LINE
  5
262
330
1F
100
AcDbEntity
  8
0
  6
Continuous
 62
     7
370
    25
100
AcDbLine
 10
6824.954876341
 20
4756.3255440244
 30
0.0
 11
6823.954876341
 21
4756.3255440244
 31
0.0
  0
LINE
  5
263
330
1F
100
AcDbEntity
  8
0
  6
Continuous
 62
     7
370
    25
100
AcDbLine
 10
6823.954876341
 20
4748.3255440244
 30
0.0
 11
6824.954876341
 21
4748.3255440244
 31
0.0
  0
ARC
  5
264
330
1F
100
AcDbEntity
  8
0
  6
Continuous
 62
     7
370
    25
100
AcDbCircle
 10
6823.954876341
 20
4755.8255440244
 30
0.0
 40
0.5000000000009095
100
AcDbArc
 50
90.0
 51
180.0
  0
ARC
  5
265
330
1F
100
AcDbEntity
  8
0
  6
Continuous
 62
     7
370
    25
100
AcDbCircle
 10
6823.954876341
 20
4748.8255440244
 30
0.0
 40
0.5000000000009095
100
AcDbArc
 50
180.0
 51
270.0
  0
ARC
  5
266
330
1F
100
AcDbEntity
  8
0
  6
Continuous
 62
     7
370
    25
100
AcDbCircle
 10
6824.954876341
 20
4755.8255440244
 30
0.0
 40
0.5000000000009095
100
AcDbArc
 50
31.8907918019
 51
90.0
  0
ARC
  5
267
330
1F
100
AcDbEntity
  8
0
  6
Continuous
 62
     7
370
    25
100
AcDbCircle
 10
6824.954876341
 20
4748.8255440244
 30
0.0
 40
0.5000000000002917
100
AcDbArc
 50
270.0
 51
328.1092081982
  0
ARC
  5
268
330
1F
100
AcDbEntity
  8
0
  6
Continuous
 62
     7
370
    25
100
AcDbCircle
 10
6819.329876341
 20
4752.3255440244
 30
0.0
 40
7.125000000000773
100
AcDbArc
 50
7.4380473866
 51
31.8907918018
  0
ARC
  5
269
330
1F
100
AcDbEntity
  8
0
  6
Continuous
 62
     7
370
    25
100
AcDbCircle
 10
6819.329876341
 20
4752.3255440244
 30
0.0
 40
7.125000000000291
100
AcDbArc
 50
328.1092081982
 51
352.5619526134
  0
LINE
  5
26A
330
1F
100
AcDbEntity
  8
0
  6
Continuous
 62
     7
370
    25
100
AcDbLine
 10
6807.904876341
 20
4787.3255440244
 30
0.0
 11
6807.904876341
 21
4780.3255440244
 31
0.0
  0
LINE
  5
26B
330
1F
100
AcDbEntity
  8
0
  6
Continuous
 62
     7
370
    25
100
AcDbLine
 10
6816.004876341
 20
4780.3255440244
 30
0.0
 11
6816.004876341
 21
4787.3255440244
 31
0.0
  0
LINE
  5
26C
330
1F
100
AcDbEntity
  8
0
  6
Continuous
 62
     7
370
    25
100
AcDbLine
 10
6802.954876341
 20
4757.2255440244
 30
0.0
 11
6802.254876341
 21
4757.2255440244
 31
0.0
  0
LINE
  5
26D
330
1F
100
AcDbEntity
  8
0
  6
Continuous
 62
     7
370
    25
100
AcDbLine
 10
6802.254876341
 20
4747.4255440244
 30
0.0
 11
6802.954876341
 21
4747.4255440244
 31
0.0
  0
LINE
  5
26E
330
1F
100
AcDbEntity
  8
0
  6
Continuous
 62
     7
370
    25
100
AcDbLine
 10
6800.3848875672
 20
4727.0755440244
 30
0.0
 11
6802.254876341
 21
4727.0755440244
 31
0.0
  0
LINE
  5
26F
330
1F
100
AcDbEntity
  8
0
  6
Continuous
 62
     7
370
    25
100
AcDbLine
 10
6823.454876341
 20
4756.6255440244
 30
0.0
 11
6823.3761814524
 21
4756.6255440244
 31
0.0
  0
LINE
  5
270
330
1F
100
AcDbEntity
  8
0
  6
Continuous
 62
     7
370
    25
100
AcDbLine
 10
6802.954876341
 20
4748.0255440244
 30
0.0
 11
6823.454876341
 21
4748.0255440244
 31
0.0
  0
LINE
  5
271
330
1F
100
AcDbEntity
  8
0
  6
Continuous
 62
     7
370
    25
100
AcDbLine
 10
6802.954876341
 20
4769.8255440244
 30
0.0
 11
6802.254876341
 21
4769.8255440244
 31
0.0
  0
LINE
  5
272
330
1F
100
AcDbEntity
  8
0
  6
Continuous
 62
     7
370
    25
100
AcDbLine
 10
6802.254876341
 20
4767.3255440244
 30
0.0
 11
6802.954876341
 21
4767.3255440244
 31
0.0
  0
ARC
  5
273
330
1F
100
AcDbEntity
  8
0
  6
Continuous
 62
     7
370
    25
100
AcDbCircle
 10
6821.454876341
 20
4731.7755440244
 30
0.0
 40
2.0
100
AcDbArc
 50
270.0
 51
0.0
  0
LINE
  5
274
330
1F
100
AcDbEntity
  8
0
  6
Continuous
 62
     7
370
    25
100
AcDbLine
 10
6802.954876341
 20
4729.7755440244
 30
0.0
 11
6821.454876341
 21
4729.7755440244
 31
0.0
  0
LINE
  5
275
330
1F
100
AcDbEntity
  8
0
  6
Continuous
 62
     7
370
    25
100
AcDbLine
 10
6802.954876341
 20
4744.0078901845
 30
0.0
 11
6802.254876341
 21
4744.0078901845
 31
0.0
  0
LINE
  5
276
330
1F
100
AcDbEntity
  8
0
  6
Continuous
 62
     7
370
    25
100
AcDbLine
 10
6802.254876341
 20
4741.5078901845
 30
0.0
 11
6802.954876341
 21
4741.5078901845
 31
0.0
  0
LINE
  5
277
330
1F
100
AcDbEntity
  8
0
  6
Continuous
 62
     7
370
    25
100
AcDbLine
 10
6823.454876341
 20
4745.8255440244
 30
0.0
 11
6825.954876341
 21
4745.8255440244
 31
0.0
  0
LINE
  5
278
330
1F
100
AcDbEntity
  8
0
  6
Continuous
 62
     7
370
    25
100
AcDbLine
 10
6825.954876341
 20
4758.8255440244
 30
0.0
 11
6824.454876341
 21
4758.8255440244
 31
0.0
  0
ARC
  5
279
330
1F
100
AcDbEntity
  8
0
  6
Continuous
 62
     7
370
    25
100
AcDbCircle
 10
6825.954876341
 20
4758.3255440244
 30
0.0
 40
0.5
100
AcDbArc
 50
0.0
 51
90.0
  0
ARC
  5
27A
330
1F
100
AcDbEntity
  8
0
  6
Continuous
 62
     7
370
    25
100
AcDbCircle
 10
6825.954876341
 20
4746.3255440244
 30
0.0
 40
0.5000000000009095
100
AcDbArc
 50
270.0
 51
0.0
  0
LINE
  5
27B
330
1F
100
AcDbEntity
  8
0
  6
Continuous
 62
     7
370
    25
100
AcDbLine
 10
6802.954876341
 20
4732.5255440244
 30
0.0
 11
6802.254876341
 21
4732.5255440244
 31
0.0
  0
LINE
  5
27C
330
1F
100
AcDbEntity
  8
0
  6
Continuous
 62
     7
370
    25
100
AcDbLine
 10
6802.254876341
 20
4730.0255440244
 30
0.0
 11
6802.954876341
 21
4730.0255440244
 31
0.0
  0
LINE
  5
27D
330
1F
100
AcDbEntity
  8
0
  6
Continuous
 62
     7
370
    25
100
AcDbLine
 10
6802.954876341
 20
4770.4765454778
 30
0.0
 11
6802.254876341
 21
4770.4765454778
 31
0.0
  0
ARC
  5
27E
330
1F
100
AcDbEntity
  8
0
  6
Continuous
 62
     7
370
    25
100
AcDbCircle
 10
6788.0290698894
 20
4734.3255440244
 30
0.0
 40
14.32580645161308
100
AcDbArc
 50
24.760401104
 51
38.407947011
  0
ARC
  5
27F
330
1F
100
AcDbEntity
  8
0
  6
Continuous
 62
     7
370
    25
100
AcDbCircle
 10
6788.0290698894
 20
4734.3255440244
 30
0.0
 40
14.32580645161252
100
AcDbArc
 50
321.592052989
 51
335.239598896
  0
LINE
  5
280
330
1F
100
AcDbEntity
  8
0
  6
Continuous
 62
     7
370
    25
100
AcDbLine
 10
6799.254876341
 20
4743.2255440244
 30
0.0
 11
6799.054876341
 21
4743.2255440244
 31
0.0
  0
LINE
  5
281
330
1F
100
AcDbEntity
  8
0
  6
Continuous
 62
     7
370
    25
100
AcDbLine
 10
6799.054876341
 20
4725.4255440244
 30
0.0
 11
6799.254876341
 21
4725.4255440244
 31
0.0
  0
LINE
  5
282
330
1F
100
AcDbEntity
  8
0
  6
Continuous
 62
     7
370
    25
100
AcDbLine
 10
6801.1282580508
 20
4740.1255440244
 30
0.0
 11
6801.0378642412
 21
4740.1255440244
 31
0.0
  0
LINE
  5
283
330
1F
100
AcDbEntity
  8
0
  6
Continuous
 62
     7
370
    25
100
AcDbLine
 10
6801.0378642412
 20
4728.5255440244
 30
0.0
 11
6801.1282580508
 21
4728.5255440244
 31
0.0
  0
ARC
  5
284
330
1F
100
AcDbEntity
  8
0
  6
Continuous
 62
     7
370
    25
100
AcDbCircle
 10
6788.0290698894
 20
4734.3255440244
 30
0.0
 40
14.32580645161208
100
AcDbArc
 50
336.1174094853
 51
23.8825905147
  0
LWPOLYLINE
  5
285
330
1F
100
AcDbEntity
  8
0
  6
Continuous
 62
     7
370
    25
100
AcDbPolyline
 90
        3
 70
   128
 43
0.0
 10
6786.9180904468
 20
4785.0931029206
 10
6786.7521735475
 20
4785.368365458
 10
6786.6476350335
 20
4785.5447867002
  0
LWPOLYLINE
  5
286
330
1F
100
AcDbEntity
  8
0
  6
Continuous
 62
     7
370
    25
100
AcDbPolyline
 90
        3
 70
   128
 43
0.0
 10
6787.2121176453
 20
4785.5447867002
 10
6787.1075791314
 20
4785.368365458
 10
6786.9416622321
 20
4785.0931029206
  0
LINE
  5
287
330
1F
100
AcDbEntity
  8
0
  6
Continuous
 62
     7
370
    25
100
AcDbLine
 10
6786.9923763394
 20
4785.1342781444
 30
0.0
 11
6786.8932717209
 21
4785.1342781444
 31
0.0
  0
LINE
  5
288
330
1F
100
AcDbEntity
  8
0
  6
Continuous
 62
     7
370
    25
100
AcDbLine
 10
6787.086369891
 20
4715.002909095
 30
0.0
 11
6787.1476350335
 21
4715.1063013487
 31
0.0
  0
ARC
  5
289
330
1F
100
AcDbEntity
  8
0
  6
Continuous
 62
     7
370
    25
100
AcDbCircle
 10
6747.254876341
 20
4709.1317967394
 30
0.0
 40
0.5
100
AcDbArc
 50
180.0
 51
244.0555202276
  0
LINE
  5
28A
330
1F
100
AcDbEntity
  8
0
  6
Continuous
 62
     7
370
    25
100
AcDbLine
 10
6746.754876341
 20
4709.8255440244
 30
0.0
 11
6746.754876341
 21
4709.1317967394
 31
0.0
  0
ARC
  5
28B
330
1F
100
AcDbEntity
  8
0
  6
Continuous
 62
     7
370
    25
100
AcDbCircle
 10
6747.254876341
 20
4709.8255440244
 30
0.0
 40
0.5
100
AcDbArc
 50
90.0
 51
180.0
  0
ARC
  5
28C
330
1F
100
AcDbEntity
  8
0
  6
Continuous
 62
     7
370
    25
100
AcDbCircle
 10
6750.754876341
 20
4716.3255440244
 30
0.0
 40
8.500000000000247
100
AcDbArc
 50
244.0555202276
 51
252.8953648234
  0
ARC
  5
28D
330
1F
100
AcDbEntity
  8
0
  6
Continuous
 62
     7
370
    25
100
AcDbCircle
 10
6767.254876341
 20
4709.8255440244
 30
0.0
 40
0.5
100
AcDbArc
 50
90.0
 51
180.0
  0
ARC
  5
28E
330
1F
100
AcDbEntity
  8
0
  6
Continuous
 62
     7
370
    25
100
AcDbCircle
 10
6774.254876341
 20
4709.8255440244
 30
0.0
 40
0.5
100
AcDbArc
 50
0.0
 51
90.0
  0
ARC
  5
28F
330
1F
100
AcDbEntity
  8
0
  6
Continuous
 62
     7
370
    25
100
AcDbCircle
 10
6767.254876341
 20
4709.1317967394
 30
0.0
 40
0.5
100
AcDbArc
 50
180.0
 51
244.0555202276
  0
ARC
  5
290
330
1F
100
AcDbEntity
  8
0
  6
Continuous
 62
     7
370
    25
100
AcDbCircle
 10
6774.254876341
 20
4709.1317967394
 30
0.0
 40
0.5
100
AcDbArc
 50
295.9444797724
 51
0.0
  0
LINE
  5
291
330
1F
100
AcDbEntity
  8
0
  6
Continuous
 62
     7
370
    25
100
AcDbLine
 10
6766.754876341
 20
4709.8255440244
 30
0.0
 11
6766.754876341
 21
4709.1317967394
 31
0.0
  0
LINE
  5
292
330
1F
100
AcDbEntity
  8
0
  6
Continuous
 62
     7
370
    25
100
AcDbLine
 10
6774.754876341
 20
4709.1317967394
 30
0.0
 11
6774.754876341
 21
4709.8255440244
 31
0.0
  0
ARC
  5
293
330
1F
100
AcDbEntity
  8
0
  6
Continuous
 62
     7
370
    25
100
AcDbCircle
 10
6770.754876341
 20
4716.3255440244
 30
0.0
 40
8.49999999999998
100
AcDbArc
 50
287.1046351766
 51
295.9444797724
  0
ARC
  5
294
330
1F
100
AcDbEntity
  8
0
  6
Continuous
 62
     7
370
    25
100
AcDbCircle
 10
6770.754876341
 20
4716.3255440244
 30
0.0
 40
8.49999999999998
100
AcDbArc
 50
244.0555202276
 51
252.8953648234
  0
LWPOLYLINE
  5
295
330
1F
100
AcDbEntity
  8
0
  6
Continuous
 62
     7
370
    25
100
AcDbPolyline
 90
        3
 70
   128
 43
0.0
 10
6752.8594418289
 20
4708.3453788397
 10
6753.1302480946
 20
4708.188937868
 10
6753.3961422608
 20
4708.0353276935
  0
LWPOLYLINE
  5
296
330
1F
100
AcDbEntity
  8
0
  6
Continuous
 62
     7
370
    25
100
AcDbPolyline
 90
        3
 70
   128
 43
0.0
 10
6753.4010326242
 20
4708.7935856455
 10
6753.130236061
 20
4708.6371433259
 10
6752.8594276755
 20
4708.4807011403
  0
LWPOLYLINE
  5
297
330
1F
100
AcDbEntity
  8
0
  6
Continuous
 62
     7
370
    25
100
AcDbPolyline
 90
        3
 70
   128
 43
0.0
 10
6752.8594418289
 20
4709.3453788397
 10
6753.1302480946
 20
4709.188937868
 10
6753.3961422608
 20
4709.0353276935
  0
LWPOLYLINE
  5
298
330
1F
100
AcDbEntity
  8
0
  6
Continuous
 62
     7
370
    25
100
AcDbPolyline
 90
        3
 70
   128
 43
0.0
 10
6768.6503250064
 20
4707.9807011403
 10
6768.379516621
 20
4708.1371433259
 10
6768.1136104211
 20
4708.2907604258
  0
LWPOLYLINE
  5
299
330
1F
100
AcDbEntity
  8
0
  6
Continuous
 62
     7
370
    25
100
AcDbPolyline
 90
        3
 70
   128
 43
0.0
 10
6752.8937767746
 20
4710.3255440244
 10
6753.1302480946
 20
4710.188937868
 10
6753.3961422608
 20
4710.0353276935
  0
LWPOLYLINE
  5
29A
330
1F
100
AcDbEntity
  8
0
  6
Continuous
 62
     7
370
    25
100
AcDbPolyline
 90
        3
 70
   128
 43
0.0
 10
6753.4010326242
 20
4709.7935856455
 10
6753.130236061
 20
4709.6371433259
 10
6752.8594276755
 20
4709.4807011403
  0
LWPOLYLINE
  5
29B
330
1F
100
AcDbEntity
  8
0
  6
Continuous
 62
     7
370
    25
100
AcDbPolyline
 90
        3
 70
   128
 43
0.0
 10
6768.1087101754
 20
4707.5324967641
 10
6768.3795045873
 20
4707.688937868
 10
6768.650310853
 20
4707.8453788397
  0
LWPOLYLINE
  5
29C
330
1F
100
AcDbEntity
  8
0
  6
Continuous
 62
     7
370
    25
100
AcDbPolyline
 90
        3
 70
   128
 43
0.0
 10
6753.4010326242
 20
4707.7935856455
 10
6753.1479062294
 20
4707.6473513782
 10
6753.0964116772
 20
4707.6176035809
  0
LINE
  5
29D
330
1F
100
AcDbEntity
  8
0
  6
Continuous
 62
     7
370
    25
100
AcDbLine
 10
6753.0624027028
 20
4707.5180176626
 30
0.0
 11
6753.854876341
 21
4706.7255440244
 31
0.0
  0
LINE
  5
29E
330
1F
100
AcDbEntity
  8
0
  6
Continuous
 62
     7
370
    25
100
AcDbLine
 10
6767.654876341
 20
4706.7255440244
 30
0.0
 11
6768.1782636386
 21
4707.2489313221
 31
0.0
  0
LINE
  5
29F
330
1F
100
AcDbEntity
  8
0
  6
Continuous
 62
     7
370
    25
100
AcDbLine
 10
6768.1136104211
 20
4707.2880606854
 30
0.0
 11
6768.1136104211
 21
4707.5353276935
 31
0.0
  0
LINE
  5
2A0
330
1F
100
AcDbEntity
  8
0
  6
Continuous
 62
     7
370
    25
100
AcDbLine
 10
6752.854876341
 20
4709.4755440244
 30
0.0
 11
6752.854876341
 21
4709.3505440217
 31
0.0
  0
LINE
  5
2A1
330
1F
100
AcDbEntity
  8
0
  6
Continuous
 62
     7
370
    25
100
AcDbLine
 10
6752.854876341
 20
4708.4755440244
 30
0.0
 11
6752.854876341
 21
4708.3505440217
 31
0.0
  0
LINE
  5
2A2
330
1F
100
AcDbEntity
  8
0
  6
Continuous
 62
     7
370
    25
100
AcDbLine
 10
6753.3961422608
 20
4708.0380606854
 30
0.0
 11
6753.3961422608
 21
4707.7907604217
 31
0.0
  0
LINE
  5
2A3
330
1F
100
AcDbEntity
  8
0
  6
Continuous
 62
     7
370
    25
100
AcDbLine
 10
6753.3961422608
 20
4710.0380606854
 30
0.0
 11
6753.3961422608
 21
4709.7880606854
 31
0.0
  0
LINE
  5
2A4
330
1F
100
AcDbEntity
  8
0
  6
Continuous
 62
     7
370
    25
100
AcDbLine
 10
6753.3961422608
 20
4709.0380606854
 30
0.0
 11
6753.3961422608
 21
4708.7907604258
 31
0.0
  0
LINE
  5
2A5
330
1F
100
AcDbEntity
  8
0
  6
Continuous
 62
     7
370
    25
100
AcDbLine
 10
6853.6459486735
 20
4948.4105361096
 30
0.0
 11
6853.9593229294
 21
4948.3129798142
 31
0.0
  0
LINE
  5
2A6
330
1F
100
AcDbEntity
  8
0
  6
Continuous
 62
     7
370
    25
100
AcDbLine
 10
6860.7845737253
 20
4969.0305271188
 30
0.0
 11
6860.494510413
 21
4969.1320606815
 31
0.0
  0
ARC
  5
2A7
330
1F
100
AcDbEntity
  8
0
  6
Continuous
 62
     7
370
    25
100
AcDbCircle
 10
6860.6921355546
 20
4968.5932278103
 30
0.0
 40
0.4370953265819786
100
AcDbArc
 50
9.9028241992
 51
79.0377444756
  0
ARC
  5
2A8
330
1F
100
AcDbEntity
  8
0
  6
Continuous
 62
     7
370
    25
100
AcDbCircle
 10
6854.127244505
 20
4948.758366557
 30
0.0
 40
0.4670841507602237
100
AcDbArc
 50
249.2733699946
 51
318.6039798675
  0
LINE
  5
2A9
330
1F
100
AcDbEntity
  8
0
  6
Continuous
 62
     7
370
    25
100
AcDbLine
 10
6854.6488009412
 20
4948.8059154378
 30
0.0
 11
6861.0755459635
 21
4968.2582639598
 31
0.0
  0
LWPOLYLINE
  5
2AA
330
1F
100
AcDbEntity
  8
0
  6
Continuous
 62
     7
370
    25
100
AcDbPolyline
 90
        3
 70
   128
 43
0.0
 10
6906.8802797688
 20
4995.1456777658
 10
6906.7035904863
 20
4995.0357965007
 10
6906.52627867
 20
4994.9259154923
  0
LINE
  5
2AB
330
1F
100
AcDbEntity
  8
0
  6
Continuous
 62
     7
370
    25
100
AcDbLine
 10
6906.365354425
 20
4994.8771336159
 30
0.0
 11
6906.865354425
 21
4994.3771336159
 31
0.0
  0
LINE
  5
2AC
330
1F
100
AcDbEntity
  8
0
  6
Continuous
 62
     7
370
    25
100
AcDbLine
 10
6923.9374107799
 20
4993.5965435306
 30
0.0
 11
6924.0692348441
 21
4993.2343185482
 31
0.0
  0
LINE
  5
2AD
330
1F
100
AcDbEntity
  8
0
  6
Continuous
 62
     7
370
    25
100
AcDbLine
 10
6928.767760676
 20
4994.9442469115
 30
0.0
 11
6928.6364720692
 21
4995.3050005686
 31
0.0
  0
LWPOLYLINE
  5
2AE
330
1F
100
AcDbEntity
  8
0
  6
Continuous
 62
     7
370
    25
100
AcDbPolyline
 90
       15
 70
   128
 43
0.0
 10
6863.8376097863
 20
5034.33296892
 10
6857.086560152
 20
5031.9964646883
 10
6849.9621364731
 20
5028.7777855627
 10
6842.6631624227
 20
5024.4582937247
 10
6837.2097758627
 20
5020.3740850205
 10
6831.8519767614
 20
5015.5295758691
 10
6826.6582228194
 20
5009.9186909846
 10
6821.7013447772
 20
5003.5564986686
 10
6817.0586609851
 20
4996.4825414523
 10
6812.8115509279
 20
4988.7635739463
 10
6809.016137332
 20
4980.4562706298
 10
6805.6791711006
 20
4971.5773309655
 10
6801.9186069494
 20
4958.8895757449
 10
6798.8668013709
 20
4945.3099600326
 10
6796.374949318
 20
4930.9615766383
  0
LWPOLYLINE
  5
2AF
330
1F
100
AcDbEntity
  8
0
  6
Continuous
 62
     7
370
    25
100
AcDbPolyline
 90
        8
 70
   128
 43
0.0
 10
6860.5084128282
 20
4969.0618660019
 10
6860.9942230094
 20
4970.1728754838
 10
6863.9658720343
 20
4975.6707284635
 10
6867.2315856122
 20
4980.5567019565
 10
6870.7502061009
 20
4984.7813879024
 10
6874.4793653009
 20
4988.31951193
 10
6878.375895931
 20
4991.1669422199
 10
6882.3962299811
 20
4993.3378312011
  0
ARC
  5
2B0
330
1F
100
AcDbEntity
  8
0
  6
Continuous
 62
     7
370
    25
100
AcDbCircle
 10
6944.4185472681
 20
4927.4312929421
 30
0.0
 40
93.1076154997951
100
AcDbArc
 50
166.9994602633
 51
177.8270429143
  0
LWPOLYLINE
  5
2B1
330
1F
100
AcDbEntity
  8
0
  6
Continuous
 62
     7
370
    25
100
AcDbPolyline
 90
       23
 70
   128
 43
0.0
 10
6961.4671916091
 20
5007.3778628521
 10
6957.0310102225
 20
5013.2002278989
 10
6952.2742505507
 20
5018.0658957995
 10
6947.4048978107
 20
5022.0967078666
 10
6942.5873377368
 20
5025.404298256
 10
6937.9487361637
 20
5028.0904292273
 10
6933.5817388467
 20
5030.2481625192
 10
6928.784317221
 20
5032.2594339505
 10
6924.5400841987
 20
5033.7601134746
 10
6920.8069358687
 20
5034.8836037126
 10
6917.1597529621
 20
5035.8164098234
 10
6913.5491529147
 20
5036.5893111545
 10
6907.6325057355
 20
5037.5537989926
 10
6902.0785398695
 20
5038.1409512112
 10
6897.6985949222
 20
5038.3999685065
 10
6896.1106166876
 20
5038.4507564005
 10
6893.7754976242
 20
5038.4841514614
 10
6890.6643501762
 20
5038.4527575418
 10
6886.7790043886
 20
5038.2926075603
 10
6882.1246552067
 20
5037.9246841758
 10
6876.717931487
 20
5037.2453629454
 10
6870.5993175043
 20
5036.1104094784
 10
6863.8375840262
 20
5034.3329609972
  0
LWPOLYLINE
  5
2B2
330
1F
100
AcDbEntity
  8
0
  6
Continuous
 62
     7
370
    25
100
AcDbPolyline
 90
        3
 70
   128
 43
0.0
 10
6909.955757426
 20
4994.1926295497
 10
6912.4542238098
 20
4993.1808903409
 10
6916.3607119724
 20
4990.9621801746
  0
ARC
  5
2B3
330
1F
100
AcDbEntity
  8
0
  6
Continuous
 62
     7
370
    25
100
AcDbCircle
 10
6897.2818944569
 20
4959.696726511
 30
0.0
 40
36.7873216872118
100
AcDbArc
 50
75.702487624
 51
113.8686733536
  0
LINE
  5
2B4
330
1F
100
AcDbEntity
  8
0
  6
Continuous
 62
     7
370
    25
100
AcDbLine
 10
6823.8056384039
 20
4930.9615766383
 30
0.0
 11
6823.8056384039
 21
4929.4615766383
 31
0.0
  0
LINE
  5
2B5
330
1F
100
AcDbEntity
  8
0
  6
Continuous
 62
     7
370
    25
100
AcDbLine
 10
6797.3747568233
 20
4930.9615766383
 30
0.0
 11
6823.8056384039
 21
4930.9615766383
 31
0.0
  0
LINE
  5
2B6
330
1F
100
AcDbEntity
  8
0
  6
Continuous
 62
     7
370
    25
100
AcDbLine
 10
6797.3747568233
 20
4929.4615766383
 30
0.0
 11
6823.8056384039
 21
4929.4615766383
 31
0.0
  0
LINE
  5
2B7
330
1F
100
AcDbEntity
  8
0
  6
Continuous
 62
     7
370
    25
100
AcDbLine
 10
6842.5784645331
 20
4929.4615766383
 30
0.0
 11
6842.5784645331
 21
4930.9615766383
 31
0.0
  0
LINE
  5
2B8
330
1F
100
AcDbEntity
  8
0
  6
Continuous
 62
     7
370
    25
100
AcDbLine
 10
6823.8056384039
 20
4930.9615766383
 30
0.0
 11
6842.5784645331
 21
4930.9615766383
 31
0.0
  0
LINE
  5
2B9
330
1F
100
AcDbEntity
  8
0
  6
Continuous
 62
     7
370
    25
100
AcDbLine
 10
6823.8056384039
 20
4929.4615766383
 30
0.0
 11
6842.5784645331
 21
4929.4615766383
 31
0.0
  0
LINE
  5
2BA
330
1F
100
AcDbEntity
  8
0
  6
Continuous
 62
     7
370
    25
100
AcDbLine
 10
6844.3523155113
 20
4930.9615766383
 30
0.0
 11
6844.3523155113
 21
4929.4615766383
 31
0.0
  0
LINE
  5
2BB
330
1F
100
AcDbEntity
  8
0
  6
Continuous
 62
     7
370
    25
100
AcDbLine
 10
6842.5784645331
 20
4930.9615766383
 30
0.0
 11
6844.3523155113
 21
4930.9615766383
 31
0.0
  0
LINE
  5
2BC
330
1F
100
AcDbEntity
  8
0
  6
Continuous
 62
     7
370
    25
100
AcDbLine
 10
6844.3523155113
 20
4929.4615766383
 30
0.0
 11
6842.5784645331
 21
4929.4615766383
 31
0.0
  0
LINE
  5
2BD
330
1F
100
AcDbEntity
  8
0
  6
Continuous
 62
     7
370
    25
100
AcDbLine
 10
6844.3523155113
 20
4930.9615766383
 30
0.0
 11
6850.378995565
 21
4930.9615766383
 31
0.0
  0
LINE
  5
2BE
330
1F
100
AcDbEntity
  8
0
  6
Continuous
 62
     7
370
    25
100
AcDbLine
 10
6844.3523155113
 20
4929.4615766383
 30
0.0
 11
6850.378995565
 21
4929.4615766383
 31
0.0
  0
LINE
  5
2BF
330
1F
100
AcDbEntity
  8
0
  6
Continuous
 62
     7
370
    25
100
AcDbLine
 10
6854.3565852947
 20
4775.1913025803
 30
0.0
 11
6824.454876341
 21
4775.1913025803
 31
0.0
  0
LINE
  5
2C0
330
1F
100
AcDbEntity
  8
0
  6
Continuous
 62
     7
370
    25
100
AcDbLine
 10
6802.954876341
 20
4775.1913025803
 30
0.0
 11
6802.254876341
 21
4775.1913025803
 31
0.0
  0
LINE
  5
2C1
330
1F
100
AcDbEntity
  8
0
  6
Continuous
 62
     7
370
    25
100
AcDbLine
 10
6852.8565688834
 20
4650.6913025803
 30
0.0
 11
6752.3565852947
 21
4650.6913025803
 31
0.0
  0
LINE
  5
2C2
330
1F
100
AcDbEntity
  8
0
  6
Continuous
 62
     7
370
    25
100
AcDbLine
 10
6746.6065852947
 20
4791.4547025803
 30
0.0
 11
6745.1065852947
 21
4791.4547025803
 31
0.0
  0
LINE
  5
2C3
330
1F
100
AcDbEntity
  8
0
  6
Continuous
 62
     7
370
    25
100
AcDbLine
 10
6746.6065852947
 20
4790.3255440244
 30
0.0
 11
6746.6065852947
 21
4791.4547025803
 31
0.0
  0
LINE
  5
2C4
330
1F
100
AcDbEntity
  8
0
  6
Continuous
 62
     7
370
    25
100
AcDbLine
 10
6745.1065852947
 20
4790.3255440244
 30
0.0
 11
6745.1065852947
 21
4791.4547025803
 31
0.0
  0
ARC
  5
2C5
330
1F
100
AcDbEntity
  8
0
  6
Continuous
 62
     7
370
    25
100
AcDbCircle
 10
6747.3431852947
 20
4791.4547025803
 30
0.0
 40
0.7366000000001804
100
AcDbArc
 50
90.0
 51
180.0
  0
ARC
  5
2C6
330
1F
100
AcDbEntity
  8
0
  6
Continuous
 62
     7
370
    25
100
AcDbCircle
 10
6747.3431852947
 20
4791.4547025803
 30
0.0
 40
2.23660000000018
100
AcDbArc
 50
90.0
 51
180.0
  0
LINE
  5
2C7
330
1F
100
AcDbEntity
  8
0
  6
Continuous
 62
     7
370
    25
100
AcDbLine
 10
6747.3431852947
 20
4793.6913025803
 30
0.0
 11
6747.3431852947
 21
4792.1913025803
 31
0.0
  0
LINE
  5
2C8
330
1F
100
AcDbEntity
  8
0
  6
Continuous
 62
     7
370
    25
100
AcDbLine
 10
6747.3431852947
 20
4793.6913025803
 30
0.0
 11
6802.6065852947
 21
4793.6913025803
 31
0.0
  0
LINE
  5
2C9
330
1F
100
AcDbEntity
  8
0
  6
Continuous
 62
     7
370
    25
100
AcDbLine
 10
6802.6065852947
 20
4792.1913025803
 30
0.0
 11
6802.6065852947
 21
4793.6913025803
 31
0.0
  0
LINE
  5
2CA
330
1F
100
AcDbEntity
  8
0
  6
Continuous
 62
     7
370
    25
100
AcDbLine
 10
6747.3431852947
 20
4792.1913025803
 30
0.0
 11
6802.6065852947
 21
4792.1913025803
 31
0.0
  0
LINE
  5
2CB
330
1F
100
AcDbEntity
  8
0
  6
Continuous
 62
     7
370
    25
100
AcDbLine
 10
6855.1065852947
 20
4793.6913025803
 30
0.0
 11
6802.6065852947
 21
4793.6913025803
 31
0.0
  0
LINE
  5
2CC
330
1F
100
AcDbEntity
  8
0
  6
Continuous
 62
     7
370
    25
100
AcDbLine
 10
6855.1065852947
 20
4792.1913025803
 30
0.0
 11
6802.6065852947
 21
4792.1913025803
 31
0.0
  0
LINE
  5
2CD
330
1F
100
AcDbEntity
  8
0
  6
Continuous
 62
     7
370
    25
100
AcDbLine
 10
6802.954876341
 20
4748.005534188
 30
0.0
 11
6802.954876341
 21
4756.3554323603
 31
0.0
  0
ARC
  5
2CE
330
1F
100
AcDbEntity
  8
0
  6
Continuous
 62
     7
370
    25
100
AcDbCircle
 10
6821.2653473567
 20
4752.5748215644
 30
0.0
 40
5.173264865770713
100
AcDbArc
 50
4.9004764201
 51
24.2234485089
  0
ARC
  5
2CF
330
1F
100
AcDbEntity
  8
0
  6
Continuous
 62
     7
370
    25
100
AcDbCircle
 10
6824.0335240047
 20
4754.4263492056
 30
0.0
 40
1.968344882175188
100
AcDbArc
 50
352.0851454826
 51
7.9148545174
  0
ARC
  5
2D0
330
1F
100
AcDbEntity
  8
0
  6
Continuous
 62
     7
370
    25
100
AcDbCircle
 10
6821.2653473567
 20
4752.0327341042
 30
0.0
 40
5.173264865774899
100
AcDbArc
 50
4.9004764202
 51
24.2234485089
  0
ARC
  5
2D1
330
1F
100
AcDbEntity
  8
0
  6
Continuous
 62
     7
370
    25
100
AcDbCircle
 10
6823.9808030113
 20
4752.8267846703
 30
0.0
 40
2.464187114252545
100
AcDbArc
 50
324.3474136846
 51
351.7845197171
  0
ARC
  5
2D2
330
1F
100
AcDbEntity
  8
0
  6
Continuous
 62
     7
370
    25
100
AcDbCircle
 10
6821.2872870609
 20
4750.970325374
 30
0.0
 40
4.71459052371523
100
AcDbArc
 50
354.8870565455
 51
5.1129434545
  0
ARC
  5
2D3
330
1F
100
AcDbEntity
  8
0
  6
Continuous
 62
     7
370
    25
100
AcDbCircle
 10
6823.9808030113
 20
4751.9864625978
 30
0.0
 40
2.464187114261865
100
AcDbArc
 50
324.3474136847
 51
351.7845197171
  0
ARC
  5
2D4
330
1F
100
AcDbEntity
  8
0
  6
Continuous
 62
     7
370
    25
100
AcDbCircle
 10
6821.3732419361
 20
4752.6006111387
 30
0.0
 40
5.064256070917176
100
AcDbArc
 50
349.0003887853
 51
355.1952497101
  0
LWPOLYLINE
  5
2D5
330
1F
100
AcDbEntity
  8
0
  6
Continuous
 62
     7
370
    25
100
AcDbPolyline
 90
        3
 70
   128
 43
0.0
 10
6826.4197017972
 20
4752.1764267183
 10
6826.3970150241
 20
4752.3150719597
 10
6826.3949224353
 20
4752.3255440244
  0
LINE
  5
2D6
330
1F
100
AcDbEntity
  8
0
  6
Continuous
 62
     7
370
    25
100
AcDbLine
 10
6826.1352029808
 20
4751.6343392581
 30
0.0
 11
6826.4197017972
 21
4751.6343392581
 31
0.0
  0
LINE
  5
2D7
330
1F
100
AcDbEntity
  8
0
  6
Continuous
 62
     7
370
    25
100
AcDbLine
 10
6826.3444599161
 20
4753.0167487908
 30
0.0
 11
6826.4197017972
 21
4753.0167487908
 31
0.0
  0
LINE
  5
2D8
330
1F
100
AcDbEntity
  8
0
  6
Continuous
 62
     7
370
    25
100
AcDbLine
 10
6826.4197017972
 20
4752.1764267183
 30
0.0
 11
6826.3592994926
 21
4752.1764267183
 31
0.0
  0
LINE
  5
2D9
330
1F
100
AcDbEntity
  8
0
  6
Continuous
 62
     7
370
    25
100
AcDbLine
 10
6807.904876341
 20
4787.3255440244
 30
0.0
 11
6816.004876341
 21
4787.3255440244
 31
0.0
  0
LINE
  5
2DA
330
1F
100
AcDbEntity
  8
0
  6
Continuous
 62
     7
370
    25
100
AcDbLine
 10
6802.254876341
 20
4757.9255440244
 30
0.0
 11
6802.254876341
 21
4745.3377876342
 31
0.0
  0
LINE
  5
2DB
330
1F
100
AcDbEntity
  8
0
  6
Continuous
 62
     7
370
    25
100
AcDbLine
 10
6799.054876341
 20
4745.3377876342
 30
0.0
 11
6802.254876341
 21
4745.3377876342
 31
0.0
  0
LINE
  5
2DC
330
1F
100
AcDbEntity
  8
0
  6
Continuous
 62
     7
370
    25
100
AcDbLine
 10
6799.054876341
 20
4757.9255440244
 30
0.0
 11
6802.254876341
 21
4757.9255440244
 31
0.0
  0
LINE
  5
2DD
330
1F
100
AcDbEntity
  8
0
  6
Continuous
 62
     7
370
    25
100
AcDbLine
 10
6799.054876341
 20
4780.3255440244
 30
0.0
 11
6802.254876341
 21
4780.3255440244
 31
0.0
  0
LINE
  5
2DE
330
1F
100
AcDbEntity
  8
0
  6
Continuous
 62
     7
370
    25
100
AcDbLine
 10
6802.254876341
 20
4780.3255440244
 30
0.0
 11
6802.254876341
 21
4757.9255440244
 31
0.0
  0
LINE
  5
2DF
330
1F
100
AcDbEntity
  8
0
  6
Continuous
 62
     7
370
    25
100
AcDbLine
 10
6799.054876341
 20
4782.3255440244
 30
0.0
 11
6802.254876341
 21
4782.3255440244
 31
0.0
  0
LINE
  5
2E0
330
1F
100
AcDbEntity
  8
0
  6
Continuous
 62
     7
370
    25
100
AcDbLine
 10
6802.254876341
 20
4782.3255440244
 30
0.0
 11
6802.254876341
 21
4780.3255440244
 31
0.0
  0
LINE
  5
2E1
330
1F
100
AcDbEntity
  8
0
  6
Continuous
 62
     7
370
    25
100
AcDbLine
 10
6802.254876341
 20
4745.3377876342
 30
0.0
 11
6802.254876341
 21
4736.0152662768
 31
0.0
  0
LINE
  5
2E2
330
1F
100
AcDbEntity
  8
0
  6
Continuous
 62
     7
370
    25
100
AcDbLine
 10
6802.254876341
 20
4732.635821772
 30
0.0
 11
6802.254876341
 21
4727.0755440244
 31
0.0
  0
LINE
  5
2E3
330
1F
100
AcDbEntity
  8
0
  6
Continuous
 62
     7
370
    25
100
AcDbLine
 10
6802.954876341
 20
4756.3554323603
 30
0.0
 11
6821.454876341
 21
4756.3554323603
 31
0.0
  0
ARC
  5
2E4
330
1F
100
AcDbEntity
  8
0
  6
Continuous
 62
     7
370
    25
100
AcDbCircle
 10
6821.6209159368
 20
4762.2815362104
 30
0.0
 40
5.928429470694235
100
AcDbArc
 50
268.3950872163
 51
287.2220685513
  0
LINE
  5
2E5
330
1F
100
AcDbEntity
  8
0
  6
Continuous
 62
     7
370
    25
100
AcDbLine
 10
6823.454876341
 20
4748.0255440244
 30
0.0
 11
6823.454876341
 21
4756.6255440244
 31
0.0
  0
LINE
  5
2E6
330
1F
100
AcDbEntity
  8
0
  6
Continuous
 62
     7
370
    25
100
AcDbLine
 10
6821.454876341
 20
4776.3255440244
 30
0.0
 11
6802.954876341
 21
4776.3255440244
 31
0.0
  0
LINE
  5
2E7
330
1F
100
AcDbEntity
  8
0
  6
Continuous
 62
     7
370
    25
100
AcDbLine
 10
6821.454876341
 20
4756.3554323603
 30
0.0
 11
6821.454876341
 21
4776.3255440244
 31
0.0
  0
LINE
  5
2E8
330
1F
100
AcDbEntity
  8
0
  6
Continuous
 62
     7
370
    25
100
AcDbLine
 10
6802.954876341
 20
4776.3255440244
 30
0.0
 11
6802.954876341
 21
4756.3767765513
 31
0.0
  0
LINE
  5
2E9
330
1F
100
AcDbEntity
  8
0
  6
Continuous
 62
     7
370
    25
100
AcDbLine
 10
6802.954876341
 20
4780.3255440244
 30
0.0
 11
6821.454876341
 21
4780.3255440244
 31
0.0
  0
LINE
  5
2EA
330
1F
100
AcDbEntity
  8
0
  6
Continuous
 62
     7
370
    25
100
AcDbLine
 10
6821.454876341
 20
4776.3255440244
 30
0.0
 11
6821.454876341
 21
4780.3255440244
 31
0.0
  0
LINE
  5
2EB
330
1F
100
AcDbEntity
  8
0
  6
Continuous
 62
     7
370
    25
100
AcDbLine
 10
6802.954876341
 20
4776.3255440244
 30
0.0
 11
6802.954876341
 21
4780.3255440244
 31
0.0
  0
LINE
  5
2EC
330
1F
100
AcDbEntity
  8
0
  6
Continuous
 62
     7
370
    25
100
AcDbLine
 10
6823.454876341
 20
4776.3255440244
 30
0.0
 11
6821.454876341
 21
4776.3255440244
 31
0.0
  0
LINE
  5
2ED
330
1F
100
AcDbEntity
  8
0
  6
Continuous
 62
     7
370
    25
100
AcDbLine
 10
6823.454876341
 20
4776.3255440244
 30
0.0
 11
6823.454876341
 21
4756.6255440244
 31
0.0
  0
ARC
  5
2EE
330
1F
100
AcDbEntity
  8
0
  6
Continuous
 62
     7
370
    25
100
AcDbCircle
 10
6821.454876341
 20
4778.3255440244
 30
0.0
 40
2.0
100
AcDbArc
 50
0.0
 51
90.0
  0
LINE
  5
2EF
330
1F
100
AcDbEntity
  8
0
  6
Continuous
 62
     7
370
    25
100
AcDbLine
 10
6823.454876341
 20
4778.3255440244
 30
0.0
 11
6823.454876341
 21
4776.3255440244
 31
0.0
  0
LINE
  5
2F0
330
1F
100
AcDbEntity
  8
0
  6
Continuous
 62
     7
370
    25
100
AcDbLine
 10
6823.454876341
 20
4748.0255440244
 30
0.0
 11
6823.454876341
 21
4731.7755440244
 31
0.0
  0
LINE
  5
2F1
330
1F
100
AcDbEntity
  8
0
  6
Continuous
 62
     7
370
    25
100
AcDbLine
 10
6802.954876341
 20
4729.7755440244
 30
0.0
 11
6802.954876341
 21
4748.0255440244
 31
0.0
  0
LINE
  5
2F2
330
1F
100
AcDbEntity
  8
0
  6
Continuous
 62
     7
370
    25
100
AcDbLine
 10
6824.454876341
 20
4758.7481603137
 30
0.0
 11
6823.454876341
 21
4758.7481603137
 31
0.0
  0
LINE
  5
2F3
330
1F
100
AcDbEntity
  8
0
  6
Continuous
 62
     7
370
    25
100
AcDbLine
 10
6826.454876341
 20
4758.3255433017
 30
0.0
 11
6826.454876341
 21
4746.3255440244
 31
0.0
  0
LINE
  5
2F4
330
1F
100
AcDbEntity
  8
0
  6
Continuous
 62
     7
370
    25
100
AcDbLine
 10
6824.454876341
 20
4778.3255440244
 30
0.0
 11
6823.454876341
 21
4778.3255440244
 31
0.0
  0
LINE
  5
2F5
330
1F
100
AcDbEntity
  8
0
  6
Continuous
 62
     7
370
    25
100
AcDbLine
 10
6824.454876341
 20
4778.3255440244
 30
0.0
 11
6824.454876341
 21
4758.7481603137
 31
0.0
  0
LINE
  5
2F6
330
1F
100
AcDbEntity
  8
0
  6
Continuous
 62
     7
370
    25
100
AcDbLine
 10
6801.0378642412
 20
4728.3255440244
 30
0.0
 11
6801.0378642412
 21
4740.3255440244
 31
0.0
  0
LINE
  5
2F7
330
1F
100
AcDbEntity
  8
0
  6
Continuous
 62
     7
370
    25
100
AcDbLine
 10
6799.254876341
 20
4725.4255440244
 30
0.0
 11
6799.254876341
 21
4743.2255440244
 31
0.0
  0
LINE
  5
2F8
330
1F
100
AcDbEntity
  8
0
  6
Continuous
 62
     7
370
    25
100
AcDbLine
 10
6801.1282580508
 20
4740.1255440244
 30
0.0
 11
6801.1282580508
 21
4728.5255440244
 31
0.0
  0
LINE
  5
2F9
330
1F
100
AcDbEntity
  8
0
  6
Continuous
 62
     7
370
    25
100
AcDbLine
 10
6787.054876341
 20
4716.3255440244
 30
0.0
 11
6796.8477695598
 21
4716.3255440244
 31
0.0
  0
LINE
  5
2FA
330
1F
100
AcDbEntity
  8
0
  6
Continuous
 62
     7
370
    25
100
AcDbLine
 10
6796.8477695598
 20
4710.3255440244
 30
0.0
 11
6796.8477695598
 21
4716.3255440244
 31
0.0
  0
LINE
  5
2FB
330
1F
100
AcDbEntity
  8
0
  6
Continuous
 62
     7
370
    25
100
AcDbLine
 10
6796.8477695598
 20
4710.3255440244
 30
0.0
 11
6787.054876341
 21
4710.3255440244
 31
0.0
  0
LINE
  5
2FC
330
1F
100
AcDbEntity
  8
0
  6
Continuous
 62
     7
370
    25
100
AcDbLine
 10
6787.054876341
 20
4710.3255440244
 30
0.0
 11
6787.054876341
 21
4716.3255440244
 31
0.0
  0
LINE
  5
2FD
330
1F
100
AcDbEntity
  8
0
  6
Continuous
 62
     7
370
    25
100
AcDbLine
 10
6796.8477695598
 20
4784.3255440244
 30
0.0
 11
6787.054876341
 21
4784.3255440244
 31
0.0
  0
LINE
  5
2FE
330
1F
100
AcDbEntity
  8
0
  6
Continuous
 62
     7
370
    25
100
AcDbLine
 10
6796.8477695598
 20
4716.3255440244
 30
0.0
 11
6796.8477695598
 21
4784.3255440244
 31
0.0
  0
LINE
  5
2FF
330
1F
100
AcDbEntity
  8
0
  6
Continuous
 62
     7
370
    25
100
AcDbLine
 10
6787.054876341
 20
4716.3255440244
 30
0.0
 11
6787.054876341
 21
4784.3255440244
 31
0.0
  0
LINE
  5
300
330
1F
100
AcDbEntity
  8
0
  6
Continuous
 62
     7
370
    25
100
AcDbLine
 10
6787.054876341
 20
4790.3255440244
 30
0.0
 11
6796.8477695598
 21
4790.3255440244
 31
0.0
  0
LINE
  5
301
330
1F
100
AcDbEntity
  8
0
  6
Continuous
 62
     7
370
    25
100
AcDbLine
 10
6796.8477695598
 20
4784.3255440244
 30
0.0
 11
6796.8477695598
 21
4790.3255440244
 31
0.0
  0
LINE
  5
302
330
1F
100
AcDbEntity
  8
0
  6
Continuous
 62
     7
370
    25
100
AcDbLine
 10
6787.054876341
 20
4784.3255440244
 30
0.0
 11
6787.054876341
 21
4790.3255440244
 31
0.0
  0
LINE
  5
303
330
1F
100
AcDbEntity
  8
0
  6
Continuous
 62
     7
370
    25
100
AcDbLine
 10
6796.8477695598
 20
4716.3255440244
 30
0.0
 11
6797.2013229504
 21
4716.3255440244
 31
0.0
  0
LINE
  5
304
330
1F
100
AcDbEntity
  8
0
  6
Continuous
 62
     7
370
    25
100
AcDbLine
 10
6797.2013229504
 20
4716.3255440244
 30
0.0
 11
6797.2013229504
 21
4710.4719906338
 31
0.0
  0
ARC
  5
305
330
1F
100
AcDbEntity
  8
0
  6
Continuous
 62
     7
370
    25
100
AcDbCircle
 10
6796.8477695598
 20
4710.8255440244
 30
0.0
 40
0.5000000000000844
100
AcDbArc
 50
270.0
 51
315.0
  0
LINE
  5
306
330
1F
100
AcDbEntity
  8
0
  6
Continuous
 62
     7
370
    25
100
AcDbLine
 10
6796.8477695598
 20
4784.3255440244
 30
0.0
 11
6797.2013229504
 21
4784.3255440244
 31
0.0
  0
LINE
  5
307
330
1F
100
AcDbEntity
  8
0
  6
Continuous
 62
     7
370
    25
100
AcDbLine
 10
6797.2013229504
 20
4784.3255440244
 30
0.0
 11
6797.2013229504
 21
4716.3255440244
 31
0.0
  0
ARC
  5
308
330
1F
100
AcDbEntity
  8
0
  6
Continuous
 62
     7
370
    25
100
AcDbCircle
 10
6796.8477695598
 20
4789.8255440244
 30
0.0
 40
0.4999999999994413
100
AcDbArc
 50
44.9999999999
 51
90.0
  0
LINE
  5
309
330
1F
100
AcDbEntity
  8
0
  6
Continuous
 62
     7
370
    25
100
AcDbLine
 10
6797.2013229504
 20
4790.179097415
 30
0.0
 11
6797.2013229504
 21
4784.3255440244
 31
0.0
  0
LINE
  5
30A
330
1F
100
AcDbEntity
  8
0
  6
Continuous
 62
     7
370
    25
100
AcDbLine
 10
6798.9084297316
 20
4784.3255440244
 30
0.0
 11
6797.2013229504
 21
4784.3255440244
 31
0.0
  0
LINE
  5
30B
330
1F
100
AcDbEntity
  8
0
  6
Continuous
 62
     7
370
    25
100
AcDbLine
 10
6798.9084297316
 20
4716.3255440244
 30
0.0
 11
6798.9084297316
 21
4784.3255440244
 31
0.0
  0
LINE
  5
30C
330
1F
100
AcDbEntity
  8
0
  6
Continuous
 62
     7
370
    25
100
AcDbLine
 10
6798.9084297316
 20
4716.3255440244
 30
0.0
 11
6797.2013229504
 21
4716.3255440244
 31
0.0
  0
LINE
  5
30D
330
1F
100
AcDbEntity
  8
0
  6
Continuous
 62
     7
370
    25
100
AcDbLine
 10
6798.9084297316
 20
4712.179097415
 30
0.0
 11
6798.9084297316
 21
4716.3255440244
 31
0.0
  0
LINE
  5
30E
330
1F
100
AcDbEntity
  8
0
  6
Continuous
 62
     7
370
    25
100
AcDbLine
 10
6797.2013229504
 20
4710.4719906338
 30
0.0
 11
6798.9084297316
 21
4712.179097415
 31
0.0
  0
LINE
  5
30F
330
1F
100
AcDbEntity
  8
0
  6
Continuous
 62
     7
370
    25
100
AcDbLine
 10
6798.9084297316
 20
4788.4719906338
 30
0.0
 11
6797.2013229504
 21
4790.179097415
 31
0.0
  0
LINE
  5
310
330
1F
100
AcDbEntity
  8
0
  6
Continuous
 62
     7
370
    25
100
AcDbLine
 10
6798.9084297316
 20
4784.3255440244
 30
0.0
 11
6798.9084297316
 21
4788.4719906338
 31
0.0
  0
LINE
  5
311
330
1F
100
AcDbEntity
  8
0
  6
Continuous
 62
     7
370
    25
100
AcDbLine
 10
6799.054876341
 20
4716.3255440244
 30
0.0
 11
6799.054876341
 21
4712.5326508056
 31
0.0
  0
ARC
  5
312
330
1F
100
AcDbEntity
  8
0
  6
Continuous
 62
     7
370
    25
100
AcDbCircle
 10
6798.554876341
 20
4712.5326508056
 30
0.0
 40
0.5000000000000844
100
AcDbArc
 50
315.0
 51
0.0
  0
LINE
  5
313
330
1F
100
AcDbEntity
  8
0
  6
Continuous
 62
     7
370
    25
100
AcDbLine
 10
6798.9084297316
 20
4716.3255440244
 30
0.0
 11
6799.054876341
 21
4716.3255440244
 31
0.0
  0
LINE
  5
314
330
1F
100
AcDbEntity
  8
0
  6
Continuous
 62
     7
370
    25
100
AcDbLine
 10
6798.9084297316
 20
4784.3255440244
 30
0.0
 11
6799.054876341
 21
4784.3255440244
 31
0.0
  0
LINE
  5
315
330
1F
100
AcDbEntity
  8
0
  6
Continuous
 62
     7
370
    25
100
AcDbLine
 10
6799.054876341
 20
4784.3255440244
 30
0.0
 11
6799.054876341
 21
4716.3255440244
 31
0.0
  0
ARC
  5
316
330
1F
100
AcDbEntity
  8
0
  6
Continuous
 62
     7
370
    25
100
AcDbCircle
 10
6798.554876341
 20
4788.1184372432
 30
0.0
 40
0.5000000000009095
100
AcDbArc
 50
0.0
 51
45.0
  0
LINE
  5
317
330
1F
100
AcDbEntity
  8
0
  6
Continuous
 62
     7
370
    25
100
AcDbLine
 10
6799.054876341
 20
4788.1184372432
 30
0.0
 11
6799.054876341
 21
4784.3255440244
 31
0.0
  0
ARC
  5
318
330
1F
100
AcDbEntity
  8
0
  6
Continuous
 62
     7
370
    25
100
AcDbCircle
 10
6750.754876341
 20
4716.3255440244
 30
0.0
 40
8.485281374239012
100
AcDbArc
 50
276.7681013687
 51
287.1352215075
  0
ARC
  5
319
330
1F
100
AcDbEntity
  8
0
  6
Continuous
 62
     7
370
    25
100
AcDbCircle
 10
6751.504876341
 20
4709.0974571752
 30
0.0
 40
1.223868771424962
100
AcDbArc
 50
258.2132155188
 51
281.7867844813
  0
LINE
  5
31A
330
1F
100
AcDbEntity
  8
0
  6
Continuous
 62
     7
370
    25
100
AcDbLine
 10
6751.254876341
 20
4708.2169066543
 30
0.0
 11
6751.254876341
 21
4707.8993942512
 31
0.0
  0
ARC
  5
31B
330
1F
100
AcDbEntity
  8
0
  6
Continuous
 62
     7
370
    25
100
AcDbCircle
 10
6750.754876341
 20
4716.3255440244
 30
0.0
 40
8.124038404636217
100
AcDbArc
 50
266.4714585265
 51
273.5285414735
  0
LINE
  5
31C
330
1F
100
AcDbEntity
  8
0
  6
Continuous
 62
     7
370
    25
100
AcDbLine
 10
6750.254876341
 20
4708.2169066543
 30
0.0
 11
6750.254876341
 21
4707.8993942512
 31
0.0
  0
ARC
  5
31D
330
1F
100
AcDbEntity
  8
0
  6
Continuous
 62
     7
370
    25
100
AcDbCircle
 10
6750.004876341
 20
4708.793038711
 30
0.0
 40
0.9279549668305709
100
AcDbArc
 50
254.3708608478
 51
285.6291391523
  0
ARC
  5
31E
330
1F
100
AcDbEntity
  8
0
  6
Continuous
 62
     7
370
    25
100
AcDbCircle
 10
6750.754876341
 20
4716.3255440244
 30
0.0
 40
8.485281374239083
100
AcDbArc
 50
252.8647784925
 51
263.2318986313
  0
LINE
  5
31F
330
1F
100
AcDbEntity
  8
0
  6
Continuous
 62
     7
370
    25
100
AcDbLine
 10
6748.254876341
 20
4708.2169066543
 30
0.0
 11
6748.254876341
 21
4708.2015056198
 31
0.0
  0
LINE
  5
320
330
1F
100
AcDbEntity
  8
0
  6
Continuous
 62
     7
370
    25
100
AcDbLine
 10
6773.254876341
 20
4708.2169066543
 30
0.0
 11
6773.254876341
 21
4708.2015056198
 31
0.0
  0
ARC
  5
321
330
1F
100
AcDbEntity
  8
0
  6
Continuous
 62
     7
370
    25
100
AcDbCircle
 10
6770.754876341
 20
4716.3255440244
 30
0.0
 40
8.485281374239012
100
AcDbArc
 50
276.7681013687
 51
287.1352215075
  0
ARC
  5
322
330
1F
100
AcDbEntity
  8
0
  6
Continuous
 62
     7
370
    25
100
AcDbCircle
 10
6771.504876341
 20
4709.0974571751
 30
0.0
 40
1.223868771416949
100
AcDbArc
 50
258.2132155187
 51
281.7867844814
  0
LINE
  5
323
330
1F
100
AcDbEntity
  8
0
  6
Continuous
 62
     7
370
    25
100
AcDbLine
 10
6771.254876341
 20
4708.2169066543
 30
0.0
 11
6771.254876341
 21
4707.8993942512
 31
0.0
  0
ARC
  5
324
330
1F
100
AcDbEntity
  8
0
  6
Continuous
 62
     7
370
    25
100
AcDbCircle
 10
6770.754876341
 20
4716.3255440244
 30
0.0
 40
8.124038404636217
100
AcDbArc
 50
266.4714585265
 51
273.5285414735
  0
LINE
  5
325
330
1F
100
AcDbEntity
  8
0
  6
Continuous
 62
     7
370
    25
100
AcDbLine
 10
6770.254876341
 20
4708.2169066543
 30
0.0
 11
6770.254876341
 21
4707.8993942512
 31
0.0
  0
ARC
  5
326
330
1F
100
AcDbEntity
  8
0
  6
Continuous
 62
     7
370
    25
100
AcDbCircle
 10
6770.004876341
 20
4708.793038711
 30
0.0
 40
0.9279549668288192
100
AcDbArc
 50
254.3708608478
 51
285.6291391523
  0
ARC
  5
327
330
1F
100
AcDbEntity
  8
0
  6
Continuous
 62
     7
370
    25
100
AcDbCircle
 10
6770.754876341
 20
4716.3255440244
 30
0.0
 40
8.485281374239012
100
AcDbArc
 50
252.8647784925
 51
263.2318986313
  0
LINE
  5
328
330
1F
100
AcDbEntity
  8
0
  6
Continuous
 62
     7
370
    25
100
AcDbLine
 10
6768.254876341
 20
4708.2169066543
 30
0.0
 11
6768.254876341
 21
4708.2015056198
 31
0.0
  0
LWPOLYLINE
  5
329
330
1F
100
AcDbEntity
  8
0
  6
Continuous
 62
     7
370
    25
100
AcDbPolyline
 90
        3
 70
   128
 43
0.0
 10
6763.7748101151
 20
4709.6629709606
 10
6766.3410199123
 20
4709.7255440217
 10
6766.7882662263
 20
4709.7418668347
  0
ARC
  5
32A
330
1F
100
AcDbEntity
  8
0
  6
Continuous
 62
     7
370
    25
100
AcDbCircle
 10
6757.0987021953
 20
4973.5874639485
 30
0.0
 40
264.3196484573537
100
AcDbArc
 50
270.9937222973
 51
272.0936058483
  0
ARC
  5
32B
330
1F
100
AcDbEntity
  8
0
  6
Continuous
 62
     7
370
    25
100
AcDbCircle
 10
6760.2368306783
 20
4724.1539868165
 30
0.0
 40
14.91666313324458
100
AcDbArc
 50
275.5626336863
 51
283.7203402442
  0
ARC
  5
32C
330
1F
100
AcDbEntity
  8
0
  6
Continuous
 62
     7
370
    25
100
AcDbCircle
 10
6757.0971555147
 20
4973.407548575
 30
0.0
 40
264.3897493672873
100
AcDbArc
 50
270.9937940239
 51
272.0928451141
  0
LWPOLYLINE
  5
32D
330
1F
100
AcDbEntity
  8
0
  6
Continuous
 62
     7
370
    25
100
AcDbPolyline
 90
        3
 70
   128
 43
0.0
 10
6763.7748101151
 20
4708.7879709633
 10
6766.3410199123
 20
4708.8505440244
 10
6766.8401293997
 20
4708.8687596488
  0
ARC
  5
32E
330
1F
100
AcDbEntity
  8
0
  6
Continuous
 62
     7
370
    25
100
AcDbCircle
 10
6760.9074647281
 20
4694.7895208756
 30
0.0
 40
14.28909634742906
100
AcDbArc
 50
78.4240531985
 51
86.8897287062
  0
LINE
  5
32F
330
1F
100
AcDbEntity
  8
0
  6
Continuous
 62
     7
370
    25
100
AcDbLine
 10
6761.6827599126
 20
4710.3075688081
 30
0.0
 11
6762.4623216826
 21
4710.3255440244
 31
0.0
  0
LINE
  5
330
330
1F
100
AcDbEntity
  8
0
  6
Continuous
 62
     7
370
    25
100
AcDbLine
 10
6761.6827599126
 20
4710.3075688081
 30
0.0
 11
6761.8336831895
 21
4710.3255440244
 31
0.0
  0
ARC
  5
331
330
1F
100
AcDbEntity
  8
0
  6
Continuous
 62
     7
370
    25
100
AcDbCircle
 10
6757.1779466301
 20
4970.6817211282
 30
0.0
 40
260.6630816116607
100
AcDbArc
 50
270.9902424115
 51
272.145508719
  0
LWPOLYLINE
  5
332
330
1F
100
AcDbEntity
  8
0
  6
Continuous
 62
     7
370
    25
100
AcDbPolyline
 90
        3
 70
   128
 43
0.0
 10
6763.7748101151
 20
4709.7879709633
 10
6766.3410199123
 20
4709.8505440244
 10
6766.7647224051
 20
4709.8660075763
  0
ARC
  5
333
330
1F
100
AcDbEntity
  8
0
  6
Continuous
 62
     7
370
    25
100
AcDbCircle
 10
6760.9074647281
 20
4695.7895208758
 30
0.0
 40
14.28909634724983
100
AcDbArc
 50
78.4240531984
 51
86.8897287062
  0
ARC
  5
334
330
1F
100
AcDbEntity
  8
0
  6
Continuous
 62
     7
370
    25
100
AcDbCircle
 10
6760.1518479121
 20
4609.3689287409
 30
0.0
 40
98.90012402099774
100
AcDbArc
 50
90.1881985719
 51
93.9167858808
  0
LWPOLYLINE
  5
335
330
1F
100
AcDbEntity
  8
0
  6
Continuous
 62
     7
370
    25
100
AcDbPolyline
 90
        5
 70
   128
 43
0.0
 10
6752.9079121701
 20
4708.345031874
 10
6752.854876341
 20
4708.3505440217
 10
6753.4562280341
 20
4708.4130440217
 10
6755.1687327696
 20
4708.4755440217
 10
6757.7349425669
 20
4708.5381170828
  0
ARC
  5
336
330
1F
100
AcDbEntity
  8
0
  6
Continuous
 62
     7
370
    25
100
AcDbCircle
 10
6760.6022879538
 20
4722.5365671705
 30
0.0
 40
14.2890963473893
100
AcDbArc
 50
258.4240531984
 51
266.8897287061
  0
ARC
  5
337
330
1F
100
AcDbEntity
  8
0
  6
Continuous
 62
     7
370
    25
100
AcDbCircle
 10
6757.5087983549
 20
4650.9708439219
 30
0.0
 40
57.69271638592655
100
AcDbArc
 50
89.7754111281
 51
94.6269295106
  0
ARC
  5
338
330
1F
100
AcDbEntity
  8
0
  6
Continuous
 62
     7
370
    25
100
AcDbCircle
 10
6760.2171787699
 20
4607.331273283
 30
0.0
 40
101.687994547184
100
AcDbArc
 50
90.2198496097
 51
93.8183838809
  0
ARC
  5
339
330
1F
100
AcDbEntity
  8
0
  6
Continuous
 62
     7
370
    25
100
AcDbCircle
 10
6761.2729220035
 20
4694.17210123
 30
0.0
 40
14.91666313285673
100
AcDbArc
 50
95.5626336862
 51
103.7203402443
  0
ARC
  5
33A
330
1F
100
AcDbEntity
  8
0
  6
Continuous
 62
     7
370
    25
100
AcDbCircle
 10
6760.1518479121
 20
4610.3689287403
 30
0.0
 40
98.9001240216108
100
AcDbArc
 50
90.1881985719
 51
93.9167858808
  0
LWPOLYLINE
  5
33B
330
1F
100
AcDbEntity
  8
0
  6
Continuous
 62
     7
370
    25
100
AcDbPolyline
 90
        5
 70
   128
 43
0.0
 10
6752.9079121701
 20
4709.345031874
 10
6752.854876341
 20
4709.3505440217
 10
6753.4562280341
 20
4709.4130440217
 10
6755.1687327696
 20
4709.4755440217
 10
6757.7349425669
 20
4709.5381170828
  0
ARC
  5
33C
330
1F
100
AcDbEntity
  8
0
  6
Continuous
 62
     7
370
    25
100
AcDbCircle
 10
6760.6022879539
 20
4723.5365671707
 30
0.0
 40
14.28909634758281
100
AcDbArc
 50
258.4240531985
 51
266.8897287061
  0
LWPOLYLINE
  5
33D
330
1F
100
AcDbEntity
  8
0
  6
Continuous
 62
     7
370
    25
100
AcDbPolyline
 90
        6
 70
   128
 43
0.0
 10
6761.6827599126
 20
4708.0575688081
 10
6764.0063440167
 20
4708.1111462519
 10
6765.9582871417
 20
4708.1630440231
 10
6767.5534601842
 20
4708.2255440231
 10
6768.113610466
 20
4708.288044023
 10
6768.1134549811
 20
4708.2880613716
  0
LWPOLYLINE
  5
33E
330
1F
100
AcDbEntity
  8
0
  6
Continuous
 62
     7
370
    25
100
AcDbPolyline
 90
        5
 70
   128
 43
0.0
 10
6763.7748101151
 20
4707.7879709633
 10
6766.3410199123
 20
4707.8505440244
 10
6768.0535246478
 20
4707.9130440244
 10
6768.654876341
 20
4707.9755440244
 10
6768.601920838
 20
4707.9810478236
  0
ARC
  5
33F
330
1F
100
AcDbEntity
  8
0
  6
Continuous
 62
     7
370
    25
100
AcDbCircle
 10
6760.9074647281
 20
4693.7895208756
 30
0.0
 40
14.28909634743122
100
AcDbArc
 50
78.4240531984
 51
86.8897287061
  0
ARC
  5
340
330
1F
100
AcDbEntity
  8
0
  6
Continuous
 62
     7
370
    25
100
AcDbCircle
 10
6760.151847912
 20
4611.3689287412
 30
0.0
 40
98.90012402069843
100
AcDbArc
 50
90.1881985719
 51
93.9167858808
  0
LINE
  5
341
330
1F
100
AcDbEntity
  8
0
  6
Continuous
 62
     7
370
    25
100
AcDbLine
 10
6759.1062289091
 20
4710.3255440244
 30
0.0
 11
6759.8269927694
 21
4710.268519238
 31
0.0
  0
LWPOLYLINE
  5
342
330
1F
100
AcDbEntity
  8
0
  6
Continuous
 62
     7
370
    25
100
AcDbPolyline
 90
        3
 70
   128
 43
0.0
 10
6763.7748101151
 20
4708.6629709606
 10
6766.3410199123
 20
4708.7255440217
 10
6766.9425481311
 20
4708.7474975456
  0
ARC
  5
343
330
1F
100
AcDbEntity
  8
0
  6
Continuous
 62
     7
370
    25
100
AcDbCircle
 10
6759.4251441427
 20
4888.9970244522
 30
0.0
 40
180.7035589298897
100
AcDbArc
 50
270.7158421306
 51
272.5820609076
  0
ARC
  5
344
330
1F
100
AcDbEntity
  8
0
  6
Continuous
 62
     7
370
    25
100
AcDbCircle
 10
6760.2368306783
 20
4723.1539868165
 30
0.0
 40
14.91666313323996
100
AcDbArc
 50
275.5626336863
 51
283.7203402442
  0
ARC
  5
345
330
1F
100
AcDbEntity
  8
0
  6
Continuous
 62
     7
370
    25
100
AcDbCircle
 10
6757.5087983549
 20
4651.9708439206
 30
0.0
 40
57.69271638726516
100
AcDbArc
 50
89.7754111282
 51
94.6269295105
  0
ARC
  5
346
330
1F
100
AcDbEntity
  8
0
  6
Continuous
 62
     7
370
    25
100
AcDbCircle
 10
6760.2171787699
 20
4608.331273282
 30
0.0
 40
101.6879945482509
100
AcDbArc
 50
90.2198496097
 51
93.8183838809
  0
ARC
  5
347
330
1F
100
AcDbEntity
  8
0
  6
Continuous
 62
     7
370
    25
100
AcDbCircle
 10
6761.2729220036
 20
4695.1721012297
 30
0.0
 40
14.91666313320941
100
AcDbArc
 50
95.5626336863
 51
103.7203402442
  0
ARC
  5
348
330
1F
100
AcDbEntity
  8
0
  6
Continuous
 62
     7
370
    25
100
AcDbCircle
 10
6746.6642842803
 20
5032.4906962101
 30
0.0
 40
325.3606890871814
100
AcDbArc
 50
272.9302312963
 51
273.4671744643
  0
LWPOLYLINE
  5
349
330
1F
100
AcDbEntity
  8
0
  6
Continuous
 62
     7
370
    25
100
AcDbPolyline
 90
        3
 70
   128
 43
0.0
 10
6766.3410200135
 20
4707.7255440244
 10
6768.0535246762
 20
4707.7880440232
 10
6768.654876341
 20
4707.8505440217
  0
ARC
  5
34A
330
1F
100
AcDbEntity
  8
0
  6
Continuous
 62
     7
370
    25
100
AcDbCircle
 10
6761.2924948036
 20
4808.9981881965
 30
0.0
 40
101.6913682593432
100
AcDbArc
 50
270.2198868882
 51
273.8182701427
  0
ARC
  5
34B
330
1F
100
AcDbEntity
  8
0
  6
Continuous
 62
     7
370
    25
100
AcDbCircle
 10
6760.280048116
 20
4721.8208566808
 30
0.0
 40
14.58091647537173
100
AcDbArc
 50
275.5205001949
 51
281.9401359838
  0
ARC
  5
34C
330
1F
100
AcDbEntity
  8
0
  6
Continuous
 62
     7
370
    25
100
AcDbCircle
 10
6757.5934026248
 20
4624.2143318712
 30
0.0
 40
83.4732281073712
100
AcDbArc
 50
89.8329971986
 51
93.0778191546
  0
ARC
  5
34D
330
1F
100
AcDbEntity
  8
0
  6
Continuous
 62
     7
370
    25
100
AcDbCircle
 10
6760.2171780719
 20
4606.3313030472
 30
0.0
 40
101.6879647805695
100
AcDbArc
 50
90.2198492808
 51
93.8183848845
  0
ARC
  5
34E
330
1F
100
AcDbEntity
  8
0
  6
Continuous
 62
     7
370
    25
100
AcDbCircle
 10
6761.2625428289
 20
4693.2510643694
 30
0.0
 40
14.83706599263257
100
AcDbArc
 50
95.5522994918
 51
103.349899675
  0
LINE
  5
34F
330
1F
100
AcDbEntity
  8
0
  6
Continuous
 62
     7
370
    25
100
AcDbLine
 10
6767.654876341
 20
4706.7255440244
 30
0.0
 11
6753.854876341
 21
4706.7255440244
 31
0.0
  0
LWPOLYLINE
  5
350
330
1F
100
AcDbEntity
  8
0
  6
Continuous
 62
     7
370
    25
100
AcDbPolyline
 90
        3
 70
   128
 43
0.0
 10
6756.3123973317
 20
4707.1842781494
 10
6757.4042758198
 20
4707.2528362616
 10
6758.9693488648
 20
4707.3407358628
  0
LINE
  5
351
330
1F
100
AcDbEntity
  8
0
  6
Continuous
 62
     7
370
    25
100
AcDbLine
 10
6759.8269927694
 20
4707.1842781494
 30
0.0
 11
6756.3123973317
 21
4707.1842781494
 31
0.0
  0
LWPOLYLINE
  5
352
330
1F
100
AcDbEntity
  8
0
  6
Continuous
 62
     7
370
    25
100
AcDbPolyline
 90
        3
 70
   128
 43
0.0
 10
6759.8269927694
 20
4707.1842781494
 10
6760.4529737139
 20
4707.131784179
 10
6761.6827599125
 20
4707.1842781494
  0
LINE
  5
353
330
1F
100
AcDbEntity
  8
0
  6
Continuous
 62
     7
370
    25
100
AcDbLine
 10
6766.6213359355
 20
4707.1842781494
 30
0.0
 11
6761.6827599125
 21
4707.1842781494
 31
0.0
  0
LWPOLYLINE
  5
354
330
1F
100
AcDbEntity
  8
0
  6
Continuous
 62
     7
370
    25
100
AcDbPolyline
 90
        5
 70
   128
 43
0.0
 10
6768.1628227945
 20
4707.2534543181
 10
6768.1797011472
 20
4707.2504206115
 10
6768.0666459377
 20
4707.2341308331
 10
6767.2300272569
 20
4707.1994653821
 10
6766.6213359355
 20
4707.1842781494
  0
LWPOLYLINE
  5
355
330
1F
100
AcDbEntity
  8
0
  6
Continuous
 62
     7
370
    25
100
AcDbPolyline
 90
        3
 70
   128
 43
0.0
 10
6757.8367057671
 20
4707.6872053945
 10
6757.9145001819
 20
4707.6586619684
 10
6758.9693488648
 20
4707.3407358628
  0
LWPOLYLINE
  5
356
330
1F
100
AcDbEntity
  8
0
  6
Continuous
 62
     7
370
    25
100
AcDbPolyline
 90
        3
 70
   128
 43
0.0
 10
6756.3123973317
 20
4707.1842781494
 10
6757.9763103694
 20
4707.2264438396
 10
6759.8269927694
 20
4707.268519238
  0
LWPOLYLINE
  5
357
330
1F
100
AcDbEntity
  8
0
  6
Continuous
 62
     7
370
    25
100
AcDbPolyline
 90
        3
 70
   128
 43
0.0
 10
6758.9693488648
 20
4707.3407358628
 10
6759.1048122933
 20
4707.325656103
 10
6759.8269927694
 20
4707.268519238
  0
LWPOLYLINE
  5
358
330
1F
100
AcDbEntity
  8
0
  6
Continuous
 62
     7
370
    25
100
AcDbPolyline
 90
        4
 70
   128
 43
0.0
 10
6766.6213359355
 20
4707.1842781494
 10
6767.7348600894
 20
4707.2370429828
 10
6768.113610466
 20
4707.2880440231
 10
6768.1134549811
 20
4707.2880613716
  0
LINE
  5
359
330
1F
100
AcDbEntity
  8
0
  6
Continuous
 62
     7
370
    25
100
AcDbLine
 10
6761.6827599125
 20
4707.1842781494
 30
0.0
 11
6761.6827599126
 21
4707.3075688081
 31
0.0
  0
LINE
  5
35A
330
1F
100
AcDbEntity
  8
0
  6
Continuous
 62
     7
370
    25
100
AcDbLine
 10
6761.6827599126
 20
4710.0575688081
 30
0.0
 11
6761.6827599126
 21
4710.3075688081
 31
0.0
  0
LINE
  5
35B
330
1F
100
AcDbEntity
  8
0
  6
Continuous
 62
     7
370
    25
100
AcDbLine
 10
6763.7748101151
 20
4709.7879709633
 30
0.0
 11
6763.7748101151
 21
4709.6629709606
 31
0.0
  0
LINE
  5
35C
330
1F
100
AcDbEntity
  8
0
  6
Continuous
 62
     7
370
    25
100
AcDbLine
 10
6761.6827599126
 20
4709.0575688081
 30
0.0
 11
6761.6827599126
 21
4709.3075688081
 31
0.0
  0
LINE
  5
35D
330
1F
100
AcDbEntity
  8
0
  6
Continuous
 62
     7
370
    25
100
AcDbLine
 10
6763.7748101151
 20
4708.7879709633
 30
0.0
 11
6763.7748101151
 21
4708.6629709606
 31
0.0
  0
LINE
  5
35E
330
1F
100
AcDbEntity
  8
0
  6
Continuous
 62
     7
370
    25
100
AcDbLine
 10
6761.6827599126
 20
4708.0575688081
 30
0.0
 11
6761.6827599126
 21
4708.3075688081
 31
0.0
  0
LINE
  5
35F
330
1F
100
AcDbEntity
  8
0
  6
Continuous
 62
     7
370
    25
100
AcDbLine
 10
6763.7748101151
 20
4707.7879709633
 30
0.0
 11
6763.7748101151
 21
4707.7255440244
 31
0.0
  0
LINE
  5
360
330
1F
100
AcDbEntity
  8
0
  6
Continuous
 62
     7
370
    25
100
AcDbLine
 10
6763.2966878782
 20
4707.5554085698
 30
0.0
 11
6763.7748101151
 21
4707.7255440244
 31
0.0
  0
LINE
  5
361
330
1F
100
AcDbEntity
  8
0
  6
Continuous
 62
     7
370
    25
100
AcDbLine
 10
6759.8269927694
 20
4707.268519238
 30
0.0
 11
6759.8269927694
 21
4707.1842781494
 31
0.0
  0
LINE
  5
362
330
1F
100
AcDbEntity
  8
0
  6
Continuous
 62
     7
370
    25
100
AcDbLine
 10
6759.8269927694
 20
4708.268519238
 30
0.0
 11
6759.8269927694
 21
4708.018519238
 31
0.0
  0
LINE
  5
363
330
1F
100
AcDbEntity
  8
0
  6
Continuous
 62
     7
370
    25
100
AcDbLine
 10
6757.7349425669
 20
4708.5381170828
 30
0.0
 11
6757.7349425669
 21
4708.6631170855
 31
0.0
  0
LINE
  5
364
330
1F
100
AcDbEntity
  8
0
  6
Continuous
 62
     7
370
    25
100
AcDbLine
 10
6759.8269927694
 20
4709.268519238
 30
0.0
 11
6759.8269927694
 21
4709.018519238
 31
0.0
  0
LINE
  5
365
330
1F
100
AcDbEntity
  8
0
  6
Continuous
 62
     7
370
    25
100
AcDbLine
 10
6757.7349425669
 20
4709.5381170828
 30
0.0
 11
6757.7349425669
 21
4709.6631170855
 31
0.0
  0
LINE
  5
366
330
1F
100
AcDbEntity
  8
0
  6
Continuous
 62
     7
370
    25
100
AcDbLine
 10
6759.8269927694
 20
4710.268519238
 30
0.0
 11
6759.8269927694
 21
4710.018519238
 31
0.0
  0
LINE
  5
367
330
1F
100
AcDbEntity
  8
0
  6
Continuous
 62
     7
370
    25
100
AcDbLine
 10
6763.7748101151
 20
4707.7255440244
 30
0.0
 11
6766.3410200135
 21
4707.7255440244
 31
0.0
  0
LINE
  5
368
330
1F
100
AcDbEntity
  8
0
  6
Continuous
 62
     7
370
    25
100
AcDbLine
 10
6787.054876341
 20
4784.3255440244
 30
0.0
 11
6745.054876341
 21
4784.3255440244
 31
0.0
  0
LINE
  5
369
330
1F
100
AcDbEntity
  8
0
  6
Continuous
 62
     7
370
    25
100
AcDbLine
 10
6745.054876341
 20
4716.3255440244
 30
0.0
 11
6787.054876341
 21
4716.3255440244
 31
0.0
  0
LINE
  5
36A
330
1F
100
AcDbEntity
  8
0
  6
Continuous
 62
     7
370
    25
100
AcDbLine
 10
6745.054876341
 20
4784.3255440244
 30
0.0
 11
6745.054876341
 21
4716.3255440244
 31
0.0
  0
LINE
  5
36B
330
1F
100
AcDbEntity
  8
0
  6
Continuous
 62
     7
370
    25
100
AcDbLine
 10
6787.054876341
 20
4710.3255440244
 30
0.0
 11
6745.054876341
 21
4710.3255440244
 31
0.0
  0
LINE
  5
36C
330
1F
100
AcDbEntity
  8
0
  6
Continuous
 62
     7
370
    25
100
AcDbLine
 10
6745.054876341
 20
4710.3255440244
 30
0.0
 11
6745.054876341
 21
4716.3255440244
 31
0.0
  0
LINE
  5
36D
330
1F
100
AcDbEntity
  8
0
  6
Continuous
 62
     7
370
    25
100
AcDbLine
 10
6745.054876341
 20
4790.3255440244
 30
0.0
 11
6787.054876341
 21
4790.3255440244
 31
0.0
  0
LINE
  5
36E
330
1F
100
AcDbEntity
  8
0
  6
Continuous
 62
     7
370
    25
100
AcDbLine
 10
6745.054876341
 20
4784.3255440244
 30
0.0
 11
6745.054876341
 21
4790.3255440244
 31
0.0
  0
LINE
  5
36F
330
1F
100
AcDbEntity
  8
0
  6
Continuous
 62
     7
370
    25
100
AcDbLine
 10
6856.5976247546
 20
4959.0553668597
 30
0.0
 11
6856.5977655375
 21
4959.0557929736
 31
0.0
  0
ARC
  5
370
330
1F
100
AcDbEntity
  8
0
  6
Continuous
 62
     7
370
    25
100
AcDbCircle
 10
6851.7843363347
 20
4944.2078642387
 30
0.0
 40
15.60820551800869
100
AcDbArc
 50
70.2915268593
 51
72.0382553617
  0
LWPOLYLINE
  5
371
330
1F
100
AcDbEntity
  8
0
  6
Continuous
 62
     7
370
    25
100
AcDbPolyline
 90
        6
 70
   128
 43
0.0
 10
6857.0479614587
 20
4958.901751745
 10
6856.0792237435
 20
4955.6427028327
 10
6855.375459588
 20
4952.686630039
 10
6854.9187219677
 20
4950.3455172851
 10
6854.6646154952
 20
4948.936938013
 10
6854.621640949
 20
4948.8148891744
  0
LWPOLYLINE
  5
372
330
1F
100
AcDbEntity
  8
0
  6
Continuous
 62
     7
370
    25
100
AcDbPolyline
 90
        6
 70
   128
 43
0.0
 10
6861.0534346856
 20
4968.2655655877
 10
6860.9238501642
 20
4967.9739834823
 10
6860.2205260818
 20
4966.5776265466
 10
6859.1423666459
 20
4964.2935267136
 10
6857.9142084065
 20
4961.333766107
 10
6857.0480957416
 20
4958.9021581847
  0
ARC
  5
373
330
1F
100
AcDbEntity
  8
0
  6
Continuous
 62
     7
370
    25
100
AcDbCircle
 10
6851.8024920231
 20
4944.2631995272
 30
0.0
 40
15.5504170023794
100
AcDbArc
 50
70.2857857252
 51
72.0390066699
  0
LINE
  5
374
330
1F
100
AcDbEntity
  8
0
  6
Continuous
 62
     7
370
    25
100
AcDbLine
 10
6857.0480957416
 20
4958.9021581847
 30
0.0
 11
6857.0479614587
 21
4958.901751745
 31
0.0
  0
LINE
  5
375
330
1F
100
AcDbEntity
  8
0
  6
Continuous
 62
     7
370
    25
100
AcDbLine
 10
6906.3667788704
 20
4994.8771336159
 30
0.0
 11
6906.3667788704
 21
4995.402133618
 31
0.0
  0
LINE
  5
376
330
1F
100
AcDbEntity
  8
0
  6
Continuous
 62
     7
370
    25
100
AcDbLine
 10
6906.3667788704
 20
4994.8771336159
 30
0.0
 11
6908.3536311816
 21
4994.8771336159
 31
0.0
  0
ARC
  5
377
330
1F
100
AcDbEntity
  8
0
  6
Continuous
 62
     7
370
    25
100
AcDbCircle
 10
6908.5594580119
 20
4982.0834844021
 30
0.0
 40
12.9801888284451
100
AcDbArc
 50
90.3298544075
 51
99.7253255057
  0
LINE
  5
378
330
1F
100
AcDbEntity
  8
0
  6
Continuous
 62
     7
370
    25
100
AcDbLine
 10
6906.3667788704
 20
4995.402133618
 30
0.0
 11
6906.5114157376
 21
4995.448667654
 31
0.0
  0
LWPOLYLINE
  5
379
330
1F
100
AcDbEntity
  8
0
  6
Continuous
 62
     7
370
    25
100
AcDbPolyline
 90
        3
 70
   128
 43
0.0
 10
6906.7453951351
 20
4995.1833836169
 10
6906.8626315519
 20
4995.2299176529
 10
6906.9245269833
 20
4995.2377523202
  0
LINE
  5
37A
330
1F
100
AcDbEntity
  8
0
  6
Continuous
 62
     7
370
    25
100
AcDbLine
 10
6906.3667788704
 20
4995.402133618
 30
0.0
 11
6906.7453951351
 21
4995.1833836169
 31
0.0
  0
LINE
  5
37B
330
1F
100
AcDbEntity
  8
0
  6
Continuous
 62
     7
370
    25
100
AcDbLine
 10
6906.8767738599
 20
4995.1442077734
 30
0.0
 11
6907.1609996746
 21
4995.1801848178
 31
0.0
  0
LINE
  5
37C
330
1F
100
AcDbEntity
  8
0
  6
Continuous
 62
     7
370
    25
100
AcDbLine
 10
6909.6363279364
 20
4994.3771336159
 30
0.0
 11
6906.865354425
 21
4994.3771336159
 31
0.0
  0
ARC
  5
37D
330
1F
100
AcDbEntity
  8
0
  6
Continuous
 62
     7
370
    25
100
AcDbCircle
 10
6871.1342850768
 20
5145.9810405085
 30
0.0
 40
161.6591165894151
100
AcDbArc
 50
289.113950731
 51
290.8860492409
  0
LWPOLYLINE
  5
37E
330
1F
100
AcDbEntity
  8
0
  6
Continuous
 62
     7
370
    25
100
AcDbPolyline
 90
       15
 70
   128
 43
0.0
 10
6843.137622467
 20
4930.9615766383
 10
6843.1376235225
 20
4930.9616365721
 10
6843.5312675686
 20
4939.0961420668
 10
6844.4313374443
 20
4947.1905025855
 10
6845.8767328427
 20
4955.3119271072
 10
6847.9134298361
 20
4963.3149065941
 10
6850.6001151143
 20
4971.1059563999
 10
6853.8950969043
 20
4978.385583978
 10
6857.966358707
 20
4985.2808491721
 10
6862.8756764242
 20
4991.5517471533
 10
6866.9209451015
 20
4995.4783179504
 10
6871.4466222875
 20
4998.8744438462
 10
6876.3643896062
 20
5001.6134682801
 10
6878.5888499816
 20
5002.5685763186
 10
6878.5889057269
 20
5002.5685982728
  0
ARC
  5
37F
330
1F
100
AcDbEntity
  8
0
  6
Continuous
 62
     7
370
    25
100
AcDbCircle
 10
6867.0596179511
 20
4997.9632775192
 30
0.0
 40
12.41503710828879
100
AcDbArc
 50
18.4834630287
 51
21.7753074788
  0
LWPOLYLINE
  5
380
330
1F
100
AcDbEntity
  8
0
  6
Continuous
 62
     7
370
    25
100
AcDbPolyline
 90
       14
 70
   128
 43
0.0
 10
6878.8342237383
 20
5001.8992413849
 10
6876.6499740886
 20
5000.9601558702
 10
6871.8172723981
 20
4998.2635364456
 10
6867.371793662
 20
4994.9189577148
 10
6863.4007372465
 20
4991.051891999
 10
6858.5594819914
 20
4984.8414233395
 10
6854.5500260049
 20
4978.0137306033
 10
6851.3087306677
 20
4970.8077771017
 10
6848.6596135614
 20
4963.0686648608
 10
6846.656195169
 20
4955.1205858077
 10
6845.238851879
 20
4947.0564310445
 10
6844.360623437
 20
4939.0283146048
 10
6843.9819231542
 20
4930.9616365757
 10
6843.9819221796
 20
4930.9615766383
  0
LINE
  5
381
330
1F
100
AcDbEntity
  8
0
  6
Continuous
 62
     7
370
    25
100
AcDbLine
 10
6843.9819221796
 20
4930.9615766383
 30
0.0
 11
6843.137622467
 21
4930.9615766383
 31
0.0
  0
LINE
  5
382
330
1F
100
AcDbEntity
  8
0
  6
Continuous
 62
     7
370
    25
100
AcDbLine
 10
6878.5888477638
 20
5002.5687264758
 30
0.0
 11
6874.8111480925
 21
5010.9242597707
 31
0.0
  0
LINE
  5
383
330
1F
100
AcDbEntity
  8
0
  6
Continuous
 62
     7
370
    25
100
AcDbLine
 10
6824.7979701898
 20
4930.9615766383
 30
0.0
 11
6796.3781375163
 21
4930.9615766383
 31
0.0
  0
LINE
  5
384
330
1F
100
AcDbEntity
  8
0
  6
Continuous
 62
     7
370
    25
100
AcDbLine
 10
6824.7979701898
 20
4930.9615766383
 30
0.0
 11
6843.1376224661
 21
4930.9615766383
 31
0.0
  0
LWPOLYLINE
  5
385
330
1F
100
AcDbEntity
  8
0
  6
Continuous
 62
     7
370
    25
100
AcDbPolyline
 90
       14
 70
   128
 43
0.0
 10
6860.4358974829
 20
4969.0935930853
 10
6860.4595415942
 20
4969.0994239044
 10
6859.7925096446
 20
4968.2339442697
 10
6858.5598220312
 20
4966.4905507615
 10
6856.9965613991
 20
4963.794448359
 10
6856.2573813847
 20
4962.2194551487
 10
6855.5673815255
 20
4960.4637965942
 10
6854.5884108129
 20
4957.0877604473
 10
6854.0224194332
 20
4953.9085418424
 10
6853.758303801
 20
4951.0923856191
 10
6853.7034809395
 20
4949.9625829108
 10
6853.6744946474
 20
4949.0820120192
 10
6853.6539951968
 20
4948.5231573558
 10
6853.636571369
 20
4948.389444712
  0
LWPOLYLINE
  5
386
330
1F
100
AcDbEntity
  8
0
  6
Continuous
 62
     7
370
    25
100
AcDbPolyline
 90
        3
 70
   128
 43
0.0
 10
6878.8790146329
 20
5001.9165901872
 10
6878.8789587786
 20
5001.9165685745
 10
6878.8342278238
 20
5001.8992283251
  0
ARC
  5
387
330
1F
100
AcDbEntity
  8
0
  6
Continuous
 62
     7
370
    25
100
AcDbCircle
 10
6797.3098155191
 20
4963.476003568
 30
0.0
 40
90.17325411145012
100
AcDbArc
 50
19.3474545461
 51
25.2331137645
  0
LINE
  5
388
330
1F
100
AcDbEntity
  8
0
  6
Continuous
 62
     7
370
    25
100
AcDbLine
 10
6843.9818906895
 20
4930.9615766383
 30
0.0
 11
6851.3272685977
 21
4930.9615766383
 31
0.0
  0
LWPOLYLINE
  5
389
330
1F
100
AcDbEntity
  8
0
  6
Continuous
 62
     7
370
    25
100
AcDbPolyline
 90
       11
 70
   128
 43
0.0
 10
6923.9156733868
 20
4993.5887583226
 10
6923.915634345
 20
4993.5888037501
 10
6920.33627068
 20
4997.0907037164
 10
6916.2373215913
 20
4999.9729535233
 10
6910.2979195806
 20
5002.7777719535
 10
6903.9560553503
 20
5004.5123636333
 10
6897.974560484
 20
5005.1946407432
 10
6891.9533003364
 20
5005.0686020184
 10
6885.2883998855
 20
5004.0062491582
 10
6878.8786660472
 20
5001.9175434024
 10
6878.8786109281
 20
5001.9175199887
  0
ARC
  5
38A
330
1F
100
AcDbEntity
  8
0
  6
Continuous
 62
     7
370
    25
100
AcDbCircle
 10
6867.5104487309
 20
4997.7917966729
 30
0.0
 40
12.09373498078573
100
AcDbArc
 50
19.9468201539
 51
23.3188510603
  0
LWPOLYLINE
  5
38B
330
1F
100
AcDbEntity
  8
0
  6
Continuous
 62
     7
370
    25
100
AcDbPolyline
 90
       10
 70
   128
 43
0.0
 10
6878.6163076113
 20
5002.57906751
 10
6885.1322939445
 20
5004.7150478334
 10
6891.9097701209
 20
5005.8049805192
 10
6898.0322114184
 20
5005.9382628369
 10
6904.1147728729
 20
5005.2485818388
 10
6910.5864243972
 20
5003.4827823082
 10
6916.6489983607
 20
5000.6259682464
 10
6920.9546299752
 20
4997.5775769778
 10
6924.7169012126
 20
4993.8782901954
 10
6924.7169403832
 20
4993.8782448603
  0
ARC
  5
38C
330
1F
100
AcDbEntity
  8
0
  6
Continuous
 62
     7
370
    25
100
AcDbCircle
 10
6876.4229759587
 20
5126.2969904888
 30
0.0
 40
140.9504565216747
100
AcDbArc
 50
289.6909188436
 51
290.0372365044
  0
LWPOLYLINE
  5
38D
330
1F
100
AcDbEntity
  8
0
  6
Continuous
 62
     7
370
    25
100
AcDbPolyline
 90
        9
 70
   128
 43
0.0
 10
6961.4415521839
 20
5007.3685434147
 10
6961.1246447576
 20
5007.2306775421
 10
6959.9853882706
 20
5006.792762021
 10
6958.090550596
 20
5006.0816258025
 10
6955.512949283
 20
5005.1245974527
 10
6952.3516401044
 20
5003.9584550344
 10
6948.7281103992
 20
5002.6280127468
 10
6944.7816103819
 20
5001.1843987408
 10
6940.6638018347
 20
4999.6830902931
  0
LINE
  5
38E
330
1F
100
AcDbEntity
  8
0
  6
Continuous
 62
     7
370
    25
100
AcDbLine
 10
6940.6638018347
 20
4999.6830902931
 30
0.0
 11
6924.7169403832
 21
4993.8782448603
 31
0.0
  0
LWPOLYLINE
  5
38F
330
1F
100
AcDbEntity
  8
0
  6
Continuous
 62
     7
370
    25
100
AcDbPolyline
 90
        3
 70
   128
 43
0.0
 10
6878.5887897913
 20
5002.5688546996
 10
6878.5888456248
 20
5002.5688763766
 10
6878.6161537141
 20
5002.5794669434
  0
LWPOLYLINE
  5
390
330
1F
100
AcDbEntity
  8
0
  6
Continuous
 62
     7
370
    25
100
AcDbPolyline
 90
        6
 70
   128
 43
0.0
 10
6923.9156829714
 20
4993.5887618565
 10
6920.8096792111
 20
4992.4848179471
 10
6918.4799124141
 20
4991.6659686812
 10
6916.9432844796
 20
4991.138965348
 10
6916.364441347
 20
4990.9615766383
 10
6916.3868006912
 20
4990.971597886
  0
LWPOLYLINE
  5
391
330
1F
100
AcDbEntity
  8
0
  6
Continuous
 62
     7
370
    25
100
AcDbPolyline
 90
        3
 70
   128
 43
0.0
 10
6907.1609996746
 20
4995.1801848178
 10
6906.9546969456
 20
4995.2290900731
 10
6906.7511973927
 20
4995.2728713629
  0
ARC
  5
392
330
1F
100
AcDbEntity
  8
0
  6
Continuous
 62
     7
370
    25
100
AcDbCircle
 10
6908.4587118904
 20
4990.9358636632
 30
0.0
 40
3.633405735207725
100
AcDbArc
 50
65.3488298972
 51
71.2838101808
  0
LWPOLYLINE
  5
393
330
1F
100
AcDbEntity
  8
0
  6
Continuous
 62
     7
370
    25
100
AcDbPolyline
 90
        7
 70
   128
 43
0.0
 10
6910.0073755321
 20
4994.2256273533
 10
6910.0144585621
 20
4994.2229586125
 10
6909.9186190569
 20
4994.2667914974
 10
6909.6766356775
 20
4994.3693046477
 10
6909.294840401
 20
4994.5208412462
 10
6908.7880065619
 20
4994.7055969429
 10
6908.390282887
 20
4994.8381686191
  0
LINE
  5
394
330
1F
100
AcDbEntity
  8
0
  6
Continuous
 62
     8
370
    25
100
AcDbLine
 10
6854.3565852947
 20
4789.1913025803
 30
0.0
 11
6798.1891177851
 21
4789.1913025803
 31
0.0
  0
LINE
  5
395
330
1F
100
AcDbEntity
  8
0
  6
Continuous
 62
     8
370
    25
100
AcDbLine
 10
6855.3565852947
 20
4772.6913025803
 30
0.0
 11
6824.454876341
 21
4772.6913025803
 31
0.0
  0
LINE
  5
396
330
1F
100
AcDbEntity
  8
0
  6
Continuous
 62
     8
370
    25
100
AcDbLine
 10
6802.954876341
 20
4772.6913025803
 30
0.0
 11
6802.254876341
 21
4772.6913025803
 31
0.0
  0
LINE
  5
397
330
1F
100
AcDbEntity
  8
0
  6
Continuous
 62
     8
370
    25
100
AcDbLine
 10
6855.3565852947
 20
4653.1913025803
 30
0.0
 11
6749.8565852947
 21
4653.1913025803
 31
0.0
  0
LINE
  5
398
330
1F
100
AcDbEntity
  8
0
  6
Continuous
 62
     8
370
    25
100
AcDbLine
 10
6824.954876341
 20
4756.3255440244
 30
0.0
 11
6824.954876341
 21
4748.3255440244
 31
0.0
  0
LINE
  5
399
330
1F
100
AcDbEntity
  8
0
  6
Continuous
 62
     8
370
    25
100
AcDbLine
 10
6823.954876341
 20
4756.3255440244
 30
0.0
 11
6823.954876341
 21
4748.3255440244
 31
0.0
  0
LINE
  5
39A
330
1F
100
AcDbEntity
  8
0
  6
Continuous
 62
     8
370
    25
100
AcDbLine
 10
6825.3794046429
 20
4756.0896949678
 30
0.0
 11
6825.3794046429
 21
4748.561393081
 31
0.0
  0
LINE
  5
39B
330
1F
100
AcDbEntity
  8
0
  6
Continuous
 62
     8
370
    25
100
AcDbLine
 10
6821.454876341
 20
4729.7755440244
 30
0.0
 11
6821.454876341
 21
4748.0255440244
 31
0.0
  0
LINE
  5
39C
330
1F
100
AcDbEntity
  8
0
  6
Continuous
 62
     8
370
    25
100
AcDbLine
 10
6825.954876341
 20
4745.8255440244
 30
0.0
 11
6825.954876341
 21
4749.703521904
 31
0.0
  0
LINE
  5
39D
330
1F
100
AcDbEntity
  8
0
  6
Continuous
 62
     8
370
    25
100
AcDbLine
 10
6825.954876341
 20
4754.9475661448
 30
0.0
 11
6825.954876341
 21
4758.8255440244
 31
0.0
  0
LINE
  5
39E
330
1F
100
AcDbEntity
  8
0
  6
Continuous
 62
     8
370
    25
100
AcDbLine
 10
6746.754876341
 20
4709.1317967394
 30
0.0
 11
6753.2746667938
 21
4709.1317967394
 31
0.0
  0
LINE
  5
39F
330
1F
100
AcDbEntity
  8
0
  6
Continuous
 62
     8
370
    25
100
AcDbLine
 10
6753.2178528391
 20
4708.6821875341
 30
0.0
 11
6747.036126341
 21
4708.6821875341
 31
0.0
  0
LINE
  5
3A0
330
1F
100
AcDbEntity
  8
0
  6
Continuous
 62
     8
370
    25
100
AcDbLine
 10
6753.407049624
 20
4709.8255440244
 30
0.0
 11
6746.754876341
 21
4709.8255440244
 31
0.0
  0
LINE
  5
3A1
330
1F
100
AcDbEntity
  8
0
  6
Continuous
 62
     8
370
    25
100
AcDbLine
 10
6774.754876341
 20
4709.8255440244
 30
0.0
 11
6766.754876341
 21
4709.8255440244
 31
0.0
  0
LINE
  5
3A2
330
1F
100
AcDbEntity
  8
0
  6
Continuous
 62
     8
370
    25
100
AcDbLine
 10
6766.754876341
 20
4709.1317967394
 30
0.0
 11
6774.754876341
 21
4709.1317967394
 31
0.0
  0
LINE
  5
3A3
330
1F
100
AcDbEntity
  8
0
  6
Continuous
 62
     8
370
    25
100
AcDbLine
 10
6774.473626341
 20
4708.6821875341
 30
0.0
 11
6767.036126341
 21
4708.6821875341
 31
0.0
  0
LWPOLYLINE
  5
3A4
330
1F
100
AcDbEntity
  8
0
  6
Continuous
 62
     8
370
    25
100
AcDbPolyline
 90
        6
 70
   128
 43
0.0
 10
6856.5977655375
 20
4959.0557929736
 10
6857.817358148
 20
4962.419385764
 10
6859.0520378759
 20
4965.3313304626
 10
6860.0947214775
 20
4967.5376714277
 10
6860.7114877729
 20
4968.7906180356
 10
6860.7377883665
 20
4968.8971587918
  0
LWPOLYLINE
  5
3A5
330
1F
100
AcDbEntity
  8
0
  6
Continuous
 62
     8
370
    25
100
AcDbPolyline
 90
        6
 70
   128
 43
0.0
 10
6853.9619152694
 20
4948.3213760676
 10
6854.0963670889
 20
4948.8741596414
 10
6854.4126992076
 20
4950.5485014427
 10
6854.9633976869
 20
4953.1724366987
 10
6855.7990797223
 20
4956.4488284336
 10
6856.5976247546
 20
4959.0553668597
  0
LWPOLYLINE
  5
3A6
330
1F
100
AcDbEntity
  8
0
  6
Continuous
 62
     8
370
    25
100
AcDbPolyline
 90
       10
 70
   128
 43
0.0
 10
6874.8111480925
 20
5010.9242597707
 10
6872.8644219966
 20
5015.2151416482
 10
6870.9115774515
 20
5019.4886469518
 10
6869.0408246272
 20
5023.5493570701
 10
6867.3453779444
 20
5027.1928595044
 10
6865.9143869335
 20
5030.2259404137
 10
6864.8229002146
 20
5032.4885785073
 10
6864.1231205597
 20
5033.8727370888
 10
6863.8391575743
 20
5034.333186253
 10
6863.841999317
 20
5034.3233345906
  0
LINE
  5
3A7
330
1F
100
AcDbEntity
  8
0
  6
Continuous
 62
     7
370
    25
100
AcDbLine
 10
6250.9171365092
 20
4306.5081513136
 30
0.0
 11
6250.9171365092
 21
4307.2081513136
 31
0.0
  0
LINE
  5
3A8
330
1F
100
AcDbEntity
  8
0
  6
Continuous
 62
     7
370
    25
100
AcDbLine
 10
6242.2771168363
 20
4307.2081513136
 30
0.0
 11
6242.2771168363
 21
4306.5081513136
 31
0.0
  0
LINE
  5
3A9
330
1F
100
AcDbEntity
  8
0
  6
Continuous
 62
     7
370
    25
100
AcDbLine
 10
6250.5971266728
 20
4284.5081513136
 30
0.0
 11
6250.5971266728
 21
4285.5081513136
 31
0.0
  0
LINE
  5
3AA
330
1F
100
AcDbEntity
  8
0
  6
Continuous
 62
     7
370
    25
100
AcDbLine
 10
6242.5971266728
 20
4285.5081513136
 30
0.0
 11
6242.5971266728
 21
4284.5081513136
 31
0.0
  0
ARC
  5
3AB
330
1F
100
AcDbEntity
  8
0
  6
Continuous
 62
     7
370
    25
100
AcDbCircle
 10
6250.0971266728
 20
4284.5081513136
 30
0.0
 40
0.5000000000009095
100
AcDbArc
 50
301.890791802
 51
0.0
  0
ARC
  5
3AC
330
1F
100
AcDbEntity
  8
0
  6
Continuous
 62
     7
370
    25
100
AcDbCircle
 10
6243.0971266728
 20
4284.5081513136
 30
0.0
 40
0.4999999999995195
100
AcDbArc
 50
180.0
 51
238.1092081981
  0
ARC
  5
3AD
330
1F
100
AcDbEntity
  8
0
  6
Continuous
 62
     7
370
    25
100
AcDbCircle
 10
6250.0971266728
 20
4285.5081513136
 30
0.0
 40
0.5
100
AcDbArc
 50
0.0
 51
90.0
  0
ARC
  5
3AE
330
1F
100
AcDbEntity
  8
0
  6
Continuous
 62
     7
370
    25
100
AcDbCircle
 10
6243.0971266728
 20
4285.5081513136
 30
0.0
 40
0.5
100
AcDbArc
 50
90.0
 51
180.0
  0
ARC
  5
3AF
330
1F
100
AcDbEntity
  8
0
  6
Continuous
 62
     7
370
    25
100
AcDbCircle
 10
6246.5971266728
 20
4290.1331513136
 30
0.0
 40
7.125000000000605
100
AcDbArc
 50
277.4380473866
 51
301.8907918018
  0
ARC
  5
3B0
330
1F
100
AcDbEntity
  8
0
  6
Continuous
 62
     7
370
    25
100
AcDbCircle
 10
6246.5971266728
 20
4290.1331513136
 30
0.0
 40
7.125000000000773
100
AcDbArc
 50
238.1092081982
 51
262.5619526134
  0
LINE
  5
3B1
330
1F
100
AcDbEntity
  8
0
  6
Continuous
 62
     7
370
    25
100
AcDbLine
 10
6275.3471266728
 20
4306.5081513136
 30
0.0
 11
6275.3471266728
 21
4307.2081513136
 31
0.0
  0
LINE
  5
3B2
330
1F
100
AcDbEntity
  8
0
  6
Continuous
 62
     7
370
    25
100
AcDbLine
 10
6265.5471266728
 20
4307.2081513136
 30
0.0
 11
6265.5471266728
 21
4306.5081513136
 31
0.0
  0
LINE
  5
3B3
330
1F
100
AcDbEntity
  8
0
  6
Continuous
 62
     7
370
    25
100
AcDbLine
 10
6256.0054835765
 20
4299.8738560957
 30
0.0
 11
6256.0054835765
 21
4295.1424465314
 31
0.0
  0
LINE
  5
3B4
330
1F
100
AcDbEntity
  8
0
  6
Continuous
 62
     7
370
    25
100
AcDbLine
 10
6239.5971266728
 20
4310.4081513136
 30
0.0
 11
6239.5971266728
 21
4307.2081513136
 31
0.0
  0
LINE
  5
3B5
330
1F
100
AcDbEntity
  8
0
  6
Continuous
 62
     7
370
    25
100
AcDbLine
 10
6247.8471266728
 20
4306.5081513136
 30
0.0
 11
6247.8471266728
 21
4307.2081513136
 31
0.0
  0
LINE
  5
3B6
330
1F
100
AcDbEntity
  8
0
  6
Continuous
 62
     7
370
    25
100
AcDbLine
 10
6245.3471266728
 20
4307.2081513136
 30
0.0
 11
6245.3471266728
 21
4306.5081513136
 31
0.0
  0
LINE
  5
3B7
330
1F
100
AcDbEntity
  8
0
  6
Continuous
 62
     7
370
    25
100
AcDbLine
 10
6263.9471266728
 20
4286.0081513136
 30
0.0
 11
6263.9471266728
 21
4283.5081513136
 31
0.0
  0
ARC
  5
3B8
330
1F
100
AcDbEntity
  8
0
  6
Continuous
 62
     7
370
    25
100
AcDbCircle
 10
6264.4471266728
 20
4283.5081513136
 30
0.0
 40
0.5000000000009095
100
AcDbArc
 50
180.0
 51
270.0
  0
LINE
  5
3B9
330
1F
100
AcDbEntity
  8
0
  6
Continuous
 62
     7
370
    25
100
AcDbLine
 10
6242.2971266728
 20
4306.5081513136
 30
0.0
 11
6242.2971266728
 21
4286.0081513136
 31
0.0
  0
LINE
  5
3BA
330
1F
100
AcDbEntity
  8
0
  6
Continuous
 62
     7
370
    25
100
AcDbLine
 10
6252.9471266728
 20
4306.5081513136
 30
0.0
 11
6252.9471266728
 21
4307.2081513136
 31
0.0
  0
ARC
  5
3BB
330
1F
100
AcDbEntity
  8
0
  6
Continuous
 62
     7
370
    25
100
AcDbCircle
 10
6239.4471266728
 20
4321.4339577652
 30
0.0
 40
14.32580645161379
100
AcDbArc
 50
231.592052989
 51
245.239598896
  0
LINE
  5
3BC
330
1F
100
AcDbEntity
  8
0
  6
Continuous
 62
     7
370
    25
100
AcDbLine
 10
6230.5471266728
 20
4310.4081513136
 30
0.0
 11
6230.5471266728
 21
4310.2081513136
 31
0.0
  0
LINE
  5
3BD
330
1F
100
AcDbEntity
  8
0
  6
Continuous
 62
     7
370
    25
100
AcDbLine
 10
6233.6471266728
 20
4308.4251634133
 30
0.0
 11
6233.6471266728
 21
4308.3347696037
 31
0.0
  0
ARC
  5
3BE
330
1F
100
AcDbEntity
  8
0
  6
Continuous
 62
     7
370
    25
100
AcDbCircle
 10
6239.4471266728
 20
4321.4339577652
 30
0.0
 40
14.3258064516133
100
AcDbArc
 50
246.1174094853
 51
276.7737793216
  0
LWPOLYLINE
  5
3BF
330
1F
100
AcDbEntity
  8
0
  6
Continuous
 62
     7
370
    25
100
AcDbPolyline
 90
       15
 70
   128
 43
0.0
 10
6325.2558991605
 20
4168.6971928742
 10
6325.4074701215
 20
4172.9303475564
 10
6325.5358361668
 20
4177.2500770872
 10
6325.664691394
 20
4182.2338677905
 10
6325.7704808292
 20
4186.7517187985
 10
6325.8561732215
 20
4190.6433497768
 10
6325.9235046384
 20
4193.8200724127
 10
6325.9825657672
 20
4196.6771288321
 10
6326.064441188
 20
4200.7422002336
 10
6326.1641837409
 20
4205.8128302369
 10
6326.2816670697
 20
4211.8778307308
 10
6326.3816158644
 20
4217.0520117319
 10
6326.4920855344
 20
4222.7290387272
 10
6326.6139606959
 20
4228.8534193855
 10
6326.74885253
 20
4235.3122919392
  0
LWPOLYLINE
  5
3C0
330
1F
100
AcDbEntity
  8
0
  6
Continuous
 62
     7
370
    25
100
AcDbPolyline
 90
       12
 70
   128
 43
0.0
 10
6276.7866609032
 20
4234.5573690515
 10
6277.1113683372
 20
4228.2148807406
 10
6277.4330958943
 20
4221.8053295293
 10
6277.7504283554
 20
4215.4227692198
 10
6278.2168096754
 20
4206.0145283561
 10
6278.6697996753
 20
4196.9511981849
 10
6278.9630654689
 20
4191.1894644713
 10
6279.2483714331
 20
4185.7193628669
 10
6279.5249046573
 20
4180.5968457941
 10
6279.7916223456
 20
4175.8930594139
 10
6280.0474726691
 20
4171.6797218435
 10
6280.2915659722
 20
4168.0177870445
  0
ARC
  5
3C1
330
1F
100
AcDbEntity
  8
0
  6
Continuous
 62
     7
370
    25
100
AcDbCircle
 10
6226.3719288401
 20
4234.8802197197
 30
0.0
 40
50.39504521061593
100
AcDbArc
 50
359.9704517237
 51
2.4780331831
  0
ARC
  5
3C2
330
1F
100
AcDbEntity
  8
0
  6
Continuous
 62
     7
370
    25
100
AcDbCircle
 10
6379.548071096
 20
4237.2054011786
 30
0.0
 40
52.81149810202049
100
AcDbArc
 50
179.3383428607
 51
181.691128651
  0
ARC
  5
3C3
330
1F
100
AcDbEntity
  8
0
  6
Continuous
 62
     7
370
    25
100
AcDbCircle
 10
6329.3899247306
 20
4266.0134132873
 30
0.0
 40
0.6284010408701207
100
AcDbArc
 50
132.9148770566
 51
168.7556629123
  0
ARC
  5
3C4
330
1F
100
AcDbEntity
  8
0
  6
Continuous
 62
     7
370
    25
100
AcDbCircle
 10
6273.1369290834
 20
4265.1153026311
 30
0.0
 40
0.7195820665734859
100
AcDbArc
 50
14.2797241948
 51
46.3176081361
  0
LINE
  5
3C5
330
1F
100
AcDbEntity
  8
0
  6
Continuous
 62
     7
370
    25
100
AcDbLine
 10
6329.7752410913
 20
4267.7457281728
 30
0.0
 11
6329.4915858782
 21
4286.518554302
 31
0.0
  0
ARC
  5
3C6
330
1F
100
AcDbEntity
  8
0
  6
Continuous
 62
     7
370
    25
100
AcDbCircle
 10
6327.7754693608
 20
4267.7155118552
 30
0.0
 40
1.999999999999921
100
AcDbArc
 50
297.304651099
 51
0.8656666697
  0
ARC
  5
3C7
330
1F
100
AcDbEntity
  8
0
  6
Continuous
 62
     7
370
    25
100
AcDbCircle
 10
6274.7815185023
 20
4266.914779439
 30
0.0
 40
2.000000000000674
100
AcDbArc
 50
180.8656666697
 51
244.4266822403
  0
LINE
  5
3C8
330
1F
100
AcDbEntity
  8
0
  6
Continuous
 62
     7
370
    25
100
AcDbLine
 10
6272.4980915586
 20
4285.6573892506
 30
0.0
 11
6272.7817467718
 21
4266.8845631214
 31
0.0
  0
ARC
  5
3C9
330
1F
100
AcDbEntity
  8
0
  6
Continuous
 62
     7
370
    25
100
AcDbCircle
 10
6301.0344249999
 20
4283.4680785236
 30
0.0
 40
28.62019230769246
100
AcDbArc
 50
6.1184779462
 51
24.8732179869
  0
ARC
  5
3CA
330
1F
100
AcDbEntity
  8
0
  6
Continuous
 62
     7
370
    25
100
AcDbCircle
 10
6301.0344249999
 20
4283.4680785236
 30
0.0
 40
28.62019230769252
100
AcDbArc
 50
156.2980528445
 51
175.6128553931
  0
CIRCLE
  5
3CB
330
1F
100
AcDbEntity
  8
0
  6
Continuous
 62
     7
370
    25
100
AcDbCircle
 10
6406.5388917363
 20
4306.8564423598
 30
0.0
 40
6.249999999999782
  0
ARC
  5
3CC
330
1F
100
AcDbEntity
  8
0
  6
Continuous
 62
     7
370
    25
100
AcDbCircle
 10
6406.5388917363
 20
4306.8564423598
 30
0.0
 40
52.75000000000001
100
AcDbArc
 50
174.4195647402
 51
5.5804352598
  0
LINE
  5
3CD
330
1F
100
AcDbEntity
  8
0
  6
Continuous
 62
     7
370
    25
100
AcDbLine
 10
6354.0388917363
 20
4362.1198423598
 30
0.0
 11
6354.0388917363
 21
4306.8564423598
 31
0.0
  0
LINE
  5
3CE
330
1F
100
AcDbEntity
  8
0
  6
Continuous
 62
     7
370
    25
100
AcDbLine
 10
6354.0388917363
 20
4362.1198423598
 30
0.0
 11
6459.0388917363
 21
4362.1198423598
 31
0.0
  0
ARC
  5
3CF
330
1F
100
AcDbEntity
  8
0
  6
Continuous
 62
     7
370
    25
100
AcDbCircle
 10
6406.5388917363
 20
4306.8564423598
 30
0.0
 40
52.5
100
AcDbArc
 50
180.0
 51
0.0
  0
CIRCLE
  5
3D0
330
1F
100
AcDbEntity
  8
0
  6
Continuous
 62
     7
370
    25
100
AcDbCircle
 10
6406.5388917363
 20
4306.8564423598
 30
0.0
 40
8.0
  0
LINE
  5
3D1
330
1F
100
AcDbEntity
  8
0
  6
Continuous
 62
     7
370
    25
100
AcDbLine
 10
6459.0388917363
 20
4362.1198423598
 30
0.0
 11
6459.0388917363
 21
4306.8564423598
 31
0.0
  0
LINE
  5
3D2
330
1F
100
AcDbEntity
  8
0
  6
Continuous
 62
     7
370
    25
100
AcDbLine
 10
6354.0388917363
 20
4364.3564423598
 30
0.0
 11
6354.0388917363
 21
4362.1198423598
 31
0.0
  0
LINE
  5
3D3
330
1F
100
AcDbEntity
  8
0
  6
Continuous
 62
     7
370
    25
100
AcDbLine
 10
6354.0388917363
 20
4364.3564423598
 30
0.0
 11
6459.0388917363
 21
4364.3564423598
 31
0.0
  0
LINE
  5
3D4
330
1F
100
AcDbEntity
  8
0
  6
Continuous
 62
     7
370
    25
100
AcDbLine
 10
6459.0388917363
 20
4364.3564423598
 30
0.0
 11
6459.0388917363
 21
4362.1198423598
 31
0.0
  0
LINE
  5
3D5
330
1F
100
AcDbEntity
  8
0
  6
Continuous
 62
     7
370
    25
100
AcDbLine
 10
6242.2771168363
 20
4306.5081513136
 30
0.0
 11
6245.0971266728
 21
4306.5081513136
 31
0.0
  0
ARC
  5
3D6
330
1F
100
AcDbEntity
  8
0
  6
Continuous
 62
     7
370
    25
100
AcDbCircle
 10
6248.697931854
 20
4285.4295036499
 30
0.0
 40
1.968344882270801
100
AcDbArc
 50
262.085145483
 51
277.9148545171
  0
ARC
  5
3D7
330
1F
100
AcDbEntity
  8
0
  6
Continuous
 62
     7
370
    25
100
AcDbCircle
 10
6246.3043167525
 20
4288.1976802978
 30
0.0
 40
5.173264865759372
100
AcDbArc
 50
274.9004764201
 51
294.2234485089
  0
ARC
  5
3D8
330
1F
100
AcDbEntity
  8
0
  6
Continuous
 62
     7
370
    25
100
AcDbCircle
 10
6247.0983673187
 20
4285.4822246432
 30
0.0
 40
2.464187114264305
100
AcDbArc
 50
234.3474136847
 51
261.7845197171
  0
ARC
  5
3D9
330
1F
100
AcDbEntity
  8
0
  6
Continuous
 62
     7
370
    25
100
AcDbCircle
 10
6245.2419080223
 20
4288.1757405939
 30
0.0
 40
4.714590523922756
100
AcDbArc
 50
264.8870565457
 51
275.1129434543
  0
ARC
  5
3DA
330
1F
100
AcDbEntity
  8
0
  6
Continuous
 62
     7
370
    25
100
AcDbCircle
 10
6246.2580452462
 20
4285.4822246432
 30
0.0
 40
2.464187114258988
100
AcDbArc
 50
234.3474136847
 51
261.7845197171
  0
ARC
  5
3DB
330
1F
100
AcDbEntity
  8
0
  6
Continuous
 62
     7
370
    25
100
AcDbCircle
 10
6246.8721937871
 20
4288.0897857186
 30
0.0
 40
5.06425607111385
100
AcDbArc
 50
259.0003887856
 51
265.1952497102
  0
LWPOLYLINE
  5
3DC
330
1F
100
AcDbEntity
  8
0
  6
Continuous
 62
     7
370
    25
100
AcDbPolyline
 90
        3
 70
   128
 43
0.0
 10
6246.4480093666
 20
4283.0433258573
 10
6246.5866546081
 20
4283.0660126305
 10
6246.5971266728
 20
4283.0681052192
  0
ARC
  5
3DD
330
1F
100
AcDbEntity
  8
0
  6
Continuous
 62
     7
370
    25
100
AcDbCircle
 10
6246.8464042127
 20
4288.1976802978
 30
0.0
 40
5.173264865768886
100
AcDbArc
 50
274.9004764201
 51
294.2234485089
  0
LINE
  5
3DE
330
1F
100
AcDbEntity
  8
0
  6
Continuous
 62
     7
370
    25
100
AcDbLine
 10
6245.9059219064
 20
4283.0433258573
 30
0.0
 11
6245.9059219064
 21
4283.3278246737
 31
0.0
  0
LINE
  5
3DF
330
1F
100
AcDbEntity
  8
0
  6
Continuous
 62
     7
370
    25
100
AcDbLine
 10
6247.2883314391
 20
4283.0433258573
 30
0.0
 11
6247.2883314391
 21
4283.1185677384
 31
0.0
  0
LINE
  5
3E0
330
1F
100
AcDbEntity
  8
0
  6
Continuous
 62
     7
370
    25
100
AcDbLine
 10
6246.4480093666
 20
4283.1037281619
 30
0.0
 11
6246.4480093666
 21
4283.0433258573
 31
0.0
  0
CIRCLE
  5
3E1
330
1F
100
AcDbEntity
  8
0
  6
Continuous
 62
     7
370
    25
100
AcDbCircle
 10
6255.1971266728
 20
4297.5081513136
 30
0.0
 40
4.049999999999272
  0
CIRCLE
  5
3E2
330
1F
100
AcDbEntity
  8
0
  6
Continuous
 62
     7
370
    25
100
AcDbCircle
 10
6255.1971266728
 20
4297.5081513136
 30
0.0
 40
2.5
  0
LINE
  5
3E3
330
1F
100
AcDbEntity
  8
0
  6
Continuous
 62
     7
370
    25
100
AcDbLine
 10
6249.9471266728
 20
4297.5081513136
 30
0.0
 11
6251.1471266728
 21
4297.5081513136
 31
0.0
  0
LINE
  5
3E4
330
1F
100
AcDbEntity
  8
0
  6
Continuous
 62
     7
370
    25
100
AcDbLine
 10
6249.9471266728
 20
4306.5081513136
 30
0.0
 11
6249.9471266728
 21
4297.5081513136
 31
0.0
  0
LINE
  5
3E5
330
1F
100
AcDbEntity
  8
0
  6
Continuous
 62
     7
370
    25
100
AcDbLine
 10
6249.9471266728
 20
4306.5081513136
 30
0.0
 11
6283.1857440705
 21
4306.5081513136
 31
0.0
  0
LINE
  5
3E6
330
1F
100
AcDbEntity
  8
0
  6
Continuous
 62
     7
370
    25
100
AcDbLine
 10
6259.2471266728
 20
4297.5081513136
 30
0.0
 11
6276.0946622949
 21
4297.5081513136
 31
0.0
  0
LINE
  5
3E7
330
1F
100
AcDbEntity
  8
0
  6
Continuous
 62
     7
370
    25
100
AcDbLine
 10
6284.0128906553
 20
4307.2081513136
 30
0.0
 11
6244.3971266728
 21
4307.2081513136
 31
0.0
  0
LINE
  5
3E8
330
1F
100
AcDbEntity
  8
0
  6
Continuous
 62
     7
370
    25
100
AcDbLine
 10
6244.3971266728
 20
4310.4081513136
 30
0.0
 11
6244.3971266728
 21
4307.2081513136
 31
0.0
  0
LINE
  5
3E9
330
1F
100
AcDbEntity
  8
0
  6
Continuous
 62
     7
370
    25
100
AcDbLine
 10
6244.3971266728
 20
4307.2081513136
 30
0.0
 11
6242.3971266728
 21
4307.2081513136
 31
0.0
  0
LINE
  5
3EA
330
1F
100
AcDbEntity
  8
0
  6
Continuous
 62
     7
370
    25
100
AcDbLine
 10
6242.3971266728
 20
4310.4081513136
 30
0.0
 11
6242.3971266728
 21
4307.2081513136
 31
0.0
  0
LINE
  5
3EB
330
1F
100
AcDbEntity
  8
0
  6
Continuous
 62
     7
370
    25
100
AcDbLine
 10
6242.3971266728
 20
4307.2081513136
 30
0.0
 11
6239.5971266728
 21
4307.2081513136
 31
0.0
  0
LINE
  5
3EC
330
1F
100
AcDbEntity
  8
0
  6
Continuous
 62
     7
370
    25
100
AcDbLine
 10
6249.0971266728
 20
4306.5081513136
 30
0.0
 11
6249.0971266728
 21
4288.0081513136
 31
0.0
  0
LINE
  5
3ED
330
1F
100
AcDbEntity
  8
0
  6
Continuous
 62
     7
370
    25
100
AcDbLine
 10
6249.0971266728
 20
4306.5081513136
 30
0.0
 11
6249.9471266728
 21
4306.5081513136
 31
0.0
  0
LINE
  5
3EE
330
1F
100
AcDbEntity
  8
0
  6
Continuous
 62
     7
370
    25
100
AcDbLine
 10
6245.0971266728
 20
4306.5081513136
 30
0.0
 11
6249.0971266728
 21
4306.5081513136
 31
0.0
  0
LINE
  5
3EF
330
1F
100
AcDbEntity
  8
0
  6
Continuous
 62
     7
370
    25
100
AcDbLine
 10
6245.0971266728
 20
4288.0081513136
 30
0.0
 11
6249.0971266728
 21
4288.0081513136
 31
0.0
  0
LINE
  5
3F0
330
1F
100
AcDbEntity
  8
0
  6
Continuous
 62
     7
370
    25
100
AcDbLine
 10
6245.0971266728
 20
4288.0081513136
 30
0.0
 11
6245.0971266728
 21
4306.5081513136
 31
0.0
  0
LINE
  5
3F1
330
1F
100
AcDbEntity
  8
0
  6
Continuous
 62
     7
370
    25
100
AcDbLine
 10
6249.0971266728
 20
4286.0081513136
 30
0.0
 11
6247.0971266728
 21
4286.0081513136
 31
0.0
  0
ARC
  5
3F2
330
1F
100
AcDbEntity
  8
0
  6
Continuous
 62
     7
370
    25
100
AcDbCircle
 10
6247.0971266728
 20
4288.0081513136
 30
0.0
 40
2.000000000000909
100
AcDbArc
 50
180.0
 51
270.0
  0
LINE
  5
3F3
330
1F
100
AcDbEntity
  8
0
  6
Continuous
 62
     7
370
    25
100
AcDbLine
 10
6249.0971266728
 20
4286.0081513136
 30
0.0
 11
6249.0971266728
 21
4288.0081513136
 31
0.0
  0
LINE
  5
3F4
330
1F
100
AcDbEntity
  8
0
  6
Continuous
 62
     7
370
    25
100
AcDbLine
 10
6272.5271726252
 20
4286.0081513136
 30
0.0
 11
6271.4471266728
 21
4286.0081513136
 31
0.0
  0
LINE
  5
3F5
330
1F
100
AcDbEntity
  8
0
  6
Continuous
 62
     7
370
    25
100
AcDbLine
 10
6271.4471266728
 20
4286.0081513136
 30
0.0
 11
6269.4471266728
 21
4286.0081513136
 31
0.0
  0
LINE
  5
3F6
330
1F
100
AcDbEntity
  8
0
  6
Continuous
 62
     7
370
    25
100
AcDbLine
 10
6269.4471266728
 20
4286.0081513136
 30
0.0
 11
6249.0971266728
 21
4286.0081513136
 31
0.0
  0
LINE
  5
3F7
330
1F
100
AcDbEntity
  8
0
  6
Continuous
 62
     7
370
    25
100
AcDbLine
 10
6271.4471266728
 20
4285.0081513136
 30
0.0
 11
6271.4471266728
 21
4286.0081513136
 31
0.0
  0
LINE
  5
3F8
330
1F
100
AcDbEntity
  8
0
  6
Continuous
 62
     7
370
    25
100
AcDbLine
 10
6271.4471266728
 20
4285.0081513136
 30
0.0
 11
6269.4471266728
 21
4285.0081513136
 31
0.0
  0
LINE
  5
3F9
330
1F
100
AcDbEntity
  8
0
  6
Continuous
 62
     7
370
    25
100
AcDbLine
 10
6269.4471266728
 20
4285.0081513136
 30
0.0
 11
6269.4471266728
 21
4286.0081513136
 31
0.0
  0
LINE
  5
3FA
330
1F
100
AcDbEntity
  8
0
  6
Continuous
 62
     7
370
    25
100
AcDbLine
 10
6272.5381212349
 20
4283.0081513136
 30
0.0
 11
6264.4471266728
 21
4283.0081513136
 31
0.0
  0
LINE
  5
3FB
330
1F
100
AcDbEntity
  8
0
  6
Continuous
 62
     7
370
    25
100
AcDbLine
 10
6242.2971266728
 20
4286.0081513136
 30
0.0
 11
6247.0971266728
 21
4286.0081513136
 31
0.0
  0
LINE
  5
3FC
330
1F
100
AcDbEntity
  8
0
  6
Continuous
 62
     7
370
    25
100
AcDbLine
 10
6233.4471266728
 20
4308.4251634133
 30
0.0
 11
6239.5971266728
 21
4308.4251634133
 31
0.0
  0
LINE
  5
3FD
330
1F
100
AcDbEntity
  8
0
  6
Continuous
 62
     7
370
    25
100
AcDbLine
 10
6230.5471266728
 20
4310.2081513136
 30
0.0
 11
6239.5971266728
 21
4310.2081513136
 31
0.0
  0
LINE
  5
3FE
330
1F
100
AcDbEntity
  8
0
  6
Continuous
 62
     7
370
    25
100
AcDbLine
 10
6233.6471266728
 20
4308.3347696037
 30
0.0
 11
6239.5971266728
 21
4308.3347696037
 31
0.0
  0
LINE
  5
3FF
330
1F
100
AcDbEntity
  8
0
  6
Continuous
 62
     7
370
    25
100
AcDbLine
 10
6229.4471266728
 20
4322.4081513136
 30
0.0
 11
6299.4471266728
 21
4322.4081513136
 31
0.0
  0
LINE
  5
400
330
1F
100
AcDbEntity
  8
0
  6
Continuous
 62
     7
370
    25
100
AcDbLine
 10
6229.4471266728
 20
4322.4081513136
 30
0.0
 11
6229.4471266728
 21
4312.6152580948
 31
0.0
  0
LINE
  5
401
330
1F
100
AcDbEntity
  8
0
  6
Continuous
 62
     7
370
    25
100
AcDbLine
 10
6223.4471266728
 20
4312.6152580948
 30
0.0
 11
6229.4471266728
 21
4312.6152580948
 31
0.0
  0
LINE
  5
402
330
1F
100
AcDbEntity
  8
0
  6
Continuous
 62
     7
370
    25
100
AcDbLine
 10
6223.4471266728
 20
4312.6152580948
 30
0.0
 11
6223.4471266728
 21
4322.4081513136
 31
0.0
  0
LINE
  5
403
330
1F
100
AcDbEntity
  8
0
  6
Continuous
 62
     7
370
    25
100
AcDbLine
 10
6223.4471266728
 20
4322.4081513136
 30
0.0
 11
6229.4471266728
 21
4322.4081513136
 31
0.0
  0
LINE
  5
404
330
1F
100
AcDbEntity
  8
0
  6
Continuous
 62
     7
370
    25
100
AcDbLine
 10
6305.4471266728
 20
4322.4081513136
 30
0.0
 11
6305.4471266728
 21
4312.6152580948
 31
0.0
  0
LINE
  5
405
330
1F
100
AcDbEntity
  8
0
  6
Continuous
 62
     7
370
    25
100
AcDbLine
 10
6299.4471266728
 20
4322.4081513136
 30
0.0
 11
6305.4471266728
 21
4322.4081513136
 31
0.0
  0
LINE
  5
406
330
1F
100
AcDbEntity
  8
0
  6
Continuous
 62
     7
370
    25
100
AcDbLine
 10
6229.4471266728
 20
4312.2617047042
 30
0.0
 11
6229.4471266728
 21
4312.6152580948
 31
0.0
  0
LINE
  5
407
330
1F
100
AcDbEntity
  8
0
  6
Continuous
 62
     7
370
    25
100
AcDbLine
 10
6229.4471266728
 20
4312.2617047042
 30
0.0
 11
6223.5935732822
 21
4312.2617047042
 31
0.0
  0
ARC
  5
408
330
1F
100
AcDbEntity
  8
0
  6
Continuous
 62
     7
370
    25
100
AcDbCircle
 10
6223.9471266728
 20
4312.6152580948
 30
0.0
 40
0.5000000000000844
100
AcDbArc
 50
180.0
 51
225.0
  0
LINE
  5
409
330
1F
100
AcDbEntity
  8
0
  6
Continuous
 62
     7
370
    25
100
AcDbLine
 10
6229.4471266728
 20
4310.554597923
 30
0.0
 11
6229.4471266728
 21
4312.2617047042
 31
0.0
  0
LINE
  5
40A
330
1F
100
AcDbEntity
  8
0
  6
Continuous
 62
     7
370
    25
100
AcDbLine
 10
6225.3006800634
 20
4310.554597923
 30
0.0
 11
6229.4471266728
 21
4310.554597923
 31
0.0
  0
LINE
  5
40B
330
1F
100
AcDbEntity
  8
0
  6
Continuous
 62
     7
370
    25
100
AcDbLine
 10
6225.3006800634
 20
4310.554597923
 30
0.0
 11
6223.5935732822
 21
4312.2617047042
 31
0.0
  0
LINE
  5
40C
330
1F
100
AcDbEntity
  8
0
  6
Continuous
 62
     7
370
    25
100
AcDbLine
 10
6229.4471266728
 20
4310.554597923
 30
0.0
 11
6229.4471266728
 21
4310.4081513136
 31
0.0
  0
LINE
  5
40D
330
1F
100
AcDbEntity
  8
0
  6
Continuous
 62
     7
370
    25
100
AcDbLine
 10
6229.4471266728
 20
4310.4081513136
 30
0.0
 11
6225.654233454
 21
4310.4081513136
 31
0.0
  0
ARC
  5
40E
330
1F
100
AcDbEntity
  8
0
  6
Continuous
 62
     7
370
    25
100
AcDbCircle
 10
6225.654233454
 20
4310.9081513136
 30
0.0
 40
0.5000000000007275
100
AcDbArc
 50
225.0000000001
 51
270.0
  0
LINE
  5
40F
330
1F
100
AcDbEntity
  8
0
  6
Continuous
 62
     7
370
    25
100
AcDbLine
 10
6289.212685741
 20
4310.4081513136
 30
0.0
 11
6229.4471266728
 21
4310.4081513136
 31
0.0
  0
LINE
  5
410
330
1F
100
AcDbEntity
  8
0
  6
Continuous
 62
     7
370
    25
100
AcDbLine
 10
6229.4471266728
 20
4364.4081513136
 30
0.0
 11
6229.4471266728
 21
4322.4081513136
 31
0.0
  0
LINE
  5
411
330
1F
100
AcDbEntity
  8
0
  6
Continuous
 62
     7
370
    25
100
AcDbLine
 10
6299.4471266728
 20
4364.4081513136
 30
0.0
 11
6229.4471266728
 21
4364.4081513136
 31
0.0
  0
LINE
  5
412
330
1F
100
AcDbEntity
  8
0
  6
Continuous
 62
     7
370
    25
100
AcDbLine
 10
6299.4471266728
 20
4322.4081513136
 30
0.0
 11
6299.4471266728
 21
4364.4081513136
 31
0.0
  0
LINE
  5
413
330
1F
100
AcDbEntity
  8
0
  6
Continuous
 62
     7
370
    25
100
AcDbLine
 10
6223.4471266728
 20
4322.4081513136
 30
0.0
 11
6223.4471266728
 21
4364.4081513136
 31
0.0
  0
LINE
  5
414
330
1F
100
AcDbEntity
  8
0
  6
Continuous
 62
     7
370
    25
100
AcDbLine
 10
6223.4471266728
 20
4364.4081513136
 30
0.0
 11
6229.4471266728
 21
4364.4081513136
 31
0.0
  0
LINE
  5
415
330
1F
100
AcDbEntity
  8
0
  6
Continuous
 62
     7
370
    25
100
AcDbLine
 10
6305.4471266728
 20
4364.4081513136
 30
0.0
 11
6305.4471266728
 21
4322.4081513136
 31
0.0
  0
LINE
  5
416
330
1F
100
AcDbEntity
  8
0
  6
Continuous
 62
     7
370
    25
100
AcDbLine
 10
6299.4471266728
 20
4364.4081513136
 30
0.0
 11
6305.4471266728
 21
4364.4081513136
 31
0.0
  0
LINE
  5
417
330
1F
100
AcDbEntity
  8
0
  6
Continuous
 62
     7
370
    25
100
AcDbLine
 10
6276.7788485835
 20
4234.651879562
 30
0.0
 11
6276.8081746636
 21
4234.8519486133
 31
0.0
  0
LINE
  5
418
330
1F
100
AcDbEntity
  8
0
  6
Continuous
 62
     7
370
    25
100
AcDbLine
 10
6326.7119415794
 20
4235.6427264606
 30
0.0
 11
6326.7538058496
 21
4235.4069953374
 31
0.0
  0
LWPOLYLINE
  5
419
330
1F
100
AcDbEntity
  8
0
  6
Continuous
 62
     7
370
    25
100
AcDbPolyline
 90
       18
 70
   128
 43
0.0
 10
6325.1898023762
 20
4168.7025104925
 10
6324.8893900542
 20
4165.3482209619
 10
6323.6690803056
 20
4161.3630325961
 10
6321.645320174
 20
4157.6766764222
 10
6318.8958816264
 20
4154.4308170406
 10
6315.5264240442
 20
4151.7501910071
 10
6311.6664337928
 20
4149.7378132768
 10
6307.4642481328
 20
4148.4710183973
 10
6303.0813547024
 20
4147.9984885855
 10
6298.6861856383
 20
4148.3383828969
 10
6294.4476448228
 20
4149.4776393839
 10
6290.5286170023
 20
4151.3724770585
 10
6287.0797082183
 20
4153.9500783715
 10
6284.2334581011
 20
4157.1113875501
 10
6282.0992464465
 20
4160.7349172553
 10
6280.7590898116
 20
4164.6814172727
 10
6280.2644896642
 20
4168.7992258198
 10
6280.2644896642
 20
4168.7992258198
  0
LINE
  5
41A
330
1F
100
AcDbEntity
  8
0
  6
Continuous
 62
     7
370
    25
100
AcDbLine
 10
6276.7866609032
 20
4234.5573690515
 30
0.0
 11
6276.7788485835
 21
4234.651879562
 31
0.0
  0
ARC
  5
41B
330
1F
100
AcDbEntity
  8
0
  6
Continuous
 62
     7
370
    25
100
AcDbCircle
 10
6301.0099468772
 20
4285.088085911
 30
0.0
 40
28.00000000000169
100
AcDbArc
 50
0.8656666697
 51
180.8656666697
  0
LINE
  5
41C
330
1F
100
AcDbEntity
  8
0
  6
Continuous
 62
     7
370
    25
100
AcDbLine
 10
6329.2836753437
 20
4267.171456465
 30
0.0
 11
6329.0067511044
 21
4285.5111143573
 31
0.0
  0
LWPOLYLINE
  5
41D
330
1F
100
AcDbEntity
  8
0
  6
Continuous
 62
     7
370
    25
100
AcDbPolyline
 90
       13
 70
   128
 43
0.0
 10
6326.7404117572
 20
4237.8277484195
 10
6326.8440777195
 20
4240.9682514426
 10
6326.9655284768
 20
4244.3025975375
 10
6327.0892665841
 20
4247.3580580512
 10
6327.260736771
 20
4251.0754241555
 10
6327.4353817322
 20
4254.3144073143
 10
6327.6198204739
 20
4257.2038852259
 10
6327.8089089769
 20
4259.6609782645
 10
6328.0051641868
 20
4261.7332228475
 10
6328.2079139074
 20
4263.4334962134
 10
6328.4210100973
 20
4264.8091046167
 10
6328.6430558825
 20
4265.8577868287
 10
6328.8492537095
 20
4266.4685269881
  0
LWPOLYLINE
  5
41E
330
1F
100
AcDbEntity
  8
0
  6
Continuous
 62
     7
370
    25
100
AcDbPolyline
 90
       13
 70
   128
 43
0.0
 10
6273.7503089334
 20
4265.6233806669
 10
6273.9704552476
 20
4265.0316902102
 10
6274.2206376533
 20
4264.0064671293
 10
6274.4716973462
 20
4262.6633361464
 10
6274.7291437548
 20
4260.9540638538
 10
6274.9914447189
 20
4258.8629125403
 10
6275.2461741866
 20
4256.497205097
 10
6275.5087272088
 20
4253.7274182559
 10
6275.7896034108
 20
4250.4118473384
 10
6276.0824651006
 20
4246.5873512303
 10
6276.2898643103
 20
4243.6621363492
 10
6276.5029629042
 20
4240.4790656059
 10
6276.7193804634
 20
4237.0701335298
  0
LINE
  5
41F
330
1F
100
AcDbEntity
  8
0
  6
Continuous
 62
     7
370
    25
100
AcDbLine
 10
6273.0131426501
 20
4284.6650574647
 30
0.0
 11
6273.2904385091
 21
4266.3254051884
 31
0.0
  0
ARC
  5
420
330
1F
100
AcDbEntity
  8
0
  6
Continuous
 62
     7
370
    25
100
AcDbCircle
 10
6328.2829330433
 20
4267.1566093351
 30
0.0
 40
1.000852431221951
100
AcDbArc
 50
302.5310476424
 51
0.8499845305
  0
ARC
  5
421
330
1F
100
AcDbEntity
  8
0
  6
Continuous
 62
     7
370
    25
100
AcDbCircle
 10
6274.2911777679
 20
4266.3408031593
 30
0.0
 40
1.000857713012224
100
AcDbArc
 50
180.8815175143
 51
239.2001169916
  0
LINE
  5
422
330
1F
100
AcDbEntity
  8
0
  6
Continuous
 62
     8
370
    25
100
AcDbLine
 10
6250.5971266728
 20
4284.5081513136
 30
0.0
 11
6242.5971266728
 21
4284.5081513136
 31
0.0
  0
LINE
  5
423
330
1F
100
AcDbEntity
  8
0
  6
Continuous
 62
     8
370
    25
100
AcDbLine
 10
6250.5971266728
 20
4285.5081513136
 30
0.0
 11
6242.5971266728
 21
4285.5081513136
 31
0.0
  0
LINE
  5
424
330
1F
100
AcDbEntity
  8
0
  6
Continuous
 62
     8
370
    25
100
AcDbLine
 10
6250.3612776162
 20
4284.0836230117
 30
0.0
 11
6242.8329757294
 21
4284.0836230117
 31
0.0
  0
LINE
  5
425
330
1F
100
AcDbEntity
  8
0
  6
Continuous
 62
     8
370
    25
100
AcDbLine
 10
6249.0971266728
 20
4288.0081513136
 30
0.0
 11
6272.7766270179
 21
4288.0081513136
 31
0.0
  0
LINE
  5
426
330
1F
100
AcDbEntity
  8
0
  6
Continuous
 62
     8
370
    25
100
AcDbLine
 10
6263.9471266728
 20
4283.5081513136
 30
0.0
 11
6272.5305662932
 21
4283.5081513136
 31
0.0
  0
LINE
  5
427
330
1F
100
AcDbEntity
  8
0
  6
Continuous
 62
     8
370
    25
100
AcDbLine
 10
6299.4471266728
 20
4312.9552153467
 30
0.0
 11
6299.4471266728
 21
4322.4081513136
 31
0.0
  0
LINE
  5
428
330
1F
100
AcDbEntity
  8
0
  6
Continuous
 62
     8
370
    25
100
AcDbLine
 10
6229.4471266728
 20
4312.6152580948
 30
0.0
 11
6296.4590326157
 21
4312.6152580948
 31
0.0
  0
LINE
  5
429
330
1F
100
AcDbEntity
  8
0
  6
Continuous
 62
     8
370
    25
100
AcDbLine
 10
6294.4995326314
 20
4312.2617047042
 30
0.0
 11
6229.4471266728
 21
4312.2617047042
 31
0.0
  0
LINE
  5
42A
330
1F
100
AcDbEntity
  8
0
  6
Continuous
 62
     8
370
    25
100
AcDbLine
 10
6229.4471266728
 20
4310.554597923
 30
0.0
 11
6289.4769839443
 21
4310.554597923
 31
0.0
  0
LWPOLYLINE
  5
42B
330
1F
100
AcDbEntity
  8
0
  6
Continuous
 62
     8
370
    25
100
AcDbPolyline
 90
       17
 70
   128
 43
0.0
 10
6276.8081746636
 20
4234.8519486133
 10
6277.0641992914
 20
4236.598605658
 10
6278.2750733452
 20
4238.5514502031
 10
6280.4281982095
 20
4240.4222030273
 10
6283.4785629683
 20
4242.1176497101
 10
6287.3146726981
 20
4243.548640721
 10
6291.7638253255
 20
4244.64012744
 10
6296.6078679237
 20
4245.3399070949
 10
6301.6062465749
 20
4245.6238700802
 10
6306.6109227381
 20
4245.4910520864
 10
6311.4738963192
 20
4244.9379443138
 10
6315.9539947961
 20
4243.9813775375
 10
6319.8315876361
 20
4242.6669396728
 10
6322.9317841723
 20
4241.0644272537
 10
6325.1404469172
 20
4239.2595805315
 10
6326.4097692276
 20
4237.3442114642
 10
6326.7119415794
 20
4235.6427264606
  0
LWPOLYLINE
  5
42C
330
1F
100
AcDbEntity
  8
0
  6
Continuous
 62
     8
370
    25
100
AcDbPolyline
 90
        5
 70
   128
 43
0.0
 10
6328.8492537095
 20
4266.4685269881
 10
6328.9495620568
 20
4266.7656316517
 10
6329.2836727646
 20
4267.171455331
 10
6329.2836753437
 20
4267.171456465
 10
6329.2836753437
 20
4267.171456465
  0
ARC
  5
42D
330
1F
100
AcDbEntity
  8
0
  6
Continuous
 62
     8
370
    25
100
AcDbCircle
 10
6272.8070030715
 20
4265.5070900714
 30
0.0
 40
0.9504469747165616
100
AcDbArc
 50
7.0279542481
 51
59.4267105936
  0
ENDSEC
  0
SECTION
  2
OBJECTS
  0
DICTIONARY
  5
C
330
0
100
AcDbDictionary
281
     1
  3
ACAD_GROUP
350
D
  3
ACAD_LAYOUT
350
1A
  3
ACAD_MLINESTYLE
350
17
  3
ACAD_PLOTSETTINGS
350
19
  3
ACAD_PLOTSTYLENAME
350
E
  3
ACAD_SCALELIST
350
47
  3
DWGPROPS
350
42E
  0
DICTIONARY
  5
D
102
{ACAD_REACTORS
330
C
102
}
330
C
100
AcDbDictionary
281
     1
  0
DICTIONARY
  5
1A
102
{ACAD_REACTORS
330
C
102
}
330
C
100
AcDbDictionary
281
     1
  3
Layout1
350
1E
  3
Layout2
350
26
  3
Model
350
22
  0
DICTIONARY
  5
17
102
{ACAD_REACTORS
330
C
102
}
330
C
100
AcDbDictionary
281
     1
  3
Standard
350
18
  0
DICTIONARY
  5
19
102
{ACAD_REACTORS
330
C
102
}
330
C
100
AcDbDictionary
281
     1
  0
ACDBDICTIONARYWDFLT
  5
E
102
{ACAD_REACTORS
330
C
102
}
330
C
100
AcDbDictionary
281
     1
  3
Normal
350
F
100
AcDbDictionaryWithDefault
340
F
  0
DICTIONARY
  5
47
102
{ACAD_REACTORS
330
C
102
}
330
C
100
AcDbDictionary
281
     1
  3
A0
350
48
  3
A1
350
49
  3
A2
350
4A
  3
A3
350
4B
  3
A4
350
4C
  3
A5
350
4D
  3
A6
350
4E
  3
A7
350
4F
  3
A8
350
50
  3
A9
350
51
  3
B0
350
52
  3
B1
350
53
  3
B2
350
54
  3
B3
350
55
  3
B4
350
56
  3
B5
350
57
  3
B6
350
58
  3
B7
350
59
  3
B8
350
5A
  3
B9
350
5B
  3
C0
350
5C
  3
C1
350
5D
  3
C2
350
5E
  3
C3
350
5F
  3
C4
350
60
  3
C5
350
61
  3
C6
350
62
  3
C7
350
63
  3
C8
350
64
  3
C9
350
65
  3
D0
350
66
  3
D1
350
67
  3
D2
350
68
  0
XRECORD
  5
42E
102
{ACAD_REACTORS
330
C
102
}
330
C
100
AcDbXrecord
280
     1
  1
DWGPROPS COOKIE
  2

  3

  4

  6

  7

  8
radek.stransky
  9

300
=
301
=
302
=
303
=
304
=
305
=
306
=
307
=
308
=
309
=
 40
0.0
 41
2459345.320163715
 42
2459345.320164109
  1

 90
        0
  0
LAYOUT
  5
1E
102
{ACAD_REACTORS
330
1A
102
}
330
1A
100
AcDbPlotSettings
  1

  2
none_device
  4

  6

 40
0.0
 41
0.0
 42
0.0
 43
0.0
 44
0.0
 45
0.0
 46
0.0
 47
0.0
 48
0.0
 49
0.0
140
0.0
141
0.0
142
1.0
143
1.0
 70
   688
 72
     1
 73
     0
 74
     5
  7

 75
    16
147
1.0
148
0.0
149
0.0
100
AcDbLayout
  1
Layout1
 70
     1
 71
     1
 10
0.0
 20
0.0
 11
420.0
 21
297.0
 12
0.0
 22
0.0
 32
0.0
 14
1.0000000000E+20
 24
1.0000000000E+20
 34
1.0000000000E+20
 15
-1.0000000000E+20
 25
-1.0000000000E+20
 35
-1.0000000000E+20
146
0.0
 13
0.0
 23
0.0
 33
0.0
 16
1.0
 26
0.0
 36
0.0
 17
0.0
 27
1.0
 37
0.0
 76
     0
330
1B
  0
LAYOUT
  5
26
102
{ACAD_REACTORS
330
1A
102
}
330
1A
100
AcDbPlotSettings
  1

  2
none_device
  4

  6

 40
0.0
 41
0.0
 42
0.0
 43
0.0
 44
0.0
 45
0.0
 46
0.0
 47
0.0
 48
0.0
 49
0.0
140
0.0
141
0.0
142
1.0
143
1.0
 70
   688
 72
     1
 73
     0
 74
     5
  7

 75
    16
147
1.0
148
0.0
149
0.0
100
AcDbLayout
  1
Layout2
 70
     1
 71
     2
 10
0.0
 20
0.0
 11
0.0
 21
0.0
 12
0.0
 22
0.0
 32
0.0
 14
0.0
 24
0.0
 34
0.0
 15
0.0
 25
0.0
 35
0.0
146
0.0
 13
0.0
 23
0.0
 33
0.0
 16
1.0
 26
0.0
 36
0.0
 17
0.0
 27
1.0
 37
0.0
 76
     0
330
23
  0
LAYOUT
  5
22
102
{ACAD_REACTORS
330
1A
102
}
330
1A
100
AcDbPlotSettings
  1

  2
none_device
  4
Letter_(8.50_x_11.00_Inches)
  6

 40
6.35
 41
6.35
 42
6.35000508
 43
6.35000508
 44
215.9
 45
279.4
 46
0.0
 47
0.0
 48
0.0
 49
0.0
140
0.0
141
0.0
142
1.0
143
1.0
 70
  1712
 72
     1
 73
     0
 74
     0
  7

 75
     0
147
1.0
148
0.0
149
0.0
100
AcDbLayout
  1
Model
 70
     1
 71
     0
 10
0.0
 20
0.0
 11
20000.0
 21
10000.0
 12
0.0
 22
0.0
 32
0.0
 14
0.0
 24
0.0
 34
0.0
 15
20000.0
 25
10000.0
 35
0.0
146
0.0
 13
0.0
 23
0.0
 33
0.0
 16
1.0
 26
0.0
 36
0.0
 17
0.0
 27
1.0
 37
0.0
 76
     0
330
1F
331
29
  0
MLINESTYLE
  5
18
102
{ACAD_REACTORS
330
17
102
}
330
17
100
AcDbMlineStyle
  2
Standard
 70
     0
  3

 62
   256
 51
90.0
 52
90.0
 71
     2
 49
0.5
 62
   256
  6
BYLAYER
 49
-0.5
 62
   256
  6
BYLAYER
  0
ACDBPLACEHOLDER
  5
F
102
{ACAD_REACTORS
330
E
102
}
330
E
  0
SCALE
  5
48
102
{ACAD_REACTORS
330
47
102
}
330
47
100
AcDbScale
 70
     0
300
1:1
140
1.0
141
1.0
290
     1
  0
SCALE
  5
49
102
{ACAD_REACTORS
330
47
102
}
330
47
100
AcDbScale
 70
     0
300
1:2
140
1.0
141
2.0
290
     0
  0
SCALE
  5
4A
102
{ACAD_REACTORS
330
47
102
}
330
47
100
AcDbScale
 70
     0
300
1:4
140
1.0
141
4.0
290
     0
  0
SCALE
  5
4B
102
{ACAD_REACTORS
330
47
102
}
330
47
100
AcDbScale
 70
     0
300
1:5
140
1.0
141
5.0
290
     0
  0
SCALE
  5
4C
102
{ACAD_REACTORS
330
47
102
}
330
47
100
AcDbScale
 70
     0
300
1:8
140
1.0
141
8.0
290
     0
  0
SCALE
  5
4D
102
{ACAD_REACTORS
330
47
102
}
330
47
100
AcDbScale
 70
     0
300
1:10
140
1.0
141
10.0
290
     0
  0
SCALE
  5
4E
102
{ACAD_REACTORS
330
47
102
}
330
47
100
AcDbScale
 70
     0
300
1:16
140
1.0
141
16.0
290
     0
  0
SCALE
  5
4F
102
{ACAD_REACTORS
330
47
102
}
330
47
100
AcDbScale
 70
     0
300
1:20
140
1.0
141
20.0
290
     0
  0
SCALE
  5
50
102
{ACAD_REACTORS
330
47
102
}
330
47
100
AcDbScale
 70
     0
300
1:30
140
1.0
141
30.0
290
     0
  0
SCALE
  5
51
102
{ACAD_REACTORS
330
47
102
}
330
47
100
AcDbScale
 70
     0
300
1:40
140
1.0
141
40.0
290
     0
  0
SCALE
  5
52
102
{ACAD_REACTORS
330
47
102
}
330
47
100
AcDbScale
 70
     0
300
1:50
140
1.0
141
50.0
290
     0
  0
SCALE
  5
53
102
{ACAD_REACTORS
330
47
102
}
330
47
100
AcDbScale
 70
     0
300
1:100
140
1.0
141
100.0
290
     0
  0
SCALE
  5
54
102
{ACAD_REACTORS
330
47
102
}
330
47
100
AcDbScale
 70
     0
300
2:1
140
2.0
141
1.0
290
     0
  0
SCALE
  5
55
102
{ACAD_REACTORS
330
47
102
}
330
47
100
AcDbScale
 70
     0
300
4:1
140
4.0
141
1.0
290
     0
  0
SCALE
  5
56
102
{ACAD_REACTORS
330
47
102
}
330
47
100
AcDbScale
 70
     0
300
8:1
140
8.0
141
1.0
290
     0
  0
SCALE
  5
57
102
{ACAD_REACTORS
330
47
102
}
330
47
100
AcDbScale
 70
     0
300
10:1
140
10.0
141
1.0
290
     0
  0
SCALE
  5
58
102
{ACAD_REACTORS
330
47
102
}
330
47
100
AcDbScale
 70
     0
300
100:1
140
100.0
141
1.0
290
     0
  0
SCALE
  5
59
102
{ACAD_REACTORS
330
47
102
}
330
47
100
AcDbScale
 70
     0
300
1/128" = 1'-0"
140
0.0078125
141
12.0
290
     0
  0
SCALE
  5
5A
102
{ACAD_REACTORS
330
47
102
}
330
47
100
AcDbScale
 70
     0
300
1/64" = 1'-0"
140
0.015625
141
12.0
290
     0
  0
SCALE
  5
5B
102
{ACAD_REACTORS
330
47
102
}
330
47
100
AcDbScale
 70
     0
300
1/32" = 1'-0"
140
0.03125
141
12.0
290
     0
  0
SCALE
  5
5C
102
{ACAD_REACTORS
330
47
102
}
330
47
100
AcDbScale
 70
     0
300
1/16" = 1'-0"
140
0.0625
141
12.0
290
     0
  0
SCALE
  5
5D
102
{ACAD_REACTORS
330
47
102
}
330
47
100
AcDbScale
 70
     0
300
3/32" = 1'-0"
140
0.09375
141
12.0
290
     0
  0
SCALE
  5
5E
102
{ACAD_REACTORS
330
47
102
}
330
47
100
AcDbScale
 70
     0
300
1/8" = 1'-0"
140
0.125
141
12.0
290
     0
  0
SCALE
  5
5F
102
{ACAD_REACTORS
330
47
102
}
330
47
100
AcDbScale
 70
     0
300
3/16" = 1'-0"
140
0.1875
141
12.0
290
     0
  0
SCALE
  5
60
102
{ACAD_REACTORS
330
47
102
}
330
47
100
AcDbScale
 70
     0
300
1/4" = 1'-0"
140
0.25
141
12.0
290
     0
  0
SCALE
  5
61
102
{ACAD_REACTORS
330
47
102
}
330
47
100
AcDbScale
 70
     0
300
3/8" = 1'-0"
140
0.375
141
12.0
290
     0
  0
SCALE
  5
62
102
{ACAD_REACTORS
330
47
102
}
330
47
100
AcDbScale
 70
     0
300
1/2" = 1'-0"
140
0.5
141
12.0
290
     0
  0
SCALE
  5
63
102
{ACAD_REACTORS
330
47
102
}
330
47
100
AcDbScale
 70
     0
300
3/4" = 1'-0"
140
0.75
141
12.0
290
     0
  0
SCALE
  5
64
102
{ACAD_REACTORS
330
47
102
}
330
47
100
AcDbScale
 70
     0
300
1" = 1'-0"
140
1.0
141
12.0
290
     0
  0
SCALE
  5
65
102
{ACAD_REACTORS
330
47
102
}
330
47
100
AcDbScale
 70
     0
300
1-1/2" = 1'-0"
140
1.5
141
12.0
290
     0
  0
SCALE
  5
66
102
{ACAD_REACTORS
330
47
102
}
330
47
100
AcDbScale
 70
     0
300
3" = 1'-0"
140
3.0
141
12.0
290
     0
  0
SCALE
  5
67
102
{ACAD_REACTORS
330
47
102
}
330
47
100
AcDbScale
 70
     0
300
6" = 1'-0"
140
6.0
141
12.0
290
     0
  0
SCALE
  5
68
102
{ACAD_REACTORS
330
47
102
}
330
47
100
AcDbScale
 70
     0
300
1'-0" = 1'-0"
140
12.0
141
12.0
290
     0
  0
ENDSEC
  0
EOF
