  0
SECTION
  2
HEADER
  9
$ACADVER
  1
AC1015
  9
$ACADMAINTVER
 70
     6
  9
$DWGCODEPAGE
  3
ANSI_1250
  9
$INSBASE
 10
0.0
 20
0.0
 30
0.0
  9
$EXTMIN
 10
0.0
 20
0.0
 30
0.0
  9
$EXTMAX
 10
20000.0
 20
10000.0
 30
0.0
  9
$LIMMIN
 10
0.0
 20
0.0
  9
$LIMMAX
 10
20000.0
 20
10000.0
  9
$ORTHOMODE
 70
     0
  9
$REGENMODE
 70
     1
  9
$FILLMODE
 70
     1
  9
$QTEXTMODE
 70
     0
  9
$MIRRTEXT
 70
     1
  9
$LTSCALE
 40
1.0
  9
$ATTMODE
 70
     1
  9
$TEXTSIZE
 40
2.0
  9
$TRACEWID
 40
1.0
  9
$TEXTSTYLE
  7
Standard
  9
$CLAYER
  8
0
  9
$CELTYPE
  6
ByLayer
  9
$CECOLOR
 62
   256
  9
$CELTSCALE
 40
1.0
  9
$DISPSILH
 70
     0
  9
$DIMSCALE
 40
1.0
  9
$DIMASZ
 40
2.0
  9
$DIMEXO
 40
1.0
  9
$DIMDLI
 40
3.75
  9
$DIMRND
 40
0.0
  9
$DIMDLE
 40
0.0
  9
$DIMEXE
 40
1.0
  9
$DIMTP
 40
0.0
  9
$DIMTM
 40
0.0
  9
$DIMTXT
 40
2.0
  9
$DIMCEN
 40
2.5
  9
$DIMTSZ
 40
0.0
  9
$DIMTOL
 70
     0
  9
$DIMLIM
 70
     0
  9
$DIMTIH
 70
     1
  9
$DIMTOH
 70
     1
  9
$DIMSE1
 70
     0
  9
$DIMSE2
 70
     0
  9
$DIMTAD
 70
     1
  9
$DIMZIN
 70
     0
  9
$DIMBLK
  1

  9
$DIMASO
 70
     1
  9
$DIMSHO
 70
     1
  9
$DIMPOST
  1

  9
$DIMAPOST
  1

  9
$DIMALT
 70
     0
  9
$DIMALTD
 70
     3
  9
$DIMALTF
 40
0.0393700787
  9
$DIMLFAC
 40
1.0
  9
$DIMTOFL
 70
     1
  9
$DIMTVP
 40
0.0
  9
$DIMTIX
 70
     0
  9
$DIMSOXD
 70
     0
  9
$DIMSAH
 70
     0
  9
$DIMBLK1
  1

  9
$DIMBLK2
  1

  9
$DIMSTYLE
  2
ISO-25
  9
$DIMCLRD
 70
     0
  9
$DIMCLRE
 70
     0
  9
$DIMCLRT
 70
     0
  9
$DIMTFAC
 40
1.0
  9
$DIMGAP
 40
1.524
  9
$DIMJUST
 70
     0
  9
$DIMSD1
 70
     0
  9
$DIMSD2
 70
     0
  9
$DIMTOLJ
 70
     0
  9
$DIMTZIN
 70
     0
  9
$DIMALTZ
 70
     0
  9
$DIMALTTZ
 70
     0
  9
$DIMUPT
 70
     0
  9
$DIMDEC
 70
     2
  9
$DIMTDEC
 70
     0
  9
$DIMALTU
 70
     2
  9
$DIMALTTD
 70
     3
  9
$DIMTXSTY
  7
Standard
  9
$DIMAUNIT
 70
     0
  9
$DIMADEC
 70
     2
  9
$DIMALTRND
 40
0.0
  9
$DIMAZIN
 70
     0
  9
$DIMDSEP
 70
    44
  9
$DIMATFIT
 70
     3
  9
$DIMFRAC
 70
     0
  9
$DIMLDRBLK
  1

  9
$DIMLUNIT
 70
     2
  9
$DIMLWD
 70
    -2
  9
$DIMLWE
 70
    -2
  9
$DIMTMOVE
 70
     0
  9
$LUNITS
 70
     2
  9
$LUPREC
 70
     3
  9
$SKETCHINC
 40
1.0
  9
$FILLETRAD
 40
10.0
  9
$AUNITS
 70
     0
  9
$AUPREC
 70
     2
  9
$MENU
  1
.
  9
$ELEVATION
 40
0.0
  9
$PELEVATION
 40
0.0
  9
$THICKNESS
 40
0.0
  9
$LIMCHECK
 70
     0
  9
$CHAMFERA
 40
0.0
  9
$CHAMFERB
 40
0.0
  9
$CHAMFERC
 40
0.0
  9
$CHAMFERD
 40
0.0
  9
$SKPOLY
 70
     0
  9
$TDCREATE
 40
2459293.360474329
  9
$TDUCREATE
 40
2459293.318807662
  9
$TDUPDATE
 40
2459293.360474618
  9
$TDUUPDATE
 40
2459293.318807951
  9
$TDINDWG
 40
0.0000000116
  9
$TDUSRTIMER
 40
0.0000000116
  9
$USRTIMER
 70
     1
  9
$ANGBASE
 50
0.0
  9
$ANGDIR
 70
     0
  9
$PDMODE
 70
     0
  9
$PDSIZE
 40
-1.0
  9
$PLINEWID
 40
0.0
  9
$SPLFRAME
 70
     0
  9
$SPLINETYPE
 70
     6
  9
$SPLINESEGS
 70
     8
  9
$HANDSEED
  5
261
  9
$SURFTAB1
 70
     6
  9
$SURFTAB2
 70
     6
  9
$SURFTYPE
 70
     6
  9
$SURFU
 70
     6
  9
$SURFV
 70
     6
  9
$UCSBASE
  2

  9
$UCSNAME
  2

  9
$UCSORG
 10
0.0
 20
0.0
 30
0.0
  9
$UCSXDIR
 10
1.0
 20
0.0
 30
0.0
  9
$UCSYDIR
 10
0.0
 20
1.0
 30
0.0
  9
$UCSORTHOREF
  2

  9
$UCSORTHOVIEW
 70
     0
  9
$UCSORGTOP
 10
0.0
 20
0.0
 30
0.0
  9
$UCSORGBOTTOM
 10
0.0
 20
0.0
 30
0.0
  9
$UCSORGLEFT
 10
0.0
 20
0.0
 30
0.0
  9
$UCSORGRIGHT
 10
0.0
 20
0.0
 30
0.0
  9
$UCSORGFRONT
 10
0.0
 20
0.0
 30
0.0
  9
$UCSORGBACK
 10
0.0
 20
0.0
 30
0.0
  9
$PUCSBASE
  2

  9
$PUCSNAME
  2

  9
$PUCSORG
 10
0.0
 20
0.0
 30
0.0
  9
$PUCSXDIR
 10
1.0
 20
0.0
 30
0.0
  9
$PUCSYDIR
 10
0.0
 20
1.0
 30
0.0
  9
$PUCSORTHOREF
  2

  9
$PUCSORTHOVIEW
 70
     0
  9
$PUCSORGTOP
 10
0.0
 20
0.0
 30
0.0
  9
$PUCSORGBOTTOM
 10
0.0
 20
0.0
 30
0.0
  9
$PUCSORGLEFT
 10
0.0
 20
0.0
 30
0.0
  9
$PUCSORGRIGHT
 10
0.0
 20
0.0
 30
0.0
  9
$PUCSORGFRONT
 10
0.0
 20
0.0
 30
0.0
  9
$PUCSORGBACK
 10
0.0
 20
0.0
 30
0.0
  9
$USERI1
 70
     0
  9
$USERI2
 70
     0
  9
$USERI3
 70
     0
  9
$USERI4
 70
     0
  9
$USERI5
 70
     0
  9
$USERR1
 40
0.0
  9
$USERR2
 40
0.0
  9
$USERR3
 40
0.0
  9
$USERR4
 40
0.0
  9
$USERR5
 40
0.0
  9
$WORLDVIEW
 70
     1
  9
$SHADEDGE
 70
     3
  9
$SHADEDIF
 70
    70
  9
$TILEMODE
 70
     1
  9
$MAXACTVP
 70
    64
  9
$PINSBASE
 10
0.0
 20
0.0
 30
0.0
  9
$PLIMCHECK
 70
     0
  9
$PEXTMIN
 10
1.0000000000E+20
 20
1.0000000000E+20
 30
1.0000000000E+20
  9
$PEXTMAX
 10
-1.0000000000E+20
 20
-1.0000000000E+20
 30
-1.0000000000E+20
  9
$PLIMMIN
 10
0.0
 20
0.0
  9
$PLIMMAX
 10
420.0
 20
297.0
  9
$UNITMODE
 70
     0
  9
$VISRETAIN
 70
     1
  9
$PLINEGEN
 70
     0
  9
$PSLTSCALE
 70
     1
  9
$TREEDEPTH
 70
  3020
  9
$CMLSTYLE
  2
Standard
  9
$CMLJUST
 70
     0
  9
$CMLSCALE
 40
20.0
  9
$PROXYGRAPHICS
 70
     1
  9
$MEASUREMENT
 70
     1
  9
$CELWEIGHT
370
    -1
  9
$ENDCAPS
280
     0
  9
$JOINSTYLE
280
     0
  9
$LWDISPLAY
290
     1
  9
$INSUNITS
 70
     4
  9
$HYPERLINKBASE
  1

  9
$STYLESHEET
  1

  9
$XEDIT
290
     1
  9
$CEPSNTYPE
380
     0
  9
$PSTYLEMODE
290
     1
  9
$FINGERPRINTGUID
  2
{3faeadde-8e4b-4b1f-b2c2-0b0b19b90daf}
  9
$VERSIONGUID
  2
{FAEB1C32-E019-11D5-929B-00C0DF256EC4}
  9
$EXTNAMES
290
     1
  9
$PSVPSCALE
 40
0.0
  9
$OLESTARTUP
290
     0
  0
ENDSEC
  0
SECTION
  2
CLASSES
  0
CLASS
  1
ACDBDICTIONARYWDFLT
  2
AcDbDictionaryWithDefault
  3
ObjectDBX Classes
 90
        0
280
     0
281
     0
  0
CLASS
  1
VISUALSTYLE
  2
AcDbVisualStyle
  3
ObjectDBX Classes
 90
     4095
280
     0
281
     0
  0
CLASS
  1
MATERIAL
  2
AcDbMaterial
  3
ObjectDBX Classes
 90
     1153
280
     0
281
     0
  0
CLASS
  1
SCALE
  2
AcDbScale
  3
ObjectDBX Classes
 90
     1153
280
     0
281
     0
  0
CLASS
  1
TABLESTYLE
  2
AcDbTableStyle
  3
ObjectDBX Classes
 90
     4095
280
     0
281
     0
  0
CLASS
  1
MLEADERSTYLE
  2
AcDbMLeaderStyle
  3
ACDB_MLEADERSTYLE_CLASS
 90
     4095
280
     0
281
     0
  0
CLASS
  1
SUN
  2
AcDbSun
  3
SCENEOE
 90
     1153
280
     0
281
     0
  0
CLASS
  1
ACDBPLACEHOLDER
  2
AcDbPlaceHolder
  3
ObjectDBX Classes
 90
        0
280
     0
281
     0
  0
CLASS
  1
LAYOUT
  2
AcDbLayout
  3
ObjectDBX Classes
 90
        0
280
     0
281
     0
  0
ENDSEC
  0
SECTION
  2
TABLES
  0
TABLE
  2
VPORT
  5
8
330
0
100
AcDbSymbolTable
 70
     1
  0
VPORT
  5
29
330
8
100
AcDbSymbolTableRecord
100
AcDbViewportTableRecord
  2
*Active
 70
     0
 10
0.0
 20
0.0
 11
1.0
 21
1.0
 12
10000.0
 22
5000.0
 13
0.0
 23
0.0
 14
10.0
 24
10.0
 15
10.0
 25
10.0
 16
0.0
 26
0.0
 36
1.0
 17
0.0
 27
0.0
 37
0.0
 40
10000.0
 41
2.0
 42
50.0
 43
0.0
 44
0.0
 50
0.0
 51
0.0
 71
     0
 72
  2000
 73
     1
 74
     3
 75
     0
 76
     0
 77
     0
 78
     0
281
     0
 65
     1
110
0.0
120
0.0
130
0.0
111
1.0
121
0.0
131
0.0
112
0.0
122
1.0
132
0.0
 79
     0
146
0.0
  0
ENDTAB
  0
TABLE
  2
LTYPE
  5
5
330
0
100
AcDbSymbolTable
 70
     6
  0
LTYPE
  5
14
330
5
100
AcDbSymbolTableRecord
100
AcDbLinetypeTableRecord
  2
ByBlock
 70
     0
  3

 72
    65
 73
     0
 40
0.0
  0
LTYPE
  5
15
330
5
100
AcDbSymbolTableRecord
100
AcDbLinetypeTableRecord
  2
ByLayer
 70
     0
  3

 72
    65
 73
     0
 40
0.0
  0
LTYPE
  5
16
330
5
100
AcDbSymbolTableRecord
100
AcDbLinetypeTableRecord
  2
Continuous
 70
     0
  3
Solid line
 72
    65
 73
     0
 40
0.0
  0
LTYPE
  5
6E
330
5
100
AcDbSymbolTableRecord
100
AcDbLinetypeTableRecord
  2
HIDDEN
 70
     0
  3
Hidden __ __ __ __ __ __ __ __ __ __ __ __ __ __
 72
    65
 73
     2
 40
1.905
 49
1.27
 74
     0
 49
-0.635
 74
     0
  0
LTYPE
  5
6F
330
5
100
AcDbSymbolTableRecord
100
AcDbLinetypeTableRecord
  2
PHANTOM
 70
     0
  3
Phantom ______  __  __  ______  __  __  ______
 72
    65
 73
     6
 40
12.7
 49
6.35
 74
     0
 49
-1.27
 74
     0
 49
1.27
 74
     0
 49
-1.27
 74
     0
 49
1.27
 74
     0
 49
-1.27
 74
     0
  0
LTYPE
  5
70
330
5
100
AcDbSymbolTableRecord
100
AcDbLinetypeTableRecord
  2
CENTER
 70
     0
  3
Center ____ _ ____ _ ____ _ ____ _ ____ _ ____
 72
    65
 73
     4
 40
10.16
 49
6.35
 74
     0
 49
-1.27
 74
     0
 49
1.27
 74
     0
 49
-1.27
 74
     0
  0
LTYPE
  5
71
330
5
100
AcDbSymbolTableRecord
100
AcDbLinetypeTableRecord
  2
CENTERX2
 70
     0
  3
Center (2x) ________  __  ________  __  _____
 72
    65
 73
     4
 40
20.32
 49
12.7
 74
     0
 49
-2.54
 74
     0
 49
2.54
 74
     0
 49
-2.54
 74
     0
  0
LTYPE
  5
72
330
5
100
AcDbSymbolTableRecord
100
AcDbLinetypeTableRecord
  2
DOT2
 70
     0
  3
Dot (.5x) ........................................
 72
    65
 73
     2
 40
0.635
 49
0.0
 74
     0
 49
-0.635
 74
     0
  0
ENDTAB
  0
TABLE
  2
LAYER
  5
2
330
0
100
AcDbSymbolTable
 70
    13
  0
LAYER
  5
10
330
2
100
AcDbSymbolTableRecord
100
AcDbLayerTableRecord
  2
0
 70
     0
 62
     7
  6
Continuous
370
    -3
390
F
  0
LAYER
  5
73
330
2
100
AcDbSymbolTableRecord
100
AcDbLayerTableRecord
  2
FORMAT
 70
     0
 62
     7
  6
Continuous
370
    -3
390
F
  0
LAYER
  5
74
330
2
100
AcDbSymbolTableRecord
100
AcDbLayerTableRecord
  2
OSA
 70
     0
 62
     7
  6
CENTER
370
    -3
390
F
  0
LAYER
  5
75
330
2
100
AcDbSymbolTableRecord
100
AcDbLayerTableRecord
  2
0_35
 70
     0
 62
     7
  6
Continuous
370
    35
390
F
  0
LAYER
  5
76
330
2
100
AcDbSymbolTableRecord
100
AcDbLayerTableRecord
  2
0_5
 70
     0
 62
     7
  6
Continuous
370
    50
390
F
  0
LAYER
  5
77
330
2
100
AcDbSymbolTableRecord
100
AcDbLayerTableRecord
  2
0_25
 70
     0
 62
     7
  6
Continuous
370
    25
390
F
  0
LAYER
  5
78
330
2
100
AcDbSymbolTableRecord
100
AcDbLayerTableRecord
  2
0_18
 70
     0
 62
     7
  6
Continuous
370
    -3
390
F
  0
LAYER
  5
79
330
2
100
AcDbSymbolTableRecord
100
AcDbLayerTableRecord
  2
SLD-0
 70
     0
 62
   179
  6
Continuous
370
    -3
390
F
  0
LAYER
  5
7A
330
2
100
AcDbSymbolTableRecord
100
AcDbLayerTableRecord
  2
KOTY
 70
     0
 62
     7
  6
Continuous
370
    -3
390
F
  0
LAYER
  5
7B
330
2
100
AcDbSymbolTableRecord
100
AcDbLayerTableRecord
  2
SILNA
 70
     0
 62
   179
  6
Continuous
370
    -3
390
F
  0
LAYER
  5
7C
330
2
100
AcDbSymbolTableRecord
100
AcDbLayerTableRecord
  2
0_18_1
 70
     0
 62
   179
  6
Continuous
370
    -3
390
F
  0
LAYER
  5
7D
330
2
100
AcDbSymbolTableRecord
100
AcDbLayerTableRecord
  2
0_35_1
 70
     0
 62
   179
  6
Continuous
370
    35
390
F
  0
LAYER
  5
7E
330
2
100
AcDbSymbolTableRecord
100
AcDbLayerTableRecord
  2
0_5_1
 70
     0
 62
   179
  6
Continuous
370
    50
390
F
  0
ENDTAB
  0
TABLE
  2
STYLE
  5
3
330
0
100
AcDbSymbolTable
 70
     1
  0
STYLE
  5
11
330
3
100
AcDbSymbolTableRecord
100
AcDbTextStyleTableRecord
  2
Standard
 70
     0
 40
0.0
 41
1.0
 50
0.0
 71
     0
 42
2.0
  3
txt
  4

  0
ENDTAB
  0
TABLE
  2
VIEW
  5
6
330
0
100
AcDbSymbolTable
 70
     0
  0
ENDTAB
  0
TABLE
  2
UCS
  5
7
330
0
100
AcDbSymbolTable
 70
     0
  0
ENDTAB
  0
TABLE
  2
APPID
  5
9
330
0
100
AcDbSymbolTable
 70
     1
  0
APPID
  5
12
330
9
100
AcDbSymbolTableRecord
100
AcDbRegAppTableRecord
  2
ACAD
 70
     0
  0
ENDTAB
  0
TABLE
  2
DIMSTYLE
  5
A
330
0
100
AcDbSymbolTable
 70
     1
100
AcDbDimStyleTable
  0
DIMSTYLE
105
27
330
A
100
AcDbSymbolTableRecord
100
AcDbDimStyleTableRecord
  2
ISO-25
 70
     0
 41
2.5
 42
0.625
 43
3.75
 44
1.25
 73
     0
 74
     0
 77
     1
 78
     8
140
2.5
141
2.5
143
0.0393700787
147
0.625
171
     3
172
     1
178
     0
271
     2
272
     2
274
     3
278
    44
283
     0
284
     8
340
11
  0
ENDTAB
  0
TABLE
  2
BLOCK_RECORD
  5
1
330
0
100
AcDbSymbolTable
 70
     1
  0
BLOCK_RECORD
  5
1F
330
1
100
AcDbSymbolTableRecord
100
AcDbBlockTableRecord
  2
*Model_Space
340
22
  0
BLOCK_RECORD
  5
1B
330
1
100
AcDbSymbolTableRecord
100
AcDbBlockTableRecord
  2
*Paper_Space
340
1E
  0
BLOCK_RECORD
  5
23
330
1
100
AcDbSymbolTableRecord
100
AcDbBlockTableRecord
  2
*Paper_Space0
340
26
  0
ENDTAB
  0
ENDSEC
  0
SECTION
  2
BLOCKS
  0
BLOCK
  5
20
330
1F
100
AcDbEntity
  8
0
100
AcDbBlockBegin
  2
*Model_Space
 70
     0
 10
0.0
 20
0.0
 30
0.0
  3
*Model_Space
  1

  0
ENDBLK
  5
21
330
1F
100
AcDbEntity
  8
0
100
AcDbBlockEnd
  0
BLOCK
  5
1C
330
1B
100
AcDbEntity
 67
     1
  8
0
100
AcDbBlockBegin
  2
*Paper_Space
 70
     0
 10
0.0
 20
0.0
 30
0.0
  3
*Paper_Space
  1

  0
ENDBLK
  5
1D
330
1B
100
AcDbEntity
 67
     1
  8
0
100
AcDbBlockEnd
  0
BLOCK
  5
24
330
23
100
AcDbEntity
  8
0
100
AcDbBlockBegin
  2
*Paper_Space0
 70
     0
 10
0.0
 20
0.0
 30
0.0
  3
*Paper_Space0
  1

  0
ENDBLK
  5
25
330
23
100
AcDbEntity
  8
0
100
AcDbBlockEnd
  0
ENDSEC
  0
SECTION
  2
ENTITIES
  0
LINE
  5
7F
330
1F
100
AcDbEntity
  8
0
  6
Continuous
 62
     7
370
    25
100
AcDbLine
 10
6222.0432098457
 20
5238.1259957106
 30
0.0
 11
6222.0432098457
 21
5234.0856392184
 31
0.0
  0
LINE
  5
80
330
1F
100
AcDbEntity
  8
0
  6
Continuous
 62
     7
370
    25
100
AcDbLine
 10
6246.0432098457
 20
5234.0856392184
 30
0.0
 11
6246.0432098457
 21
5238.1259957106
 31
0.0
  0
LINE
  5
81
330
1F
100
AcDbEntity
  8
0
  6
Continuous
 62
     7
370
    25
100
AcDbLine
 10
6224.5653197851
 20
5228.5815714049
 30
0.0
 11
6225.3551439568
 21
5228.2833674745
 31
0.0
  0
LINE
  5
82
330
1F
100
AcDbEntity
  8
0
  6
Continuous
 62
     7
370
    25
100
AcDbLine
 10
6242.7312757345
 20
5228.2833674745
 30
0.0
 11
6243.5210999062
 21
5228.5815714049
 31
0.0
  0
LINE
  5
83
330
1F
100
AcDbEntity
  8
0
  6
Continuous
 62
     7
370
    25
100
AcDbLine
 10
6319.0432098457
 20
5261.9387834474
 30
0.0
 11
6319.0432098457
 21
5265.5375268906
 31
0.0
  0
LINE
  5
84
330
1F
100
AcDbEntity
  8
0
  6
Continuous
 62
     7
370
    25
100
AcDbLine
 10
6309.0432098457
 20
5265.5375268906
 30
0.0
 11
6309.0432098457
 21
5261.9470612251
 31
0.0
  0
ARC
  5
85
330
1F
100
AcDbEntity
  8
0
  6
Continuous
 62
     7
370
    25
100
AcDbCircle
 10
6318.5432098457
 20
5265.5375268906
 30
0.0
 40
0.5000000000009095
100
AcDbArc
 50
0.0
 51
76.6576362028
  0
ARC
  5
86
330
1F
100
AcDbEntity
  8
0
  6
Continuous
 62
     7
370
    25
100
AcDbCircle
 10
6309.5432098457
 20
5265.5375268906
 30
0.0
 40
0.5000000000009095
100
AcDbArc
 50
103.3423637971
 51
180.0
  0
ARC
  5
87
330
1F
100
AcDbEntity
  8
0
  6
Continuous
 62
     7
370
    25
100
AcDbCircle
 10
6314.0432098457
 20
5246.5638609296
 30
0.0
 40
20.00000000000036
100
AcDbArc
 50
76.6576362029
 51
103.3423637971
  0
ARC
  5
88
330
1F
100
AcDbEntity
  8
0
  6
Continuous
 62
     7
370
    25
100
AcDbCircle
 10
6213.2932098457
 20
5130.4638609296
 30
0.0
 40
1.499999999999722
100
AcDbArc
 50
271.1268896477
 51
88.8731103523
  0
ARC
  5
89
330
1F
100
AcDbEntity
  8
0
  6
Continuous
 62
     7
370
    25
100
AcDbCircle
 10
6239.7932098457
 20
5130.4638609296
 30
0.0
 40
1.499999999999722
100
AcDbArc
 50
91.1268896477
 51
268.8731103523
  0
LINE
  5
8A
330
1F
100
AcDbEntity
  8
0
  6
Continuous
 62
     7
370
    25
100
AcDbLine
 10
6213.3227098457
 20
5131.9638609296
 30
0.0
 11
6213.3227098457
 21
5131.9635708182
 31
0.0
  0
LINE
  5
8B
330
1F
100
AcDbEntity
  8
0
  6
Continuous
 62
     7
370
    25
100
AcDbLine
 10
6239.7637098457
 20
5131.9635708182
 30
0.0
 11
6239.7637098457
 21
5131.9638609296
 31
0.0
  0
LINE
  5
8C
330
1F
100
AcDbEntity
  8
0
  6
Continuous
 62
     7
370
    25
100
AcDbLine
 10
6213.3227098457
 20
5128.964151041
 30
0.0
 11
6213.3227098457
 21
5123.9638609296
 31
0.0
  0
LINE
  5
8D
330
1F
100
AcDbEntity
  8
0
  6
Continuous
 62
     7
370
    25
100
AcDbLine
 10
6239.7637098457
 20
5123.9638609296
 30
0.0
 11
6239.7637098457
 21
5128.964151041
 31
0.0
  0
LINE
  5
8E
330
1F
100
AcDbEntity
  8
0
  6
Continuous
 62
     7
370
    25
100
AcDbLine
 10
6213.3227098457
 20
5123.9638609296
 30
0.0
 11
6214.3227098457
 21
5122.9638609296
 31
0.0
  0
LINE
  5
8F
330
1F
100
AcDbEntity
  8
0
  6
Continuous
 62
     7
370
    25
100
AcDbLine
 10
6238.7637098457
 20
5122.9638609296
 30
0.0
 11
6239.7637098457
 21
5123.9638609296
 31
0.0
  0
LINE
  5
90
330
1F
100
AcDbEntity
  8
0
  6
Continuous
 62
     7
370
    25
100
AcDbLine
 10
6240.2932098457
 20
5131.9638609296
 30
0.0
 11
6241.2932098457
 21
5132.5412111988
 31
0.0
  0
LINE
  5
91
330
1F
100
AcDbEntity
  8
0
  6
Continuous
 62
     7
370
    25
100
AcDbLine
 10
6211.7932098457
 20
5132.5412111988
 30
0.0
 11
6212.7932098457
 21
5131.9638609296
 31
0.0
  0
LINE
  5
92
330
1F
100
AcDbEntity
  8
0
  6
Continuous
 62
     7
370
    25
100
AcDbLine
 10
6308.3227098457
 20
5131.9638609296
 30
0.0
 11
6308.3227098457
 21
5131.9635708182
 31
0.0
  0
LINE
  5
93
330
1F
100
AcDbEntity
  8
0
  6
Continuous
 62
     7
370
    25
100
AcDbLine
 10
6334.7637098457
 20
5131.9635708182
 30
0.0
 11
6334.7637098457
 21
5131.9638609296
 31
0.0
  0
ARC
  5
94
330
1F
100
AcDbEntity
  8
0
  6
Continuous
 62
     7
370
    25
100
AcDbCircle
 10
6308.2932098457
 20
5130.4638609296
 30
0.0
 40
1.499999999999722
100
AcDbArc
 50
271.1268896477
 51
88.8731103523
  0
ARC
  5
95
330
1F
100
AcDbEntity
  8
0
  6
Continuous
 62
     7
370
    25
100
AcDbCircle
 10
6334.7932098457
 20
5130.4638609296
 30
0.0
 40
1.499999999999722
100
AcDbArc
 50
91.1268896477
 51
268.8731103523
  0
LINE
  5
96
330
1F
100
AcDbEntity
  8
0
  6
Continuous
 62
     7
370
    25
100
AcDbLine
 10
6308.3227098457
 20
5128.964151041
 30
0.0
 11
6308.3227098457
 21
5123.9638609296
 31
0.0
  0
LINE
  5
97
330
1F
100
AcDbEntity
  8
0
  6
Continuous
 62
     7
370
    25
100
AcDbLine
 10
6334.7637098457
 20
5123.9638609296
 30
0.0
 11
6334.7637098457
 21
5128.964151041
 31
0.0
  0
LINE
  5
98
330
1F
100
AcDbEntity
  8
0
  6
Continuous
 62
     7
370
    25
100
AcDbLine
 10
6308.3227098457
 20
5123.9638609296
 30
0.0
 11
6309.3227098457
 21
5122.9638609296
 31
0.0
  0
LINE
  5
99
330
1F
100
AcDbEntity
  8
0
  6
Continuous
 62
     7
370
    25
100
AcDbLine
 10
6333.7637098457
 20
5122.9638609296
 30
0.0
 11
6334.7637098457
 21
5123.9638609296
 31
0.0
  0
LINE
  5
9A
330
1F
100
AcDbEntity
  8
0
  6
Continuous
 62
     7
370
    25
100
AcDbLine
 10
6335.2932098457
 20
5131.9638609296
 30
0.0
 11
6335.67947032
 21
5132.1868685184
 31
0.0
  0
LINE
  5
9B
330
1F
100
AcDbEntity
  8
0
  6
Continuous
 62
     7
370
    25
100
AcDbLine
 10
6307.4069493713
 20
5132.1868685184
 30
0.0
 11
6307.7932098457
 21
5131.9638609296
 31
0.0
  0
LINE
  5
9C
330
1F
100
AcDbEntity
  8
0
  6
Continuous
 62
     7
370
    25
100
AcDbLine
 10
6199.0187553361
 20
5144.4350482559
 30
0.0
 11
6349.0187553361
 21
5144.4350482559
 31
0.0
  0
LINE
  5
9D
330
1F
100
AcDbEntity
  8
0
  6
Continuous
 62
     7
370
    25
100
AcDbLine
 10
6349.0187553361
 20
5144.4350482559
 30
0.0
 11
6349.0187553361
 21
5134.4350482559
 31
0.0
  0
LINE
  5
9E
330
1F
100
AcDbEntity
  8
0
  6
Continuous
 62
     7
370
    25
100
AcDbLine
 10
6199.0187553361
 20
5134.4350482559
 30
0.0
 11
6349.0187553361
 21
5134.4350482559
 31
0.0
  0
LINE
  5
9F
330
1F
100
AcDbEntity
  8
0
  6
Continuous
 62
     7
370
    25
100
AcDbLine
 10
6199.0187553361
 20
5144.4350482559
 30
0.0
 11
6199.0187553361
 21
5134.4350482559
 31
0.0
  0
LINE
  5
A0
330
1F
100
AcDbEntity
  8
0
  6
Continuous
 62
     7
370
    25
100
AcDbLine
 10
6189.0187553361
 20
5294.4350482559
 30
0.0
 11
6189.0187553361
 21
5144.4350482559
 31
0.0
  0
LINE
  5
A1
330
1F
100
AcDbEntity
  8
0
  6
Continuous
 62
     7
370
    25
100
AcDbLine
 10
6189.0187553361
 20
5294.4350482559
 30
0.0
 11
6199.0187553361
 21
5294.4350482559
 31
0.0
  0
LINE
  5
A2
330
1F
100
AcDbEntity
  8
0
  6
Continuous
 62
     7
370
    25
100
AcDbLine
 10
6199.0187553361
 20
5294.4350482559
 30
0.0
 11
6199.0187553361
 21
5144.4350482559
 31
0.0
  0
LINE
  5
A3
330
1F
100
AcDbEntity
  8
0
  6
Continuous
 62
     7
370
    25
100
AcDbLine
 10
6189.0187553361
 20
5144.4350482559
 30
0.0
 11
6199.0187553361
 21
5144.4350482559
 31
0.0
  0
ARC
  5
A4
330
1F
100
AcDbEntity
  8
0
  6
Continuous
 62
     7
370
    25
100
AcDbCircle
 10
6199.0187553361
 20
5144.4350482559
 30
0.0
 40
10.0
100
AcDbArc
 50
180.0
 51
270.0
  0
LINE
  5
A5
330
1F
100
AcDbEntity
  8
0
  6
Continuous
 62
     7
370
    25
100
AcDbLine
 10
6349.0187553361
 20
5304.4350482559
 30
0.0
 11
6199.0187553361
 21
5304.4350482559
 31
0.0
  0
LINE
  5
A6
330
1F
100
AcDbEntity
  8
0
  6
Continuous
 62
     7
370
    25
100
AcDbLine
 10
6349.0187553361
 20
5304.4350482559
 30
0.0
 11
6349.0187553361
 21
5294.4350482559
 31
0.0
  0
LINE
  5
A7
330
1F
100
AcDbEntity
  8
0
  6
Continuous
 62
     7
370
    25
100
AcDbLine
 10
6349.0187553361
 20
5294.4350482559
 30
0.0
 11
6199.0187553361
 21
5294.4350482559
 31
0.0
  0
LINE
  5
A8
330
1F
100
AcDbEntity
  8
0
  6
Continuous
 62
     7
370
    25
100
AcDbLine
 10
6199.0187553361
 20
5304.4350482559
 30
0.0
 11
6199.0187553361
 21
5294.4350482559
 31
0.0
  0
ARC
  5
A9
330
1F
100
AcDbEntity
  8
0
  6
Continuous
 62
     7
370
    25
100
AcDbCircle
 10
6349.0187553361
 20
5294.4350482559
 30
0.0
 40
10.0
100
AcDbArc
 50
0.0
 51
90.0
  0
LINE
  5
AA
330
1F
100
AcDbEntity
  8
0
  6
Continuous
 62
     7
370
    25
100
AcDbLine
 10
6349.0187553361
 20
5294.4350482559
 30
0.0
 11
6359.0187553361
 21
5294.4350482559
 31
0.0
  0
LINE
  5
AB
330
1F
100
AcDbEntity
  8
0
  6
Continuous
 62
     7
370
    25
100
AcDbLine
 10
6226.2687553361
 20
5168.0850482559
 30
0.0
 11
6241.7687553361
 21
5168.0850482559
 31
0.0
  0
ARC
  5
AC
330
1F
100
AcDbEntity
  8
0
  6
Continuous
 62
     7
370
    25
100
AcDbCircle
 10
6241.7687553361
 20
5171.6850482559
 30
0.0
 40
3.600000000000364
100
AcDbArc
 50
270.0
 51
0.0
  0
ARC
  5
AD
330
1F
100
AcDbEntity
  8
0
  6
Continuous
 62
     7
370
    25
100
AcDbCircle
 10
6241.7687553361
 20
5187.1850482559
 30
0.0
 40
3.600000000000364
100
AcDbArc
 50
0.0
 51
90.0
  0
LINE
  5
AE
330
1F
100
AcDbEntity
  8
0
  6
Continuous
 62
     7
370
    25
100
AcDbLine
 10
6226.2687553361
 20
5190.7850482559
 30
0.0
 11
6241.7687553361
 21
5190.7850482559
 31
0.0
  0
LINE
  5
AF
330
1F
100
AcDbEntity
  8
0
  6
Continuous
 62
     7
370
    25
100
AcDbLine
 10
6349.0187553361
 20
5144.4350482559
 30
0.0
 11
6349.0187553361
 21
5294.4350482559
 31
0.0
  0
LINE
  5
B0
330
1F
100
AcDbEntity
  8
0
  6
Continuous
 62
     7
370
    25
100
AcDbLine
 10
6245.3687553361
 20
5187.1850482559
 30
0.0
 11
6245.3687553361
 21
5171.6850482559
 31
0.0
  0
ARC
  5
B1
330
1F
100
AcDbEntity
  8
0
  6
Continuous
 62
     7
370
    25
100
AcDbCircle
 10
6226.2687553361
 20
5171.6850482559
 30
0.0
 40
3.600000000000364
100
AcDbArc
 50
180.0
 51
270.0
  0
ARC
  5
B2
330
1F
100
AcDbEntity
  8
0
  6
Continuous
 62
     7
370
    25
100
AcDbCircle
 10
6226.2687553361
 20
5187.1850482559
 30
0.0
 40
3.600000000000364
100
AcDbArc
 50
90.0
 51
180.0
  0
LINE
  5
B3
330
1F
100
AcDbEntity
  8
0
  6
Continuous
 62
     7
370
    25
100
AcDbLine
 10
6222.6687553361
 20
5187.1850482559
 30
0.0
 11
6222.6687553361
 21
5171.6850482559
 31
0.0
  0
LINE
  5
B4
330
1F
100
AcDbEntity
  8
0
  6
Continuous
 62
     7
370
    25
100
AcDbLine
 10
6359.0187553361
 20
5144.4350482559
 30
0.0
 11
6359.0187553361
 21
5294.4350482559
 31
0.0
  0
LINE
  5
B5
330
1F
100
AcDbEntity
  8
0
  6
Continuous
 62
     7
370
    25
100
AcDbLine
 10
6349.0187553361
 20
5144.4350482559
 30
0.0
 11
6359.0187553361
 21
5144.4350482559
 31
0.0
  0
ARC
  5
B6
330
1F
100
AcDbEntity
  8
0
  6
Continuous
 62
     7
370
    25
100
AcDbCircle
 10
6349.0187553361
 20
5144.4350482559
 30
0.0
 40
10.0
100
AcDbArc
 50
270.0
 51
0.0
  0
ARC
  5
B7
330
1F
100
AcDbEntity
  8
0
  6
Continuous
 62
     7
370
    25
100
AcDbCircle
 10
6199.0187553361
 20
5294.4350482559
 30
0.0
 40
10.0
100
AcDbArc
 50
90.0
 51
180.0
  0
ARC
  5
B8
330
1F
100
AcDbEntity
  8
0
  6
Continuous
 62
     7
370
    25
100
AcDbCircle
 10
6234.0432098457
 20
5242.4638609296
 30
0.0
 40
13.80000000000071
100
AcDbArc
 50
0.6139062371
 51
179.3860937629
  0
LINE
  5
B9
330
1F
100
AcDbEntity
  8
0
  6
Continuous
 62
     7
370
    25
100
AcDbLine
 10
6220.244001989
 20
5242.6117207552
 30
0.0
 11
6247.8424177024
 21
5242.6117207552
 31
0.0
  0
ARC
  5
BA
330
1F
100
AcDbEntity
  8
0
  6
Continuous
 62
     7
370
    25
100
AcDbCircle
 10
6234.0432098457
 20
5242.4638609296
 30
0.0
 40
14.00000000000057
100
AcDbArc
 50
0.6139062371
 51
179.3860937629
  0
LINE
  5
BB
330
1F
100
AcDbEntity
  8
0
  6
Continuous
 62
     7
370
    25
100
AcDbLine
 10
6248.042406222
 20
5242.6138636513
 30
0.0
 11
6247.8424177024
 21
5242.6117207552
 31
0.0
  0
LINE
  5
BC
330
1F
100
AcDbEntity
  8
0
  6
Continuous
 62
     7
370
    25
100
AcDbLine
 10
6220.244001989
 20
5242.6117207552
 30
0.0
 11
6220.0440134693
 21
5242.6138636513
 31
0.0
  0
ARC
  5
BD
330
1F
100
AcDbEntity
  8
0
  6
Continuous
 62
     7
370
    25
100
AcDbCircle
 10
6247.8465642959
 20
5242.6163233862
 30
0.0
 40
0.1958573723477418
100
AcDbArc
 50
268.7868719891
 51
359.2804144375
  0
LINE
  5
BE
330
1F
100
AcDbEntity
  8
0
  6
Continuous
 62
     7
370
    25
100
AcDbLine
 10
6247.8424177024
 20
5242.6117207552
 30
0.0
 11
6247.8424177024
 21
5242.4205099136
 31
0.0
  0
LINE
  5
BF
330
1F
100
AcDbEntity
  8
0
  6
Continuous
 62
     7
370
    25
100
AcDbLine
 10
6247.8424177024
 20
5242.4205099136
 30
0.0
 11
6220.244001989
 21
5242.4205099136
 31
0.0
  0
LINE
  5
C0
330
1F
100
AcDbEntity
  8
0
  6
Continuous
 62
     7
370
    25
100
AcDbLine
 10
6220.244001989
 20
5242.4205099136
 30
0.0
 11
6220.244001989
 21
5242.6117207552
 31
0.0
  0
ARC
  5
C1
330
1F
100
AcDbEntity
  8
0
  6
Continuous
 62
     7
370
    25
100
AcDbCircle
 10
6220.2398553954
 20
5242.6163233862
 30
0.0
 40
0.1958573723486318
100
AcDbArc
 50
180.7195855628
 51
271.2131280106
  0
ARC
  5
C2
330
1F
100
AcDbEntity
  8
0
  6
Continuous
 62
     7
370
    25
100
AcDbCircle
 10
6234.0432098457
 20
5242.2726500879
 30
0.0
 40
13.80000000000071
100
AcDbArc
 50
179.3860937629
 51
209.5918457939
  0
ARC
  5
C3
330
1F
100
AcDbEntity
  8
0
  6
Continuous
 62
     7
370
    25
100
AcDbCircle
 10
6234.0432098457
 20
5242.4638609296
 30
0.0
 40
14.00000000000057
100
AcDbArc
 50
179.3860937629
 51
211.0027191339
  0
ARC
  5
C4
330
1F
100
AcDbEntity
  8
0
  6
Continuous
 62
     7
370
    25
100
AcDbCircle
 10
6234.0432098457
 20
5242.4638609296
 30
0.0
 40
13.99999999999966
100
AcDbArc
 50
328.9972808661
 51
0.6139062371
  0
ARC
  5
C5
330
1F
100
AcDbEntity
  8
0
  6
Continuous
 62
     7
370
    25
100
AcDbCircle
 10
6234.0432098457
 20
5242.2726500879
 30
0.0
 40
13.7999999999989
100
AcDbArc
 50
330.4081542061
 51
0.6139062371
  0
LWPOLYLINE
  5
C6
330
1F
100
AcDbEntity
  8
0
  6
Continuous
 62
     7
370
    25
100
AcDbPolyline
 90
       25
 70
   128
 43
0.0
 10
6222.0432098457
 20
5236.6880187731
 10
6221.8946432564
 20
5236.915491984
 10
6221.7432098457
 20
5237.4796316575
 10
6221.8946432564
 20
5238.043771331
 10
6222.3452146952
 20
5238.5940200135
 10
6223.0838295982
 20
5239.1168287562
 10
6224.0923008149
 20
5239.5993242728
 10
6225.3457964371
 20
5240.0296259224
 10
6226.8134512425
 20
5240.3971382502
 10
6228.4591266989
 20
5240.692811883
 10
6230.2423008149
 20
5240.9093663548
 10
6232.1190659257
 20
5241.0414693756
 10
6234.0432098457
 20
5241.0858681308
 10
6235.9673537657
 20
5241.0414693756
 10
6237.8441188765
 20
5240.9093663548
 10
6239.6272929925
 20
5240.692811883
 10
6241.2729684489
 20
5240.3971382502
 10
6242.7406232543
 20
5240.0296259224
 10
6243.9941188765
 20
5239.5993242728
 10
6245.0025900932
 20
5239.1168287562
 10
6245.7412049961
 20
5238.5940200135
 10
6246.191776435
 20
5238.043771331
 10
6246.3432098457
 20
5237.4796316575
 10
6246.191776435
 20
5236.915491984
 10
6246.0432098457
 20
5236.6880187731
  0
ARC
  5
C7
330
1F
100
AcDbEntity
  8
0
  6
Continuous
 62
     7
370
    25
100
AcDbCircle
 10
6244.8578816605
 20
5237.6803319538
 30
0.0
 40
1.273144027099516
100
AcDbArc
 50
338.5950712316
 51
52.5437065196
  0
ARC
  5
C8
330
1F
100
AcDbEntity
  8
0
  6
Continuous
 62
     7
370
    25
100
AcDbCircle
 10
6223.2216365677
 20
5237.6798763872
 30
0.0
 40
1.266554066112827
100
AcDbArc
 50
128.2370881525
 51
201.4996830181
  0
LWPOLYLINE
  5
C9
330
1F
100
AcDbEntity
  8
0
  6
Continuous
 62
     7
370
    25
100
AcDbPolyline
 90
       20
 70
   128
 43
0.0
 10
6223.1526951753
 20
5230.7153170122
 10
6223.5560405581
 20
5231.2346752845
 10
6224.2454485811
 20
5231.7274857549
 10
6225.2021139905
 20
5232.1803058382
 10
6226.3999414479
 20
5232.5807837832
 10
6227.8062573426
 20
5232.9179955953
 10
6229.3827010431
 20
5233.1827430155
 10
6231.0862712747
 20
5233.3678044241
 10
6232.8704990823
 20
5233.4681318285
 10
6234.6867153825
 20
5233.4809885586
 10
6236.4853785292
 20
5233.4060239163
 10
6238.2174256805
 20
5233.2452827415
 10
6239.8356111051
 20
5233.0031496346
 10
6241.2957949231
 20
5232.6862293555
 10
6242.5581471262
 20
5232.3031666633
 10
6243.5882340371
 20
5231.8644105096
 10
6244.35795757
 20
5231.3819290185
 10
6244.8463216736
 20
5230.8688830275
 10
6245.0400050482
 20
5230.3392670936
 10
6244.9337245161
 20
5229.8075277591
  0
LWPOLYLINE
  5
CA
330
1F
100
AcDbEntity
  8
0
  6
Continuous
 62
     7
370
    25
100
AcDbPolyline
 90
        3
 70
   128
 43
0.0
 10
6223.1526951753
 20
5230.7153170122
 10
6223.7810685679
 20
5232.4279739864
 10
6223.8276538512
 20
5232.5854386473
  0
LWPOLYLINE
  5
CB
330
1F
100
AcDbEntity
  8
0
  6
Continuous
 62
     7
370
    25
100
AcDbPolyline
 90
       15
 70
   128
 43
0.0
 10
6223.8276538512
 20
5232.5854386473
 10
6225.0058189487
 20
5233.0540828321
 10
6226.4314489958
 20
5233.4593469298
 10
6228.0655068995
 20
5233.7901338592
 10
6229.8632483237
 20
5234.0373858987
 10
6231.7754468936
 20
5234.1943327078
 10
6233.7497421296
 20
5234.2566767149
 10
6235.7320731996
 20
5234.2227107951
 10
6237.6681592317
 20
5234.0933650147
 10
6239.5049856515
 20
5233.8721811645
 10
6241.1922558454
 20
5233.5652157769
 10
6242.6837684001
 20
5233.1808742837
 10
6243.938682205
 20
5232.7296808562
 10
6244.9226347784
 20
5232.223990228
 10
6245.608683192
 20
5231.6776493942
  0
LWPOLYLINE
  5
CC
330
1F
100
AcDbEntity
  8
0
  6
Continuous
 62
     7
370
    25
100
AcDbPolyline
 90
        3
 70
   128
 43
0.0
 10
6245.608683192
 20
5231.6776493942
 10
6245.5620979086
 20
5231.5201847333
 10
6244.9337245161
 20
5229.8075277591
  0
LINE
  5
CD
330
1F
100
AcDbEntity
  8
0
  6
Continuous
 62
     7
370
    25
100
AcDbLine
 10
6223.8276538512
 20
5232.5854386473
 30
0.0
 11
6223.8276538512
 21
5235.931628376
 31
0.0
  0
LWPOLYLINE
  5
CE
330
1F
100
AcDbEntity
  8
0
  6
Continuous
 62
     7
370
    25
100
AcDbPolyline
 90
        9
 70
   128
 43
0.0
 10
6223.8276538512
 20
5235.931628376
 10
6223.2355532709
 20
5235.6145780229
 10
6222.7575312739
 20
5235.2813891876
 10
6222.3986335491
 20
5234.9355787945
 10
6222.1626483871
 20
5234.5807969928
 10
6222.0520666935
 20
5234.2207886282
 10
6222.0680556968
 20
5233.8593537145
 10
6222.2104466274
 20
5233.5003073231
 10
6222.4777364993
 20
5233.147439314
  0
LINE
  5
CF
330
1F
100
AcDbEntity
  8
0
  6
Continuous
 62
     7
370
    25
100
AcDbLine
 10
6222.4777364993
 20
5233.147439314
 30
0.0
 11
6222.4777364993
 21
5229.8012495853
 31
0.0
  0
LINE
  5
D0
330
1F
100
AcDbEntity
  8
0
  6
Continuous
 62
     7
370
    25
100
AcDbLine
 10
6244.2587658401
 20
5228.8934603322
 30
0.0
 11
6243.5210999062
 21
5228.5815714049
 31
0.0
  0
ARC
  5
D1
330
1F
100
AcDbEntity
  8
0
  6
Continuous
 62
     7
370
    25
100
AcDbCircle
 10
6226.5279502056
 20
5234.3371584066
 30
0.0
 40
6.081011420918387
100
AcDbArc
 50
228.2376261383
 51
251.1708444176
  0
ARC
  5
D2
330
1F
100
AcDbEntity
  8
0
  6
Continuous
 62
     7
370
    25
100
AcDbCircle
 10
6244.7321270194
 20
5234.0856392184
 30
0.0
 40
1.283966426546915
100
AcDbArc
 50
313.0545219059
 51
46.9454780941
  0
LINE
  5
D3
330
1F
100
AcDbEntity
  8
0
  6
Continuous
 62
     7
370
    25
100
AcDbLine
 10
6245.608683192
 20
5235.0238391229
 30
0.0
 11
6245.608683192
 21
5231.6776493942
 31
0.0
  0
LWPOLYLINE
  5
D4
330
1F
100
AcDbEntity
  8
0
  6
Continuous
 62
     7
370
    25
100
AcDbPolyline
 90
       20
 70
   128
 43
0.0
 10
6244.9337245161
 20
5229.8075277591
 10
6244.5303791332
 20
5229.2881694867
 10
6243.8409711102
 20
5228.7953590164
 10
6242.8843057008
 20
5228.342538933
 10
6241.6864782435
 20
5227.9420609881
 10
6240.2801623487
 20
5227.6048491759
 10
6238.7037186483
 20
5227.3401017558
 10
6237.0001484167
 20
5227.1550403471
 10
6235.215920609
 20
5227.0547129427
 10
6233.3997043088
 20
5227.0418562126
 10
6231.6010411621
 20
5227.116820855
 10
6229.8689940109
 20
5227.2775620297
 10
6228.2508085862
 20
5227.5196951366
 10
6226.7906247683
 20
5227.8366154157
 10
6225.5282725652
 20
5228.219678108
 10
6224.4981856543
 20
5228.6584342617
 10
6223.7284621213
 20
5229.1409157527
 10
6223.2400980177
 20
5229.6539617438
 10
6223.0464146432
 20
5230.1835776776
 10
6223.1526951753
 20
5230.7153170122
  0
LWPOLYLINE
  5
D5
330
1F
100
AcDbEntity
  8
0
  6
Continuous
 62
     7
370
    25
100
AcDbPolyline
 90
       37
 70
   128
 43
0.0
 10
6243.9436777278
 20
5229.848790907
 10
6243.548877338
 20
5229.351008058
 10
6242.8652520516
 20
5228.8808876876
 10
6241.9135734769
 20
5228.4527141655
 10
6240.7227578858
 20
5228.0794973274
 10
6239.3289876076
 20
5227.772577178
 10
6237.7746116468
 20
5227.5412793309
 10
6236.1068589304
 20
5227.3926316541
 10
6234.3764032809
 20
5227.3311507319
 10
6232.6358237174
 20
5227.3587046312
 10
6230.9380068693
 20
5227.4744561406
 10
6229.3345400423
 20
5227.674888209
 10
6227.8741437646
 20
5227.9539108096
 10
6226.601191438
 20
5228.3030459818
 10
6225.554361075
 20
5228.71168543
 10
6224.7654600862
 20
5229.1674128513
 10
6224.2584588292
 20
5229.6563811988
 10
6224.0487622804
 20
5230.1637334166
 10
6224.1427419635
 20
5230.6740538643
 10
6224.5375423533
 20
5231.1718367133
 10
6225.2211676398
 20
5231.6419570837
 10
6226.1728462145
 20
5232.0701306058
 10
6227.3636618055
 20
5232.4433474439
 10
6228.7574320838
 20
5232.7502675932
 10
6230.3118080446
 20
5232.9815654403
 10
6231.9795607609
 20
5233.1302131172
 10
6233.7100164105
 20
5233.1916940393
 10
6235.4505959739
 20
5233.1641401401
 10
6237.148412822
 20
5233.0483886307
 10
6238.751879649
 20
5232.8479565622
 10
6240.2122759268
 20
5232.5689339616
 10
6241.4852282533
 20
5232.2197987895
 10
6242.5320586164
 20
5231.8111593413
 10
6243.3209596051
 20
5231.3554319199
 10
6243.8279608622
 20
5230.8664635724
 10
6244.0376574109
 20
5230.3591113546
 10
6243.9436777278
 20
5229.848790907
  0
LINE
  5
D6
330
1F
100
AcDbEntity
  8
0
  6
Continuous
 62
     7
370
    25
100
AcDbLine
 10
6223.8276538512
 20
5235.931628376
 30
0.0
 11
6222.4777364993
 21
5233.147439314
 31
0.0
  0
LWPOLYLINE
  5
D7
330
1F
100
AcDbEntity
  8
0
  6
Continuous
 62
     7
370
    25
100
AcDbPolyline
 90
        3
 70
   128
 43
0.0
 10
6222.4777364993
 20
5229.8012495853
 10
6222.6652462425
 20
5229.9644529162
 10
6223.1526951753
 20
5230.7153170122
  0
LWPOLYLINE
  5
D8
330
1F
100
AcDbEntity
  8
0
  6
Continuous
 62
     7
370
    25
100
AcDbPolyline
 90
        3
 70
   128
 43
0.0
 10
6244.9337245161
 20
5229.8075277591
 10
6244.4462755833
 20
5229.0566636631
 10
6244.2587658401
 20
5228.8934603322
  0
LINE
  5
D9
330
1F
100
AcDbEntity
  8
0
  6
Continuous
 62
     7
370
    25
100
AcDbLine
 10
6326.4918749029
 20
5221.0180982177
 30
0.0
 11
6331.3755819638
 21
5237.2486066923
 31
0.0
  0
LINE
  5
DA
330
1F
100
AcDbEntity
  8
0
  6
Continuous
 62
     7
370
    25
100
AcDbLine
 10
6333.2907612033
 20
5236.6723355058
 30
0.0
 11
6331.3755819638
 21
5237.2486066923
 31
0.0
  0
LINE
  5
DB
330
1F
100
AcDbEntity
  8
0
  6
Continuous
 62
     7
370
    25
100
AcDbLine
 10
6333.2907612033
 20
5236.6723355058
 30
0.0
 11
6328.4070541424
 21
5220.4418270313
 31
0.0
  0
LINE
  5
DC
330
1F
100
AcDbEntity
  8
0
  6
Continuous
 62
     7
370
    25
100
AcDbLine
 10
6326.4918749029
 20
5221.0180982177
 30
0.0
 11
6328.4070541424
 21
5220.4418270313
 31
0.0
  0
ARC
  5
DD
330
1F
100
AcDbEntity
  8
0
  6
Continuous
 62
     7
370
    25
100
AcDbCircle
 10
6314.0432098457
 20
5224.7638609296
 30
0.0
 40
13.00000000000046
100
AcDbArc
 50
196.746369583
 51
343.253630417
  0
ARC
  5
DE
330
1F
100
AcDbEntity
  8
0
  6
Continuous
 62
     7
370
    25
100
AcDbCircle
 10
6314.0432098457
 20
5224.7638609296
 30
0.0
 40
15.00000000000084
100
AcDbArc
 50
196.746369583
 51
343.253630417
  0
LINE
  5
DF
330
1F
100
AcDbEntity
  8
0
  6
Continuous
 62
     7
370
    25
100
AcDbLine
 10
6301.5945447885
 20
5221.0180982177
 30
0.0
 11
6299.6793655489
 21
5220.4418270313
 31
0.0
  0
ARC
  5
E0
330
1F
100
AcDbEntity
  8
0
  6
Continuous
 62
     7
370
    25
100
AcDbCircle
 10
6314.0432098457
 20
5242.4638609296
 30
0.0
 40
20.10000000000046
100
AcDbArc
 50
343.253630417
 51
196.746369583
  0
ARC
  5
E1
330
1F
100
AcDbEntity
  8
0
  6
Continuous
 62
     7
370
    25
100
AcDbCircle
 10
6314.0432098457
 20
5242.4638609296
 30
0.0
 40
18.10000000000035
100
AcDbArc
 50
343.253630417
 51
196.746369583
  0
LINE
  5
E2
330
1F
100
AcDbEntity
  8
0
  6
Continuous
 62
     7
370
    25
100
AcDbLine
 10
6294.795658488
 20
5236.6723355058
 30
0.0
 11
6296.7108377276
 21
5237.2486066923
 31
0.0
  0
LINE
  5
E3
330
1F
100
AcDbEntity
  8
0
  6
Continuous
 62
     7
370
    25
100
AcDbLine
 10
6296.7108377276
 20
5237.2486066923
 30
0.0
 11
6301.5945447885
 21
5221.0180982177
 31
0.0
  0
LINE
  5
E4
330
1F
100
AcDbEntity
  8
0
  6
Continuous
 62
     7
370
    25
100
AcDbLine
 10
6299.6793655489
 20
5220.4418270313
 30
0.0
 11
6294.795658488
 21
5236.6723355058
 31
0.0
  0
ARC
  5
E5
330
1F
100
AcDbEntity
  8
0
  6
Continuous
 62
     7
370
    25
100
AcDbCircle
 10
6314.0432098457
 20
5242.4638609296
 30
0.0
 40
23.50000000000037
100
AcDbArc
 50
102.2844938564
 51
227.9513586992
  0
ARC
  5
E6
330
1F
100
AcDbEntity
  8
0
  6
Continuous
 62
     7
370
    25
100
AcDbCircle
 10
6314.0432098457
 20
5242.4638609296
 30
0.0
 40
23.50000000000063
100
AcDbArc
 50
312.0486413007
 51
77.7155061437
  0
ARC
  5
E7
330
1F
100
AcDbEntity
  8
0
  6
Continuous
 62
     7
370
    25
100
AcDbCircle
 10
6314.0432098457
 20
5242.4638609296
 30
0.0
 40
28.50000000000031
100
AcDbArc
 50
296.7987192895
 51
309.0446816692
  0
ARC
  5
E8
330
1F
100
AcDbEntity
  8
0
  6
Continuous
 62
     7
370
    25
100
AcDbCircle
 10
6314.0432098457
 20
5242.4638609296
 30
0.0
 40
28.49999999999952
100
AcDbArc
 50
309.0446816692
 51
243.2012807105
  0
ARC
  5
E9
330
1F
100
AcDbEntity
  8
0
  6
Continuous
 62
     7
370
    25
100
AcDbCircle
 10
6241.7932098457
 20
5171.7138609296
 30
0.0
 40
3.500000000000909
100
AcDbArc
 50
270.0
 51
0.0
  0
LINE
  5
EA
330
1F
100
AcDbEntity
  8
0
  6
Continuous
 62
     7
370
    25
100
AcDbLine
 10
6226.2932098457
 20
5168.2138609296
 30
0.0
 11
6241.7932098457
 21
5168.2138609296
 31
0.0
  0
ARC
  5
EB
330
1F
100
AcDbEntity
  8
0
  6
Continuous
 62
     7
370
    25
100
AcDbCircle
 10
6226.2932098457
 20
5171.7138609296
 30
0.0
 40
3.500000000000909
100
AcDbArc
 50
180.0
 51
270.0
  0
LINE
  5
EC
330
1F
100
AcDbEntity
  8
0
  6
Continuous
 62
     7
370
    25
100
AcDbLine
 10
6222.7932098457
 20
5187.2138609296
 30
0.0
 11
6222.7932098457
 21
5171.7138609296
 31
0.0
  0
ARC
  5
ED
330
1F
100
AcDbEntity
  8
0
  6
Continuous
 62
     7
370
    25
100
AcDbCircle
 10
6226.2932098457
 20
5187.2138609296
 30
0.0
 40
3.500000000000909
100
AcDbArc
 50
90.0
 51
180.0
  0
LINE
  5
EE
330
1F
100
AcDbEntity
  8
0
  6
Continuous
 62
     7
370
    25
100
AcDbLine
 10
6241.7932098457
 20
5190.7138609296
 30
0.0
 11
6226.2932098457
 21
5190.7138609296
 31
0.0
  0
ARC
  5
EF
330
1F
100
AcDbEntity
  8
0
  6
Continuous
 62
     7
370
    25
100
AcDbCircle
 10
6241.7932098457
 20
5187.2138609296
 30
0.0
 40
3.500000000000909
100
AcDbArc
 50
0.0
 51
90.0
  0
LINE
  5
F0
330
1F
100
AcDbEntity
  8
0
  6
Continuous
 62
     7
370
    25
100
AcDbLine
 10
6245.2932098457
 20
5171.7138609296
 30
0.0
 11
6245.2932098457
 21
5187.2138609296
 31
0.0
  0
LINE
  5
F1
330
1F
100
AcDbEntity
  8
0
  6
Continuous
 62
     7
370
    25
100
AcDbLine
 10
6230.9343041216
 20
5132.5412111988
 30
0.0
 11
6230.9343041216
 21
5134.4350482559
 31
0.0
  0
LWPOLYLINE
  5
F2
330
1F
100
AcDbEntity
  8
0
  6
Continuous
 62
     7
370
    25
100
AcDbPolyline
 90
        3
 70
   128
 43
0.0
 10
6227.6229667792
 20
5131.9638609296
 10
6227.9932220292
 20
5132.0074914183
 10
6230.9343041216
 20
5132.5412111988
  0
LINE
  5
F3
330
1F
100
AcDbEntity
  8
0
  6
Continuous
 62
     7
370
    25
100
AcDbLine
 10
6219.1244012961
 20
5132.5412111988
 30
0.0
 11
6222.4357386385
 21
5131.9638609296
 31
0.0
  0
LINE
  5
F4
330
1F
100
AcDbEntity
  8
0
  6
Continuous
 62
     7
370
    25
100
AcDbLine
 10
6219.1244012961
 20
5134.4350482559
 30
0.0
 11
6219.1244012961
 21
5132.5412111988
 31
0.0
  0
LINE
  5
F5
330
1F
100
AcDbEntity
  8
0
  6
Continuous
 62
     7
370
    25
100
AcDbLine
 10
6227.6229667792
 20
5131.9638609296
 30
0.0
 11
6222.4357386385
 21
5131.9638609296
 31
0.0
  0
LINE
  5
F6
330
1F
100
AcDbEntity
  8
0
  6
Continuous
 62
     7
370
    25
100
AcDbLine
 10
6237.179027163
 20
5131.9635708182
 30
0.0
 11
6239.7637098457
 21
5131.9635708182
 31
0.0
  0
LINE
  5
F7
330
1F
100
AcDbEntity
  8
0
  6
Continuous
 62
     7
370
    25
100
AcDbLine
 10
6213.3227098457
 20
5131.9635708182
 30
0.0
 11
6237.179027163
 21
5131.9635708182
 31
0.0
  0
LINE
  5
F8
330
1F
100
AcDbEntity
  8
0
  6
Continuous
 62
     7
370
    25
100
AcDbLine
 10
6239.7637098457
 20
5128.964151041
 30
0.0
 11
6213.3227098457
 21
5128.964151041
 31
0.0
  0
LINE
  5
F9
330
1F
100
AcDbEntity
  8
0
  6
Continuous
 62
     7
370
    25
100
AcDbLine
 10
6237.179027163
 20
5123.9638609296
 30
0.0
 11
6239.7637098457
 21
5123.9638609296
 31
0.0
  0
LINE
  5
FA
330
1F
100
AcDbEntity
  8
0
  6
Continuous
 62
     7
370
    25
100
AcDbLine
 10
6213.3227098457
 20
5123.9638609296
 30
0.0
 11
6237.179027163
 21
5123.9638609296
 31
0.0
  0
LINE
  5
FB
330
1F
100
AcDbEntity
  8
0
  6
Continuous
 62
     7
370
    25
100
AcDbLine
 10
6236.3745328309
 20
5122.9638609296
 30
0.0
 11
6214.3227098457
 21
5122.9638609296
 31
0.0
  0
LINE
  5
FC
330
1F
100
AcDbEntity
  8
0
  6
Continuous
 62
     7
370
    25
100
AcDbLine
 10
6238.7637098457
 20
5122.9638609296
 30
0.0
 11
6236.3745328309
 21
5122.9638609296
 31
0.0
  0
LWPOLYLINE
  5
FD
330
1F
100
AcDbEntity
  8
0
  6
Continuous
 62
     7
370
    25
100
AcDbPolyline
 90
        3
 70
   128
 43
0.0
 10
6233.8743143807
 20
5132.5412111988
 10
6234.4015625351
 20
5132.3479644664
 10
6235.8536013627
 20
5131.9638609296
  0
LINE
  5
FE
330
1F
100
AcDbEntity
  8
0
  6
Continuous
 62
     7
370
    25
100
AcDbLine
 10
6230.9343041216
 20
5132.5412111988
 30
0.0
 11
6233.8743143807
 21
5132.5412111988
 31
0.0
  0
LINE
  5
FF
330
1F
100
AcDbEntity
  8
0
  6
Continuous
 62
     7
370
    25
100
AcDbLine
 10
6227.6229667792
 20
5131.9638609296
 30
0.0
 11
6235.8536013627
 21
5131.9638609296
 31
0.0
  0
LINE
  5
100
330
1F
100
AcDbEntity
  8
0
  6
Continuous
 62
     7
370
    25
100
AcDbLine
 10
6233.8743143807
 20
5134.4350482559
 30
0.0
 11
6233.8743143807
 21
5132.5412111988
 31
0.0
  0
LWPOLYLINE
  5
101
330
1F
100
AcDbEntity
  8
0
  6
Continuous
 62
     7
370
    25
100
AcDbPolyline
 90
        3
 70
   128
 43
0.0
 10
6215.21201133
 20
5131.9638609296
 10
6215.3609537627
 20
5132.0074914183
 10
6216.5440616904
 20
5132.5412111988
  0
LINE
  5
102
330
1F
100
AcDbEntity
  8
0
  6
Continuous
 62
     7
370
    25
100
AcDbLine
 10
6216.5440616904
 20
5132.5412111988
 30
0.0
 11
6219.1244012961
 21
5132.5412111988
 31
0.0
  0
LINE
  5
103
330
1F
100
AcDbEntity
  8
0
  6
Continuous
 62
     7
370
    25
100
AcDbLine
 10
6215.21201133
 20
5131.9638609296
 30
0.0
 11
6222.4357386385
 21
5131.9638609296
 31
0.0
  0
LINE
  5
104
330
1F
100
AcDbEntity
  8
0
  6
Continuous
 62
     7
370
    25
100
AcDbLine
 10
6216.5440616904
 20
5132.5412111988
 30
0.0
 11
6216.5440616904
 21
5134.4350482559
 31
0.0
  0
LINE
  5
105
330
1F
100
AcDbEntity
  8
0
  6
Continuous
 62
     7
370
    25
100
AcDbLine
 10
6240.9334522769
 20
5132.5412111988
 30
0.0
 11
6240.9334522769
 21
5134.4350482559
 31
0.0
  0
LWPOLYLINE
  5
106
330
1F
100
AcDbEntity
  8
0
  6
Continuous
 62
     7
370
    25
100
AcDbPolyline
 90
        3
 70
   128
 43
0.0
 10
6238.9541652949
 20
5131.9638609296
 10
6239.832977053
 20
5132.169316881
 10
6240.9334522769
 20
5132.5412111988
  0
LINE
  5
107
330
1F
100
AcDbEntity
  8
0
  6
Continuous
 62
     7
370
    25
100
AcDbLine
 10
6238.9541652949
 20
5131.9638609296
 30
0.0
 11
6235.8536013627
 21
5131.9638609296
 31
0.0
  0
LINE
  5
108
330
1F
100
AcDbEntity
  8
0
  6
Continuous
 62
     7
370
    25
100
AcDbLine
 10
6211.7932967611
 20
5132.5412111988
 30
0.0
 11
6213.1253471216
 21
5131.9638609296
 31
0.0
  0
LINE
  5
109
330
1F
100
AcDbEntity
  8
0
  6
Continuous
 62
     7
370
    25
100
AcDbLine
 10
6211.7932967611
 20
5134.4350482559
 30
0.0
 11
6211.7932967611
 21
5132.5412111988
 31
0.0
  0
LINE
  5
10A
330
1F
100
AcDbEntity
  8
0
  6
Continuous
 62
     7
370
    25
100
AcDbLine
 10
6215.21201133
 20
5131.9638609296
 30
0.0
 11
6213.1253471216
 21
5131.9638609296
 31
0.0
  0
LINE
  5
10B
330
1F
100
AcDbEntity
  8
0
  6
Continuous
 62
     7
370
    25
100
AcDbLine
 10
6240.9334522769
 20
5132.5412111988
 30
0.0
 11
6241.2931229302
 21
5132.5412111988
 31
0.0
  0
LINE
  5
10C
330
1F
100
AcDbEntity
  8
0
  6
Continuous
 62
     7
370
    25
100
AcDbLine
 10
6238.9541652949
 20
5131.9638609296
 30
0.0
 11
6240.2932098457
 21
5131.9638609296
 31
0.0
  0
LINE
  5
10D
330
1F
100
AcDbEntity
  8
0
  6
Continuous
 62
     7
370
    25
100
AcDbLine
 10
6241.2931229302
 20
5134.4350482559
 30
0.0
 11
6241.2931229302
 21
5132.5412111988
 31
0.0
  0
LINE
  5
10E
330
1F
100
AcDbEntity
  8
0
  6
Continuous
 62
     7
370
    25
100
AcDbLine
 10
6212.7932098457
 20
5131.9638609296
 30
0.0
 11
6213.1253471216
 21
5131.9638609296
 31
0.0
  0
LINE
  5
10F
330
1F
100
AcDbEntity
  8
0
  6
Continuous
 62
     7
370
    25
100
AcDbLine
 10
6324.2876855867
 20
5132.5412111988
 30
0.0
 11
6324.2876855867
 21
5134.4350482559
 31
0.0
  0
LWPOLYLINE
  5
110
330
1F
100
AcDbEntity
  8
0
  6
Continuous
 62
     7
370
    25
100
AcDbPolyline
 90
        3
 70
   128
 43
0.0
 10
6321.0411945871
 20
5131.9638609296
 10
6321.4041990812
 20
5132.0074914183
 10
6324.2876855867
 20
5132.5412111988
  0
LINE
  5
111
330
1F
100
AcDbEntity
  8
0
  6
Continuous
 62
     7
370
    25
100
AcDbLine
 10
6312.7090575991
 20
5132.5412111988
 30
0.0
 11
6315.9555485988
 21
5131.9638609296
 31
0.0
  0
LINE
  5
112
330
1F
100
AcDbEntity
  8
0
  6
Continuous
 62
     7
370
    25
100
AcDbLine
 10
6312.7090575991
 20
5134.4350482559
 30
0.0
 11
6312.7090575991
 21
5132.5412111988
 31
0.0
  0
LINE
  5
113
330
1F
100
AcDbEntity
  8
0
  6
Continuous
 62
     7
370
    25
100
AcDbLine
 10
6321.0411945871
 20
5131.9638609296
 30
0.0
 11
6315.9555485988
 21
5131.9638609296
 31
0.0
  0
LINE
  5
114
330
1F
100
AcDbEntity
  8
0
  6
Continuous
 62
     7
370
    25
100
AcDbLine
 10
6308.3227098457
 20
5131.9635708182
 30
0.0
 11
6334.7637098457
 21
5131.9635708182
 31
0.0
  0
LINE
  5
115
330
1F
100
AcDbEntity
  8
0
  6
Continuous
 62
     7
370
    25
100
AcDbLine
 10
6331.206586386
 20
5128.964151041
 30
0.0
 11
6308.3227098457
 21
5128.964151041
 31
0.0
  0
LINE
  5
116
330
1F
100
AcDbEntity
  8
0
  6
Continuous
 62
     7
370
    25
100
AcDbLine
 10
6334.7637098457
 20
5128.964151041
 30
0.0
 11
6331.206586386
 21
5128.964151041
 31
0.0
  0
LINE
  5
117
330
1F
100
AcDbEntity
  8
0
  6
Continuous
 62
     7
370
    25
100
AcDbLine
 10
6308.3227098457
 20
5123.9638609296
 30
0.0
 11
6334.7637098457
 21
5123.9638609296
 31
0.0
  0
LINE
  5
118
330
1F
100
AcDbEntity
  8
0
  6
Continuous
 62
     7
370
    25
100
AcDbLine
 10
6333.7637098457
 20
5122.9638609296
 30
0.0
 11
6309.3227098457
 21
5122.9638609296
 31
0.0
  0
LWPOLYLINE
  5
119
330
1F
100
AcDbEntity
  8
0
  6
Continuous
 62
     7
370
    25
100
AcDbPolyline
 90
        3
 70
   128
 43
0.0
 10
6327.355512519
 20
5132.5412111988
 10
6327.961305194
 20
5132.3479644664
 10
6329.6296552455
 20
5131.9638609296
  0
LINE
  5
11A
330
1F
100
AcDbEntity
  8
0
  6
Continuous
 62
     7
370
    25
100
AcDbLine
 10
6324.2876855867
 20
5132.5412111988
 30
0.0
 11
6327.355512519
 21
5132.5412111988
 31
0.0
  0
LINE
  5
11B
330
1F
100
AcDbEntity
  8
0
  6
Continuous
 62
     7
370
    25
100
AcDbLine
 10
6321.0411945871
 20
5131.9638609296
 30
0.0
 11
6329.6296552455
 21
5131.9638609296
 31
0.0
  0
LINE
  5
11C
330
1F
100
AcDbEntity
  8
0
  6
Continuous
 62
     7
370
    25
100
AcDbLine
 10
6327.355512519
 20
5134.4350482559
 30
0.0
 11
6327.355512519
 21
5132.5412111988
 31
0.0
  0
LWPOLYLINE
  5
11D
330
1F
100
AcDbEntity
  8
0
  6
Continuous
 62
     7
370
    25
100
AcDbPolyline
 90
        3
 70
   128
 43
0.0
 10
6309.3922921113
 20
5131.9638609296
 10
6309.5010146652
 20
5132.0074914183
 10
6310.3646403844
 20
5132.5412111988
  0
LINE
  5
11E
330
1F
100
AcDbEntity
  8
0
  6
Continuous
 62
     7
370
    25
100
AcDbLine
 10
6310.3646403844
 20
5132.5412111988
 30
0.0
 11
6312.7090575991
 21
5132.5412111988
 31
0.0
  0
LINE
  5
11F
330
1F
100
AcDbEntity
  8
0
  6
Continuous
 62
     7
370
    25
100
AcDbLine
 10
6309.3922921113
 20
5131.9638609296
 30
0.0
 11
6315.9555485988
 21
5131.9638609296
 31
0.0
  0
LINE
  5
120
330
1F
100
AcDbEntity
  8
0
  6
Continuous
 62
     7
370
    25
100
AcDbLine
 10
6335.466255048
 20
5132.5412111988
 30
0.0
 11
6335.466255048
 21
5134.4350482559
 31
0.0
  0
LWPOLYLINE
  5
121
330
1F
100
AcDbEntity
  8
0
  6
Continuous
 62
     7
370
    25
100
AcDbPolyline
 90
        3
 70
   128
 43
0.0
 10
6333.1921123215
 20
5131.9638609296
 10
6334.2018412723
 20
5132.169316881
 10
6335.466255048
 20
5132.5412111988
  0
LINE
  5
122
330
1F
100
AcDbEntity
  8
0
  6
Continuous
 62
     7
370
    25
100
AcDbLine
 10
6333.1921123215
 20
5131.9638609296
 30
0.0
 11
6329.6296552455
 21
5131.9638609296
 31
0.0
  0
LINE
  5
123
330
1F
100
AcDbEntity
  8
0
  6
Continuous
 62
     7
370
    25
100
AcDbLine
 10
6310.3646403844
 20
5132.5412111988
 30
0.0
 11
6310.3646403844
 21
5134.4350482559
 31
0.0
  0
LINE
  5
124
330
1F
100
AcDbEntity
  8
0
  6
Continuous
 62
     7
370
    25
100
AcDbLine
 10
6306.8967549258
 20
5132.5412111988
 30
0.0
 11
6307.869103199
 21
5131.9638609296
 31
0.0
  0
LINE
  5
125
330
1F
100
AcDbEntity
  8
0
  6
Continuous
 62
     7
370
    25
100
AcDbLine
 10
6306.8967549258
 20
5134.4350482559
 30
0.0
 11
6306.8967549258
 21
5132.5412111988
 31
0.0
  0
LINE
  5
126
330
1F
100
AcDbEntity
  8
0
  6
Continuous
 62
     7
370
    25
100
AcDbLine
 10
6309.3922921113
 20
5131.9638609296
 30
0.0
 11
6307.869103199
 21
5131.9638609296
 31
0.0
  0
LINE
  5
127
330
1F
100
AcDbEntity
  8
0
  6
Continuous
 62
     7
370
    25
100
AcDbLine
 10
6335.466255048
 20
5132.5412111988
 30
0.0
 11
6336.1896647655
 21
5132.5412111988
 31
0.0
  0
LINE
  5
128
330
1F
100
AcDbEntity
  8
0
  6
Continuous
 62
     7
370
    25
100
AcDbLine
 10
6336.1896647655
 20
5132.5412111988
 30
0.0
 11
6335.6573684227
 21
5132.2251501276
 31
0.0
  0
LINE
  5
129
330
1F
100
AcDbEntity
  8
0
  6
Continuous
 62
     7
370
    25
100
AcDbLine
 10
6333.1921123215
 20
5131.9638609296
 30
0.0
 11
6335.2932098457
 21
5131.9638609296
 31
0.0
  0
LINE
  5
12A
330
1F
100
AcDbEntity
  8
0
  6
Continuous
 62
     7
370
    25
100
AcDbLine
 10
6336.1896647655
 20
5134.4350482559
 30
0.0
 11
6336.1896647655
 21
5132.5412111988
 31
0.0
  0
LINE
  5
12B
330
1F
100
AcDbEntity
  8
0
  6
Continuous
 62
     7
370
    25
100
AcDbLine
 10
6307.7932098457
 20
5131.9638609296
 30
0.0
 11
6307.869103199
 21
5131.9638609296
 31
0.0
  0
ARC
  5
12C
330
1F
100
AcDbEntity
  8
0
  6
Continuous
 62
     7
370
    25
100
AcDbCircle
 10
6314.0432098457
 20
5242.4638609296
 30
0.0
 40
23.24999999999969
100
AcDbArc
 50
102.4186815058
 51
163.2933390825
  0
ARC
  5
12D
330
1F
100
AcDbEntity
  8
0
  6
Continuous
 62
     7
370
    25
100
AcDbCircle
 10
6314.0432098457
 20
5242.4638609296
 30
0.0
 40
23.25000000000028
100
AcDbArc
 50
313.0811297781
 51
77.5813184942
  0
ARC
  5
12E
330
1F
100
AcDbEntity
  8
0
  6
Continuous
 62
     7
370
    25
100
AcDbCircle
 10
6314.0432098457
 20
5242.4638609296
 30
0.0
 40
23.24999999999952
100
AcDbArc
 50
163.2933390825
 51
226.9188702219
  0
LINE
  5
12F
330
1F
100
AcDbEntity
  8
0
  6
Continuous
 62
     8
370
    25
100
AcDbLine
 10
6319.0432098457
 20
5265.5375268906
 30
0.0
 11
6309.0432098457
 21
5265.5375268906
 31
0.0
  0
LINE
  5
130
330
1F
100
AcDbEntity
  8
0
  6
Continuous
 62
     8
370
    25
100
AcDbLine
 10
6309.4278252303
 20
5266.024031146
 30
0.0
 11
6318.6585944611
 21
5266.024031146
 31
0.0
  0
LWPOLYLINE
  5
131
330
1F
100
AcDbEntity
  8
0
  6
Continuous
 62
     8
370
    25
100
AcDbPolyline
 90
        3
 70
   128
 43
0.0
 10
6331.8701227455
 20
5220.4845257153
 10
6329.5157007265
 20
5218.7680379656
 10
6327.0805447928
 20
5217.3457818335
  0
ARC
  5
132
330
1F
100
AcDbEntity
  8
0
  6
Continuous
 62
     8
370
    25
100
AcDbCircle
 10
6314.0432098457
 20
5242.4638609296
 30
0.0
 40
28.30000000000015
100
AcDbArc
 50
309.0446816692
 51
242.5687971763
  0
ARC
  5
133
330
1F
100
AcDbEntity
  8
0
  6
Continuous
 62
     7
370
    25
100
AcDbCircle
 10
6555.4585945952
 20
5228.6638609296
 30
0.0
 40
0.2000000000007276
100
AcDbArc
 50
180.0
 51
270.0
  0
ARC
  5
134
330
1F
100
AcDbEntity
  8
0
  6
Continuous
 62
     7
370
    25
100
AcDbCircle
 10
6555.4585945952
 20
5256.2638609296
 30
0.0
 40
0.2000000000007276
100
AcDbArc
 50
90.0
 51
180.0
  0
LINE
  5
135
330
1F
100
AcDbEntity
  8
0
  6
Continuous
 62
     7
370
    25
100
AcDbLine
 10
6815.0585945952
 20
5256.4638609296
 30
0.0
 11
6555.4585945952
 21
5256.4638609296
 31
0.0
  0
LINE
  5
136
330
1F
100
AcDbEntity
  8
0
  6
Continuous
 62
     7
370
    25
100
AcDbLine
 10
6566.2197329278
 20
5228.4638609296
 30
0.0
 11
6778.2073483605
 21
5228.4638609296
 31
0.0
  0
LINE
  5
137
330
1F
100
AcDbEntity
  8
0
  6
Continuous
 62
     7
370
    25
100
AcDbLine
 10
6555.4585945952
 20
5228.4638609296
 30
0.0
 11
6561.6485945952
 21
5228.4638609296
 31
0.0
  0
ARC
  5
138
330
1F
100
AcDbEntity
  8
0
  6
Continuous
 62
     7
370
    25
100
AcDbCircle
 10
6815.0585945952
 20
5256.2638609296
 30
0.0
 40
0.2000000000007276
100
AcDbArc
 50
0.0
 51
90.0
  0
ARC
  5
139
330
1F
100
AcDbEntity
  8
0
  6
Continuous
 62
     7
370
    25
100
AcDbCircle
 10
6787.1875683036
 20
5234.0646060258
 30
0.0
 40
0.199999999999848
100
AcDbArc
 50
287.049030972
 51
341.7489308893
  0
ARC
  5
13A
330
1F
100
AcDbEntity
  8
0
  6
Continuous
 62
     7
370
    25
100
AcDbCircle
 10
6810.7065018252
 20
5241.2770789725
 30
0.0
 40
0.2000000000008958
100
AcDbArc
 50
201.9917272342
 51
287.049030972
  0
ARC
  5
13B
330
1F
100
AcDbEntity
  8
0
  6
Continuous
 62
     7
370
    25
100
AcDbCircle
 10
6563.4607142738
 20
5210.6886458375
 30
0.0
 40
17.99016809171273
100
AcDbArc
 50
81.177301884
 51
85.1880973372
  0
LWPOLYLINE
  5
13C
330
1F
100
AcDbEntity
  8
0
  6
Continuous
 62
     7
370
    25
100
AcDbPolyline
 90
       17
 70
   128
 43
0.0
 10
6561.6112521602
 20
5228.4681646342
 10
6561.6275464713
 20
5228.4650422777
 10
6561.6526951056
 20
5228.4639524708
 10
6561.6689175202
 20
5228.464931839
 10
6561.6734327594
 20
5228.4654409224
 10
6561.675593863
 20
5228.4657213536
 10
6561.6770888223
 20
5228.465929285
 10
6561.6784603449
 20
5228.4661300034
 10
6561.6798675959
 20
5228.466345511
 10
6561.682107614
 20
5228.4667037316
 10
6561.7534585102
 20
5228.4784218406
 10
6562.0757253875
 20
5228.5267164288
 10
6562.6152386895
 20
5228.5907086214
 10
6563.3129534876
 20
5228.6417491381
 10
6564.0820378796
 20
5228.6561369668
 10
6564.8317770905
 20
5228.6277653459
 10
6564.9698168905
 20
5228.6154067624
  0
LINE
  5
13D
330
1F
100
AcDbEntity
  8
0
  6
Continuous
 62
     7
370
    25
100
AcDbLine
 10
6787.5330225575
 20
5233.9613521713
 30
0.0
 11
6789.6000117556
 21
5227.2211700036
 31
0.0
  0
LINE
  5
13E
330
1F
100
AcDbEntity
  8
0
  6
Continuous
 62
     7
370
    25
100
AcDbLine
 10
6812.5453127523
 20
5234.2577289759
 30
0.0
 11
6810.4783235542
 21
5240.9979111437
 31
0.0
  0
LINE
  5
13F
330
1F
100
AcDbEntity
  8
0
  6
Continuous
 62
     7
370
    25
100
AcDbLine
 10
6789.6000117556
 20
5227.2211700036
 30
0.0
 11
6790.7026609424
 21
5227.0363328567
 31
0.0
  0
LINE
  5
140
330
1F
100
AcDbEntity
  8
0
  6
Continuous
 62
     7
370
    25
100
AcDbLine
 10
6811.7358535227
 20
5233.4865119146
 30
0.0
 11
6812.5453127523
 21
5234.2577289759
 31
0.0
  0
LINE
  5
141
330
1F
100
AcDbEntity
  8
0
  6
Continuous
 62
     7
370
    25
100
AcDbLine
 10
6568.2585945951
 20
5222.3638609296
 30
0.0
 11
6601.0585945951
 21
5222.3638609296
 31
0.0
  0
LINE
  5
142
330
1F
100
AcDbEntity
  8
0
  6
Continuous
 62
     7
370
    25
100
AcDbLine
 10
6591.2585945951
 20
5262.5638609296
 30
0.0
 11
6568.2585945951
 21
5262.5638609296
 31
0.0
  0
LINE
  5
143
330
1F
100
AcDbEntity
  8
0
  6
Continuous
 62
     7
370
    25
100
AcDbLine
 10
6607.2585945951
 20
5262.5638609296
 30
0.0
 11
6601.1919892751
 21
5262.5638609296
 31
0.0
  0
ARC
  5
144
330
1F
100
AcDbEntity
  8
0
  6
Continuous
 62
     7
370
    25
100
AcDbCircle
 10
6607.2585945951
 20
5260.5638609296
 30
0.0
 40
2.000000000000909
100
AcDbArc
 50
0.0
 51
90.0
  0
ARC
  5
145
330
1F
100
AcDbEntity
  8
0
  6
Continuous
 62
     7
370
    25
100
AcDbCircle
 10
6601.0585945951
 20
5219.3638609296
 30
0.0
 40
3.0
100
AcDbArc
 50
0.0
 51
90.0
  0
ARC
  5
146
330
1F
100
AcDbEntity
  8
0
  6
Continuous
 62
     7
370
    25
100
AcDbCircle
 10
6604.5585945951
 20
5210.2638609296
 30
0.0
 40
0.5
100
AcDbArc
 50
180.0
 51
270.0
  0
LINE
  5
147
330
1F
100
AcDbEntity
  8
0
  6
Continuous
 62
     7
370
    25
100
AcDbLine
 10
6604.5585945951
 20
5209.7638609296
 30
0.0
 11
6607.2585945951
 21
5209.7638609296
 31
0.0
  0
ARC
  5
148
330
1F
100
AcDbEntity
  8
0
  6
Continuous
 62
     7
370
    25
100
AcDbCircle
 10
6607.2585945951
 20
5211.7638609296
 30
0.0
 40
2.000000000000909
100
AcDbArc
 50
270.0
 51
0.0
  0
ARC
  5
149
330
1F
100
AcDbEntity
  8
0
  6
Continuous
 62
     7
370
    25
100
AcDbCircle
 10
6600.7585945951
 20
5265.5375268906
 30
0.0
 40
0.5000000000009095
100
AcDbArc
 50
0.0
 51
76.6576362029
  0
ARC
  5
14A
330
1F
100
AcDbEntity
  8
0
  6
Continuous
 62
     7
370
    25
100
AcDbCircle
 10
6591.7585945951
 20
5265.5375268906
 30
0.0
 40
0.5000000000009095
100
AcDbArc
 50
103.3423637971
 51
180.0
  0
LINE
  5
14B
330
1F
100
AcDbEntity
  8
0
  6
Continuous
 62
     7
370
    25
100
AcDbLine
 10
6601.2585945951
 20
5262.5474254985
 30
0.0
 11
6601.2585945951
 21
5265.5375268906
 31
0.0
  0
LINE
  5
14C
330
1F
100
AcDbEntity
  8
0
  6
Continuous
 62
     7
370
    25
100
AcDbLine
 10
6591.2585945951
 20
5265.5375268906
 30
0.0
 11
6591.2585945951
 21
5262.5638609296
 31
0.0
  0
ARC
  5
14D
330
1F
100
AcDbEntity
  8
0
  6
Continuous
 62
     7
370
    25
100
AcDbCircle
 10
6596.2585945951
 20
5246.5638609296
 30
0.0
 40
20.00000000000015
100
AcDbArc
 50
76.6576362029
 51
103.3423637971
  0
ARC
  5
14E
330
1F
100
AcDbEntity
  8
0
  6
Continuous
 62
     7
370
    25
100
AcDbCircle
 10
6555.4585945952
 20
5214.1638609296
 30
0.0
 40
0.2000000000007276
100
AcDbArc
 50
180.0
 51
270.0
  0
ARC
  5
14F
330
1F
100
AcDbEntity
  8
0
  6
Continuous
 62
     7
370
    25
100
AcDbCircle
 10
6555.4585945952
 20
5270.7638609296
 30
0.0
 40
0.2000000000007276
100
AcDbArc
 50
90.0
 51
180.0
  0
LINE
  5
150
330
1F
100
AcDbEntity
  8
0
  6
Continuous
 62
     7
370
    25
100
AcDbLine
 10
6555.4585945952
 20
5213.9638609296
 30
0.0
 11
6558.0585945952
 21
5213.9638609296
 31
0.0
  0
LINE
  5
151
330
1F
100
AcDbEntity
  8
0
  6
Continuous
 62
     7
370
    25
100
AcDbLine
 10
6558.0585945952
 20
5270.9638609296
 30
0.0
 11
6555.4585945952
 21
5270.9638609296
 31
0.0
  0
ARC
  5
152
330
1F
100
AcDbEntity
  8
0
  6
Continuous
 62
     7
370
    25
100
AcDbCircle
 10
6558.0585945952
 20
5214.1638609296
 30
0.0
 40
0.2000000000007276
100
AcDbArc
 50
270.0
 51
0.0
  0
ARC
  5
153
330
1F
100
AcDbEntity
  8
0
  6
Continuous
 62
     7
370
    25
100
AcDbCircle
 10
6558.0585945952
 20
5270.7638609296
 30
0.0
 40
0.2000000000007276
100
AcDbArc
 50
0.0
 51
90.0
  0
LINE
  5
154
330
1F
100
AcDbEntity
  8
0
  6
Continuous
 62
     7
370
    25
100
AcDbLine
 10
6555.2331620333
 20
5216.4638609296
 30
0.0
 11
6555.2585945952
 21
5216.4638609296
 31
0.0
  0
LINE
  5
155
330
1F
100
AcDbEntity
  8
0
  6
Continuous
 62
     7
370
    25
100
AcDbLine
 10
6555.2585945952
 20
5268.4638609296
 30
0.0
 11
6555.2331620333
 21
5268.4638609296
 31
0.0
  0
LINE
  5
156
330
1F
100
AcDbEntity
  8
0
  6
Continuous
 62
     7
370
    25
100
AcDbLine
 10
6463.7380945952
 20
5128.964151041
 30
0.0
 11
6463.7380945952
 21
5123.9638609296
 31
0.0
  0
LINE
  5
157
330
1F
100
AcDbEntity
  8
0
  6
Continuous
 62
     7
370
    25
100
AcDbLine
 10
6490.1790945952
 20
5123.9638609296
 30
0.0
 11
6490.1790945952
 21
5128.964151041
 31
0.0
  0
LINE
  5
158
330
1F
100
AcDbEntity
  8
0
  6
Continuous
 62
     7
370
    25
100
AcDbLine
 10
6463.7380945952
 20
5131.9638609296
 30
0.0
 11
6463.7380945952
 21
5131.9635708182
 31
0.0
  0
LINE
  5
159
330
1F
100
AcDbEntity
  8
0
  6
Continuous
 62
     7
370
    25
100
AcDbLine
 10
6490.1790945952
 20
5131.9635708182
 30
0.0
 11
6490.1790945952
 21
5131.9638609296
 31
0.0
  0
LINE
  5
15A
330
1F
100
AcDbEntity
  8
0
  6
Continuous
 62
     7
370
    25
100
AcDbLine
 10
6463.7380945952
 20
5123.9638609296
 30
0.0
 11
6464.7380945952
 21
5122.9638609296
 31
0.0
  0
LINE
  5
15B
330
1F
100
AcDbEntity
  8
0
  6
Continuous
 62
     7
370
    25
100
AcDbLine
 10
6489.1790945952
 20
5122.9638609296
 30
0.0
 11
6490.1790945952
 21
5123.9638609296
 31
0.0
  0
ARC
  5
15C
330
1F
100
AcDbEntity
  8
0
  6
Continuous
 62
     7
370
    25
100
AcDbCircle
 10
6463.7085945952
 20
5130.4638609296
 30
0.0
 40
1.499999999999686
100
AcDbArc
 50
271.1268896477
 51
88.8731103523
  0
ARC
  5
15D
330
1F
100
AcDbEntity
  8
0
  6
Continuous
 62
     7
370
    25
100
AcDbCircle
 10
6490.2085945952
 20
5130.4638609296
 30
0.0
 40
1.499999999999704
100
AcDbArc
 50
91.1268896477
 51
268.8731103523
  0
LINE
  5
15E
330
1F
100
AcDbEntity
  8
0
  6
Continuous
 62
     7
370
    25
100
AcDbLine
 10
6463.2085945952
 20
5141.9638609296
 30
0.0
 11
6463.0996168456
 21
5141.8548831801
 31
0.0
  0
LINE
  5
15F
330
1F
100
AcDbEntity
  8
0
  6
Continuous
 62
     7
370
    25
100
AcDbLine
 10
6558.2585945952
 20
5219.2138609296
 30
0.0
 11
6568.2585945951
 21
5219.2138609296
 31
0.0
  0
LINE
  5
160
330
1F
100
AcDbEntity
  8
0
  6
Continuous
 62
     7
370
    25
100
AcDbLine
 10
6568.2585945951
 20
5265.7138609296
 30
0.0
 11
6558.2585945952
 21
5265.7138609296
 31
0.0
  0
ARC
  5
161
330
1F
100
AcDbEntity
  8
0
  6
Continuous
 62
     7
370
    25
100
AcDbCircle
 10
6545.2331620333
 20
5144.4350482559
 30
0.0
 40
10.0
100
AcDbArc
 50
270.0
 51
0.0
  0
LINE
  5
162
330
1F
100
AcDbEntity
  8
0
  6
Continuous
 62
     7
370
    25
100
AcDbLine
 10
6545.2331620333
 20
5144.4350482559
 30
0.0
 11
6545.2331620333
 21
5134.4350482559
 31
0.0
  0
LINE
  5
163
330
1F
100
AcDbEntity
  8
0
  6
Continuous
 62
     7
370
    25
100
AcDbLine
 10
6545.2331620333
 20
5144.4350482559
 30
0.0
 11
6555.2331620333
 21
5144.4350482559
 31
0.0
  0
ARC
  5
164
330
1F
100
AcDbEntity
  8
0
  6
Continuous
 62
     7
370
    25
100
AcDbCircle
 10
6545.2331620333
 20
5294.4350482559
 30
0.0
 40
10.0
100
AcDbArc
 50
0.0
 51
90.0
  0
LINE
  5
165
330
1F
100
AcDbEntity
  8
0
  6
Continuous
 62
     7
370
    25
100
AcDbLine
 10
6545.2331620333
 20
5294.4350482559
 30
0.0
 11
6555.2331620333
 21
5294.4350482559
 31
0.0
  0
LINE
  5
166
330
1F
100
AcDbEntity
  8
0
  6
Continuous
 62
     7
370
    25
100
AcDbLine
 10
6545.2331620333
 20
5304.4350482559
 30
0.0
 11
6545.2331620333
 21
5294.4350482559
 31
0.0
  0
LINE
  5
167
330
1F
100
AcDbEntity
  8
0
  6
Continuous
 62
     7
370
    25
100
AcDbLine
 10
6555.2331620333
 20
5294.4350482559
 30
0.0
 11
6555.2331620333
 21
5144.4350482559
 31
0.0
  0
LINE
  5
168
330
1F
100
AcDbEntity
  8
0
  6
Continuous
 62
     7
370
    25
100
AcDbLine
 10
6545.2331620333
 20
5294.4350482559
 30
0.0
 11
6545.2331620333
 21
5144.4350482559
 31
0.0
  0
LINE
  5
169
330
1F
100
AcDbEntity
  8
0
  6
Continuous
 62
     7
370
    25
100
AcDbLine
 10
6555.2585945952
 20
5242.4638609296
 30
0.0
 11
6555.2585945952
 21
5256.2638609296
 31
0.0
  0
LINE
  5
16A
330
1F
100
AcDbEntity
  8
0
  6
Continuous
 62
     7
370
    25
100
AcDbLine
 10
6555.2585945952
 20
5228.6638609296
 30
0.0
 11
6555.2585945952
 21
5242.4638609296
 31
0.0
  0
LINE
  5
16B
330
1F
100
AcDbEntity
  8
0
  6
Continuous
 62
     7
370
    25
100
AcDbLine
 10
6783.672331665
 20
5232.8492485174
 30
0.0
 11
6815.0585945952
 21
5242.6138636513
 31
0.0
  0
LWPOLYLINE
  5
16C
330
1F
100
AcDbEntity
  8
0
  6
Continuous
 62
     7
370
    25
100
AcDbPolyline
 90
        3
 70
   128
 43
0.0
 10
6783.672331665
 20
5232.8492485174
 10
6783.6311632261
 20
5232.8345471297
 10
6783.4739760857
 20
5232.7410112193
  0
LWPOLYLINE
  5
16D
330
1F
100
AcDbEntity
  8
0
  6
Continuous
 62
     7
370
    25
100
AcDbPolyline
 90
        7
 70
   128
 43
0.0
 10
6778.2073483605
 20
5228.4878815763
 10
6778.2065661907
 20
5228.4872514736
 10
6778.4520499405
 20
5228.6850282968
 10
6779.554750705
 20
5229.5739294932
 10
6780.6974472185
 20
5230.495995709
 10
6782.0853967024
 20
5231.6173730284
 10
6783.4739760857
 20
5232.7410112193
  0
LINE
  5
16E
330
1F
100
AcDbEntity
  8
0
  6
Continuous
 62
     7
370
    25
100
AcDbLine
 10
6815.1172325866
 20
5242.4205099136
 30
0.0
 11
6783.7309696564
 21
5232.7953892817
 31
0.0
  0
LWPOLYLINE
  5
16F
330
1F
100
AcDbEntity
  8
0
  6
Continuous
 62
     7
370
    25
100
AcDbPolyline
 90
        9
 70
   128
 43
0.0
 10
6783.7309696564
 20
5232.7953892817
 10
6783.7251935248
 20
5232.7948101993
 10
6783.7188148368
 20
5232.7964172721
 10
6783.7119063013
 20
5232.8001921816
 10
6783.7045466665
 20
5232.8060918986
 10
6783.6968198226
 20
5232.8140491741
 10
6783.6888138457
 20
5232.8239733056
 10
6783.6806199934
 20
5232.8357511708
 10
6783.672331665
 20
5232.8492485174
  0
ARC
  5
170
330
1F
100
AcDbEntity
  8
0
  6
Continuous
 62
     7
370
    25
100
AcDbCircle
 10
6799.6473659966
 20
5237.8345635834
 30
0.0
 40
16.13529287170243
100
AcDbArc
 50
16.5121313305
 51
17.2296064258
  0
ARC
  5
171
330
1F
100
AcDbEntity
  8
0
  6
Continuous
 62
     7
370
    25
100
AcDbCircle
 10
6815.1085888552
 20
5237.9456744851
 30
0.0
 40
4.668456866843725
100
AcDbArc
 50
88.1586687701
 51
90.6135892293
  0
ARC
  5
172
330
1F
100
AcDbEntity
  8
0
  6
Continuous
 62
     7
370
    25
100
AcDbCircle
 10
6815.0585945952
 20
5242.6117207552
 30
0.0
 40
0.2000000000007175
100
AcDbArc
 50
287.049030972
 51
0.0
  0
LINE
  5
173
330
1F
100
AcDbEntity
  8
0
  6
Continuous
 62
     7
370
    25
100
AcDbLine
 10
6815.2585945952
 20
5256.2638609296
 30
0.0
 11
6815.2585945952
 21
5242.6117207552
 31
0.0
  0
LWPOLYLINE
  5
174
330
1F
100
AcDbEntity
  8
0
  6
Continuous
 62
     7
370
    25
100
AcDbPolyline
 90
        3
 70
   128
 43
0.0
 10
6783.6095776529
 20
5232.7352313972
 10
6783.7068034357
 20
5232.7870451173
 10
6783.7309696564
 20
5232.7953892817
  0
LWPOLYLINE
  5
175
330
1F
100
AcDbEntity
  8
0
  6
Continuous
 62
     7
370
    25
100
AcDbPolyline
 90
        9
 70
   128
 43
0.0
 10
6783.6095776529
 20
5232.7352313972
 10
6783.5994848231
 20
5232.7242006366
 10
6783.586803162
 20
5232.7163816273
 10
6783.5717942505
 20
5232.7119356498
 10
6783.554767673
 20
5232.7109544098
 10
6783.5360746315
 20
5232.7134581472
 10
6783.5161007019
 20
5232.7193952181
 10
6783.4952578804
 20
5232.7286431603
 10
6783.4739760857
 20
5232.7410112193
  0
LWPOLYLINE
  5
176
330
1F
100
AcDbEntity
  8
0
  6
Continuous
 62
     7
370
    25
100
AcDbPolyline
 90
        7
 70
   128
 43
0.0
 10
6783.6095776529
 20
5232.7352313972
 10
6782.2220421501
 20
5231.6279653039
 10
6780.8527118214
 20
5230.5369569835
 10
6779.69313484
 20
5229.6142470166
 10
6778.5911327022
 20
5228.7382586542
 10
6778.349694772
 20
5228.5464429403
 10
6778.3483879661
 20
5228.5454073892
  0
LINE
  5
177
330
1F
100
AcDbEntity
  8
0
  6
Continuous
 62
     7
370
    25
100
AcDbLine
 10
6807.0921921155
 20
5232.5854386473
 30
0.0
 11
6812.5453127523
 21
5234.2577289759
 31
0.0
  0
LINE
  5
178
330
1F
100
AcDbEntity
  8
0
  6
Continuous
 62
     7
370
    25
100
AcDbLine
 10
6807.0921921155
 20
5232.5854386473
 30
0.0
 11
6806.0660272654
 21
5235.931628376
 31
0.0
  0
LINE
  5
179
330
1F
100
AcDbEntity
  8
0
  6
Continuous
 62
     7
370
    25
100
AcDbLine
 10
6806.0660272654
 20
5235.931628376
 30
0.0
 11
6796.9871498893
 21
5233.147439314
 31
0.0
  0
LINE
  5
17A
330
1F
100
AcDbEntity
  8
0
  6
Continuous
 62
     7
370
    25
100
AcDbLine
 10
6796.9871498893
 20
5233.147439314
 30
0.0
 11
6798.0133147394
 21
5229.8012495853
 31
0.0
  0
LINE
  5
17B
330
1F
100
AcDbEntity
  8
0
  6
Continuous
 62
     7
370
    25
100
AcDbLine
 10
6789.6000117556
 20
5227.2211700036
 30
0.0
 11
6798.0133147394
 21
5229.8012495853
 31
0.0
  0
LWPOLYLINE
  5
17C
330
1F
100
AcDbEntity
  8
0
  6
Continuous
 62
     7
370
    25
100
AcDbPolyline
 90
        3
 70
   128
 43
0.0
 10
6798.0133147394
 20
5229.8012495853
 10
6799.3429628918
 20
5229.9644529162
 10
6802.6993484061
 20
5230.7153170122
  0
LINE
  5
17D
330
1F
100
AcDbEntity
  8
0
  6
Continuous
 62
     7
370
    25
100
AcDbLine
 10
6790.7026609424
 20
5227.0363328567
 30
0.0
 11
6802.6993484061
 21
5230.7153170122
 31
0.0
  0
LWPOLYLINE
  5
17E
330
1F
100
AcDbEntity
  8
0
  6
Continuous
 62
     7
370
    25
100
AcDbPolyline
 90
        3
 70
   128
 43
0.0
 10
6802.6993484061
 20
5230.7153170122
 10
6806.7977066431
 20
5232.4279739864
 10
6807.0921921155
 20
5232.5854386473
  0
LINE
  5
17F
330
1F
100
AcDbEntity
  8
0
  6
Continuous
 62
     7
370
    25
100
AcDbLine
 10
6802.6993484061
 20
5230.7153170122
 30
0.0
 11
6811.7358535227
 21
5233.4865119146
 31
0.0
  0
LWPOLYLINE
  5
180
330
1F
100
AcDbEntity
  8
0
  6
Continuous
 62
     7
370
    25
100
AcDbPolyline
 90
        9
 70
   128
 43
0.0
 10
6604.0585945951
 20
5225.1098946789
 10
6604.0682019549
 20
5225.081788446
 10
6604.0966548289
 20
5225.05476232
 10
6604.142859789
 20
5225.0298548995
 10
6604.2050412045
 20
5225.0080233629
 10
6604.2808094786
 20
5224.9901066839
 10
6604.3672528789
 20
5224.9767933903
 10
6604.4610494341
 20
5224.9685951046
 10
6604.5585945951
 20
5224.9658268823
  0
LINE
  5
181
330
1F
100
AcDbEntity
  8
0
  6
Continuous
 62
     7
370
    25
100
AcDbLine
 10
6604.5585945951
 20
5224.9658268823
 30
0.0
 11
6604.5585945951
 21
5220.4418270313
 31
0.0
  0
LINE
  5
182
330
1F
100
AcDbEntity
  8
0
  6
Continuous
 62
     7
370
    25
100
AcDbLine
 10
6604.5585945951
 20
5220.4418270313
 30
0.0
 11
6607.2585945951
 21
5220.4418270313
 31
0.0
  0
LWPOLYLINE
  5
183
330
1F
100
AcDbEntity
  8
0
  6
Continuous
 62
     7
370
    25
100
AcDbPolyline
 90
       11
 70
   128
 43
0.0
 10
6591.2585945951
 20
5262.5638609296
 10
6591.530604601
 20
5262.4979291481
 10
6592.3116774951
 20
5262.3281040461
 10
6593.5399991403
 20
5262.1209400932
 10
6595.1000590294
 20
5261.9664813857
 10
6596.7659641193
 20
5261.9386503722
 10
6598.3359305325
 20
5262.0425566113
 10
6599.6926574146
 20
5262.2325935002
 10
6600.703122732
 20
5262.4329327748
 10
6601.2128482768
 20
5262.5525301125
 10
6601.1919892751
 20
5262.5474108351
  0
LINE
  5
184
330
1F
100
AcDbEntity
  8
0
  6
Continuous
 62
     7
370
    25
100
AcDbLine
 10
6609.2585945951
 20
5260.5638609296
 30
0.0
 11
6609.2585945951
 21
5256.4638609296
 31
0.0
  0
LINE
  5
185
330
1F
100
AcDbEntity
  8
0
  6
Continuous
 62
     7
370
    25
100
AcDbLine
 10
6609.2585945951
 20
5228.4638609296
 30
0.0
 11
6609.2585945951
 21
5221.0180982177
 31
0.0
  0
LWPOLYLINE
  5
186
330
1F
100
AcDbEntity
  8
0
  6
Continuous
 62
     7
370
    25
100
AcDbPolyline
 90
        9
 70
   128
 43
0.0
 10
6609.2585945951
 20
5221.0180982177
 10
6609.2201651559
 20
5220.9056732864
 10
6609.1063536601
 20
5220.7975687821
 10
6608.9215338197
 20
5220.6979391004
 10
6608.6728081575
 20
5220.610612954
 10
6608.3697350612
 20
5220.5389462377
 10
6608.0239614598
 20
5220.4856930634
 10
6607.6487752392
 20
5220.4528999205
 10
6607.2585945951
 20
5220.4418270313
  0
LINE
  5
187
330
1F
100
AcDbEntity
  8
0
  6
Continuous
 62
     7
370
    25
100
AcDbLine
 10
6604.0585945951
 20
5220.5858948279
 30
0.0
 11
6604.0585945951
 21
5225.1098946789
 31
0.0
  0
LWPOLYLINE
  5
188
330
1F
100
AcDbEntity
  8
0
  6
Continuous
 62
     7
370
    25
100
AcDbPolyline
 90
        9
 70
   128
 43
0.0
 10
6604.0585945951
 20
5220.5858948279
 10
6604.0682019549
 20
5220.557788595
 10
6604.0966548289
 20
5220.530762469
 10
6604.142859789
 20
5220.5058550485
 10
6604.2050412045
 20
5220.4840235119
 10
6604.2808094786
 20
5220.4661068329
 10
6604.3672528789
 20
5220.4527935393
 10
6604.4610494341
 20
5220.4445952536
 10
6604.5585945951
 20
5220.4418270313
  0
LINE
  5
189
330
1F
100
AcDbEntity
  8
0
  6
Continuous
 62
     7
370
    25
100
AcDbLine
 10
6604.0585945951
 20
5210.2638609296
 30
0.0
 11
6604.0585945951
 21
5220.5858948279
 31
0.0
  0
LINE
  5
18A
330
1F
100
AcDbEntity
  8
0
  6
Continuous
 62
     7
370
    25
100
AcDbLine
 10
6609.2585945951
 20
5221.0180982177
 30
0.0
 11
6609.2585945951
 21
5211.7638609296
 31
0.0
  0
LINE
  5
18B
330
1F
100
AcDbEntity
  8
0
  6
Continuous
 62
     7
370
    25
100
AcDbLine
 10
6555.2585945952
 20
5214.1638609296
 30
0.0
 11
6555.2585945952
 21
5228.6638609296
 31
0.0
  0
LINE
  5
18C
330
1F
100
AcDbEntity
  8
0
  6
Continuous
 62
     7
370
    25
100
AcDbLine
 10
6555.2585945952
 20
5256.2638609296
 30
0.0
 11
6555.2585945952
 21
5270.7638609296
 31
0.0
  0
LINE
  5
18D
330
1F
100
AcDbEntity
  8
0
  6
Continuous
 62
     7
370
    25
100
AcDbLine
 10
6558.2585945952
 20
5214.1638609296
 30
0.0
 11
6558.2585945952
 21
5228.4638609296
 31
0.0
  0
LINE
  5
18E
330
1F
100
AcDbEntity
  8
0
  6
Continuous
 62
     7
370
    25
100
AcDbLine
 10
6558.2585945952
 20
5256.4638609296
 30
0.0
 11
6558.2585945952
 21
5270.7638609296
 31
0.0
  0
LINE
  5
18F
330
1F
100
AcDbEntity
  8
0
  6
Continuous
 62
     7
370
    25
100
AcDbLine
 10
6555.2585945952
 20
5168.2138609296
 30
0.0
 11
6555.2331620333
 21
5168.2138609296
 31
0.0
  0
LINE
  5
190
330
1F
100
AcDbEntity
  8
0
  6
Continuous
 62
     7
370
    25
100
AcDbLine
 10
6555.2585945952
 20
5171.7138609296
 30
0.0
 11
6555.2585945952
 21
5168.2138609296
 31
0.0
  0
LINE
  5
191
330
1F
100
AcDbEntity
  8
0
  6
Continuous
 62
     7
370
    25
100
AcDbLine
 10
6555.2585945952
 20
5187.2138609296
 30
0.0
 11
6555.2585945952
 21
5171.7138609296
 31
0.0
  0
LINE
  5
192
330
1F
100
AcDbEntity
  8
0
  6
Continuous
 62
     7
370
    25
100
AcDbLine
 10
6555.2331620333
 20
5190.7138609296
 30
0.0
 11
6555.2585945952
 21
5190.7138609296
 31
0.0
  0
LINE
  5
193
330
1F
100
AcDbEntity
  8
0
  6
Continuous
 62
     7
370
    25
100
AcDbLine
 10
6555.2585945952
 20
5190.7138609296
 30
0.0
 11
6555.2585945952
 21
5187.2138609296
 31
0.0
  0
LINE
  5
194
330
1F
100
AcDbEntity
  8
0
  6
Continuous
 62
     7
370
    25
100
AcDbLine
 10
6463.7380945952
 20
5123.9638609296
 30
0.0
 11
6490.1790945952
 21
5123.9638609296
 31
0.0
  0
LINE
  5
195
330
1F
100
AcDbEntity
  8
0
  6
Continuous
 62
     7
370
    25
100
AcDbLine
 10
6469.1061420965
 20
5128.964151041
 30
0.0
 11
6463.7380945952
 21
5128.964151041
 31
0.0
  0
LINE
  5
196
330
1F
100
AcDbEntity
  8
0
  6
Continuous
 62
     7
370
    25
100
AcDbLine
 10
6490.1790945952
 20
5128.964151041
 30
0.0
 11
6469.1061420965
 21
5128.964151041
 31
0.0
  0
LINE
  5
197
330
1F
100
AcDbEntity
  8
0
  6
Continuous
 62
     7
370
    25
100
AcDbLine
 10
6463.7380945952
 20
5131.9635708182
 30
0.0
 11
6490.1790945952
 21
5131.9635708182
 31
0.0
  0
LINE
  5
198
330
1F
100
AcDbEntity
  8
0
  6
Continuous
 62
     7
370
    25
100
AcDbLine
 10
6489.1790945952
 20
5122.9638609296
 30
0.0
 11
6464.7380945952
 21
5122.9638609296
 31
0.0
  0
LWPOLYLINE
  5
199
330
1F
100
AcDbEntity
  8
0
  6
Continuous
 62
     7
370
    25
100
AcDbPolyline
 90
        3
 70
   128
 43
0.0
 10
6487.8020043988
 20
5140.9638609296
 10
6485.4182801562
 20
5141.8063685992
 10
6484.7474610209
 20
5141.9638609296
  0
LINE
  5
19A
330
1F
100
AcDbEntity
  8
0
  6
Continuous
 62
     7
370
    25
100
AcDbLine
 10
6487.8020043988
 20
5132.5412111988
 30
0.0
 11
6487.8020043988
 21
5140.9638609296
 31
0.0
  0
LWPOLYLINE
  5
19B
330
1F
100
AcDbEntity
  8
0
  6
Continuous
 62
     7
370
    25
100
AcDbPolyline
 90
        3
 70
   128
 43
0.0
 10
6484.7474610209
 20
5131.9638609296
 10
6485.0890030038
 20
5132.0074914183
 10
6487.8020043988
 20
5132.5412111988
  0
LINE
  5
19C
330
1F
100
AcDbEntity
  8
0
  6
Continuous
 62
     7
370
    25
100
AcDbLine
 10
6476.9079586587
 20
5132.5412111988
 30
0.0
 11
6479.9625020366
 21
5131.9638609296
 31
0.0
  0
LINE
  5
19D
330
1F
100
AcDbEntity
  8
0
  6
Continuous
 62
     7
370
    25
100
AcDbLine
 10
6476.9079586587
 20
5140.9638609296
 30
0.0
 11
6476.9079586587
 21
5132.5412111988
 31
0.0
  0
LINE
  5
19E
330
1F
100
AcDbEntity
  8
0
  6
Continuous
 62
     7
370
    25
100
AcDbLine
 10
6479.9625020366
 20
5141.9638609296
 30
0.0
 11
6476.9079586587
 21
5140.9638609296
 31
0.0
  0
LINE
  5
19F
330
1F
100
AcDbEntity
  8
0
  6
Continuous
 62
     7
370
    25
100
AcDbLine
 10
6484.7474610209
 20
5131.9638609296
 30
0.0
 11
6479.9625020366
 21
5131.9638609296
 31
0.0
  0
LINE
  5
1A0
330
1F
100
AcDbEntity
  8
0
  6
Continuous
 62
     7
370
    25
100
AcDbLine
 10
6473.7207831783
 20
5140.9638609296
 30
0.0
 11
6471.0399220381
 21
5141.9638609296
 31
0.0
  0
LINE
  5
1A1
330
1F
100
AcDbEntity
  8
0
  6
Continuous
 62
     7
370
    25
100
AcDbLine
 10
6473.7207831783
 20
5140.9638609296
 30
0.0
 11
6476.9079586587
 21
5140.9638609296
 31
0.0
  0
LWPOLYLINE
  5
1A2
330
1F
100
AcDbEntity
  8
0
  6
Continuous
 62
     7
370
    25
100
AcDbPolyline
 90
        3
 70
   128
 43
0.0
 10
6471.0399220381
 20
5131.9638609296
 10
6472.230235678
 20
5132.169316881
 10
6473.7207831783
 20
5132.5412111988
  0
LINE
  5
1A3
330
1F
100
AcDbEntity
  8
0
  6
Continuous
 62
     7
370
    25
100
AcDbLine
 10
6473.7207831783
 20
5132.5412111988
 30
0.0
 11
6476.9079586587
 21
5132.5412111988
 31
0.0
  0
LINE
  5
1A4
330
1F
100
AcDbEntity
  8
0
  6
Continuous
 62
     7
370
    25
100
AcDbLine
 10
6471.0399220381
 20
5131.9638609296
 30
0.0
 11
6479.9625020366
 21
5131.9638609296
 31
0.0
  0
LINE
  5
1A5
330
1F
100
AcDbEntity
  8
0
  6
Continuous
 62
     7
370
    25
100
AcDbLine
 10
6473.7207831783
 20
5132.5412111988
 30
0.0
 11
6473.7207831783
 21
5140.9638609296
 31
0.0
  0
LWPOLYLINE
  5
1A6
330
1F
100
AcDbEntity
  8
0
  6
Continuous
 62
     7
370
    25
100
AcDbPolyline
 90
        3
 70
   128
 43
0.0
 10
6464.1594771921
 20
5132.5412111988
 10
6464.873612687
 20
5132.3479644664
 10
6466.8403383323
 20
5131.9638609296
  0
LINE
  5
1A7
330
1F
100
AcDbEntity
  8
0
  6
Continuous
 62
     7
370
    25
100
AcDbLine
 10
6464.1594771921
 20
5140.9638609296
 30
0.0
 11
6464.1594771921
 21
5132.5412111988
 31
0.0
  0
LWPOLYLINE
  5
1A8
330
1F
100
AcDbEntity
  8
0
  6
Continuous
 62
     7
370
    25
100
AcDbPolyline
 90
        3
 70
   128
 43
0.0
 10
6466.8403383323
 20
5141.9638609296
 10
6465.8987761566
 20
5141.6945230548
 10
6464.1594771921
 20
5140.9638609296
  0
LINE
  5
1A9
330
1F
100
AcDbEntity
  8
0
  6
Continuous
 62
     7
370
    25
100
AcDbLine
 10
6471.0399220381
 20
5131.9638609296
 30
0.0
 11
6466.8403383323
 21
5131.9638609296
 31
0.0
  0
LINE
  5
1AA
330
1F
100
AcDbEntity
  8
0
  6
Continuous
 62
     7
370
    25
100
AcDbLine
 10
6490.0807582995
 20
5141.9638609296
 30
0.0
 11
6489.7070760618
 21
5140.9638609296
 31
0.0
  0
LINE
  5
1AB
330
1F
100
AcDbEntity
  8
0
  6
Continuous
 62
     7
370
    25
100
AcDbLine
 10
6487.8020043988
 20
5140.9638609296
 30
0.0
 11
6489.7070760618
 21
5140.9638609296
 31
0.0
  0
LINE
  5
1AC
330
1F
100
AcDbEntity
  8
0
  6
Continuous
 62
     7
370
    25
100
AcDbLine
 10
6489.7070760618
 20
5132.5412111988
 30
0.0
 11
6490.0807582995
 21
5131.9638609296
 31
0.0
  0
LINE
  5
1AD
330
1F
100
AcDbEntity
  8
0
  6
Continuous
 62
     7
370
    25
100
AcDbLine
 10
6487.8020043988
 20
5132.5412111988
 30
0.0
 11
6489.7070760618
 21
5132.5412111988
 31
0.0
  0
LINE
  5
1AE
330
1F
100
AcDbEntity
  8
0
  6
Continuous
 62
     7
370
    25
100
AcDbLine
 10
6484.7474610209
 20
5131.9638609296
 30
0.0
 11
6490.0807582995
 21
5131.9638609296
 31
0.0
  0
LINE
  5
1AF
330
1F
100
AcDbEntity
  8
0
  6
Continuous
 62
     7
370
    25
100
AcDbLine
 10
6489.7070760618
 20
5140.9638609296
 30
0.0
 11
6489.7070760618
 21
5132.5412111988
 31
0.0
  0
LINE
  5
1B0
330
1F
100
AcDbEntity
  8
0
  6
Continuous
 62
     7
370
    25
100
AcDbLine
 10
6462.8773733747
 20
5140.9638609296
 30
0.0
 11
6464.1594771921
 21
5140.9638609296
 31
0.0
  0
LWPOLYLINE
  5
1B1
330
1F
100
AcDbEntity
  8
0
  6
Continuous
 62
     7
370
    25
100
AcDbPolyline
 90
        3
 70
   128
 43
0.0
 10
6462.8773733747
 20
5140.9638609296
 10
6463.1689899271
 20
5141.8063685992
 10
6463.2510556124
 20
5141.9638609296
  0
LINE
  5
1B2
330
1F
100
AcDbEntity
  8
0
  6
Continuous
 62
     7
370
    25
100
AcDbLine
 10
6463.2510556124
 20
5141.9638609296
 30
0.0
 11
6464.7585945952
 21
5141.9638609296
 31
0.0
  0
LWPOLYLINE
  5
1B3
330
1F
100
AcDbEntity
  8
0
  6
Continuous
 62
     7
370
    25
100
AcDbPolyline
 90
        3
 70
   128
 43
0.0
 10
6463.2510556124
 20
5131.9638609296
 10
6463.2092725513
 20
5132.0074914183
 10
6462.8773733747
 20
5132.5412111988
  0
LINE
  5
1B4
330
1F
100
AcDbEntity
  8
0
  6
Continuous
 62
     7
370
    25
100
AcDbLine
 10
6462.8773733747
 20
5132.5412111988
 30
0.0
 11
6464.1594771921
 21
5132.5412111988
 31
0.0
  0
LINE
  5
1B5
330
1F
100
AcDbEntity
  8
0
  6
Continuous
 62
     7
370
    25
100
AcDbLine
 10
6463.2510556124
 20
5131.9638609296
 30
0.0
 11
6466.8403383323
 21
5131.9638609296
 31
0.0
  0
LWPOLYLINE
  5
1B6
330
1F
100
AcDbEntity
  8
0
  6
Continuous
 62
     7
370
    25
100
AcDbPolyline
 90
        3
 70
   128
 43
0.0
 10
6491.0398158156
 20
5140.9638609296
 10
6490.7481992632
 20
5141.8063685992
 10
6490.6661335779
 20
5141.9638609296
  0
LINE
  5
1B7
330
1F
100
AcDbEntity
  8
0
  6
Continuous
 62
     7
370
    25
100
AcDbLine
 10
6491.0398158156
 20
5132.5412111988
 30
0.0
 11
6491.0398158156
 21
5140.9638609296
 31
0.0
  0
LWPOLYLINE
  5
1B8
330
1F
100
AcDbEntity
  8
0
  6
Continuous
 62
     7
370
    25
100
AcDbPolyline
 90
        3
 70
   128
 43
0.0
 10
6490.6661335779
 20
5131.9638609296
 10
6490.707916639
 20
5132.0074914183
 10
6491.0398158156
 20
5132.5412111988
  0
LINE
  5
1B9
330
1F
100
AcDbEntity
  8
0
  6
Continuous
 62
     7
370
    25
100
AcDbLine
 10
6490.6661335779
 20
5131.9638609296
 30
0.0
 11
6490.0807582995
 21
5131.9638609296
 31
0.0
  0
LINE
  5
1BA
330
1F
100
AcDbEntity
  8
0
  6
Continuous
 62
     7
370
    25
100
AcDbLine
 10
6462.8773733747
 20
5132.5412111988
 30
0.0
 11
6462.8773733747
 21
5140.9638609296
 31
0.0
  0
LWPOLYLINE
  5
1BB
330
1F
100
AcDbEntity
  8
0
  6
Continuous
 62
     7
370
    25
100
AcDbPolyline
 90
        3
 70
   128
 43
0.0
 10
6491.4510185783
 20
5140.9638609296
 10
6490.8644868559
 20
5141.8063685992
 10
6490.8156528888
 20
5141.8529637242
  0
LINE
  5
1BC
330
1F
100
AcDbEntity
  8
0
  6
Continuous
 62
     7
370
    25
100
AcDbLine
 10
6491.4510185783
 20
5132.5412111988
 30
0.0
 11
6491.4510185783
 21
5140.9638609296
 31
0.0
  0
LWPOLYLINE
  5
1BD
330
1F
100
AcDbEntity
  8
0
  6
Continuous
 62
     7
370
    25
100
AcDbPolyline
 90
        3
 70
   128
 43
0.0
 10
6490.6994272002
 20
5131.9638609296
 10
6490.783465951
 20
5132.0074914183
 10
6491.4510185783
 20
5132.5412111988
  0
LINE
  5
1BE
330
1F
100
AcDbEntity
  8
0
  6
Continuous
 62
     7
370
    25
100
AcDbLine
 10
6462.466170612
 20
5140.9638609296
 30
0.0
 11
6462.7948578182
 21
5140.9638609296
 31
0.0
  0
LWPOLYLINE
  5
1BF
330
1F
100
AcDbEntity
  8
0
  6
Continuous
 62
     7
370
    25
100
AcDbPolyline
 90
        3
 70
   128
 43
0.0
 10
6462.466170612
 20
5140.9638609296
 10
6463.0527023344
 20
5141.8063685992
 10
6463.1015363015
 20
5141.8529637242
  0
LINE
  5
1C0
330
1F
100
AcDbEntity
  8
0
  6
Continuous
 62
     7
370
    25
100
AcDbLine
 10
6463.2085945952
 20
5141.9638609296
 30
0.0
 11
6463.2510556124
 21
5141.9638609296
 31
0.0
  0
LWPOLYLINE
  5
1C1
330
1F
100
AcDbEntity
  8
0
  6
Continuous
 62
     7
370
    25
100
AcDbPolyline
 90
        3
 70
   128
 43
0.0
 10
6463.2177619901
 20
5131.9638609296
 10
6463.1337232394
 20
5132.0074914183
 10
6462.466170612
 20
5132.5412111988
  0
LINE
  5
1C2
330
1F
100
AcDbEntity
  8
0
  6
Continuous
 62
     7
370
    25
100
AcDbLine
 10
6462.466170612
 20
5132.5412111988
 30
0.0
 11
6462.7948578182
 21
5132.5412111988
 31
0.0
  0
LINE
  5
1C3
330
1F
100
AcDbEntity
  8
0
  6
Continuous
 62
     7
370
    25
100
AcDbLine
 10
6463.2177619901
 20
5131.9638609296
 30
0.0
 11
6463.2510556124
 21
5131.9638609296
 31
0.0
  0
LINE
  5
1C4
330
1F
100
AcDbEntity
  8
0
  6
Continuous
 62
     7
370
    25
100
AcDbLine
 10
6462.466170612
 20
5132.5412111988
 30
0.0
 11
6462.466170612
 21
5140.9638609296
 31
0.0
  0
LINE
  5
1C5
330
1F
100
AcDbEntity
  8
0
  6
Continuous
 62
     7
370
    25
100
AcDbLine
 10
6568.2585945951
 20
5256.4638609296
 30
0.0
 11
6568.2585945951
 21
5265.7138609296
 31
0.0
  0
LINE
  5
1C6
330
1F
100
AcDbEntity
  8
0
  6
Continuous
 62
     7
370
    25
100
AcDbLine
 10
6568.2585945951
 20
5219.2138609296
 30
0.0
 11
6568.2585945951
 21
5228.4638609296
 31
0.0
  0
LINE
  5
1C7
330
1F
100
AcDbEntity
  8
0
  6
Continuous
 62
     7
370
    25
100
AcDbLine
 10
6464.7585945952
 20
5295.2567541484
 30
0.0
 11
6542.9585945952
 21
5295.2567541484
 31
0.0
  0
LINE
  5
1C8
330
1F
100
AcDbEntity
  8
0
  6
Continuous
 62
     7
370
    25
100
AcDbLine
 10
6542.9585945952
 20
5293.9567541484
 30
0.0
 11
6542.9585945952
 21
5295.2567541484
 31
0.0
  0
LINE
  5
1C9
330
1F
100
AcDbEntity
  8
0
  6
Continuous
 62
     7
370
    25
100
AcDbLine
 10
6542.9585945952
 20
5276.9638609296
 30
0.0
 11
6542.9585945952
 21
5293.9567541484
 31
0.0
  0
LINE
  5
1CA
330
1F
100
AcDbEntity
  8
0
  6
Continuous
 62
     7
370
    25
100
AcDbLine
 10
6542.9585945952
 20
5276.9638609296
 30
0.0
 11
6542.9585945952
 21
5161.9638609296
 31
0.0
  0
LINE
  5
1CB
330
1F
100
AcDbEntity
  8
0
  6
Continuous
 62
     7
370
    25
100
AcDbLine
 10
6542.9585945952
 20
5144.9709677108
 30
0.0
 11
6542.9585945952
 21
5161.9638609296
 31
0.0
  0
LINE
  5
1CC
330
1F
100
AcDbEntity
  8
0
  6
Continuous
 62
     7
370
    25
100
AcDbLine
 10
6542.9585945952
 20
5143.6709677108
 30
0.0
 11
6542.9585945952
 21
5144.9709677108
 31
0.0
  0
LINE
  5
1CD
330
1F
100
AcDbEntity
  8
0
  6
Continuous
 62
     7
370
    25
100
AcDbLine
 10
6464.7585945952
 20
5143.6709677108
 30
0.0
 11
6542.9585945952
 21
5143.6709677108
 31
0.0
  0
LINE
  5
1CE
330
1F
100
AcDbEntity
  8
0
  6
Continuous
 62
     7
370
    25
100
AcDbLine
 10
6464.7585945952
 20
5143.6709677108
 30
0.0
 11
6464.7585945952
 21
5295.2567541484
 31
0.0
  0
LINE
  5
1CF
330
1F
100
AcDbEntity
  8
0
  6
Continuous
 62
     7
370
    25
100
AcDbLine
 10
6544.7585945952
 20
5161.9638609296
 30
0.0
 11
6544.7585945952
 21
5144.9709677108
 31
0.0
  0
LINE
  5
1D0
330
1F
100
AcDbEntity
  8
0
  6
Continuous
 62
     7
370
    25
100
AcDbLine
 10
6544.7585945952
 20
5144.9709677108
 30
0.0
 11
6542.9585945952
 21
5144.9709677108
 31
0.0
  0
LINE
  5
1D1
330
1F
100
AcDbEntity
  8
0
  6
Continuous
 62
     7
370
    25
100
AcDbLine
 10
6542.9585945952
 20
5161.9638609296
 30
0.0
 11
6544.7585945952
 21
5161.9638609296
 31
0.0
  0
LINE
  5
1D2
330
1F
100
AcDbEntity
  8
0
  6
Continuous
 62
     7
370
    25
100
AcDbLine
 10
6542.9585945952
 20
5293.9567541484
 30
0.0
 11
6544.7585945952
 21
5293.9567541484
 31
0.0
  0
LINE
  5
1D3
330
1F
100
AcDbEntity
  8
0
  6
Continuous
 62
     7
370
    25
100
AcDbLine
 10
6544.7585945952
 20
5293.9567541484
 30
0.0
 11
6544.7585945952
 21
5276.9638609296
 31
0.0
  0
LINE
  5
1D4
330
1F
100
AcDbEntity
  8
0
  6
Continuous
 62
     7
370
    25
100
AcDbLine
 10
6544.7585945952
 20
5276.9638609296
 30
0.0
 11
6542.9585945952
 21
5276.9638609296
 31
0.0
  0
ARC
  5
1D5
330
1F
100
AcDbEntity
  8
0
  6
Continuous
 62
     7
370
    25
100
AcDbCircle
 10
6464.817022086
 20
5276.6387744862
 30
0.0
 40
18.61807134139595
100
AcDbArc
 50
90.1798067087
 51
95.7287175669
  0
ARC
  5
1D6
330
1F
100
AcDbEntity
  8
0
  6
Continuous
 62
     7
370
    25
100
AcDbCircle
 10
6464.8170220861
 20
5162.2889473739
 30
0.0
 40
18.61807134229467
100
AcDbArc
 50
264.2712824333
 51
269.8201932912
  0
LINE
  5
1D7
330
1F
100
AcDbEntity
  8
0
  6
Continuous
 62
     7
370
    25
100
AcDbLine
 10
6462.9585945952
 20
5143.7638609296
 30
0.0
 11
6462.9585945952
 21
5295.1638609296
 31
0.0
  0
LINE
  5
1D8
330
1F
100
AcDbEntity
  8
0
  6
Continuous
 62
     7
370
    25
100
AcDbLine
 10
6464.7585945952
 20
5296.9638609296
 30
0.0
 11
6464.7585945952
 21
5295.9638609296
 31
0.0
  0
ARC
  5
1D9
330
1F
100
AcDbEntity
  8
0
  6
Continuous
 62
     7
370
    25
100
AcDbCircle
 10
6464.7585945952
 20
5295.1638609296
 30
0.0
 40
0.8000000000010914
100
AcDbArc
 50
90.0
 51
180.0
  0
ARC
  5
1DA
330
1F
100
AcDbEntity
  8
0
  6
Continuous
 62
     7
370
    25
100
AcDbCircle
 10
6464.7585945952
 20
5295.1638609296
 30
0.0
 40
1.799999999999272
100
AcDbArc
 50
90.0
 51
180.0
  0
LINE
  5
1DB
330
1F
100
AcDbEntity
  8
0
  6
Continuous
 62
     7
370
    25
100
AcDbLine
 10
6464.7585945952
 20
5295.9638609296
 30
0.0
 11
6542.9585945952
 21
5295.9638609296
 31
0.0
  0
LINE
  5
1DC
330
1F
100
AcDbEntity
  8
0
  6
Continuous
 62
     7
370
    25
100
AcDbLine
 10
6542.9585945952
 20
5296.9638609296
 30
0.0
 11
6542.9585945952
 21
5295.9638609296
 31
0.0
  0
LINE
  5
1DD
330
1F
100
AcDbEntity
  8
0
  6
Continuous
 62
     7
370
    25
100
AcDbLine
 10
6464.7585945952
 20
5296.9638609296
 30
0.0
 11
6542.9585945952
 21
5296.9638609296
 31
0.0
  0
LINE
  5
1DE
330
1F
100
AcDbEntity
  8
0
  6
Continuous
 62
     7
370
    25
100
AcDbLine
 10
6464.7585945952
 20
5141.9638609296
 30
0.0
 11
6464.7585945952
 21
5142.9638609296
 31
0.0
  0
LINE
  5
1DF
330
1F
100
AcDbEntity
  8
0
  6
Continuous
 62
     7
370
    25
100
AcDbLine
 10
6542.9585945952
 20
5141.9638609296
 30
0.0
 11
6542.9585945952
 21
5142.9638609296
 31
0.0
  0
LINE
  5
1E0
330
1F
100
AcDbEntity
  8
0
  6
Continuous
 62
     7
370
    25
100
AcDbLine
 10
6464.7585945952
 20
5142.9638609296
 30
0.0
 11
6542.9585945952
 21
5142.9638609296
 31
0.0
  0
LINE
  5
1E1
330
1F
100
AcDbEntity
  8
0
  6
Continuous
 62
     7
370
    25
100
AcDbLine
 10
6464.7585945952
 20
5141.9638609296
 30
0.0
 11
6542.9585945952
 21
5141.9638609296
 31
0.0
  0
ARC
  5
1E2
330
1F
100
AcDbEntity
  8
0
  6
Continuous
 62
     7
370
    25
100
AcDbCircle
 10
6464.7585945952
 20
5143.7638609296
 30
0.0
 40
1.799999999998363
100
AcDbArc
 50
180.0
 51
270.0000000001
  0
ARC
  5
1E3
330
1F
100
AcDbEntity
  8
0
  6
Continuous
 62
     7
370
    25
100
AcDbCircle
 10
6464.7585945952
 20
5143.7638609296
 30
0.0
 40
0.8000000000010914
100
AcDbArc
 50
179.9999999999
 51
269.9999999999
  0
LINE
  5
1E4
330
1F
100
AcDbEntity
  8
0
  6
Continuous
 62
     7
370
    25
100
AcDbLine
 10
6524.7585945952
 20
5143.1709677108
 30
0.0
 11
6524.7585945952
 21
5143.6709677108
 31
0.0
  0
LINE
  5
1E5
330
1F
100
AcDbEntity
  8
0
  6
Continuous
 62
     7
370
    25
100
AcDbLine
 10
6524.7585945952
 20
5143.1709677108
 30
0.0
 11
6542.9585945952
 21
5143.1709677108
 31
0.0
  0
LINE
  5
1E6
330
1F
100
AcDbEntity
  8
0
  6
Continuous
 62
     7
370
    25
100
AcDbLine
 10
6524.7585945952
 20
5295.7567541484
 30
0.0
 11
6524.7585945952
 21
5295.2567541484
 31
0.0
  0
LINE
  5
1E7
330
1F
100
AcDbEntity
  8
0
  6
Continuous
 62
     7
370
    25
100
AcDbLine
 10
6542.9585945952
 20
5295.7567541484
 30
0.0
 11
6524.7585945952
 21
5295.7567541484
 31
0.0
  0
ARC
  5
1E8
330
1F
100
AcDbEntity
  8
0
  6
Continuous
 62
     7
370
    25
100
AcDbCircle
 10
6542.9585945952
 20
5144.9709677108
 30
0.0
 40
0.8000000000001819
100
AcDbArc
 50
270.0
 51
0.0
  0
ARC
  5
1E9
330
1F
100
AcDbEntity
  8
0
  6
Continuous
 62
     7
370
    25
100
AcDbCircle
 10
6542.9585945952
 20
5144.9709677108
 30
0.0
 40
1.800000000000182
100
AcDbArc
 50
270.0
 51
0.0
  0
ARC
  5
1EA
330
1F
100
AcDbEntity
  8
0
  6
Continuous
 62
     7
370
    25
100
AcDbCircle
 10
6542.9585945952
 20
5293.9567541484
 30
0.0
 40
1.800000000000182
100
AcDbArc
 50
0.0
 51
90.0
  0
ARC
  5
1EB
330
1F
100
AcDbEntity
  8
0
  6
Continuous
 62
     7
370
    25
100
AcDbCircle
 10
6542.9585945952
 20
5293.9567541484
 30
0.0
 40
0.8000000000010914
100
AcDbArc
 50
0.0
 51
90.0
  0
LINE
  5
1EC
330
1F
100
AcDbEntity
  8
0
  6
Continuous
 62
     8
370
    25
100
AcDbLine
 10
6555.4585945952
 20
5242.4638609296
 30
0.0
 11
6555.4585945952
 21
5228.4638609296
 31
0.0
  0
LINE
  5
1ED
330
1F
100
AcDbEntity
  8
0
  6
Continuous
 62
     8
370
    25
100
AcDbLine
 10
6555.4585945952
 20
5256.4638609296
 30
0.0
 11
6555.4585945952
 21
5242.4638609296
 31
0.0
  0
LWPOLYLINE
  5
1EE
330
1F
100
AcDbEntity
  8
0
  6
Continuous
 62
     8
370
    25
100
AcDbPolyline
 90
       12
 70
   128
 43
0.0
 10
6561.6485945952
 20
5228.4638609296
 10
6561.6600702493
 20
5228.4657965508
 10
6561.8605958664
 20
5228.498096389
 10
6562.2914086761
 20
5228.5576752757
 10
6562.9131326589
 20
5228.6197632739
 10
6563.6544426628
 20
5228.6564496201
 10
6564.4209081708
 20
5228.6513612059
 10
6565.1293906449
 20
5228.6077957733
 10
6565.7122532798
 20
5228.5442036053
 10
6566.1024636503
 20
5228.4878046174
 10
6566.2334827466
 20
5228.4664079106
 10
6566.2197329278
 20
5228.4686982945
  0
LINE
  5
1EF
330
1F
100
AcDbEntity
  8
0
  6
Continuous
 62
     8
370
    25
100
AcDbLine
 10
6815.0585945952
 20
5242.6138636513
 30
0.0
 11
6815.0585945952
 21
5256.4638609296
 31
0.0
  0
LWPOLYLINE
  5
1F0
330
1F
100
AcDbEntity
  8
0
  6
Continuous
 62
     8
370
    25
100
AcDbPolyline
 90
        3
 70
   128
 43
0.0
 10
6604.0585945951
 20
5225.1098946789
 10
6603.8314364847
 20
5227.646413278
 10
6603.6472144375
 20
5228.4638609296
  0
LWPOLYLINE
  5
1F1
330
1F
100
AcDbEntity
  8
0
  6
Continuous
 62
     8
370
    25
100
AcDbPolyline
 90
        3
 70
   128
 43
0.0
 10
6604.0785398653
 20
5228.4638609296
 10
6604.2883590816
 20
5227.640228356
 10
6604.5585945951
 20
5224.9658268823
  0
LINE
  5
1F2
330
1F
100
AcDbEntity
  8
0
  6
Continuous
 62
     8
370
    25
100
AcDbLine
 10
6607.2585945951
 20
5220.4418270313
 30
0.0
 11
6607.2585945951
 21
5228.4638609296
 31
0.0
  0
LINE
  5
1F3
330
1F
100
AcDbEntity
  8
0
  6
Continuous
 62
     8
370
    25
100
AcDbLine
 10
6601.0585945951
 20
5222.3638609296
 30
0.0
 11
6601.0585945951
 21
5228.4638609296
 31
0.0
  0
LINE
  5
1F4
330
1F
100
AcDbEntity
  8
0
  6
Continuous
 62
     8
370
    25
100
AcDbLine
 10
6607.2585945951
 20
5256.4638609296
 30
0.0
 11
6607.2585945951
 21
5262.5638609296
 31
0.0
  0
LINE
  5
1F5
330
1F
100
AcDbEntity
  8
0
  6
Continuous
 62
     8
370
    25
100
AcDbLine
 10
6604.5585945951
 20
5220.4418270313
 30
0.0
 11
6604.5585945951
 21
5209.7638609296
 31
0.0
  0
LINE
  5
1F6
330
1F
100
AcDbEntity
  8
0
  6
Continuous
 62
     8
370
    25
100
AcDbLine
 10
6607.2585945951
 20
5209.7638609296
 30
0.0
 11
6607.2585945951
 21
5220.4418270313
 31
0.0
  0
LINE
  5
1F7
330
1F
100
AcDbEntity
  8
0
  6
Continuous
 62
     8
370
    25
100
AcDbLine
 10
6601.2585945951
 20
5265.5375268906
 30
0.0
 11
6591.2585945951
 21
5265.5375268906
 31
0.0
  0
LINE
  5
1F8
330
1F
100
AcDbEntity
  8
0
  6
Continuous
 62
     8
370
    25
100
AcDbLine
 10
6591.6432099797
 20
5266.024031146
 30
0.0
 11
6600.8739792105
 21
5266.024031146
 31
0.0
  0
LINE
  5
1F9
330
1F
100
AcDbEntity
  8
0
  6
Continuous
 62
     8
370
    25
100
AcDbLine
 10
6555.4585945952
 20
5213.9638609296
 30
0.0
 11
6555.4585945952
 21
5228.4638609296
 31
0.0
  0
LINE
  5
1FA
330
1F
100
AcDbEntity
  8
0
  6
Continuous
 62
     8
370
    25
100
AcDbLine
 10
6555.4585945952
 20
5256.4638609296
 30
0.0
 11
6555.4585945952
 21
5270.9638609296
 31
0.0
  0
LINE
  5
1FB
330
1F
100
AcDbEntity
  8
0
  6
Continuous
 62
     8
370
    25
100
AcDbLine
 10
6558.0585945952
 20
5213.9638609296
 30
0.0
 11
6558.0585945952
 21
5228.4638609296
 31
0.0
  0
LINE
  5
1FC
330
1F
100
AcDbEntity
  8
0
  6
Continuous
 62
     8
370
    25
100
AcDbLine
 10
6558.0585945952
 20
5256.4638609296
 30
0.0
 11
6558.0585945952
 21
5270.9638609296
 31
0.0
  0
LINE
  5
1FD
330
1F
100
AcDbEntity
  8
0
  6
Continuous
 62
     8
370
    25
100
AcDbLine
 10
6555.2331620333
 20
5171.7138609296
 30
0.0
 11
6555.2585945952
 21
5171.7138609296
 31
0.0
  0
LINE
  5
1FE
330
1F
100
AcDbEntity
  8
0
  6
Continuous
 62
     8
370
    25
100
AcDbLine
 10
6555.2585945952
 20
5187.2138609296
 30
0.0
 11
6555.2331620333
 21
5187.2138609296
 31
0.0
  0
LINE
  5
1FF
330
1F
100
AcDbEntity
  8
0
  6
Continuous
 62
     8
370
    25
100
AcDbLine
 10
6542.9585945952
 20
5143.6709677108
 30
0.0
 11
6542.9585945952
 21
5143.1709677108
 31
0.0
  0
LINE
  5
200
330
1F
100
AcDbEntity
  8
0
  6
Continuous
 62
     8
370
    25
100
AcDbLine
 10
6542.9585945952
 20
5295.2567541484
 30
0.0
 11
6542.9585945952
 21
5295.7567541484
 31
0.0
  0
LINE
  5
201
330
1F
100
AcDbEntity
  8
0
  6
Continuous
 62
     7
370
    25
100
AcDbLine
 10
6248.0432098457
 20
4669.5694456264
 30
0.0
 11
6248.0432098457
 21
4928.687294021
 31
0.0
  0
LINE
  5
202
330
1F
100
AcDbEntity
  8
0
  6
Continuous
 62
     7
370
    25
100
AcDbLine
 10
6220.0432098457
 20
4928.687294021
 30
0.0
 11
6220.0432098457
 21
4669.5694456264
 31
0.0
  0
ARC
  5
203
330
1F
100
AcDbEntity
  8
0
  6
Continuous
 62
     7
370
    25
100
AcDbCircle
 10
6220.2432098457
 20
4928.687294021
 30
0.0
 40
0.1999999999989086
100
AcDbArc
 50
90.0
 51
180.0
  0
ARC
  5
204
330
1F
100
AcDbEntity
  8
0
  6
Continuous
 62
     7
370
    25
100
AcDbCircle
 10
6247.8432098457
 20
4928.687294021
 30
0.0
 40
0.1999999999989086
100
AcDbArc
 50
0.0
 51
90.0
  0
LINE
  5
205
330
1F
100
AcDbEntity
  8
0
  6
Continuous
 62
     7
370
    25
100
AcDbLine
 10
6293.9432098457
 20
4915.887294021
 30
0.0
 11
6293.9432098457
 21
4876.887294021
 31
0.0
  0
LINE
  5
206
330
1F
100
AcDbEntity
  8
0
  6
Continuous
 62
     7
370
    25
100
AcDbLine
 10
6334.1432098457
 20
4876.887294021
 30
0.0
 11
6334.1432098457
 21
4915.887294021
 31
0.0
  0
ARC
  5
207
330
1F
100
AcDbEntity
  8
0
  6
Continuous
 62
     7
370
    25
100
AcDbCircle
 10
6332.1432098457
 20
4876.887294021
 30
0.0
 40
2.0
100
AcDbArc
 50
270.0
 51
0.0
  0
ARC
  5
208
330
1F
100
AcDbEntity
  8
0
  6
Continuous
 62
     7
370
    25
100
AcDbCircle
 10
6295.9432098457
 20
4876.887294021
 30
0.0
 40
2.0
100
AcDbArc
 50
180.0
 51
270.0
  0
ARC
  5
209
330
1F
100
AcDbEntity
  8
0
  6
Continuous
 62
     7
370
    25
100
AcDbCircle
 10
6285.7432098457
 20
4928.687294021
 30
0.0
 40
0.1999999999998181
100
AcDbArc
 50
90.0
 51
180.0
  0
ARC
  5
20A
330
1F
100
AcDbEntity
  8
0
  6
Continuous
 62
     7
370
    25
100
AcDbCircle
 10
6342.3432098457
 20
4928.687294021
 30
0.0
 40
0.1999999999998181
100
AcDbArc
 50
0.0
 51
90.0
  0
LINE
  5
20B
330
1F
100
AcDbEntity
  8
0
  6
Continuous
 62
     7
370
    25
100
AcDbLine
 10
6285.5432098457
 20
4928.687294021
 30
0.0
 11
6285.5432098457
 21
4926.087294021
 31
0.0
  0
LINE
  5
20C
330
1F
100
AcDbEntity
  8
0
  6
Continuous
 62
     7
370
    25
100
AcDbLine
 10
6342.5432098457
 20
4926.087294021
 30
0.0
 11
6342.5432098457
 21
4928.687294021
 31
0.0
  0
ARC
  5
20D
330
1F
100
AcDbEntity
  8
0
  6
Continuous
 62
     7
370
    25
100
AcDbCircle
 10
6285.7432098457
 20
4926.087294021
 30
0.0
 40
0.1999999999998181
100
AcDbArc
 50
180.0
 51
270.0
  0
ARC
  5
20E
330
1F
100
AcDbEntity
  8
0
  6
Continuous
 62
     7
370
    25
100
AcDbCircle
 10
6342.3432098457
 20
4926.087294021
 30
0.0
 40
0.1999999999998181
100
AcDbArc
 50
270.0
 51
0.0
  0
LINE
  5
20F
330
1F
100
AcDbEntity
  8
0
  6
Continuous
 62
     7
370
    25
100
AcDbLine
 10
6288.0432098457
 20
4928.9127265829
 30
0.0
 11
6288.0432098457
 21
4928.887294021
 31
0.0
  0
LINE
  5
210
330
1F
100
AcDbEntity
  8
0
  6
Continuous
 62
     7
370
    25
100
AcDbLine
 10
6340.0432098457
 20
4928.887294021
 30
0.0
 11
6340.0432098457
 21
4928.9127265829
 31
0.0
  0
ARC
  5
211
330
1F
100
AcDbEntity
  8
0
  6
Continuous
 62
     7
370
    25
100
AcDbCircle
 10
6352.4432098457
 20
4985.387294021
 30
0.0
 40
0.8000000000001819
100
AcDbArc
 50
270.0
 51
0.0
  0
ARC
  5
212
330
1F
100
AcDbEntity
  8
0
  6
Continuous
 62
     7
370
    25
100
AcDbCircle
 10
6352.4432098457
 20
4996.987294021
 30
0.0
 40
0.8000000000001819
100
AcDbArc
 50
0.0
 51
90.0
  0
LINE
  5
213
330
1F
100
AcDbEntity
  8
0
  6
Continuous
 62
     7
370
    25
100
AcDbLine
 10
6351.5432098457
 20
4984.587294021
 30
0.0
 11
6352.4432098457
 21
4984.587294021
 31
0.0
  0
LINE
  5
214
330
1F
100
AcDbEntity
  8
0
  6
Continuous
 62
     7
370
    25
100
AcDbLine
 10
6352.4432098457
 20
4997.787294021
 30
0.0
 11
6351.5432098457
 21
4997.787294021
 31
0.0
  0
LINE
  5
215
330
1F
100
AcDbEntity
  8
0
  6
Continuous
 62
     7
370
    25
100
AcDbLine
 10
6349.8361030645
 20
4986.437294021
 30
0.0
 11
6350.5432098457
 21
4986.437294021
 31
0.0
  0
LINE
  5
216
330
1F
100
AcDbEntity
  8
0
  6
Continuous
 62
     7
370
    25
100
AcDbLine
 10
6350.5432098457
 20
4995.937294021
 30
0.0
 11
6349.8361030645
 21
4995.937294021
 31
0.0
  0
LINE
  5
217
330
1F
100
AcDbEntity
  8
0
  6
Continuous
 62
     7
370
    25
100
AcDbLine
 10
6290.7932098457
 20
4925.887294021
 30
0.0
 11
6290.7932098457
 21
4915.887294021
 31
0.0
  0
LINE
  5
218
330
1F
100
AcDbEntity
  8
0
  6
Continuous
 62
     7
370
    25
100
AcDbLine
 10
6337.2932098457
 20
4915.887294021
 30
0.0
 11
6337.2932098457
 21
4925.887294021
 31
0.0
  0
LINE
  5
219
330
1F
100
AcDbEntity
  8
0
  6
Continuous
 62
     7
370
    25
100
AcDbLine
 10
6349.0187553361
 20
4938.9127265829
 30
0.0
 11
6199.0187553361
 21
4938.9127265829
 31
0.0
  0
LINE
  5
21A
330
1F
100
AcDbEntity
  8
0
  6
Continuous
 62
     7
370
    25
100
AcDbLine
 10
6349.0187553361
 20
4938.9127265829
 30
0.0
 11
6349.0187553361
 21
4928.9127265829
 31
0.0
  0
LINE
  5
21B
330
1F
100
AcDbEntity
  8
0
  6
Continuous
 62
     7
370
    25
100
AcDbLine
 10
6349.0187553361
 20
4928.9127265829
 30
0.0
 11
6199.0187553361
 21
4928.9127265829
 31
0.0
  0
LINE
  5
21C
330
1F
100
AcDbEntity
  8
0
  6
Continuous
 62
     7
370
    25
100
AcDbLine
 10
6199.0187553361
 20
4938.9127265829
 30
0.0
 11
6199.0187553361
 21
4928.9127265829
 31
0.0
  0
LINE
  5
21D
330
1F
100
AcDbEntity
  8
0
  6
Continuous
 62
     7
370
    25
100
AcDbLine
 10
6359.0187553361
 20
4938.9127265829
 30
0.0
 11
6349.0187553361
 21
4938.9127265829
 31
0.0
  0
ARC
  5
21E
330
1F
100
AcDbEntity
  8
0
  6
Continuous
 62
     7
370
    25
100
AcDbCircle
 10
6349.0187553361
 20
4938.9127265829
 30
0.0
 40
10.0
100
AcDbArc
 50
270.0
 51
0.0
  0
ARC
  5
21F
330
1F
100
AcDbEntity
  8
0
  6
Continuous
 62
     7
370
    25
100
AcDbCircle
 10
6199.0187553361
 20
4938.9127265829
 30
0.0
 40
10.0
100
AcDbArc
 50
180.0
 51
270.0
  0
LINE
  5
220
330
1F
100
AcDbEntity
  8
0
  6
Continuous
 62
     7
370
    25
100
AcDbLine
 10
6199.0187553361
 20
4938.9127265829
 30
0.0
 11
6189.0187553361
 21
4938.9127265829
 31
0.0
  0
ELLIPSE
  5
221
330
1F
100
AcDbEntity
  8
0
  6
Continuous
 62
     7
370
    25
100
AcDbEllipse
 10
6234.0432098457
 20
4669.5694456264
 30
0.0
 11
0.0
 21
44.99999999999909
 31
0.0
210
0.0
220
0.0
230
1.0
 40
0.3111111111
 41
1.570796326794897
 42
1.581511011931072
  0
ELLIPSE
  5
222
330
1F
100
AcDbEntity
  8
0
  6
Continuous
 62
     7
370
    25
100
AcDbEllipse
 10
6234.0432098457
 20
4669.5694456264
 30
0.0
 11
0.0
 21
44.99999999999909
 31
0.0
210
0.0
220
0.0
230
1.0
 40
0.3111111111
 41
4.701674295248518
 42
4.712388980384694
  0
LINE
  5
223
330
1F
100
AcDbEntity
  8
0
  6
Continuous
 62
     7
370
    25
100
AcDbLine
 10
6220.0440134693
 20
4669.087294021
 30
0.0
 11
6248.042406222
 21
4669.087294021
 31
0.0
  0
LINE
  5
224
330
1F
100
AcDbEntity
  8
0
  6
Continuous
 62
     7
370
    25
100
AcDbLine
 10
6220.2432098457
 20
4928.887294021
 30
0.0
 11
6247.8432098457
 21
4928.887294021
 31
0.0
  0
ARC
  5
225
330
1F
100
AcDbEntity
  8
0
  6
Continuous
 62
     7
370
    25
100
AcDbCircle
 10
6247.842411962
 20
4669.087288281
 30
0.0
 40
0.1999942600792277
100
AcDbArc
 50
270.0016445318
 51
0.0016444372
  0
LINE
  5
226
330
1F
100
AcDbEntity
  8
0
  6
Continuous
 62
     7
370
    25
100
AcDbLine
 10
6247.8424177024
 20
4668.887294021
 30
0.0
 11
6220.244001989
 21
4668.887294021
 31
0.0
  0
ARC
  5
227
330
1F
100
AcDbEntity
  8
0
  6
Continuous
 62
     7
370
    25
100
AcDbCircle
 10
6220.2440077293
 20
4669.087288281
 30
0.0
 40
0.1999942600792277
100
AcDbArc
 50
179.9983555628
 51
269.998355468
  0
CIRCLE
  5
228
330
1F
100
AcDbEntity
  8
0
  6
Continuous
 62
     7
370
    25
100
AcDbCircle
 10
6314.0432098457
 20
4887.887294021
 30
0.0
 40
4.615384615383846
  0
CIRCLE
  5
229
330
1F
100
AcDbEntity
  8
0
  6
Continuous
 62
     7
370
    25
100
AcDbCircle
 10
6314.0432098457
 20
4887.887294021
 30
0.0
 40
4.999999999999091
  0
LINE
  5
22A
330
1F
100
AcDbEntity
  8
0
  6
Continuous
 62
     7
370
    25
100
AcDbLine
 10
6332.1432098457
 20
4874.887294021
 30
0.0
 11
6295.9432098457
 21
4874.887294021
 31
0.0
  0
LINE
  5
22B
330
1F
100
AcDbEntity
  8
0
  6
Continuous
 62
     7
370
    25
100
AcDbLine
 10
6285.7432098457
 20
4928.887294021
 30
0.0
 11
6342.3432098457
 21
4928.887294021
 31
0.0
  0
LINE
  5
22C
330
1F
100
AcDbEntity
  8
0
  6
Continuous
 62
     7
370
    25
100
AcDbLine
 10
6285.7432098457
 20
4925.887294021
 30
0.0
 11
6342.3432098457
 21
4925.887294021
 31
0.0
  0
LINE
  5
22D
330
1F
100
AcDbEntity
  8
0
  6
Continuous
 62
     7
370
    25
100
AcDbLine
 10
6222.7932098457
 20
4928.887294021
 30
0.0
 11
6222.7932098457
 21
4928.9127265829
 31
0.0
  0
LINE
  5
22E
330
1F
100
AcDbEntity
  8
0
  6
Continuous
 62
     7
370
    25
100
AcDbLine
 10
6245.2932098457
 20
4928.9127265829
 30
0.0
 11
6245.2932098457
 21
4928.887294021
 31
0.0
  0
LINE
  5
22F
330
1F
100
AcDbEntity
  8
0
  6
Continuous
 62
     7
370
    25
100
AcDbLine
 10
6222.1521155697
 20
5021.2685152414
 30
0.0
 11
6221.8996659404
 21
5021.187294021
 31
0.0
  0
LINE
  5
230
330
1F
100
AcDbEntity
  8
0
  6
Continuous
 62
     7
370
    25
100
AcDbLine
 10
6222.1521155697
 20
5021.2685152414
 30
0.0
 11
6222.8718470238
 21
5021.187294021
 31
0.0
  0
ARC
  5
231
330
1F
100
AcDbEntity
  8
0
  6
Continuous
 62
     7
370
    25
100
AcDbCircle
 10
6321.5432098457
 20
5007.187294021
 30
0.0
 40
14.74999999999956
100
AcDbArc
 50
100.7232977203
 51
108.3497385953
  0
LINE
  5
232
330
1F
100
AcDbEntity
  8
0
  6
Continuous
 62
     7
370
    25
100
AcDbLine
 10
6318.7987341046
 20
5021.6797180041
 30
0.0
 11
6320.9257542859
 21
5021.187294021
 31
0.0
  0
LINE
  5
233
330
1F
100
AcDbEntity
  8
0
  6
Continuous
 62
     7
370
    25
100
AcDbLine
 10
6353.2432098457
 20
4985.387294021
 30
0.0
 11
6353.2432098457
 21
4996.9872933223
 31
0.0
  0
LINE
  5
234
330
1F
100
AcDbEntity
  8
0
  6
Continuous
 62
     7
370
    25
100
AcDbLine
 10
6350.5432098457
 20
4993.037294021
 30
0.0
 11
6349.8361030645
 21
4993.037294021
 31
0.0
  0
LINE
  5
235
330
1F
100
AcDbEntity
  8
0
  6
Continuous
 62
     7
370
    25
100
AcDbLine
 10
6349.8361030645
 20
4991.787294021
 30
0.0
 11
6350.5432098457
 21
4991.787294021
 31
0.0
  0
LINE
  5
236
330
1F
100
AcDbEntity
  8
0
  6
Continuous
 62
     7
370
    25
100
AcDbLine
 10
6349.8361030645
 20
4989.337294021
 30
0.0
 11
6350.5432098457
 21
4989.337294021
 31
0.0
  0
LINE
  5
237
330
1F
100
AcDbEntity
  8
0
  6
Continuous
 62
     7
370
    25
100
AcDbLine
 10
6350.5432098457
 20
4990.587294021
 30
0.0
 11
6349.8361030645
 21
4990.587294021
 31
0.0
  0
LINE
  5
238
330
1F
100
AcDbEntity
  8
0
  6
Continuous
 62
     7
370
    25
100
AcDbLine
 10
6349.8361030645
 20
4994.037294021
 30
0.0
 11
6350.5432098457
 21
4994.037294021
 31
0.0
  0
LINE
  5
239
330
1F
100
AcDbEntity
  8
0
  6
Continuous
 62
     7
370
    25
100
AcDbLine
 10
6350.5432098457
 20
4988.337294021
 30
0.0
 11
6349.8361030645
 21
4988.337294021
 31
0.0
  0
LINE
  5
23A
330
1F
100
AcDbEntity
  8
0
  6
Continuous
 62
     7
370
    25
100
AcDbLine
 10
6291.7746137056
 20
4915.887294021
 30
0.0
 11
6337.2932098457
 21
4915.887294021
 31
0.0
  0
LINE
  5
23B
330
1F
100
AcDbEntity
  8
0
  6
Continuous
 62
     7
370
    25
100
AcDbLine
 10
6290.7932098457
 20
4915.887294021
 30
0.0
 11
6291.7746137056
 21
4915.887294021
 31
0.0
  0
LINE
  5
23C
330
1F
100
AcDbEntity
  8
0
  6
Continuous
 62
     7
370
    25
100
AcDbLine
 10
6198.2503166269
 20
4941.187294021
 30
0.0
 11
6349.8361030645
 21
4941.187294021
 31
0.0
  0
LINE
  5
23D
330
1F
100
AcDbEntity
  8
0
  6
Continuous
 62
     7
370
    25
100
AcDbLine
 10
6198.2503166269
 20
5019.387294021
 30
0.0
 11
6198.2503166269
 21
4941.187294021
 31
0.0
  0
LINE
  5
23E
330
1F
100
AcDbEntity
  8
0
  6
Continuous
 62
     7
370
    25
100
AcDbLine
 10
6198.2503166269
 20
5019.387294021
 30
0.0
 11
6349.8361030645
 21
5019.387294021
 31
0.0
  0
LINE
  5
23F
330
1F
100
AcDbEntity
  8
0
  6
Continuous
 62
     7
370
    25
100
AcDbLine
 10
6349.8361030645
 20
5019.387294021
 30
0.0
 11
6349.8361030645
 21
4941.187294021
 31
0.0
  0
ARC
  5
240
330
1F
100
AcDbEntity
  8
0
  6
Continuous
 62
     7
370
    25
100
AcDbCircle
 10
6331.2181234008
 20
5019.32886653
 30
0.0
 40
18.61807134285048
100
AcDbArc
 50
0.1798067089
 51
5.7287175666
  0
ARC
  5
241
330
1F
100
AcDbEntity
  8
0
  6
Continuous
 62
     7
370
    25
100
AcDbCircle
 10
6216.8682962897
 20
5019.3288665301
 30
0.0
 40
18.61807134208279
100
AcDbArc
 50
174.2712824332
 51
179.8201932913
  0
LINE
  5
242
330
1F
100
AcDbEntity
  8
0
  6
Continuous
 62
     7
370
    25
100
AcDbLine
 10
6198.3432098457
 20
5021.187294021
 30
0.0
 11
6349.7432098457
 21
5021.187294021
 31
0.0
  0
LINE
  5
243
330
1F
100
AcDbEntity
  8
0
  6
Continuous
 62
     7
370
    25
100
AcDbLine
 10
6198.3432098457
 20
4939.387294021
 30
0.0
 11
6216.5432098457
 21
4939.387294021
 31
0.0
  0
LINE
  5
244
330
1F
100
AcDbEntity
  8
0
  6
Continuous
 62
     7
370
    25
100
AcDbLine
 10
6198.3432098457
 20
4939.387294021
 30
0.0
 11
6198.3432098457
 21
4941.187294021
 31
0.0
  0
LINE
  5
245
330
1F
100
AcDbEntity
  8
0
  6
Continuous
 62
     7
370
    25
100
AcDbLine
 10
6216.5432098457
 20
4941.187294021
 30
0.0
 11
6216.5432098457
 21
4939.387294021
 31
0.0
  0
LINE
  5
246
330
1F
100
AcDbEntity
  8
0
  6
Continuous
 62
     7
370
    25
100
AcDbLine
 10
6331.5432098457
 20
4939.387294021
 30
0.0
 11
6349.7432098457
 21
4939.387294021
 31
0.0
  0
LINE
  5
247
330
1F
100
AcDbEntity
  8
0
  6
Continuous
 62
     7
370
    25
100
AcDbLine
 10
6331.5432098457
 20
4939.387294021
 30
0.0
 11
6331.5432098457
 21
4941.187294021
 31
0.0
  0
LINE
  5
248
330
1F
100
AcDbEntity
  8
0
  6
Continuous
 62
     7
370
    25
100
AcDbLine
 10
6349.7432098457
 20
4941.187294021
 30
0.0
 11
6349.7432098457
 21
4939.387294021
 31
0.0
  0
ARC
  5
249
330
1F
100
AcDbEntity
  8
0
  6
Continuous
 62
     7
370
    25
100
AcDbCircle
 10
6349.7432098457
 20
5019.387294021
 30
0.0
 40
1.800000000000182
100
AcDbArc
 50
0.0
 51
90.0
  0
LINE
  5
24A
330
1F
100
AcDbEntity
  8
0
  6
Continuous
 62
     7
370
    25
100
AcDbLine
 10
6351.5432098457
 20
5019.387294021
 30
0.0
 11
6350.5432098457
 21
5019.387294021
 31
0.0
  0
ARC
  5
24B
330
1F
100
AcDbEntity
  8
0
  6
Continuous
 62
     7
370
    25
100
AcDbCircle
 10
6349.7432098457
 20
5019.387294021
 30
0.0
 40
0.8000000000020009
100
AcDbArc
 50
0.0000000001
 51
89.9999999998
  0
LINE
  5
24C
330
1F
100
AcDbEntity
  8
0
  6
Continuous
 62
     7
370
    25
100
AcDbLine
 10
6351.5432098457
 20
5019.387294021
 30
0.0
 11
6351.5432098457
 21
4941.187294021
 31
0.0
  0
LINE
  5
24D
330
1F
100
AcDbEntity
  8
0
  6
Continuous
 62
     7
370
    25
100
AcDbLine
 10
6351.5432098457
 20
4941.187294021
 30
0.0
 11
6350.5432098457
 21
4941.187294021
 31
0.0
  0
LINE
  5
24E
330
1F
100
AcDbEntity
  8
0
  6
Continuous
 62
     7
370
    25
100
AcDbLine
 10
6350.5432098457
 20
5019.387294021
 30
0.0
 11
6350.5432098457
 21
4941.187294021
 31
0.0
  0
ARC
  5
24F
330
1F
100
AcDbEntity
  8
0
  6
Continuous
 62
     7
370
    25
100
AcDbCircle
 10
6198.3432098457
 20
5019.387294021
 30
0.0
 40
1.799999999998363
100
AcDbArc
 50
90.0
 51
180.0
  0
ARC
  5
250
330
1F
100
AcDbEntity
  8
0
  6
Continuous
 62
     7
370
    25
100
AcDbCircle
 10
6198.3432098457
 20
5019.387294021
 30
0.0
 40
0.8000000000029104
100
AcDbArc
 50
90.0000000002
 51
179.9999999999
  0
LINE
  5
251
330
1F
100
AcDbEntity
  8
0
  6
Continuous
 62
     7
370
    25
100
AcDbLine
 10
6196.5432098457
 20
5019.387294021
 30
0.0
 11
6197.5432098457
 21
5019.387294021
 31
0.0
  0
LINE
  5
252
330
1F
100
AcDbEntity
  8
0
  6
Continuous
 62
     7
370
    25
100
AcDbLine
 10
6197.5432098457
 20
5019.387294021
 30
0.0
 11
6197.5432098457
 21
4941.187294021
 31
0.0
  0
LINE
  5
253
330
1F
100
AcDbEntity
  8
0
  6
Continuous
 62
     7
370
    25
100
AcDbLine
 10
6196.5432098457
 20
4941.187294021
 30
0.0
 11
6197.5432098457
 21
4941.187294021
 31
0.0
  0
LINE
  5
254
330
1F
100
AcDbEntity
  8
0
  6
Continuous
 62
     7
370
    25
100
AcDbLine
 10
6196.5432098457
 20
5019.387294021
 30
0.0
 11
6196.5432098457
 21
4941.187294021
 31
0.0
  0
ARC
  5
255
330
1F
100
AcDbEntity
  8
0
  6
Continuous
 62
     7
370
    25
100
AcDbCircle
 10
6349.7432098457
 20
4941.187294021
 30
0.0
 40
1.800000000000182
100
AcDbArc
 50
270.0
 51
0.0
  0
ARC
  5
256
330
1F
100
AcDbEntity
  8
0
  6
Continuous
 62
     7
370
    25
100
AcDbCircle
 10
6349.7432098457
 20
4941.187294021
 30
0.0
 40
0.8000000000001819
100
AcDbArc
 50
270.0
 51
0.0
  0
ARC
  5
257
330
1F
100
AcDbEntity
  8
0
  6
Continuous
 62
     7
370
    25
100
AcDbCircle
 10
6198.3432098457
 20
4941.187294021
 30
0.0
 40
0.8000000000001819
100
AcDbArc
 50
180.0
 51
270.0
  0
ARC
  5
258
330
1F
100
AcDbEntity
  8
0
  6
Continuous
 62
     7
370
    25
100
AcDbCircle
 10
6198.3432098457
 20
4941.187294021
 30
0.0
 40
1.800000000000182
100
AcDbArc
 50
180.0
 51
270.0
  0
LINE
  5
259
330
1F
100
AcDbEntity
  8
0
  6
Continuous
 62
     8
370
    25
100
AcDbLine
 10
6248.0432098457
 20
4928.687294021
 30
0.0
 11
6220.0432098457
 21
4928.687294021
 31
0.0
  0
LINE
  5
25A
330
1F
100
AcDbEntity
  8
0
  6
Continuous
 62
     8
370
    25
100
AcDbLine
 10
6293.9432098457
 20
4876.887294021
 30
0.0
 11
6334.1432098457
 21
4876.887294021
 31
0.0
  0
LINE
  5
25B
330
1F
100
AcDbEntity
  8
0
  6
Continuous
 62
     8
370
    25
100
AcDbLine
 10
6285.5432098457
 20
4928.687294021
 30
0.0
 11
6342.5432098457
 21
4928.687294021
 31
0.0
  0
LINE
  5
25C
330
1F
100
AcDbEntity
  8
0
  6
Continuous
 62
     8
370
    25
100
AcDbLine
 10
6285.5432098457
 20
4926.087294021
 30
0.0
 11
6342.5432098457
 21
4926.087294021
 31
0.0
  0
LINE
  5
25D
330
1F
100
AcDbEntity
  8
0
  6
Continuous
 62
     8
370
    25
100
AcDbLine
 10
6226.2932098457
 20
4928.9127265829
 30
0.0
 11
6226.2932098457
 21
4928.887294021
 31
0.0
  0
LINE
  5
25E
330
1F
100
AcDbEntity
  8
0
  6
Continuous
 62
     8
370
    25
100
AcDbLine
 10
6241.7932098457
 20
4928.887294021
 30
0.0
 11
6241.7932098457
 21
4928.9127265829
 31
0.0
  0
LINE
  5
25F
330
1F
100
AcDbEntity
  8
0
  6
Continuous
 62
     8
370
    25
100
AcDbLine
 10
6352.4432098457
 20
4984.587294021
 30
0.0
 11
6352.4432098457
 21
4997.787294021
 31
0.0
  0
ENDSEC
  0
SECTION
  2
OBJECTS
  0
DICTIONARY
  5
C
330
0
100
AcDbDictionary
281
     1
  3
ACAD_GROUP
350
D
  3
ACAD_LAYOUT
350
1A
  3
ACAD_MLINESTYLE
350
17
  3
ACAD_PLOTSETTINGS
350
19
  3
ACAD_PLOTSTYLENAME
350
E
  3
ACAD_SCALELIST
350
47
  3
DWGPROPS
350
260
  0
DICTIONARY
  5
D
102
{ACAD_REACTORS
330
C
102
}
330
C
100
AcDbDictionary
281
     1
  0
DICTIONARY
  5
1A
102
{ACAD_REACTORS
330
C
102
}
330
C
100
AcDbDictionary
281
     1
  3
Layout1
350
1E
  3
Layout2
350
26
  3
Model
350
22
  0
DICTIONARY
  5
17
102
{ACAD_REACTORS
330
C
102
}
330
C
100
AcDbDictionary
281
     1
  3
Standard
350
18
  0
DICTIONARY
  5
19
102
{ACAD_REACTORS
330
C
102
}
330
C
100
AcDbDictionary
281
     1
  0
ACDBDICTIONARYWDFLT
  5
E
102
{ACAD_REACTORS
330
C
102
}
330
C
100
AcDbDictionary
281
     1
  3
Normal
350
F
100
AcDbDictionaryWithDefault
340
F
  0
DICTIONARY
  5
47
102
{ACAD_REACTORS
330
C
102
}
330
C
100
AcDbDictionary
281
     1
  3
A0
350
48
  3
A1
350
49
  3
A2
350
4A
  3
A3
350
4B
  3
A4
350
4C
  3
A5
350
4D
  3
A6
350
4E
  3
A7
350
4F
  3
A8
350
50
  3
A9
350
51
  3
B0
350
52
  3
B1
350
53
  3
B2
350
54
  3
B3
350
55
  3
B4
350
56
  3
B5
350
57
  3
B6
350
58
  3
B7
350
59
  3
B8
350
5A
  3
B9
350
5B
  3
C0
350
5C
  3
C1
350
5D
  3
C2
350
5E
  3
C3
350
5F
  3
C4
350
60
  3
C5
350
61
  3
C6
350
62
  3
C7
350
63
  3
C8
350
64
  3
C9
350
65
  3
D0
350
66
  3
D1
350
67
  3
D2
350
68
  0
XRECORD
  5
260
102
{ACAD_REACTORS
330
C
102
}
330
C
100
AcDbXrecord
280
     1
  1
DWGPROPS COOKIE
  2

  3

  4

  6

  7

  8
radek.stransky
  9

300
=
301
=
302
=
303
=
304
=
305
=
306
=
307
=
308
=
309
=
 40
0.0
 41
2459293.318807662
 42
2459293.318807951
  1

 90
        0
  0
LAYOUT
  5
1E
102
{ACAD_REACTORS
330
1A
102
}
330
1A
100
AcDbPlotSettings
  1

  2
none_device
  4

  6

 40
0.0
 41
0.0
 42
0.0
 43
0.0
 44
0.0
 45
0.0
 46
0.0
 47
0.0
 48
0.0
 49
0.0
140
0.0
141
0.0
142
1.0
143
1.0
 70
   688
 72
     1
 73
     0
 74
     5
  7

 75
    16
147
1.0
148
0.0
149
0.0
100
AcDbLayout
  1
Layout1
 70
     1
 71
     1
 10
0.0
 20
0.0
 11
420.0
 21
297.0
 12
0.0
 22
0.0
 32
0.0
 14
1.0000000000E+20
 24
1.0000000000E+20
 34
1.0000000000E+20
 15
-1.0000000000E+20
 25
-1.0000000000E+20
 35
-1.0000000000E+20
146
0.0
 13
0.0
 23
0.0
 33
0.0
 16
1.0
 26
0.0
 36
0.0
 17
0.0
 27
1.0
 37
0.0
 76
     0
330
1B
  0
LAYOUT
  5
26
102
{ACAD_REACTORS
330
1A
102
}
330
1A
100
AcDbPlotSettings
  1

  2
none_device
  4

  6

 40
0.0
 41
0.0
 42
0.0
 43
0.0
 44
0.0
 45
0.0
 46
0.0
 47
0.0
 48
0.0
 49
0.0
140
0.0
141
0.0
142
1.0
143
1.0
 70
   688
 72
     1
 73
     0
 74
     5
  7

 75
    16
147
1.0
148
0.0
149
0.0
100
AcDbLayout
  1
Layout2
 70
     1
 71
     2
 10
0.0
 20
0.0
 11
0.0
 21
0.0
 12
0.0
 22
0.0
 32
0.0
 14
0.0
 24
0.0
 34
0.0
 15
0.0
 25
0.0
 35
0.0
146
0.0
 13
0.0
 23
0.0
 33
0.0
 16
1.0
 26
0.0
 36
0.0
 17
0.0
 27
1.0
 37
0.0
 76
     0
330
23
  0
LAYOUT
  5
22
102
{ACAD_REACTORS
330
1A
102
}
330
1A
100
AcDbPlotSettings
  1

  2
none_device
  4
Letter_(8.50_x_11.00_Inches)
  6

 40
6.35
 41
6.35
 42
6.35000508
 43
6.35000508
 44
215.9
 45
279.4
 46
0.0
 47
0.0
 48
0.0
 49
0.0
140
0.0
141
0.0
142
1.0
143
1.0
 70
  1712
 72
     1
 73
     0
 74
     0
  7

 75
     0
147
1.0
148
0.0
149
0.0
100
AcDbLayout
  1
Model
 70
     1
 71
     0
 10
0.0
 20
0.0
 11
20000.0
 21
10000.0
 12
0.0
 22
0.0
 32
0.0
 14
0.0
 24
0.0
 34
0.0
 15
20000.0
 25
10000.0
 35
0.0
146
0.0
 13
0.0
 23
0.0
 33
0.0
 16
1.0
 26
0.0
 36
0.0
 17
0.0
 27
1.0
 37
0.0
 76
     0
330
1F
331
29
  0
MLINESTYLE
  5
18
102
{ACAD_REACTORS
330
17
102
}
330
17
100
AcDbMlineStyle
  2
Standard
 70
     0
  3

 62
   256
 51
90.0
 52
90.0
 71
     2
 49
0.5
 62
   256
  6
BYLAYER
 49
-0.5
 62
   256
  6
BYLAYER
  0
ACDBPLACEHOLDER
  5
F
102
{ACAD_REACTORS
330
E
102
}
330
E
  0
SCALE
  5
48
102
{ACAD_REACTORS
330
47
102
}
330
47
100
AcDbScale
 70
     0
300
1:1
140
1.0
141
1.0
290
     1
  0
SCALE
  5
49
102
{ACAD_REACTORS
330
47
102
}
330
47
100
AcDbScale
 70
     0
300
1:2
140
1.0
141
2.0
290
     0
  0
SCALE
  5
4A
102
{ACAD_REACTORS
330
47
102
}
330
47
100
AcDbScale
 70
     0
300
1:4
140
1.0
141
4.0
290
     0
  0
SCALE
  5
4B
102
{ACAD_REACTORS
330
47
102
}
330
47
100
AcDbScale
 70
     0
300
1:5
140
1.0
141
5.0
290
     0
  0
SCALE
  5
4C
102
{ACAD_REACTORS
330
47
102
}
330
47
100
AcDbScale
 70
     0
300
1:8
140
1.0
141
8.0
290
     0
  0
SCALE
  5
4D
102
{ACAD_REACTORS
330
47
102
}
330
47
100
AcDbScale
 70
     0
300
1:10
140
1.0
141
10.0
290
     0
  0
SCALE
  5
4E
102
{ACAD_REACTORS
330
47
102
}
330
47
100
AcDbScale
 70
     0
300
1:16
140
1.0
141
16.0
290
     0
  0
SCALE
  5
4F
102
{ACAD_REACTORS
330
47
102
}
330
47
100
AcDbScale
 70
     0
300
1:20
140
1.0
141
20.0
290
     0
  0
SCALE
  5
50
102
{ACAD_REACTORS
330
47
102
}
330
47
100
AcDbScale
 70
     0
300
1:30
140
1.0
141
30.0
290
     0
  0
SCALE
  5
51
102
{ACAD_REACTORS
330
47
102
}
330
47
100
AcDbScale
 70
     0
300
1:40
140
1.0
141
40.0
290
     0
  0
SCALE
  5
52
102
{ACAD_REACTORS
330
47
102
}
330
47
100
AcDbScale
 70
     0
300
1:50
140
1.0
141
50.0
290
     0
  0
SCALE
  5
53
102
{ACAD_REACTORS
330
47
102
}
330
47
100
AcDbScale
 70
     0
300
1:100
140
1.0
141
100.0
290
     0
  0
SCALE
  5
54
102
{ACAD_REACTORS
330
47
102
}
330
47
100
AcDbScale
 70
     0
300
2:1
140
2.0
141
1.0
290
     0
  0
SCALE
  5
55
102
{ACAD_REACTORS
330
47
102
}
330
47
100
AcDbScale
 70
     0
300
4:1
140
4.0
141
1.0
290
     0
  0
SCALE
  5
56
102
{ACAD_REACTORS
330
47
102
}
330
47
100
AcDbScale
 70
     0
300
8:1
140
8.0
141
1.0
290
     0
  0
SCALE
  5
57
102
{ACAD_REACTORS
330
47
102
}
330
47
100
AcDbScale
 70
     0
300
10:1
140
10.0
141
1.0
290
     0
  0
SCALE
  5
58
102
{ACAD_REACTORS
330
47
102
}
330
47
100
AcDbScale
 70
     0
300
100:1
140
100.0
141
1.0
290
     0
  0
SCALE
  5
59
102
{ACAD_REACTORS
330
47
102
}
330
47
100
AcDbScale
 70
     0
300
1/128" = 1'-0"
140
0.0078125
141
12.0
290
     0
  0
SCALE
  5
5A
102
{ACAD_REACTORS
330
47
102
}
330
47
100
AcDbScale
 70
     0
300
1/64" = 1'-0"
140
0.015625
141
12.0
290
     0
  0
SCALE
  5
5B
102
{ACAD_REACTORS
330
47
102
}
330
47
100
AcDbScale
 70
     0
300
1/32" = 1'-0"
140
0.03125
141
12.0
290
     0
  0
SCALE
  5
5C
102
{ACAD_REACTORS
330
47
102
}
330
47
100
AcDbScale
 70
     0
300
1/16" = 1'-0"
140
0.0625
141
12.0
290
     0
  0
SCALE
  5
5D
102
{ACAD_REACTORS
330
47
102
}
330
47
100
AcDbScale
 70
     0
300
3/32" = 1'-0"
140
0.09375
141
12.0
290
     0
  0
SCALE
  5
5E
102
{ACAD_REACTORS
330
47
102
}
330
47
100
AcDbScale
 70
     0
300
1/8" = 1'-0"
140
0.125
141
12.0
290
     0
  0
SCALE
  5
5F
102
{ACAD_REACTORS
330
47
102
}
330
47
100
AcDbScale
 70
     0
300
3/16" = 1'-0"
140
0.1875
141
12.0
290
     0
  0
SCALE
  5
60
102
{ACAD_REACTORS
330
47
102
}
330
47
100
AcDbScale
 70
     0
300
1/4" = 1'-0"
140
0.25
141
12.0
290
     0
  0
SCALE
  5
61
102
{ACAD_REACTORS
330
47
102
}
330
47
100
AcDbScale
 70
     0
300
3/8" = 1'-0"
140
0.375
141
12.0
290
     0
  0
SCALE
  5
62
102
{ACAD_REACTORS
330
47
102
}
330
47
100
AcDbScale
 70
     0
300
1/2" = 1'-0"
140
0.5
141
12.0
290
     0
  0
SCALE
  5
63
102
{ACAD_REACTORS
330
47
102
}
330
47
100
AcDbScale
 70
     0
300
3/4" = 1'-0"
140
0.75
141
12.0
290
     0
  0
SCALE
  5
64
102
{ACAD_REACTORS
330
47
102
}
330
47
100
AcDbScale
 70
     0
300
1" = 1'-0"
140
1.0
141
12.0
290
     0
  0
SCALE
  5
65
102
{ACAD_REACTORS
330
47
102
}
330
47
100
AcDbScale
 70
     0
300
1-1/2" = 1'-0"
140
1.5
141
12.0
290
     0
  0
SCALE
  5
66
102
{ACAD_REACTORS
330
47
102
}
330
47
100
AcDbScale
 70
     0
300
3" = 1'-0"
140
3.0
141
12.0
290
     0
  0
SCALE
  5
67
102
{ACAD_REACTORS
330
47
102
}
330
47
100
AcDbScale
 70
     0
300
6" = 1'-0"
140
6.0
141
12.0
290
     0
  0
SCALE
  5
68
102
{ACAD_REACTORS
330
47
102
}
330
47
100
AcDbScale
 70
     0
300
1'-0" = 1'-0"
140
12.0
141
12.0
290
     0
  0
ENDSEC
  0
EOF
