  0
SECTION
  2
HEADER
  9
$ACADVER
  1
AC1015
  9
$ACADMAINTVER
 70
     6
  9
$DWGCODEPAGE
  3
ANSI_1250
  9
$INSBASE
 10
0.0
 20
0.0
 30
0.0
  9
$EXTMIN
 10
0.0
 20
0.0
 30
0.0
  9
$EXTMAX
 10
20000.0
 20
10000.0
 30
0.0
  9
$LIMMIN
 10
0.0
 20
0.0
  9
$LIMMAX
 10
20000.0
 20
10000.0
  9
$ORTHOMODE
 70
     0
  9
$REGENMODE
 70
     1
  9
$FILLMODE
 70
     1
  9
$QTEXTMODE
 70
     0
  9
$MIRRTEXT
 70
     1
  9
$LTSCALE
 40
1.0
  9
$ATTMODE
 70
     1
  9
$TEXTSIZE
 40
2.0
  9
$TRACEWID
 40
1.0
  9
$TEXTSTYLE
  7
Standard
  9
$CLAYER
  8
0
  9
$CELTYPE
  6
ByLayer
  9
$CECOLOR
 62
   256
  9
$CELTSCALE
 40
1.0
  9
$DISPSILH
 70
     0
  9
$DIMSCALE
 40
1.0
  9
$DIMASZ
 40
2.0
  9
$DIMEXO
 40
1.0
  9
$DIMDLI
 40
3.75
  9
$DIMRND
 40
0.0
  9
$DIMDLE
 40
0.0
  9
$DIMEXE
 40
1.0
  9
$DIMTP
 40
0.0
  9
$DIMTM
 40
0.0
  9
$DIMTXT
 40
2.0
  9
$DIMCEN
 40
2.5
  9
$DIMTSZ
 40
0.0
  9
$DIMTOL
 70
     0
  9
$DIMLIM
 70
     0
  9
$DIMTIH
 70
     1
  9
$DIMTOH
 70
     1
  9
$DIMSE1
 70
     0
  9
$DIMSE2
 70
     0
  9
$DIMTAD
 70
     1
  9
$DIMZIN
 70
     0
  9
$DIMBLK
  1

  9
$DIMASO
 70
     1
  9
$DIMSHO
 70
     1
  9
$DIMPOST
  1

  9
$DIMAPOST
  1

  9
$DIMALT
 70
     0
  9
$DIMALTD
 70
     3
  9
$DIMALTF
 40
0.0393700787
  9
$DIMLFAC
 40
1.0
  9
$DIMTOFL
 70
     1
  9
$DIMTVP
 40
0.0
  9
$DIMTIX
 70
     0
  9
$DIMSOXD
 70
     0
  9
$DIMSAH
 70
     0
  9
$DIMBLK1
  1

  9
$DIMBLK2
  1

  9
$DIMSTYLE
  2
ISO-25
  9
$DIMCLRD
 70
     0
  9
$DIMCLRE
 70
     0
  9
$DIMCLRT
 70
     0
  9
$DIMTFAC
 40
1.0
  9
$DIMGAP
 40
1.524
  9
$DIMJUST
 70
     0
  9
$DIMSD1
 70
     0
  9
$DIMSD2
 70
     0
  9
$DIMTOLJ
 70
     0
  9
$DIMTZIN
 70
     0
  9
$DIMALTZ
 70
     0
  9
$DIMALTTZ
 70
     0
  9
$DIMUPT
 70
     0
  9
$DIMDEC
 70
     2
  9
$DIMTDEC
 70
     0
  9
$DIMALTU
 70
     2
  9
$DIMALTTD
 70
     3
  9
$DIMTXSTY
  7
Standard
  9
$DIMAUNIT
 70
     0
  9
$DIMADEC
 70
     2
  9
$DIMALTRND
 40
0.0
  9
$DIMAZIN
 70
     0
  9
$DIMDSEP
 70
    44
  9
$DIMATFIT
 70
     3
  9
$DIMFRAC
 70
     0
  9
$DIMLDRBLK
  1

  9
$DIMLUNIT
 70
     2
  9
$DIMLWD
 70
    -2
  9
$DIMLWE
 70
    -2
  9
$DIMTMOVE
 70
     0
  9
$LUNITS
 70
     2
  9
$LUPREC
 70
     3
  9
$SKETCHINC
 40
1.0
  9
$FILLETRAD
 40
10.0
  9
$AUNITS
 70
     0
  9
$AUPREC
 70
     2
  9
$MENU
  1
.
  9
$ELEVATION
 40
0.0
  9
$PELEVATION
 40
0.0
  9
$THICKNESS
 40
0.0
  9
$LIMCHECK
 70
     0
  9
$CHAMFERA
 40
0.0
  9
$CHAMFERB
 40
0.0
  9
$CHAMFERC
 40
0.0
  9
$CHAMFERD
 40
0.0
  9
$SKPOLY
 70
     0
  9
$TDCREATE
 40
2459179.25765103
  9
$TDUCREATE
 40
2459179.215984364
  9
$TDUPDATE
 40
2459179.257651204
  9
$TDUUPDATE
 40
2459179.215984537
  9
$TDINDWG
 40
0.0000000116
  9
$TDUSRTIMER
 40
0.0000000116
  9
$USRTIMER
 70
     1
  9
$ANGBASE
 50
0.0
  9
$ANGDIR
 70
     0
  9
$PDMODE
 70
     0
  9
$PDSIZE
 40
-1.0
  9
$PLINEWID
 40
0.0
  9
$SPLFRAME
 70
     0
  9
$SPLINETYPE
 70
     6
  9
$SPLINESEGS
 70
     8
  9
$HANDSEED
  5
361
  9
$SURFTAB1
 70
     6
  9
$SURFTAB2
 70
     6
  9
$SURFTYPE
 70
     6
  9
$SURFU
 70
     6
  9
$SURFV
 70
     6
  9
$UCSBASE
  2

  9
$UCSNAME
  2

  9
$UCSORG
 10
0.0
 20
0.0
 30
0.0
  9
$UCSXDIR
 10
1.0
 20
0.0
 30
0.0
  9
$UCSYDIR
 10
0.0
 20
1.0
 30
0.0
  9
$UCSORTHOREF
  2

  9
$UCSORTHOVIEW
 70
     0
  9
$UCSORGTOP
 10
0.0
 20
0.0
 30
0.0
  9
$UCSORGBOTTOM
 10
0.0
 20
0.0
 30
0.0
  9
$UCSORGLEFT
 10
0.0
 20
0.0
 30
0.0
  9
$UCSORGRIGHT
 10
0.0
 20
0.0
 30
0.0
  9
$UCSORGFRONT
 10
0.0
 20
0.0
 30
0.0
  9
$UCSORGBACK
 10
0.0
 20
0.0
 30
0.0
  9
$PUCSBASE
  2

  9
$PUCSNAME
  2

  9
$PUCSORG
 10
0.0
 20
0.0
 30
0.0
  9
$PUCSXDIR
 10
1.0
 20
0.0
 30
0.0
  9
$PUCSYDIR
 10
0.0
 20
1.0
 30
0.0
  9
$PUCSORTHOREF
  2

  9
$PUCSORTHOVIEW
 70
     0
  9
$PUCSORGTOP
 10
0.0
 20
0.0
 30
0.0
  9
$PUCSORGBOTTOM
 10
0.0
 20
0.0
 30
0.0
  9
$PUCSORGLEFT
 10
0.0
 20
0.0
 30
0.0
  9
$PUCSORGRIGHT
 10
0.0
 20
0.0
 30
0.0
  9
$PUCSORGFRONT
 10
0.0
 20
0.0
 30
0.0
  9
$PUCSORGBACK
 10
0.0
 20
0.0
 30
0.0
  9
$USERI1
 70
     0
  9
$USERI2
 70
     0
  9
$USERI3
 70
     0
  9
$USERI4
 70
     0
  9
$USERI5
 70
     0
  9
$USERR1
 40
0.0
  9
$USERR2
 40
0.0
  9
$USERR3
 40
0.0
  9
$USERR4
 40
0.0
  9
$USERR5
 40
0.0
  9
$WORLDVIEW
 70
     1
  9
$SHADEDGE
 70
     3
  9
$SHADEDIF
 70
    70
  9
$TILEMODE
 70
     1
  9
$MAXACTVP
 70
    64
  9
$PINSBASE
 10
0.0
 20
0.0
 30
0.0
  9
$PLIMCHECK
 70
     0
  9
$PEXTMIN
 10
1.0000000000E+20
 20
1.0000000000E+20
 30
1.0000000000E+20
  9
$PEXTMAX
 10
-1.0000000000E+20
 20
-1.0000000000E+20
 30
-1.0000000000E+20
  9
$PLIMMIN
 10
0.0
 20
0.0
  9
$PLIMMAX
 10
420.0
 20
297.0
  9
$UNITMODE
 70
     0
  9
$VISRETAIN
 70
     1
  9
$PLINEGEN
 70
     0
  9
$PSLTSCALE
 70
     1
  9
$TREEDEPTH
 70
  3020
  9
$CMLSTYLE
  2
Standard
  9
$CMLJUST
 70
     0
  9
$CMLSCALE
 40
20.0
  9
$PROXYGRAPHICS
 70
     1
  9
$MEASUREMENT
 70
     1
  9
$CELWEIGHT
370
    -1
  9
$ENDCAPS
280
     0
  9
$JOINSTYLE
280
     0
  9
$LWDISPLAY
290
     1
  9
$INSUNITS
 70
     4
  9
$HYPERLINKBASE
  1

  9
$STYLESHEET
  1

  9
$XEDIT
290
     1
  9
$CEPSNTYPE
380
     0
  9
$PSTYLEMODE
290
     1
  9
$FINGERPRINTGUID
  2
{0309727d-80cf-491f-a91d-229a0ad2d782}
  9
$VERSIONGUID
  2
{FAEB1C32-E019-11D5-929B-00C0DF256EC4}
  9
$EXTNAMES
290
     1
  9
$PSVPSCALE
 40
0.0
  9
$OLESTARTUP
290
     0
  0
ENDSEC
  0
SECTION
  2
CLASSES
  0
CLASS
  1
ACDBDICTIONARYWDFLT
  2
AcDbDictionaryWithDefault
  3
ObjectDBX Classes
 90
        0
280
     0
281
     0
  0
CLASS
  1
VISUALSTYLE
  2
AcDbVisualStyle
  3
ObjectDBX Classes
 90
     4095
280
     0
281
     0
  0
CLASS
  1
MATERIAL
  2
AcDbMaterial
  3
ObjectDBX Classes
 90
     1153
280
     0
281
     0
  0
CLASS
  1
SCALE
  2
AcDbScale
  3
ObjectDBX Classes
 90
     1153
280
     0
281
     0
  0
CLASS
  1
TABLESTYLE
  2
AcDbTableStyle
  3
ObjectDBX Classes
 90
     4095
280
     0
281
     0
  0
CLASS
  1
MLEADERSTYLE
  2
AcDbMLeaderStyle
  3
ACDB_MLEADERSTYLE_CLASS
 90
     4095
280
     0
281
     0
  0
CLASS
  1
SUN
  2
AcDbSun
  3
SCENEOE
 90
     1153
280
     0
281
     0
  0
CLASS
  1
ACDBPLACEHOLDER
  2
AcDbPlaceHolder
  3
ObjectDBX Classes
 90
        0
280
     0
281
     0
  0
CLASS
  1
LAYOUT
  2
AcDbLayout
  3
ObjectDBX Classes
 90
        0
280
     0
281
     0
  0
ENDSEC
  0
SECTION
  2
TABLES
  0
TABLE
  2
VPORT
  5
8
330
0
100
AcDbSymbolTable
 70
     1
  0
VPORT
  5
29
330
8
100
AcDbSymbolTableRecord
100
AcDbViewportTableRecord
  2
*Active
 70
     0
 10
0.0
 20
0.0
 11
1.0
 21
1.0
 12
10000.0
 22
5000.0
 13
0.0
 23
0.0
 14
10.0
 24
10.0
 15
10.0
 25
10.0
 16
0.0
 26
0.0
 36
1.0
 17
0.0
 27
0.0
 37
0.0
 40
10000.0
 41
2.0
 42
50.0
 43
0.0
 44
0.0
 50
0.0
 51
0.0
 71
     0
 72
  2000
 73
     1
 74
     3
 75
     0
 76
     0
 77
     0
 78
     0
281
     0
 65
     1
110
0.0
120
0.0
130
0.0
111
1.0
121
0.0
131
0.0
112
0.0
122
1.0
132
0.0
 79
     0
146
0.0
  0
ENDTAB
  0
TABLE
  2
LTYPE
  5
5
330
0
100
AcDbSymbolTable
 70
     6
  0
LTYPE
  5
14
330
5
100
AcDbSymbolTableRecord
100
AcDbLinetypeTableRecord
  2
ByBlock
 70
     0
  3

 72
    65
 73
     0
 40
0.0
  0
LTYPE
  5
15
330
5
100
AcDbSymbolTableRecord
100
AcDbLinetypeTableRecord
  2
ByLayer
 70
     0
  3

 72
    65
 73
     0
 40
0.0
  0
LTYPE
  5
16
330
5
100
AcDbSymbolTableRecord
100
AcDbLinetypeTableRecord
  2
Continuous
 70
     0
  3
Solid line
 72
    65
 73
     0
 40
0.0
  0
LTYPE
  5
6E
330
5
100
AcDbSymbolTableRecord
100
AcDbLinetypeTableRecord
  2
HIDDEN
 70
     0
  3
Hidden __ __ __ __ __ __ __ __ __ __ __ __ __ __
 72
    65
 73
     2
 40
1.905
 49
1.27
 74
     0
 49
-0.635
 74
     0
  0
LTYPE
  5
6F
330
5
100
AcDbSymbolTableRecord
100
AcDbLinetypeTableRecord
  2
PHANTOM
 70
     0
  3
Phantom ______  __  __  ______  __  __  ______
 72
    65
 73
     6
 40
12.7
 49
6.35
 74
     0
 49
-1.27
 74
     0
 49
1.27
 74
     0
 49
-1.27
 74
     0
 49
1.27
 74
     0
 49
-1.27
 74
     0
  0
LTYPE
  5
70
330
5
100
AcDbSymbolTableRecord
100
AcDbLinetypeTableRecord
  2
CENTER
 70
     0
  3
Center ____ _ ____ _ ____ _ ____ _ ____ _ ____
 72
    65
 73
     4
 40
10.16
 49
6.35
 74
     0
 49
-1.27
 74
     0
 49
1.27
 74
     0
 49
-1.27
 74
     0
  0
LTYPE
  5
71
330
5
100
AcDbSymbolTableRecord
100
AcDbLinetypeTableRecord
  2
CENTERX2
 70
     0
  3
Center (2x) ________  __  ________  __  _____
 72
    65
 73
     4
 40
20.32
 49
12.7
 74
     0
 49
-2.54
 74
     0
 49
2.54
 74
     0
 49
-2.54
 74
     0
  0
LTYPE
  5
72
330
5
100
AcDbSymbolTableRecord
100
AcDbLinetypeTableRecord
  2
DOT2
 70
     0
  3
Dot (.5x) ........................................
 72
    65
 73
     2
 40
0.635
 49
0.0
 74
     0
 49
-0.635
 74
     0
  0
ENDTAB
  0
TABLE
  2
LAYER
  5
2
330
0
100
AcDbSymbolTable
 70
    13
  0
LAYER
  5
10
330
2
100
AcDbSymbolTableRecord
100
AcDbLayerTableRecord
  2
0
 70
     0
 62
     7
  6
Continuous
370
    -3
390
F
  0
LAYER
  5
73
330
2
100
AcDbSymbolTableRecord
100
AcDbLayerTableRecord
  2
FORMAT
 70
     0
 62
     7
  6
Continuous
370
    -3
390
F
  0
LAYER
  5
74
330
2
100
AcDbSymbolTableRecord
100
AcDbLayerTableRecord
  2
OSA
 70
     0
 62
     7
  6
CENTER
370
    -3
390
F
  0
LAYER
  5
75
330
2
100
AcDbSymbolTableRecord
100
AcDbLayerTableRecord
  2
0_35
 70
     0
 62
     7
  6
Continuous
370
    35
390
F
  0
LAYER
  5
76
330
2
100
AcDbSymbolTableRecord
100
AcDbLayerTableRecord
  2
0_5
 70
     0
 62
     7
  6
Continuous
370
    50
390
F
  0
LAYER
  5
77
330
2
100
AcDbSymbolTableRecord
100
AcDbLayerTableRecord
  2
0_25
 70
     0
 62
     7
  6
Continuous
370
    25
390
F
  0
LAYER
  5
78
330
2
100
AcDbSymbolTableRecord
100
AcDbLayerTableRecord
  2
0_18
 70
     0
 62
     7
  6
Continuous
370
    -3
390
F
  0
LAYER
  5
79
330
2
100
AcDbSymbolTableRecord
100
AcDbLayerTableRecord
  2
SLD-0
 70
     0
 62
   179
  6
Continuous
370
    -3
390
F
  0
LAYER
  5
7A
330
2
100
AcDbSymbolTableRecord
100
AcDbLayerTableRecord
  2
KOTY
 70
     0
 62
     7
  6
Continuous
370
    -3
390
F
  0
LAYER
  5
7B
330
2
100
AcDbSymbolTableRecord
100
AcDbLayerTableRecord
  2
SILNA
 70
     0
 62
   179
  6
Continuous
370
    -3
390
F
  0
LAYER
  5
7C
330
2
100
AcDbSymbolTableRecord
100
AcDbLayerTableRecord
  2
0_18_1
 70
     0
 62
   179
  6
Continuous
370
    -3
390
F
  0
LAYER
  5
7D
330
2
100
AcDbSymbolTableRecord
100
AcDbLayerTableRecord
  2
0_35_1
 70
     0
 62
   179
  6
Continuous
370
    35
390
F
  0
LAYER
  5
7E
330
2
100
AcDbSymbolTableRecord
100
AcDbLayerTableRecord
  2
0_5_1
 70
     0
 62
   179
  6
Continuous
370
    50
390
F
  0
ENDTAB
  0
TABLE
  2
STYLE
  5
3
330
0
100
AcDbSymbolTable
 70
     1
  0
STYLE
  5
11
330
3
100
AcDbSymbolTableRecord
100
AcDbTextStyleTableRecord
  2
Standard
 70
     0
 40
0.0
 41
1.0
 50
0.0
 71
     0
 42
2.0
  3
txt
  4

  0
ENDTAB
  0
TABLE
  2
VIEW
  5
6
330
0
100
AcDbSymbolTable
 70
     0
  0
ENDTAB
  0
TABLE
  2
UCS
  5
7
330
0
100
AcDbSymbolTable
 70
     0
  0
ENDTAB
  0
TABLE
  2
APPID
  5
9
330
0
100
AcDbSymbolTable
 70
     1
  0
APPID
  5
12
330
9
100
AcDbSymbolTableRecord
100
AcDbRegAppTableRecord
  2
ACAD
 70
     0
  0
ENDTAB
  0
TABLE
  2
DIMSTYLE
  5
A
330
0
100
AcDbSymbolTable
 70
     1
100
AcDbDimStyleTable
  0
DIMSTYLE
105
27
330
A
100
AcDbSymbolTableRecord
100
AcDbDimStyleTableRecord
  2
ISO-25
 70
     0
 41
2.5
 42
0.625
 43
3.75
 44
1.25
 73
     0
 74
     0
 77
     1
 78
     8
140
2.5
141
2.5
143
0.0393700787
147
0.625
171
     3
172
     1
178
     0
271
     2
272
     2
274
     3
278
    44
283
     0
284
     8
340
11
  0
ENDTAB
  0
TABLE
  2
BLOCK_RECORD
  5
1
330
0
100
AcDbSymbolTable
 70
     1
  0
BLOCK_RECORD
  5
1F
330
1
100
AcDbSymbolTableRecord
100
AcDbBlockTableRecord
  2
*Model_Space
340
22
  0
BLOCK_RECORD
  5
1B
330
1
100
AcDbSymbolTableRecord
100
AcDbBlockTableRecord
  2
*Paper_Space
340
1E
  0
BLOCK_RECORD
  5
23
330
1
100
AcDbSymbolTableRecord
100
AcDbBlockTableRecord
  2
*Paper_Space0
340
26
  0
ENDTAB
  0
ENDSEC
  0
SECTION
  2
BLOCKS
  0
BLOCK
  5
20
330
1F
100
AcDbEntity
  8
0
100
AcDbBlockBegin
  2
*Model_Space
 70
     0
 10
0.0
 20
0.0
 30
0.0
  3
*Model_Space
  1

  0
ENDBLK
  5
21
330
1F
100
AcDbEntity
  8
0
100
AcDbBlockEnd
  0
BLOCK
  5
1C
330
1B
100
AcDbEntity
 67
     1
  8
0
100
AcDbBlockBegin
  2
*Paper_Space
 70
     0
 10
0.0
 20
0.0
 30
0.0
  3
*Paper_Space
  1

  0
ENDBLK
  5
1D
330
1B
100
AcDbEntity
 67
     1
  8
0
100
AcDbBlockEnd
  0
BLOCK
  5
24
330
23
100
AcDbEntity
  8
0
100
AcDbBlockBegin
  2
*Paper_Space0
 70
     0
 10
0.0
 20
0.0
 30
0.0
  3
*Paper_Space0
  1

  0
ENDBLK
  5
25
330
23
100
AcDbEntity
  8
0
100
AcDbBlockEnd
  0
ENDSEC
  0
SECTION
  2
ENTITIES
  0
LINE
  5
7F
330
1F
100
AcDbEntity
  8
0
  6
Continuous
 62
     7
370
    25
100
AcDbLine
 10
4814.0429314082
 20
7788.5544456334
 30
0.0
 11
4796.1822414399
 21
7788.5544456334
 31
0.0
  0
LINE
  5
80
330
1F
100
AcDbEntity
  8
0
  6
Continuous
 62
     7
370
    25
100
AcDbLine
 10
4813.3162263597
 20
7781.5544456334
 30
0.0
 11
4818.4031616995
 21
7781.5544456334
 31
0.0
  0
LINE
  5
81
330
1F
100
AcDbEntity
  8
0
  6
Continuous
 62
     7
370
    25
100
AcDbLine
 10
4803.1347234847
 20
7781.5544456334
 30
0.0
 11
4804.9103342177
 21
7781.5544456334
 31
0.0
  0
LINE
  5
82
330
1F
100
AcDbEntity
  8
0
  6
Continuous
 62
     7
370
    25
100
AcDbLine
 10
4768.3728167154
 20
7781.5544456334
 30
0.0
 11
4775.8031616995
 21
7781.5544456334
 31
0.0
  0
LINE
  5
83
330
1F
100
AcDbEntity
  8
0
  6
Continuous
 62
     7
370
    25
100
AcDbLine
 10
4757.9424717312
 20
7781.5544456334
 30
0.0
 11
4765.3728167154
 21
7781.5544456334
 31
0.0
  0
LINE
  5
84
330
1F
100
AcDbEntity
  8
0
  6
Continuous
 62
     7
370
    25
100
AcDbLine
 10
4842.9228167154
 20
7781.5544456334
 30
0.0
 11
4850.3531616995
 21
7781.5544456334
 31
0.0
  0
LINE
  5
85
330
1F
100
AcDbEntity
  8
0
  6
Continuous
 62
     7
370
    25
100
AcDbLine
 10
4832.4924717312
 20
7781.5544456334
 30
0.0
 11
4839.9228167154
 21
7781.5544456334
 31
0.0
  0
LINE
  5
86
330
1F
100
AcDbEntity
  8
0
  6
Continuous
 62
     7
370
    25
100
AcDbLine
 10
4895.6800183986
 20
7790.5544456334
 30
0.0
 11
4857.3875804794
 21
7790.5544456334
 31
0.0
  0
LINE
  5
87
330
1F
100
AcDbEntity
  8
0
  6
Continuous
 62
     7
370
    25
100
AcDbLine
 10
4885.4136212009
 20
7782.5544456334
 30
0.0
 11
4893.676782454
 21
7782.5544456334
 31
0.0
  0
LINE
  5
88
330
1F
100
AcDbEntity
  8
0
  6
Continuous
 62
     7
370
    25
100
AcDbLine
 10
4874.8630244611
 20
7782.5544456334
 30
0.0
 11
4882.6060549594
 21
7782.5544456334
 31
0.0
  0
LINE
  5
89
330
1F
100
AcDbEntity
  8
0
  6
Continuous
 62
     7
370
    25
100
AcDbLine
 10
4864.0179145873
 20
7782.5544456334
 30
0.0
 11
4871.8880014438
 21
7782.5544456334
 31
0.0
  0
LINE
  5
8A
330
1F
100
AcDbEntity
  8
0
  6
Continuous
 62
     7
370
    25
100
AcDbLine
 10
4857.3875804794
 20
7782.5544456334
 30
0.0
 11
4861.2228167154
 21
7782.5544456334
 31
0.0
  0
LINE
  5
8B
330
1F
100
AcDbEntity
  8
0
  6
Continuous
 62
     7
370
    25
100
AcDbLine
 10
4871.8728167154
 20
7782.565230681
 30
0.0
 11
4871.8728167154
 21
7732.5544456334
 31
0.0
  0
LINE
  5
8C
330
1F
100
AcDbEntity
  8
0
  6
Continuous
 62
     7
370
    25
100
AcDbLine
 10
4874.8728167154
 20
7732.5544456334
 30
0.0
 11
4874.8728167154
 21
7782.5571468166
 31
0.0
  0
LINE
  5
8D
330
1F
100
AcDbEntity
  8
0
  6
Continuous
 62
     7
370
    25
100
AcDbLine
 10
4874.8728167154
 20
7727.5544456334
 30
0.0
 11
4874.8728167154
 21
7732.5544456334
 31
0.0
  0
LINE
  5
8E
330
1F
100
AcDbEntity
  8
0
  6
Continuous
 62
     7
370
    25
100
AcDbLine
 10
4871.8728167154
 20
7732.5544456334
 30
0.0
 11
4871.8728167154
 21
7727.5544456334
 31
0.0
  0
LINE
  5
8F
330
1F
100
AcDbEntity
  8
0
  6
Continuous
 62
     7
370
    25
100
AcDbLine
 10
4882.5228167154
 20
7782.5544456334
 30
0.0
 11
4882.5228167154
 21
7732.5544456334
 31
0.0
  0
LINE
  5
90
330
1F
100
AcDbEntity
  8
0
  6
Continuous
 62
     7
370
    25
100
AcDbLine
 10
4885.5228167154
 20
7732.5544456334
 30
0.0
 11
4885.5228167154
 21
7782.5932681177
 31
0.0
  0
LINE
  5
91
330
1F
100
AcDbEntity
  8
0
  6
Continuous
 62
     7
370
    25
100
AcDbLine
 10
4885.5228167154
 20
7727.5544456334
 30
0.0
 11
4885.5228167154
 21
7732.5544456334
 31
0.0
  0
LINE
  5
92
330
1F
100
AcDbEntity
  8
0
  6
Continuous
 62
     7
370
    25
100
AcDbLine
 10
4882.5228167154
 20
7732.5544456334
 30
0.0
 11
4882.5228167154
 21
7727.5544456334
 31
0.0
  0
LINE
  5
93
330
1F
100
AcDbEntity
  8
0
  6
Continuous
 62
     7
370
    25
100
AcDbLine
 10
4864.2228167154
 20
7727.5544456334
 30
0.0
 11
4864.2228167154
 21
7732.5544456334
 31
0.0
  0
LINE
  5
94
330
1F
100
AcDbEntity
  8
0
  6
Continuous
 62
     7
370
    25
100
AcDbLine
 10
4861.2228167154
 20
7732.5544456334
 30
0.0
 11
4861.2228167154
 21
7727.5544456334
 31
0.0
  0
LINE
  5
95
330
1F
100
AcDbEntity
  8
0
  6
Continuous
 62
     7
370
    25
100
AcDbLine
 10
4861.2228167154
 20
7782.6389379927
 30
0.0
 11
4861.2228167154
 21
7732.5544456334
 31
0.0
  0
LINE
  5
96
330
1F
100
AcDbEntity
  8
0
  6
Continuous
 62
     7
370
    25
100
AcDbLine
 10
4864.2228167154
 20
7732.5544456334
 30
0.0
 11
4864.2228167154
 21
7782.5544456334
 31
0.0
  0
LINE
  5
97
330
1F
100
AcDbEntity
  8
0
  6
Continuous
 62
     7
370
    25
100
AcDbLine
 10
4853.1011957575
 20
7782.5544456334
 30
0.0
 11
4857.3875804794
 21
7782.5544456334
 31
0.0
  0
LINE
  5
98
330
1F
100
AcDbEntity
  8
0
  6
Continuous
 62
     7
370
    25
100
AcDbLine
 10
4842.4511957575
 20
7782.5544456334
 30
0.0
 11
4850.5728167154
 21
7782.5544456334
 31
0.0
  0
LINE
  5
99
330
1F
100
AcDbEntity
  8
0
  6
Continuous
 62
     7
370
    25
100
AcDbLine
 10
4831.8011957575
 20
7782.5544456334
 30
0.0
 11
4839.9228167154
 21
7782.5544456334
 31
0.0
  0
LINE
  5
9A
330
1F
100
AcDbEntity
  8
0
  6
Continuous
 62
     7
370
    25
100
AcDbLine
 10
4821.1511957575
 20
7782.5544456334
 30
0.0
 11
4829.2728167154
 21
7782.5544456334
 31
0.0
  0
LINE
  5
9B
330
1F
100
AcDbEntity
  8
0
  6
Continuous
 62
     7
370
    25
100
AcDbLine
 10
4818.4031616995
 20
7782.5544456334
 30
0.0
 11
4818.6228167154
 21
7782.5544456334
 31
0.0
  0
LINE
  5
9C
330
1F
100
AcDbEntity
  8
0
  6
Continuous
 62
     7
370
    25
100
AcDbLine
 10
4789.2011957575
 20
7782.5544456334
 30
0.0
 11
4794.7288313428
 21
7782.5544456334
 31
0.0
  0
LINE
  5
9D
330
1F
100
AcDbEntity
  8
0
  6
Continuous
 62
     7
370
    25
100
AcDbLine
 10
4778.5511957575
 20
7782.5544456334
 30
0.0
 11
4786.6728167154
 21
7782.5544456334
 31
0.0
  0
LINE
  5
9E
330
1F
100
AcDbEntity
  8
0
  6
Continuous
 62
     7
370
    25
100
AcDbLine
 10
4767.8926163708
 20
7782.5544456334
 30
0.0
 11
4776.0228167154
 21
7782.5544456334
 31
0.0
  0
LINE
  5
9F
330
1F
100
AcDbEntity
  8
0
  6
Continuous
 62
     7
370
    25
100
AcDbLine
 10
4757.2448151808
 20
7782.5544456334
 30
0.0
 11
4765.3728167154
 21
7782.5544456334
 31
0.0
  0
LINE
  5
A0
330
1F
100
AcDbEntity
  8
0
  6
Continuous
 62
     7
370
    25
100
AcDbLine
 10
4746.5948151808
 20
7782.5544456334
 30
0.0
 11
4754.7228167154
 21
7782.5544456334
 31
0.0
  0
LINE
  5
A1
330
1F
100
AcDbEntity
  8
0
  6
Continuous
 62
     7
370
    25
100
AcDbLine
 10
4742.5728167154
 20
7782.5544456334
 30
0.0
 11
4744.0728167154
 21
7782.5544456334
 31
0.0
  0
LINE
  5
A2
330
1F
100
AcDbEntity
  8
0
  6
Continuous
 62
     7
370
    25
100
AcDbLine
 10
4857.3875804794
 20
7790.5544456334
 30
0.0
 11
4742.5728167154
 21
7790.5544456334
 31
0.0
  0
LINE
  5
A3
330
1F
100
AcDbEntity
  8
0
  6
Continuous
 62
     7
370
    25
100
AcDbLine
 10
4893.1728167154
 20
7782.5544456334
 30
0.0
 11
4893.1728167154
 21
7732.5544456334
 31
0.0
  0
LINE
  5
A4
330
1F
100
AcDbEntity
  8
0
  6
Continuous
 62
     7
370
    25
100
AcDbLine
 10
4896.1728167154
 20
7732.5544456334
 30
0.0
 11
4896.1728167154
 21
7782.7278072427
 31
0.0
  0
LINE
  5
A5
330
1F
100
AcDbEntity
  8
0
  6
Continuous
 62
     7
370
    25
100
AcDbLine
 10
4896.1728167154
 20
7727.5544456334
 30
0.0
 11
4896.1728167154
 21
7732.5544456334
 31
0.0
  0
LINE
  5
A6
330
1F
100
AcDbEntity
  8
0
  6
Continuous
 62
     7
370
    25
100
AcDbLine
 10
4893.1728167154
 20
7732.5544456334
 30
0.0
 11
4893.1728167154
 21
7727.5544456334
 31
0.0
  0
ARC
  5
A7
330
1F
100
AcDbEntity
  8
0
  6
Continuous
 62
     7
370
    25
100
AcDbCircle
 10
4938.1198809537
 20
7786.5544456334
 30
0.0
 40
4.000000000000909
100
AcDbArc
 50
270.0
 51
90.0
  0
LINE
  5
A8
330
1F
100
AcDbEntity
  8
0
  6
Continuous
 62
     7
370
    25
100
AcDbLine
 10
4938.1198809537
 20
7790.5544456334
 30
0.0
 11
4895.6800183986
 21
7790.5544456334
 31
0.0
  0
LINE
  5
A9
330
1F
100
AcDbEntity
  8
0
  6
Continuous
 62
     7
370
    25
100
AcDbLine
 10
4937.5728167154
 20
7782.5544456334
 30
0.0
 11
4938.1198809537
 21
7782.5544456334
 31
0.0
  0
LINE
  5
AA
330
1F
100
AcDbEntity
  8
0
  6
Continuous
 62
     7
370
    25
100
AcDbLine
 10
4928.1228167154
 20
7782.5544456334
 30
0.0
 11
4935.8638231573
 21
7782.5544456334
 31
0.0
  0
LINE
  5
AB
330
1F
100
AcDbEntity
  8
0
  6
Continuous
 62
     7
370
    25
100
AcDbLine
 10
4917.4728167154
 20
7782.5544456334
 30
0.0
 11
4926.1375795366
 21
7782.5544456334
 31
0.0
  0
LINE
  5
AC
330
1F
100
AcDbEntity
  8
0
  6
Continuous
 62
     7
370
    25
100
AcDbLine
 10
4906.8228167154
 20
7782.5544456334
 30
0.0
 11
4915.3168044003
 21
7782.5544456334
 31
0.0
  0
LINE
  5
AD
330
1F
100
AcDbEntity
  8
0
  6
Continuous
 62
     7
370
    25
100
AcDbLine
 10
4896.1728167154
 20
7782.5544456334
 30
0.0
 11
4904.5364950651
 21
7782.5544456334
 31
0.0
  0
LINE
  5
AE
330
1F
100
AcDbEntity
  8
0
  6
Continuous
 62
     7
370
    25
100
AcDbLine
 10
4853.5728167154
 20
7727.5544456334
 30
0.0
 11
4853.5728167154
 21
7732.5544456334
 31
0.0
  0
LINE
  5
AF
330
1F
100
AcDbEntity
  8
0
  6
Continuous
 62
     7
370
    25
100
AcDbLine
 10
4850.5728167154
 20
7732.5544456334
 30
0.0
 11
4850.5728167154
 21
7727.5544456334
 31
0.0
  0
LINE
  5
B0
330
1F
100
AcDbEntity
  8
0
  6
Continuous
 62
     7
370
    25
100
AcDbLine
 10
4850.5728167154
 20
7782.7058388091
 30
0.0
 11
4850.5728167154
 21
7732.5544456334
 31
0.0
  0
LINE
  5
B1
330
1F
100
AcDbEntity
  8
0
  6
Continuous
 62
     7
370
    25
100
AcDbLine
 10
4853.5728167154
 20
7732.5544456334
 30
0.0
 11
4853.5728167154
 21
7782.5544456334
 31
0.0
  0
LINE
  5
B2
330
1F
100
AcDbEntity
  8
0
  6
Continuous
 62
     7
370
    25
100
AcDbLine
 10
4903.8228167154
 20
7782.5544456334
 30
0.0
 11
4903.8228167154
 21
7732.5544456334
 31
0.0
  0
LINE
  5
B3
330
1F
100
AcDbEntity
  8
0
  6
Continuous
 62
     7
370
    25
100
AcDbLine
 10
4906.8228167154
 20
7732.5544456334
 30
0.0
 11
4906.8228167154
 21
7782.7631779235
 31
0.0
  0
LINE
  5
B4
330
1F
100
AcDbEntity
  8
0
  6
Continuous
 62
     7
370
    25
100
AcDbLine
 10
4906.8228167154
 20
7727.5544456334
 30
0.0
 11
4906.8228167154
 21
7732.5544456334
 31
0.0
  0
LINE
  5
B5
330
1F
100
AcDbEntity
  8
0
  6
Continuous
 62
     7
370
    25
100
AcDbLine
 10
4903.8228167154
 20
7732.5544456334
 30
0.0
 11
4903.8228167154
 21
7727.5544456334
 31
0.0
  0
LINE
  5
B6
330
1F
100
AcDbEntity
  8
0
  6
Continuous
 62
     7
370
    25
100
AcDbLine
 10
4842.9228167154
 20
7727.5544456334
 30
0.0
 11
4842.9228167154
 21
7732.5544456334
 31
0.0
  0
LINE
  5
B7
330
1F
100
AcDbEntity
  8
0
  6
Continuous
 62
     7
370
    25
100
AcDbLine
 10
4839.9228167154
 20
7732.5544456334
 30
0.0
 11
4839.9228167154
 21
7727.5544456334
 31
0.0
  0
LINE
  5
B8
330
1F
100
AcDbEntity
  8
0
  6
Continuous
 62
     7
370
    25
100
AcDbLine
 10
4839.9228167154
 20
7782.7058388091
 30
0.0
 11
4839.9228167154
 21
7732.5544456334
 31
0.0
  0
LINE
  5
B9
330
1F
100
AcDbEntity
  8
0
  6
Continuous
 62
     7
370
    25
100
AcDbLine
 10
4842.9228167154
 20
7732.5544456334
 30
0.0
 11
4842.9228167154
 21
7782.5544456334
 31
0.0
  0
LINE
  5
BA
330
1F
100
AcDbEntity
  8
0
  6
Continuous
 62
     7
370
    25
100
AcDbLine
 10
4832.2728167154
 20
7727.5544456334
 30
0.0
 11
4832.2728167154
 21
7732.5544456334
 31
0.0
  0
LINE
  5
BB
330
1F
100
AcDbEntity
  8
0
  6
Continuous
 62
     7
370
    25
100
AcDbLine
 10
4829.2728167154
 20
7732.5544456334
 30
0.0
 11
4829.2728167154
 21
7727.5544456334
 31
0.0
  0
LINE
  5
BC
330
1F
100
AcDbEntity
  8
0
  6
Continuous
 62
     7
370
    25
100
AcDbLine
 10
4829.2728167154
 20
7782.7058388091
 30
0.0
 11
4829.2728167154
 21
7732.5544456334
 31
0.0
  0
LINE
  5
BD
330
1F
100
AcDbEntity
  8
0
  6
Continuous
 62
     7
370
    25
100
AcDbLine
 10
4832.2728167154
 20
7732.5544456334
 30
0.0
 11
4832.2728167154
 21
7782.5544456334
 31
0.0
  0
LINE
  5
BE
330
1F
100
AcDbEntity
  8
0
  6
Continuous
 62
     7
370
    25
100
AcDbLine
 10
4917.4728167154
 20
7727.5544456334
 30
0.0
 11
4917.4728167154
 21
7732.5544456334
 31
0.0
  0
LINE
  5
BF
330
1F
100
AcDbEntity
  8
0
  6
Continuous
 62
     7
370
    25
100
AcDbLine
 10
4914.4728167154
 20
7732.5544456334
 30
0.0
 11
4914.4728167154
 21
7727.5544456334
 31
0.0
  0
LINE
  5
C0
330
1F
100
AcDbEntity
  8
0
  6
Continuous
 62
     7
370
    25
100
AcDbLine
 10
4914.4728167154
 20
7782.5544456334
 30
0.0
 11
4914.4728167154
 21
7732.5544456334
 31
0.0
  0
LINE
  5
C1
330
1F
100
AcDbEntity
  8
0
  6
Continuous
 62
     7
370
    25
100
AcDbLine
 10
4917.4728167154
 20
7732.5544456334
 30
0.0
 11
4917.4728167154
 21
7782.788043745
 31
0.0
  0
LINE
  5
C2
330
1F
100
AcDbEntity
  8
0
  6
Continuous
 62
     7
370
    25
100
AcDbLine
 10
4818.6228167154
 20
7782.7058388091
 30
0.0
 11
4818.6228167154
 21
7732.5544456334
 31
0.0
  0
LINE
  5
C3
330
1F
100
AcDbEntity
  8
0
  6
Continuous
 62
     7
370
    25
100
AcDbLine
 10
4821.6228167154
 20
7732.5544456334
 30
0.0
 11
4821.6228167154
 21
7782.5544456334
 31
0.0
  0
LINE
  5
C4
330
1F
100
AcDbEntity
  8
0
  6
Continuous
 62
     7
370
    25
100
AcDbLine
 10
4821.6228167154
 20
7727.5544456334
 30
0.0
 11
4821.6228167154
 21
7732.5544456334
 31
0.0
  0
LINE
  5
C5
330
1F
100
AcDbEntity
  8
0
  6
Continuous
 62
     7
370
    25
100
AcDbLine
 10
4818.6228167154
 20
7732.5544456334
 30
0.0
 11
4818.6228167154
 21
7727.5544456334
 31
0.0
  0
LINE
  5
C6
330
1F
100
AcDbEntity
  8
0
  6
Continuous
 62
     7
370
    25
100
AcDbLine
 10
4928.1228167154
 20
7730.0544456334
 30
0.0
 11
4928.1228167154
 21
7735.0544456334
 31
0.0
  0
LINE
  5
C7
330
1F
100
AcDbEntity
  8
0
  6
Continuous
 62
     7
370
    25
100
AcDbLine
 10
4925.1228167154
 20
7735.0544456334
 30
0.0
 11
4925.1228167154
 21
7730.0544456334
 31
0.0
  0
LINE
  5
C8
330
1F
100
AcDbEntity
  8
0
  6
Continuous
 62
     7
370
    25
100
AcDbLine
 10
4925.1228167154
 20
7782.5544456334
 30
0.0
 11
4925.1228167154
 21
7735.0544456334
 31
0.0
  0
LINE
  5
C9
330
1F
100
AcDbEntity
  8
0
  6
Continuous
 62
     7
370
    25
100
AcDbLine
 10
4928.1228167154
 20
7735.0544456334
 30
0.0
 11
4928.1228167154
 21
7782.8136584948
 31
0.0
  0
LINE
  5
CA
330
1F
100
AcDbEntity
  8
0
  6
Continuous
 62
     7
370
    25
100
AcDbLine
 10
4789.6728167154
 20
7727.5544456334
 30
0.0
 11
4789.6728167154
 21
7732.5544456334
 31
0.0
  0
LINE
  5
CB
330
1F
100
AcDbEntity
  8
0
  6
Continuous
 62
     7
370
    25
100
AcDbLine
 10
4786.6728167154
 20
7732.5544456334
 30
0.0
 11
4786.6728167154
 21
7727.5544456334
 31
0.0
  0
LINE
  5
CC
330
1F
100
AcDbEntity
  8
0
  6
Continuous
 62
     7
370
    25
100
AcDbLine
 10
4786.6728167154
 20
7782.7058388091
 30
0.0
 11
4786.6728167154
 21
7732.5544456334
 31
0.0
  0
LINE
  5
CD
330
1F
100
AcDbEntity
  8
0
  6
Continuous
 62
     7
370
    25
100
AcDbLine
 10
4789.6728167154
 20
7732.5544456334
 30
0.0
 11
4789.6728167154
 21
7782.5544456334
 31
0.0
  0
LINE
  5
CE
330
1F
100
AcDbEntity
  8
0
  6
Continuous
 62
     7
370
    25
100
AcDbLine
 10
4779.0228167154
 20
7727.5544456334
 30
0.0
 11
4779.0228167154
 21
7732.5544456334
 31
0.0
  0
LINE
  5
CF
330
1F
100
AcDbEntity
  8
0
  6
Continuous
 62
     7
370
    25
100
AcDbLine
 10
4776.0228167154
 20
7732.5544456334
 30
0.0
 11
4776.0228167154
 21
7727.5544456334
 31
0.0
  0
LINE
  5
D0
330
1F
100
AcDbEntity
  8
0
  6
Continuous
 62
     7
370
    25
100
AcDbLine
 10
4776.0228167154
 20
7782.7058388091
 30
0.0
 11
4776.0228167154
 21
7732.5544456334
 31
0.0
  0
LINE
  5
D1
330
1F
100
AcDbEntity
  8
0
  6
Continuous
 62
     7
370
    25
100
AcDbLine
 10
4779.0228167154
 20
7732.5544456334
 30
0.0
 11
4779.0228167154
 21
7782.5544456334
 31
0.0
  0
LINE
  5
D2
330
1F
100
AcDbEntity
  8
0
  6
Continuous
 62
     7
370
    25
100
AcDbLine
 10
4765.3728167154
 20
7782.7051571442
 30
0.0
 11
4765.3728167154
 21
7732.5544456334
 31
0.0
  0
LINE
  5
D3
330
1F
100
AcDbEntity
  8
0
  6
Continuous
 62
     7
370
    25
100
AcDbLine
 10
4768.3728167154
 20
7732.5544456334
 30
0.0
 11
4768.3728167154
 21
7782.5544456334
 31
0.0
  0
LINE
  5
D4
330
1F
100
AcDbEntity
  8
0
  6
Continuous
 62
     7
370
    25
100
AcDbLine
 10
4768.3728167154
 20
7727.5544456334
 30
0.0
 11
4768.3728167154
 21
7732.5544456334
 31
0.0
  0
LINE
  5
D5
330
1F
100
AcDbEntity
  8
0
  6
Continuous
 62
     7
370
    25
100
AcDbLine
 10
4765.3728167154
 20
7732.5544456334
 30
0.0
 11
4765.3728167154
 21
7727.5544456334
 31
0.0
  0
LINE
  5
D6
330
1F
100
AcDbEntity
  8
0
  6
Continuous
 62
     7
370
    25
100
AcDbLine
 10
4934.5728167154
 20
7782.5544456334
 30
0.0
 11
4934.5728167154
 21
7737.5544456334
 31
0.0
  0
LINE
  5
D7
330
1F
100
AcDbEntity
  8
0
  6
Continuous
 62
     7
370
    25
100
AcDbLine
 10
4937.5728167154
 20
7737.5544456334
 30
0.0
 11
4937.5728167154
 21
7782.8343303908
 31
0.0
  0
LINE
  5
D8
330
1F
100
AcDbEntity
  8
0
  6
Continuous
 62
     7
370
    25
100
AcDbLine
 10
4937.5728167154
 20
7732.5544456334
 30
0.0
 11
4937.5728167154
 21
7737.5544456334
 31
0.0
  0
LINE
  5
D9
330
1F
100
AcDbEntity
  8
0
  6
Continuous
 62
     7
370
    25
100
AcDbLine
 10
4934.5728167154
 20
7737.5544456334
 30
0.0
 11
4934.5728167154
 21
7732.5544456334
 31
0.0
  0
LINE
  5
DA
330
1F
100
AcDbEntity
  8
0
  6
Continuous
 62
     7
370
    25
100
AcDbLine
 10
4754.7228167154
 20
7732.5544456334
 30
0.0
 11
4754.7228167154
 21
7727.5544456334
 31
0.0
  0
LINE
  5
DB
330
1F
100
AcDbEntity
  8
0
  6
Continuous
 62
     7
370
    25
100
AcDbLine
 10
4757.7228167154
 20
7727.5544456334
 30
0.0
 11
4757.7228167154
 21
7732.5544456334
 31
0.0
  0
LINE
  5
DC
330
1F
100
AcDbEntity
  8
0
  6
Continuous
 62
     7
370
    25
100
AcDbLine
 10
4757.7228167154
 20
7732.5544456334
 30
0.0
 11
4757.7228167154
 21
7782.5544456334
 31
0.0
  0
LINE
  5
DD
330
1F
100
AcDbEntity
  8
0
  6
Continuous
 62
     7
370
    25
100
AcDbLine
 10
4754.7228167154
 20
7782.7062615871
 30
0.0
 11
4754.7228167154
 21
7732.5544456334
 31
0.0
  0
LINE
  5
DE
330
1F
100
AcDbEntity
  8
0
  6
Continuous
 62
     7
370
    25
100
AcDbLine
 10
4744.0728167154
 20
7737.5544456334
 30
0.0
 11
4744.0728167154
 21
7732.5544456334
 31
0.0
  0
LINE
  5
DF
330
1F
100
AcDbEntity
  8
0
  6
Continuous
 62
     7
370
    25
100
AcDbLine
 10
4747.0728167154
 20
7732.5544456334
 30
0.0
 11
4747.0728167154
 21
7737.5544456334
 31
0.0
  0
LINE
  5
E0
330
1F
100
AcDbEntity
  8
0
  6
Continuous
 62
     7
370
    25
100
AcDbLine
 10
4747.0728167154
 20
7737.5544456334
 30
0.0
 11
4747.0728167154
 21
7782.5544456334
 31
0.0
  0
LINE
  5
E1
330
1F
100
AcDbEntity
  8
0
  6
Continuous
 62
     7
370
    25
100
AcDbLine
 10
4744.0728167154
 20
7782.7062615871
 30
0.0
 11
4744.0728167154
 21
7737.5544456334
 31
0.0
  0
LINE
  5
E2
330
1F
100
AcDbEntity
  8
0
  6
Continuous
 62
     7
370
    25
100
AcDbLine
 10
4794.7288313428
 20
7786.5544456334
 30
0.0
 11
4812.5895213111
 21
7786.5544456334
 31
0.0
  0
ARC
  5
E3
330
1F
100
AcDbEntity
  8
0
  6
Continuous
 62
     7
370
    25
100
AcDbCircle
 10
4796.5069259686
 20
7786.7903955196
 30
0.0
 40
1.793681367238414
100
AcDbArc
 50
100.4289283532
 51
187.5588833609
  0
LWPOLYLINE
  5
E4
330
1F
100
AcDbEntity
  8
0
  6
Continuous
 62
     7
370
    25
100
AcDbPolyline
 90
        9
 70
   128
 43
0.0
 10
4812.5895213111
 20
7786.5544456334
 10
4812.7001555671
 20
7787.3198124981
 10
4813.0152152727
 20
7787.9686591958
 10
4813.4867354436
 20
7788.4022046984
 10
4814.0429314082
 20
7788.5544456334
 10
4814.5991273728
 20
7788.4022046984
 10
4815.0706475437
 20
7787.9686591958
 10
4815.3857072493
 20
7787.3198124981
 10
4815.4963415053
 20
7786.5544456334
  0
LINE
  5
E5
330
1F
100
AcDbEntity
  8
0
  6
Continuous
 62
     7
370
    25
100
AcDbLine
 10
4794.7288313428
 20
7713.5544456334
 30
0.0
 11
4812.5895213111
 21
7713.5544456334
 31
0.0
  0
LINE
  5
E6
330
1F
100
AcDbEntity
  8
0
  6
Continuous
 62
     7
370
    25
100
AcDbLine
 10
4794.7288313428
 20
7713.5544456334
 30
0.0
 11
4794.7288313428
 21
7786.5544456334
 31
0.0
  0
LINE
  5
E7
330
1F
100
AcDbEntity
  8
0
  6
Continuous
 62
     7
370
    25
100
AcDbLine
 10
4812.5895213111
 20
7713.5544456334
 30
0.0
 11
4812.5895213111
 21
7786.5544456334
 31
0.0
  0
LWPOLYLINE
  5
E8
330
1F
100
AcDbEntity
  8
0
  6
Continuous
 62
     7
370
    25
100
AcDbPolyline
 90
       20
 70
   128
 43
0.0
 10
4805.3765503624
 20
7779.8419099384
 10
4805.2834983001
 20
7780.6536586114
 10
4805.0144257481
 20
7781.3774417201
 10
4804.5984908924
 20
7781.934826134
 10
4804.0807667286
 20
7782.2654106032
 10
4803.5173567032
 20
7782.3333711709
 10
4802.9693150345
 20
7782.131343255
 10
4802.4960305412
 20
7781.6812197151
 10
4802.1487909418
 20
7781.031778421
 10
4801.9652250349
 20
7780.2533964141
 10
4801.9652250349
 20
7779.4304234627
 10
4802.1487909418
 20
7778.6520414558
 10
4802.4960305412
 20
7778.0026001617
 10
4802.9693150345
 20
7777.5524766217
 10
4803.5173567032
 20
7777.3504487059
 10
4804.0807667286
 20
7777.4184092735
 10
4804.5984908924
 20
7777.7489937427
 10
4805.0144257481
 20
7778.3063781567
 10
4805.2834983001
 20
7779.0301612654
 10
4805.3765503624
 20
7779.8419099384
  0
LWPOLYLINE
  5
E9
330
1F
100
AcDbEntity
  8
0
  6
Continuous
 62
     7
370
    25
100
AcDbPolyline
 90
        8
 70
   128
 43
0.0
 10
4815.4963415053
 20
7786.5544456334
 10
4815.5945996214
 20
7785.5232319174
 10
4815.8827312075
 20
7784.5617336364
 10
4816.3412570631
 20
7783.7349530974
 10
4816.9391784448
 20
7783.0987849846
 10
4817.6360727432
 20
7782.696237586
 10
4818.3848262628
 20
7782.5545252091
 10
4818.4031616995
 20
7782.5544456334
  0
LINE
  5
EA
330
1F
100
AcDbEntity
  8
0
  6
Continuous
 62
     7
370
    25
100
AcDbLine
 10
4820.1472541704
 20
7790.5544456334
 30
0.0
 11
4820.2725954061
 21
7790.8419099384
 31
0.0
  0
LINE
  5
EB
330
1F
100
AcDbEntity
  8
0
  6
Continuous
 62
     7
370
    25
100
AcDbLine
 10
4820.2725954061
 20
7790.8419099384
 30
0.0
 11
4820.5832768452
 21
7790.5544456334
 31
0.0
  0
LWPOLYLINE
  5
EC
330
1F
100
AcDbEntity
  8
0
  6
Continuous
 62
     7
370
    25
100
AcDbPolyline
 90
        9
 70
   128
 43
0.0
 10
4818.6228167154
 20
7781.563590202
 10
4818.5906997707
 20
7781.5611098953
 10
4817.7521532023
 20
7781.6353524267
 10
4816.948422628
 20
7781.9726685124
 10
4816.2224916321
 20
7782.5550184574
 10
4815.6131830708
 20
7783.3512581333
 10
4815.1530828216
 20
7784.3188045696
 10
4814.8667970878
 20
7785.4059132942
 10
4814.7696364568
 20
7786.5544456334
  0
LWPOLYLINE
  5
ED
330
1F
100
AcDbEntity
  8
0
  6
Continuous
 62
     7
370
    25
100
AcDbPolyline
 90
        9
 70
   128
 43
0.0
 10
4814.7696364568
 20
7786.5544456334
 10
4814.7143193287
 20
7786.9371290658
 10
4814.556789476
 20
7787.2615524146
 10
4814.3210293905
 20
7787.4783251659
 10
4814.0429314082
 20
7787.5544456334
 10
4813.7648334259
 20
7787.4783251659
 10
4813.5290733405
 20
7787.2615524146
 10
4813.3715434877
 20
7786.9371290658
 10
4813.3162263597
 20
7786.5544456334
  0
LINE
  5
EE
330
1F
100
AcDbEntity
  8
0
  6
Continuous
 62
     7
370
    25
100
AcDbLine
 10
4813.3162263597
 20
7786.5544456334
 30
0.0
 11
4813.3162263597
 21
7713.5544456334
 31
0.0
  0
LINE
  5
EF
330
1F
100
AcDbEntity
  8
0
  6
Continuous
 62
     7
370
    25
100
AcDbLine
 10
4813.3162263597
 20
7713.5544456334
 30
0.0
 11
4812.5895213111
 21
7713.5544456334
 31
0.0
  0
LINE
  5
F0
330
1F
100
AcDbEntity
  8
0
  6
Continuous
 62
     7
370
    25
100
AcDbLine
 10
4802.4119054378
 20
7790.8419099384
 30
0.0
 11
4810.037046155
 21
7790.8419099384
 31
0.0
  0
LINE
  5
F1
330
1F
100
AcDbEntity
  8
0
  6
Continuous
 62
     7
370
    25
100
AcDbLine
 10
4812.6474546889
 20
7790.8419099384
 30
0.0
 11
4820.2725954061
 21
7790.8419099384
 31
0.0
  0
LINE
  5
F2
330
1F
100
AcDbEntity
  8
0
  6
Continuous
 62
     7
370
    25
100
AcDbLine
 10
4810.3477275941
 20
7790.5544456334
 30
0.0
 11
4810.037046155
 21
7790.8419099384
 31
0.0
  0
LINE
  5
F3
330
1F
100
AcDbEntity
  8
0
  6
Continuous
 62
     7
370
    25
100
AcDbLine
 10
4812.5221134532
 20
7790.5544456334
 30
0.0
 11
4812.6474546889
 21
7790.8419099384
 31
0.0
  0
LWPOLYLINE
  5
F4
330
1F
100
AcDbEntity
  8
0
  6
Continuous
 62
     7
370
    25
100
AcDbPolyline
 90
       10
 70
   128
 43
0.0
 10
4804.0225288183
 20
7777.398505257
 10
4803.8282509378
 20
7777.4773668341
 10
4803.3310484105
 20
7777.8690586649
 10
4802.9481534024
 20
7778.4745395431
 10
4802.7210585288
 20
7779.2281962205
 10
4802.6743730431
 20
7780.0483583021
 10
4802.813156042
 20
7780.8461485
 10
4803.1223682341
 20
7781.5351138674
 10
4803.5685016805
 20
7782.0405943164
 10
4804.0225288073
 20
7782.2853146163
  0
LINE
  5
F5
330
1F
100
AcDbEntity
  8
0
  6
Continuous
 62
     7
370
    25
100
AcDbLine
 10
4810.037046155
 20
7790.8419099384
 30
0.0
 11
4809.9117049193
 21
7790.5544456334
 31
0.0
  0
LINE
  5
F6
330
1F
100
AcDbEntity
  8
0
  6
Continuous
 62
     7
370
    25
100
AcDbLine
 10
4802.2865642021
 20
7790.5544456334
 30
0.0
 11
4802.4119054378
 21
7790.8419099384
 31
0.0
  0
LINE
  5
F7
330
1F
100
AcDbEntity
  8
0
  6
Continuous
 62
     7
370
    25
100
AcDbLine
 10
4777.6725954061
 20
7790.8419099384
 30
0.0
 11
4770.0474546889
 21
7790.8419099384
 31
0.0
  0
LINE
  5
F8
330
1F
100
AcDbEntity
  8
0
  6
Continuous
 62
     7
370
    25
100
AcDbLine
 10
4777.6725954061
 20
7790.8419099384
 30
0.0
 11
4777.9832768452
 21
7790.5544456334
 31
0.0
  0
LWPOLYLINE
  5
F9
330
1F
100
AcDbEntity
  8
0
  6
Continuous
 62
     7
370
    25
100
AcDbPolyline
 90
        3
 70
   128
 43
0.0
 10
4776.0228167154
 20
7781.563590202
 10
4775.9906997707
 20
7781.5611098953
 10
4775.8031616995
 20
7781.5544456334
  0
LINE
  5
FA
330
1F
100
AcDbEntity
  8
0
  6
Continuous
 62
     7
370
    25
100
AcDbLine
 10
4759.8119054378
 20
7790.8419099384
 30
0.0
 11
4760.1225868769
 21
7790.5544456334
 31
0.0
  0
ARC
  5
FB
330
1F
100
AcDbEntity
  8
0
  6
Continuous
 62
     7
370
    25
100
AcDbCircle
 10
4757.8890918451
 20
7784.5623360006
 30
0.0
 40
3.003352091233489
100
AcDbArc
 50
266.8263006216
 51
318.0447657577
  0
LINE
  5
FC
330
1F
100
AcDbEntity
  8
0
  6
Continuous
 62
     7
370
    25
100
AcDbLine
 10
4767.437046155
 20
7790.8419099384
 30
0.0
 11
4759.8119054378
 21
7790.8419099384
 31
0.0
  0
LINE
  5
FD
330
1F
100
AcDbEntity
  8
0
  6
Continuous
 62
     7
370
    25
100
AcDbLine
 10
4767.437046155
 20
7790.8419099384
 30
0.0
 11
4767.7477275941
 21
7790.5544456334
 31
0.0
  0
ARC
  5
FE
330
1F
100
AcDbEntity
  8
0
  6
Continuous
 62
     7
370
    25
100
AcDbCircle
 10
4768.0789973984
 20
7784.6306105118
 30
0.0
 40
3.083007290065532
100
AcDbArc
 50
275.4687497258
 51
317.6682724222
  0
LINE
  5
FF
330
1F
100
AcDbEntity
  8
0
  6
Continuous
 62
     7
370
    25
100
AcDbLine
 10
4770.358136128
 20
7790.5544456334
 30
0.0
 11
4770.0474546889
 21
7790.8419099384
 31
0.0
  0
LINE
  5
100
330
1F
100
AcDbEntity
  8
0
  6
Continuous
 62
     7
370
    25
100
AcDbLine
 10
4759.6865642021
 20
7790.5544456334
 30
0.0
 11
4759.8119054378
 21
7790.8419099384
 31
0.0
  0
LINE
  5
101
330
1F
100
AcDbEntity
  8
0
  6
Continuous
 62
     7
370
    25
100
AcDbLine
 10
4752.8555363913
 20
7782.5544456334
 30
0.0
 11
4752.8555363913
 21
7713.5544456334
 31
0.0
  0
LINE
  5
102
330
1F
100
AcDbEntity
  8
0
  6
Continuous
 62
     7
370
    25
100
AcDbLine
 10
4752.8555363913
 20
7713.5544456334
 30
0.0
 11
4752.1288313428
 21
7713.5544456334
 31
0.0
  0
LINE
  5
103
330
1F
100
AcDbEntity
  8
0
  6
Continuous
 62
     7
370
    25
100
AcDbLine
 10
4752.1288313428
 20
7713.5544456334
 30
0.0
 11
4752.1288313428
 21
7782.5544456334
 31
0.0
  0
LINE
  5
104
330
1F
100
AcDbEntity
  8
0
  6
Continuous
 62
     7
370
    25
100
AcDbLine
 10
4770.7162263597
 20
7781.5544456334
 30
0.0
 11
4770.7162263597
 21
7713.5544456334
 31
0.0
  0
LINE
  5
105
330
1F
100
AcDbEntity
  8
0
  6
Continuous
 62
     7
370
    25
100
AcDbLine
 10
4770.7162263597
 20
7713.5544456334
 30
0.0
 11
4752.8555363913
 21
7713.5544456334
 31
0.0
  0
LWPOLYLINE
  5
106
330
1F
100
AcDbEntity
  8
0
  6
Continuous
 62
     7
370
    25
100
AcDbPolyline
 90
        9
 70
   128
 43
0.0
 10
4761.7858813755
 20
7777.3419099384
 10
4762.3435118132
 20
7777.4773668341
 10
4762.8407143405
 20
7777.8690586649
 10
4763.2236093486
 20
7778.4745395431
 10
4763.4507042221
 20
7779.2281962205
 10
4763.4973897079
 20
7780.0483583021
 10
4763.358606709
 20
7780.8461485
 10
4763.0493945169
 20
7781.5351138674
 10
4763.0370392663
 20
7781.5544456334
  0
LWPOLYLINE
  5
107
330
1F
100
AcDbEntity
  8
0
  6
Continuous
 62
     7
370
    25
100
AcDbPolyline
 90
        9
 70
   128
 43
0.0
 10
4760.5347234847
 20
7781.5544456334
 10
4760.5223682341
 20
7781.5351138674
 10
4760.213156042
 20
7780.8461485
 10
4760.0743730431
 20
7780.0483583021
 10
4760.1210585288
 20
7779.2281962205
 10
4760.3481534024
 20
7778.4745395431
 10
4760.7310484105
 20
7777.8690586649
 10
4761.2282509378
 20
7777.4773668341
 10
4761.7858813755
 20
7777.3419099384
  0
LINE
  5
108
330
1F
100
AcDbEntity
  8
0
  6
Continuous
 62
     7
370
    25
100
AcDbLine
 10
4770.0474546889
 20
7790.8419099384
 30
0.0
 11
4769.9221134532
 21
7790.5544456334
 31
0.0
  0
LWPOLYLINE
  5
109
330
1F
100
AcDbEntity
  8
0
  6
Continuous
 62
     7
370
    25
100
AcDbPolyline
 90
        8
 70
   128
 43
0.0
 10
4762.3103342177
 20
7781.5544456334
 10
4762.5695617121
 20
7781.031778421
 10
4762.7531276189
 20
7780.2533964141
 10
4762.7531276189
 20
7779.4304234627
 10
4762.5695617121
 20
7778.6520414558
 10
4762.2223221127
 20
7778.0026001617
 10
4761.7490376194
 20
7777.5524766217
 10
4761.4225288512
 20
7777.3985052467
  0
LINE
  5
10A
330
1F
100
AcDbEntity
  8
0
  6
Continuous
 62
     7
370
    25
100
AcDbLine
 10
4852.2225954061
 20
7790.8419099384
 30
0.0
 11
4844.5974546889
 21
7790.8419099384
 31
0.0
  0
LINE
  5
10B
330
1F
100
AcDbEntity
  8
0
  6
Continuous
 62
     7
370
    25
100
AcDbLine
 10
4852.2225954061
 20
7790.8419099384
 30
0.0
 11
4852.5332768452
 21
7790.5544456334
 31
0.0
  0
LWPOLYLINE
  5
10C
330
1F
100
AcDbEntity
  8
0
  6
Continuous
 62
     7
370
    25
100
AcDbPolyline
 90
        3
 70
   128
 43
0.0
 10
4850.5728167154
 20
7781.563590202
 10
4850.5406997707
 20
7781.5611098953
 10
4850.3531616995
 20
7781.5544456334
  0
LINE
  5
10D
330
1F
100
AcDbEntity
  8
0
  6
Continuous
 62
     7
370
    25
100
AcDbLine
 10
4834.3619054378
 20
7790.8419099384
 30
0.0
 11
4834.6725868769
 21
7790.5544456334
 31
0.0
  0
ARC
  5
10E
330
1F
100
AcDbEntity
  8
0
  6
Continuous
 62
     7
370
    25
100
AcDbCircle
 10
4832.4390918451
 20
7784.5623360007
 30
0.0
 40
3.003352091237122
100
AcDbArc
 50
266.8263006216
 51
318.0447657576
  0
LINE
  5
10F
330
1F
100
AcDbEntity
  8
0
  6
Continuous
 62
     7
370
    25
100
AcDbLine
 10
4841.987046155
 20
7790.8419099384
 30
0.0
 11
4834.3619054378
 21
7790.8419099384
 31
0.0
  0
LINE
  5
110
330
1F
100
AcDbEntity
  8
0
  6
Continuous
 62
     7
370
    25
100
AcDbLine
 10
4841.987046155
 20
7790.8419099384
 30
0.0
 11
4842.2977275941
 21
7790.5544456334
 31
0.0
  0
ARC
  5
111
330
1F
100
AcDbEntity
  8
0
  6
Continuous
 62
     7
370
    25
100
AcDbCircle
 10
4842.6289973984
 20
7784.6306105118
 30
0.0
 40
3.083007290066524
100
AcDbArc
 50
275.4687497258
 51
317.6682724222
  0
LINE
  5
112
330
1F
100
AcDbEntity
  8
0
  6
Continuous
 62
     7
370
    25
100
AcDbLine
 10
4844.908136128
 20
7790.5544456334
 30
0.0
 11
4844.5974546889
 21
7790.8419099384
 31
0.0
  0
LINE
  5
113
330
1F
100
AcDbEntity
  8
0
  6
Continuous
 62
     7
370
    25
100
AcDbLine
 10
4834.2365642021
 20
7790.5544456334
 30
0.0
 11
4834.3619054378
 21
7790.8419099384
 31
0.0
  0
LINE
  5
114
330
1F
100
AcDbEntity
  8
0
  6
Continuous
 62
     7
370
    25
100
AcDbLine
 10
4827.4055363913
 20
7782.5544456334
 30
0.0
 11
4827.4055363913
 21
7713.5544456334
 31
0.0
  0
LINE
  5
115
330
1F
100
AcDbEntity
  8
0
  6
Continuous
 62
     7
370
    25
100
AcDbLine
 10
4827.4055363913
 20
7713.5544456334
 30
0.0
 11
4826.6788313428
 21
7713.5544456334
 31
0.0
  0
LINE
  5
116
330
1F
100
AcDbEntity
  8
0
  6
Continuous
 62
     7
370
    25
100
AcDbLine
 10
4826.6788313428
 20
7713.5544456334
 30
0.0
 11
4826.6788313428
 21
7782.5544456334
 31
0.0
  0
LINE
  5
117
330
1F
100
AcDbEntity
  8
0
  6
Continuous
 62
     7
370
    25
100
AcDbLine
 10
4845.2662263597
 20
7781.5544456334
 30
0.0
 11
4845.2662263597
 21
7713.5544456334
 31
0.0
  0
LINE
  5
118
330
1F
100
AcDbEntity
  8
0
  6
Continuous
 62
     7
370
    25
100
AcDbLine
 10
4845.2662263597
 20
7713.5544456334
 30
0.0
 11
4827.4055363913
 21
7713.5544456334
 31
0.0
  0
LWPOLYLINE
  5
119
330
1F
100
AcDbEntity
  8
0
  6
Continuous
 62
     7
370
    25
100
AcDbPolyline
 90
        9
 70
   128
 43
0.0
 10
4836.3358813755
 20
7777.3419099384
 10
4836.8935118132
 20
7777.4773668341
 10
4837.3907143405
 20
7777.8690586649
 10
4837.7736093486
 20
7778.4745395431
 10
4838.0007042221
 20
7779.2281962205
 10
4838.0473897079
 20
7780.0483583021
 10
4837.908606709
 20
7780.8461485
 10
4837.5993945169
 20
7781.5351138674
 10
4837.5870392663
 20
7781.5544456334
  0
LWPOLYLINE
  5
11A
330
1F
100
AcDbEntity
  8
0
  6
Continuous
 62
     7
370
    25
100
AcDbPolyline
 90
        9
 70
   128
 43
0.0
 10
4835.0847234847
 20
7781.5544456334
 10
4835.0723682341
 20
7781.5351138674
 10
4834.763156042
 20
7780.8461485
 10
4834.6243730431
 20
7780.0483583021
 10
4834.6710585288
 20
7779.2281962205
 10
4834.8981534024
 20
7778.4745395431
 10
4835.2810484105
 20
7777.8690586649
 10
4835.7782509378
 20
7777.4773668341
 10
4836.3358813755
 20
7777.3419099384
  0
LINE
  5
11B
330
1F
100
AcDbEntity
  8
0
  6
Continuous
 62
     7
370
    25
100
AcDbLine
 10
4844.5974546889
 20
7790.8419099384
 30
0.0
 11
4844.4721134532
 21
7790.5544456334
 31
0.0
  0
LWPOLYLINE
  5
11C
330
1F
100
AcDbEntity
  8
0
  6
Continuous
 62
     7
370
    25
100
AcDbPolyline
 90
        8
 70
   128
 43
0.0
 10
4836.8603342177
 20
7781.5544456334
 10
4837.1195617121
 20
7781.031778421
 10
4837.3031276189
 20
7780.2533964141
 10
4837.3031276189
 20
7779.4304234627
 10
4837.1195617121
 20
7778.6520414558
 10
4836.7723221127
 20
7778.0026001617
 10
4836.2990376194
 20
7777.5524766217
 10
4835.9725288512
 20
7777.3985052467
  0
LWPOLYLINE
  5
11D
330
1F
100
AcDbEntity
  8
0
  6
Continuous
 62
     7
370
    25
100
AcDbPolyline
 90
        9
 70
   128
 43
0.0
 10
4893.6698814835
 20
7782.5567591518
 10
4893.6955354606
 20
7782.5545651466
 10
4894.1005846065
 20
7782.5853124647
 10
4894.5604219801
 20
7782.6585107766
 10
4895.0540650238
 20
7782.7516922486
 10
4895.5228056486
 20
7782.8262713847
 10
4895.882366705
 20
7782.8450482003
 10
4896.0983373821
 20
7782.8062775473
 10
4896.1726518825
 20
7782.7278072427
  0
LWPOLYLINE
  5
11E
330
1F
100
AcDbEntity
  8
0
  6
Continuous
 62
     7
370
    25
100
AcDbPolyline
 90
       12
 70
   128
 43
0.0
 10
4871.8920022075
 20
7782.565230681
 10
4871.8887116568
 20
7782.5733563947
 10
4872.02908691
 20
7782.6379709934
 10
4872.3149048091
 20
7782.729183385
 10
4872.7353117681
 20
7782.8124456969
 10
4873.2247441586
 20
7782.8463087418
 10
4873.7015940051
 20
7782.8200035953
 10
4874.1384969743
 20
7782.7491276452
 10
4874.5155999681
 20
7782.6563321798
 10
4874.7769549852
 20
7782.5791749955
 10
4874.8724429221
 20
7782.5547916121
 10
4874.8683953175
 20
7782.556900892
  0
LWPOLYLINE
  5
11F
330
1F
100
AcDbEntity
  8
0
  6
Continuous
 62
     7
370
    25
100
AcDbPolyline
 90
       10
 70
   128
 43
0.0
 10
4861.2413558525
 20
7782.6389379927
 10
4861.2367831999
 20
7782.6724526937
 10
4861.3864532239
 20
7782.7656947726
 10
4861.6963424091
 20
7782.8333672352
 10
4862.109209722
 20
7782.84240793
 10
4862.5632063269
 20
7782.7961665153
 10
4863.0394796186
 20
7782.7132406907
 10
4863.5078095707
 20
7782.6213289315
 10
4863.8937983314
 20
7782.5620941233
 10
4864.0745795469
 20
7782.5619497287
  0
ARC
  5
120
330
1F
100
AcDbEntity
  8
0
  6
Continuous
 62
     7
370
    25
100
AcDbCircle
 10
4884.1032419038
 20
7777.5937143954
 30
0.0
 40
5.195624737752688
100
AcDbArc
 50
74.2093225108
 51
107.1416242772
  0
ARC
  5
121
330
1F
100
AcDbEntity
  8
0
  6
Continuous
 62
     7
370
    25
100
AcDbCircle
 10
4873.3728167154
 20
7727.5544456334
 30
0.0
 40
1.5
100
AcDbArc
 50
180.0
 51
0.0
  0
ARC
  5
122
330
1F
100
AcDbEntity
  8
0
  6
Continuous
 62
     7
370
    25
100
AcDbCircle
 10
4884.0228167154
 20
7727.5544456334
 30
0.0
 40
1.5
100
AcDbArc
 50
180.0
 51
0.0
  0
ARC
  5
123
330
1F
100
AcDbEntity
  8
0
  6
Continuous
 62
     7
370
    25
100
AcDbCircle
 10
4862.7228167154
 20
7727.5544456334
 30
0.0
 40
1.500000000000909
100
AcDbArc
 50
180.0
 51
0.0
  0
LWPOLYLINE
  5
124
330
1F
100
AcDbEntity
  8
0
  6
Continuous
 62
     7
370
    25
100
AcDbPolyline
 90
        9
 70
   128
 43
0.0
 10
4850.5728167154
 20
7782.7058388091
 10
4850.6555199929
 20
7782.795420648
 10
4850.8986738699
 20
7782.8441305471
 10
4851.2554138698
 20
7782.82963174
 10
4851.6798200528
 20
7782.7647831593
 10
4852.1634653824
 20
7782.672014221
 10
4852.6635880288
 20
7782.5881050521
 10
4853.0891262906
 20
7782.5544922221
 10
4853.1011524225
 20
7782.5555404797
  0
LWPOLYLINE
  5
125
330
1F
100
AcDbEntity
  8
0
  6
Continuous
 62
     7
370
    25
100
AcDbPolyline
 90
        9
 70
   128
 43
0.0
 10
4829.2728167154
 20
7782.7058388091
 10
4829.3555199929
 20
7782.795420648
 10
4829.5986738699
 20
7782.8441305471
 10
4829.9554138698
 20
7782.82963174
 10
4830.3798200528
 20
7782.7647831593
 10
4830.8634653824
 20
7782.672014221
 10
4831.3635880288
 20
7782.5881050521
 10
4831.7891262906
 20
7782.5544922221
 10
4831.8011524225
 20
7782.5555404797
  0
LWPOLYLINE
  5
126
330
1F
100
AcDbEntity
  8
0
  6
Continuous
 62
     7
370
    25
100
AcDbPolyline
 90
        9
 70
   128
 43
0.0
 10
4786.6728167154
 20
7782.7058388091
 10
4786.7555199929
 20
7782.795420648
 10
4786.9986738699
 20
7782.8441305471
 10
4787.3554138698
 20
7782.82963174
 10
4787.7798200528
 20
7782.7647831593
 10
4788.2634653824
 20
7782.672014221
 10
4788.7635880288
 20
7782.5881050521
 10
4789.1891262906
 20
7782.5544922221
 10
4789.2011524225
 20
7782.5555404797
  0
ARC
  5
127
330
1F
100
AcDbEntity
  8
0
  6
Continuous
 62
     7
370
    25
100
AcDbCircle
 10
4767.8927081209
 20
7786.6486116745
 30
0.0
 40
4.088419590093454
100
AcDbArc
 50
255.5545230679
 51
269.9970942433
  0
ARC
  5
128
330
1F
100
AcDbEntity
  8
0
  6
Continuous
 62
     7
370
    25
100
AcDbCircle
 10
4766.1121686051
 20
7780.7943802261
 30
0.0
 40
2.04202306418266
100
AcDbArc
 50
68.1302841056
 51
110.6540201709
  0
LWPOLYLINE
  5
129
330
1F
100
AcDbEntity
  8
0
  6
Continuous
 62
     7
370
    25
100
AcDbPolyline
 90
        9
 70
   128
 43
0.0
 10
4757.2449355728
 20
7782.5589908915
 10
4756.9387478259
 20
7782.5730373635
 10
4756.4960878943
 20
7782.638269104
 10
4756.0084729647
 20
7782.731105435
 10
4755.5201382735
 20
7782.8153635096
 10
4755.1189133179
 20
7782.8462908194
 10
4754.8574680366
 20
7782.8145637183
 10
4754.7325031723
 20
7782.7386674941
 10
4754.7413812288
 20
7782.7062615871
  0
LWPOLYLINE
  5
12A
330
1F
100
AcDbEntity
  8
0
  6
Continuous
 62
     7
370
    25
100
AcDbPolyline
 90
        9
 70
   128
 43
0.0
 10
4746.5949355728
 20
7782.5589908915
 10
4746.2887478259
 20
7782.5730373635
 10
4745.8460878943
 20
7782.638269104
 10
4745.3584729647
 20
7782.731105435
 10
4744.8701382735
 20
7782.8153635096
 10
4744.4689133179
 20
7782.8462908194
 10
4744.2074680366
 20
7782.8145637183
 10
4744.0825031723
 20
7782.7386674941
 10
4744.0913812288
 20
7782.7062615871
  0
LWPOLYLINE
  5
12B
330
1F
100
AcDbEntity
  8
0
  6
Continuous
 62
     7
370
    25
100
AcDbPolyline
 90
       14
 70
   128
 43
0.0
 10
4742.5728167154
 20
7782.5544456334
 10
4742.0281329261
 20
7782.6252966305
 10
4741.3351528724
 20
7782.9351374235
 10
4740.7199397897
 20
7783.4723926623
 10
4740.2211497787
 20
7784.2033046242
 10
4739.8701236501
 20
7785.0819474227
 10
4739.6889176666
 20
7786.0531126991
 10
4739.6889176666
 20
7787.0557785677
 10
4739.8701236501
 20
7788.0269438441
 10
4740.2211497787
 20
7788.9055866426
 10
4740.7199397897
 20
7789.6364986045
 10
4741.3351528724
 20
7790.1737538433
 10
4742.0281329261
 20
7790.4835946363
 10
4742.5728167154
 20
7790.5544456334
  0
LWPOLYLINE
  5
12C
330
1F
100
AcDbEntity
  8
0
  6
Continuous
 62
     7
370
    25
100
AcDbPolyline
 90
        9
 70
   128
 43
0.0
 10
4776.0228167154
 20
7782.7058388091
 10
4776.1055199929
 20
7782.795420648
 10
4776.3486738699
 20
7782.8441305471
 10
4776.7054138698
 20
7782.82963174
 10
4777.1298200528
 20
7782.7647831593
 10
4777.6134653824
 20
7782.672014221
 10
4778.1135880288
 20
7782.5881050521
 10
4778.5391262906
 20
7782.5544922221
 10
4778.5511524225
 20
7782.5555404797
  0
LWPOLYLINE
  5
12D
330
1F
100
AcDbEntity
  8
0
  6
Continuous
 62
     7
370
    25
100
AcDbPolyline
 90
        9
 70
   128
 43
0.0
 10
4818.6228167154
 20
7782.7058388091
 10
4818.7055199929
 20
7782.795420648
 10
4818.9486738699
 20
7782.8441305471
 10
4819.3054138698
 20
7782.82963174
 10
4819.7298200528
 20
7782.7647831593
 10
4820.2134653824
 20
7782.672014221
 10
4820.7135880288
 20
7782.5881050521
 10
4821.1391262906
 20
7782.5544922221
 10
4821.1511524225
 20
7782.5555404797
  0
LWPOLYLINE
  5
12E
330
1F
100
AcDbEntity
  8
0
  6
Continuous
 62
     7
370
    25
100
AcDbPolyline
 90
        9
 70
   128
 43
0.0
 10
4839.9228167154
 20
7782.7058388091
 10
4840.0055199929
 20
7782.795420648
 10
4840.2486738699
 20
7782.8441305471
 10
4840.6054138698
 20
7782.82963174
 10
4841.0298200528
 20
7782.7647831593
 10
4841.5134653824
 20
7782.672014221
 10
4842.0135880288
 20
7782.5881050521
 10
4842.4391262906
 20
7782.5544922221
 10
4842.4511524225
 20
7782.5555404797
  0
ARC
  5
12F
330
1F
100
AcDbEntity
  8
0
  6
Continuous
 62
     7
370
    25
100
AcDbCircle
 10
4894.6728167154
 20
7727.5544456334
 30
0.0
 40
1.5
100
AcDbArc
 50
180.0
 51
0.0
  0
LWPOLYLINE
  5
130
330
1F
100
AcDbEntity
  8
0
  6
Continuous
 62
     7
370
    25
100
AcDbPolyline
 90
        8
 70
   128
 43
0.0
 10
4904.4359572119
 20
7782.5613540815
 10
4904.7617436397
 20
7782.5630928095
 10
4905.21947038
 20
7782.6172851615
 10
4905.6983049944
 20
7782.7052581516
 10
4906.1618078222
 20
7782.7963115078
 10
4906.5318225816
 20
7782.844550453
 10
4906.7509236256
 20
7782.8286181982
 10
4906.8226485545
 20
7782.7631779235
  0
LWPOLYLINE
  5
131
330
1F
100
AcDbEntity
  8
0
  6
Continuous
 62
     7
370
    25
100
AcDbPolyline
 90
        8
 70
   128
 43
0.0
 10
4915.2830290891
 20
7782.5613257871
 10
4915.4181915013
 20
7782.556231069
 10
4915.8793516778
 20
7782.5964900707
 10
4916.3516735466
 20
7782.6766455309
 10
4916.8080053185
 20
7782.7712845255
 10
4917.1810684385
 20
7782.8367828351
 10
4917.4038063065
 20
7782.8395747117
 10
4917.4711373773
 20
7782.788043745
  0
ARC
  5
132
330
1F
100
AcDbEntity
  8
0
  6
Continuous
 62
     7
370
    25
100
AcDbCircle
 10
4929.7447327483
 20
7761.6684346234
 30
0.0
 40
21.20772469776902
100
AcDbArc
 50
94.3998734711
 51
99.9722800395
  0
LWPOLYLINE
  5
133
330
1F
100
AcDbEntity
  8
0
  6
Continuous
 62
     7
370
    25
100
AcDbPolyline
 90
        8
 70
   128
 43
0.0
 10
4935.753473509
 20
7782.5583535402
 10
4935.7926341961
 20
7782.5550713756
 10
4936.2730074871
 20
7782.5751558553
 10
4936.7231437449
 20
7782.6420887062
 10
4937.1234659248
 20
7782.7353026418
 10
4937.4233433456
 20
7782.8178861369
 10
4937.5634946273
 20
7782.8461471155
 10
4937.5557374375
 20
7782.8343303908
  0
ARC
  5
134
330
1F
100
AcDbEntity
  8
0
  6
Continuous
 62
     7
370
    25
100
AcDbCircle
 10
4852.0728167154
 20
7727.5544456334
 30
0.0
 40
1.5
100
AcDbArc
 50
180.0
 51
0.0
  0
ARC
  5
135
330
1F
100
AcDbEntity
  8
0
  6
Continuous
 62
     7
370
    25
100
AcDbCircle
 10
4905.3228167154
 20
7727.5544456334
 30
0.0
 40
1.5
100
AcDbArc
 50
180.0
 51
0.0
  0
ARC
  5
136
330
1F
100
AcDbEntity
  8
0
  6
Continuous
 62
     7
370
    25
100
AcDbCircle
 10
4841.4228167154
 20
7727.5544456334
 30
0.0
 40
1.5
100
AcDbArc
 50
180.0
 51
0.0
  0
ARC
  5
137
330
1F
100
AcDbEntity
  8
0
  6
Continuous
 62
     7
370
    25
100
AcDbCircle
 10
4830.7728167154
 20
7727.5544456334
 30
0.0
 40
1.5
100
AcDbArc
 50
180.0
 51
0.0
  0
ARC
  5
138
330
1F
100
AcDbEntity
  8
0
  6
Continuous
 62
     7
370
    25
100
AcDbCircle
 10
4915.9728167154
 20
7727.5544456334
 30
0.0
 40
1.5
100
AcDbArc
 50
180.0
 51
0.0
  0
ARC
  5
139
330
1F
100
AcDbEntity
  8
0
  6
Continuous
 62
     7
370
    25
100
AcDbCircle
 10
4820.1228167154
 20
7727.5544456334
 30
0.0
 40
1.5
100
AcDbArc
 50
180.0
 51
0.0
  0
ARC
  5
13A
330
1F
100
AcDbEntity
  8
0
  6
Continuous
 62
     7
370
    25
100
AcDbCircle
 10
4926.6228167154
 20
7730.0544456334
 30
0.0
 40
1.5
100
AcDbArc
 50
180.0
 51
0.0
  0
ARC
  5
13B
330
1F
100
AcDbEntity
  8
0
  6
Continuous
 62
     7
370
    25
100
AcDbCircle
 10
4788.1728167154
 20
7727.5544456334
 30
0.0
 40
1.5
100
AcDbArc
 50
180.0
 51
0.0
  0
ARC
  5
13C
330
1F
100
AcDbEntity
  8
0
  6
Continuous
 62
     7
370
    25
100
AcDbCircle
 10
4777.5228167154
 20
7727.5544456334
 30
0.0
 40
1.5
100
AcDbArc
 50
180.0
 51
0.0
  0
ARC
  5
13D
330
1F
100
AcDbEntity
  8
0
  6
Continuous
 62
     7
370
    25
100
AcDbCircle
 10
4766.8728167154
 20
7727.5544456334
 30
0.0
 40
1.5
100
AcDbArc
 50
180.0
 51
0.0
  0
ARC
  5
13E
330
1F
100
AcDbEntity
  8
0
  6
Continuous
 62
     7
370
    25
100
AcDbCircle
 10
4936.0728167154
 20
7732.5544456334
 30
0.0
 40
1.5
100
AcDbArc
 50
180.0
 51
0.0
  0
ARC
  5
13F
330
1F
100
AcDbEntity
  8
0
  6
Continuous
 62
     7
370
    25
100
AcDbCircle
 10
4756.2228167154
 20
7727.5544456334
 30
0.0
 40
1.5
100
AcDbArc
 50
180.0
 51
0.0
  0
ARC
  5
140
330
1F
100
AcDbEntity
  8
0
  6
Continuous
 62
     7
370
    25
100
AcDbCircle
 10
4745.5728167154
 20
7732.5544456334
 30
0.0
 40
1.500000000000909
100
AcDbArc
 50
180.0
 51
0.0
  0
LINE
  5
141
330
1F
100
AcDbEntity
  8
0
  6
Continuous
 62
     8
370
    25
100
AcDbLine
 10
4813.3162263597
 20
7786.5544456334
 30
0.0
 11
4814.7696364568
 21
7786.5544456334
 31
0.0
  0
LWPOLYLINE
  5
142
330
1F
100
AcDbEntity
  8
0
  6
Continuous
 62
     8
370
    25
100
AcDbPolyline
 90
       14
 70
   128
 43
0.0
 10
4896.1728167154
 20
7782.6015683715
 10
4896.2833805863
 20
7782.6252966305
 10
4897.05101489
 20
7782.9351374235
 10
4897.7325044419
 20
7783.4723926623
 10
4898.2850287471
 20
7784.2033046242
 10
4898.6738706717
 20
7785.0819474227
 10
4898.8745978473
 20
7786.0531126991
 10
4898.8745978473
 20
7787.0557785677
 10
4898.6738706717
 20
7788.0269438441
 10
4898.2850287471
 20
7788.9055866426
 10
4897.7325044419
 20
7789.6364986045
 10
4897.05101489
 20
7790.1737538433
 10
4896.2833805863
 20
7790.4835946363
 10
4895.6800183986
 20
7790.5544456334
  0
LWPOLYLINE
  5
143
330
1F
100
AcDbEntity
  8
0
  6
Continuous
 62
     8
370
    25
100
AcDbPolyline
 90
       14
 70
   128
 43
0.0
 10
4857.3875804794
 20
7782.5544456334
 10
4856.8428966902
 20
7782.6252966305
 10
4856.1499166364
 20
7782.9351374235
 10
4855.5347035538
 20
7783.4723926623
 10
4855.0359135427
 20
7784.2033046242
 10
4854.6848874141
 20
7785.0819474227
 10
4854.5036814307
 20
7786.0531126991
 10
4854.5036814307
 20
7787.0557785677
 10
4854.6848874141
 20
7788.0269438441
 10
4855.0359135427
 20
7788.9055866426
 10
4855.5347035538
 20
7789.6364986045
 10
4856.1499166364
 20
7790.1737538433
 10
4856.8428966902
 20
7790.4835946363
 10
4857.3875804794
 20
7790.5544456334
  0
LINE
  5
144
330
1F
100
AcDbEntity
  8
0
  6
Continuous
 62
     8
370
    25
100
AcDbLine
 10
4874.8728167154
 20
7732.5544456334
 30
0.0
 11
4871.8728167154
 21
7732.5544456334
 31
0.0
  0
LINE
  5
145
330
1F
100
AcDbEntity
  8
0
  6
Continuous
 62
     8
370
    25
100
AcDbLine
 10
4885.5228167154
 20
7732.5544456334
 30
0.0
 11
4882.5228167154
 21
7732.5544456334
 31
0.0
  0
LINE
  5
146
330
1F
100
AcDbEntity
  8
0
  6
Continuous
 62
     8
370
    25
100
AcDbLine
 10
4864.2228167154
 20
7732.5544456334
 30
0.0
 11
4861.2228167154
 21
7732.5544456334
 31
0.0
  0
LINE
  5
147
330
1F
100
AcDbEntity
  8
0
  6
Continuous
 62
     8
370
    25
100
AcDbLine
 10
4896.1728167154
 20
7732.5544456334
 30
0.0
 11
4893.1728167154
 21
7732.5544456334
 31
0.0
  0
LINE
  5
148
330
1F
100
AcDbEntity
  8
0
  6
Continuous
 62
     8
370
    25
100
AcDbLine
 10
4853.5728167154
 20
7732.5544456334
 30
0.0
 11
4850.5728167154
 21
7732.5544456334
 31
0.0
  0
LINE
  5
149
330
1F
100
AcDbEntity
  8
0
  6
Continuous
 62
     8
370
    25
100
AcDbLine
 10
4906.8228167154
 20
7732.5544456334
 30
0.0
 11
4903.8228167154
 21
7732.5544456334
 31
0.0
  0
LINE
  5
14A
330
1F
100
AcDbEntity
  8
0
  6
Continuous
 62
     8
370
    25
100
AcDbLine
 10
4842.9228167154
 20
7732.5544456334
 30
0.0
 11
4839.9228167154
 21
7732.5544456334
 31
0.0
  0
LINE
  5
14B
330
1F
100
AcDbEntity
  8
0
  6
Continuous
 62
     8
370
    25
100
AcDbLine
 10
4832.2728167154
 20
7732.5544456334
 30
0.0
 11
4829.2728167154
 21
7732.5544456334
 31
0.0
  0
LINE
  5
14C
330
1F
100
AcDbEntity
  8
0
  6
Continuous
 62
     8
370
    25
100
AcDbLine
 10
4917.4728167154
 20
7732.5544456334
 30
0.0
 11
4914.4728167154
 21
7732.5544456334
 31
0.0
  0
LINE
  5
14D
330
1F
100
AcDbEntity
  8
0
  6
Continuous
 62
     8
370
    25
100
AcDbLine
 10
4821.6228167154
 20
7732.5544456334
 30
0.0
 11
4818.6228167154
 21
7732.5544456334
 31
0.0
  0
LINE
  5
14E
330
1F
100
AcDbEntity
  8
0
  6
Continuous
 62
     8
370
    25
100
AcDbLine
 10
4928.1228167154
 20
7735.0544456334
 30
0.0
 11
4925.1228167154
 21
7735.0544456334
 31
0.0
  0
LINE
  5
14F
330
1F
100
AcDbEntity
  8
0
  6
Continuous
 62
     8
370
    25
100
AcDbLine
 10
4789.6728167154
 20
7732.5544456334
 30
0.0
 11
4786.6728167154
 21
7732.5544456334
 31
0.0
  0
LINE
  5
150
330
1F
100
AcDbEntity
  8
0
  6
Continuous
 62
     8
370
    25
100
AcDbLine
 10
4779.0228167154
 20
7732.5544456334
 30
0.0
 11
4776.0228167154
 21
7732.5544456334
 31
0.0
  0
LINE
  5
151
330
1F
100
AcDbEntity
  8
0
  6
Continuous
 62
     8
370
    25
100
AcDbLine
 10
4768.3728167154
 20
7732.5544456334
 30
0.0
 11
4765.3728167154
 21
7732.5544456334
 31
0.0
  0
LINE
  5
152
330
1F
100
AcDbEntity
  8
0
  6
Continuous
 62
     8
370
    25
100
AcDbLine
 10
4937.5728167154
 20
7737.5544456334
 30
0.0
 11
4934.5728167154
 21
7737.5544456334
 31
0.0
  0
LINE
  5
153
330
1F
100
AcDbEntity
  8
0
  6
Continuous
 62
     8
370
    25
100
AcDbLine
 10
4757.7228167154
 20
7732.5544456334
 30
0.0
 11
4754.7228167154
 21
7732.5544456334
 31
0.0
  0
LINE
  5
154
330
1F
100
AcDbEntity
  8
0
  6
Continuous
 62
     8
370
    25
100
AcDbLine
 10
4747.0728167154
 20
7737.5544456334
 30
0.0
 11
4744.0728167154
 21
7737.5544456334
 31
0.0
  0
LINE
  5
155
330
1F
100
AcDbEntity
  8
0
  6
Continuous
 62
     7
370
    25
100
AcDbLine
 10
4366.0689663
 20
7781.5544456334
 30
0.0
 11
4374.0161319312
 21
7781.5544456334
 31
0.0
  0
LINE
  5
156
330
1F
100
AcDbEntity
  8
0
  6
Continuous
 62
     7
370
    25
100
AcDbLine
 10
4355.1218006687
 20
7781.5544456334
 30
0.0
 11
4363.1882267077
 21
7781.5544456334
 31
0.0
  0
LINE
  5
157
330
1F
100
AcDbEntity
  8
0
  6
Continuous
 62
     7
370
    25
100
AcDbLine
 10
4482.4276703041
 20
7781.5544456334
 30
0.0
 11
4490.4940963431
 21
7781.5544456334
 31
0.0
  0
LINE
  5
158
330
1F
100
AcDbEntity
  8
0
  6
Continuous
 62
     7
370
    25
100
AcDbLine
 10
4471.5997650806
 20
7781.5544456334
 30
0.0
 11
4473.620196932
 21
7781.5544456334
 31
0.0
  0
LINE
  5
159
330
1F
100
AcDbEntity
  8
0
  6
Continuous
 62
     7
370
    25
100
AcDbLine
 10
4476.620196932
 20
7781.5544456334
 30
0.0
 11
4479.5469307118
 21
7781.5544456334
 31
0.0
  0
LINE
  5
15A
330
1F
100
AcDbEntity
  8
0
  6
Continuous
 62
     7
370
    25
100
AcDbLine
 10
4561.7307017526
 20
7781.5544456334
 30
0.0
 11
4569.3584850153
 21
7781.5544456334
 31
0.0
  0
LINE
  5
15B
330
1F
100
AcDbEntity
  8
0
  6
Continuous
 62
     7
370
    25
100
AcDbLine
 10
4550.4641537528
 20
7781.5544456334
 30
0.0
 11
4558.411319384
 21
7781.5544456334
 31
0.0
  0
LINE
  5
15C
330
1F
100
AcDbEntity
  8
0
  6
Continuous
 62
     7
370
    25
100
AcDbLine
 10
4574.4583879918
 20
7790.5544456334
 30
0.0
 11
4316.2228739756
 21
7790.5544456334
 31
0.0
  0
LINE
  5
15D
330
1F
100
AcDbEntity
  8
0
  6
Continuous
 62
     7
370
    25
100
AcDbLine
 10
4561.7307017526
 20
7782.5544456334
 30
0.0
 11
4574.4583879918
 21
7782.5544456334
 31
0.0
  0
LINE
  5
15E
330
1F
100
AcDbEntity
  8
0
  6
Continuous
 62
     7
370
    25
100
AcDbLine
 10
4542.4927273697
 20
7782.5544456334
 30
0.0
 11
4558.9744345199
 21
7782.5544456334
 31
0.0
  0
LINE
  5
15F
330
1F
100
AcDbEntity
  8
0
  6
Continuous
 62
     7
370
    25
100
AcDbLine
 10
4516.5403694946
 20
7782.5544456334
 30
0.0
 11
4539.6563909454
 21
7782.5544456334
 31
0.0
  0
LINE
  5
160
330
1F
100
AcDbEntity
  8
0
  6
Continuous
 62
     7
370
    25
100
AcDbLine
 10
4476.5854640392
 20
7782.5544456334
 30
0.0
 11
4513.7359314046
 21
7782.5544456334
 31
0.0
  0
LINE
  5
161
330
1F
100
AcDbEntity
  8
0
  6
Continuous
 62
     7
370
    25
100
AcDbLine
 10
4417.0403668953
 20
7782.5544456334
 30
0.0
 11
4473.6556748268
 21
7782.5544456334
 31
0.0
  0
LINE
  5
162
330
1F
100
AcDbEntity
  8
0
  6
Continuous
 62
     7
370
    25
100
AcDbLine
 10
4376.9526921012
 20
7782.5544456334
 30
0.0
 11
4414.0828624039
 21
7782.5544456334
 31
0.0
  0
LINE
  5
163
330
1F
100
AcDbEntity
  8
0
  6
Continuous
 62
     7
370
    25
100
AcDbLine
 10
4351.0168653624
 20
7782.5544456334
 30
0.0
 11
4374.1347026839
 21
7782.5544456334
 31
0.0
  0
LINE
  5
164
330
1F
100
AcDbEntity
  8
0
  6
Continuous
 62
     7
370
    25
100
AcDbLine
 10
4331.7160628493
 20
7782.5544456334
 30
0.0
 11
4348.1885345976
 21
7782.5544456334
 31
0.0
  0
LINE
  5
165
330
1F
100
AcDbEntity
  8
0
  6
Continuous
 62
     7
370
    25
100
AcDbLine
 10
4316.2228739756
 20
7782.5544456334
 30
0.0
 11
4328.9505602148
 21
7782.5544456334
 31
0.0
  0
LINE
  5
166
330
1F
100
AcDbEntity
  8
0
  6
Continuous
 62
     7
370
    25
100
AcDbLine
 10
4476.620196932
 20
7737.5544456334
 30
0.0
 11
4476.620196932
 21
7782.5619153603
 31
0.0
  0
LINE
  5
167
330
1F
100
AcDbEntity
  8
0
  6
Continuous
 62
     7
370
    25
100
AcDbLine
 10
4473.620196932
 20
7782.5671019402
 30
0.0
 11
4473.620196932
 21
7737.5544456334
 31
0.0
  0
ARC
  5
168
330
1F
100
AcDbEntity
  8
0
  6
Continuous
 62
     7
370
    25
100
AcDbCircle
 10
4470.120196932
 20
7737.5544456334
 30
0.0
 40
3.5
100
AcDbArc
 50
270.0
 51
0.0
  0
ARC
  5
169
330
1F
100
AcDbEntity
  8
0
  6
Continuous
 62
     7
370
    25
100
AcDbCircle
 10
4470.120196932
 20
7737.5544456334
 30
0.0
 40
6.5
100
AcDbArc
 50
270.0
 51
0.0
  0
LINE
  5
16A
330
1F
100
AcDbEntity
  8
0
  6
Continuous
 62
     7
370
    25
100
AcDbLine
 10
4420.5610650353
 20
7731.0544456334
 30
0.0
 11
4470.120196932
 21
7731.0544456334
 31
0.0
  0
LINE
  5
16B
330
1F
100
AcDbEntity
  8
0
  6
Continuous
 62
     7
370
    25
100
AcDbLine
 10
4470.120196932
 20
7734.0544456334
 30
0.0
 11
4420.5610650353
 21
7734.0544456334
 31
0.0
  0
LINE
  5
16C
330
1F
100
AcDbEntity
  8
0
  6
Continuous
 62
     7
370
    25
100
AcDbLine
 10
4414.0610650353
 20
7782.5668071062
 30
0.0
 11
4414.0610650353
 21
7737.5544456334
 31
0.0
  0
LINE
  5
16D
330
1F
100
AcDbEntity
  8
0
  6
Continuous
 62
     7
370
    25
100
AcDbLine
 10
4417.0610650353
 20
7737.5544456334
 30
0.0
 11
4417.0610650353
 21
7782.5622545983
 31
0.0
  0
ARC
  5
16E
330
1F
100
AcDbEntity
  8
0
  6
Continuous
 62
     7
370
    25
100
AcDbCircle
 10
4420.5610650353
 20
7737.5544456334
 30
0.0
 40
3.5
100
AcDbArc
 50
180.0
 51
270.0
  0
ARC
  5
16F
330
1F
100
AcDbEntity
  8
0
  6
Continuous
 62
     7
370
    25
100
AcDbCircle
 10
4420.5610650353
 20
7737.5544456334
 30
0.0
 40
6.5
100
AcDbArc
 50
180.0
 51
270.0
  0
LINE
  5
170
330
1F
100
AcDbEntity
  8
0
  6
Continuous
 62
     7
370
    25
100
AcDbLine
 10
4516.640872565
 20
7735.0544456334
 30
0.0
 11
4516.640872565
 21
7782.5907780851
 31
0.0
  0
LINE
  5
171
330
1F
100
AcDbEntity
  8
0
  6
Continuous
 62
     7
370
    25
100
AcDbLine
 10
4513.640872565
 20
7782.5544456334
 30
0.0
 11
4513.640872565
 21
7735.0544456334
 31
0.0
  0
ARC
  5
172
330
1F
100
AcDbEntity
  8
0
  6
Continuous
 62
     7
370
    25
100
AcDbCircle
 10
4510.140872565
 20
7735.0544456334
 30
0.0
 40
3.5
100
AcDbArc
 50
270.0
 51
0.0
  0
ARC
  5
173
330
1F
100
AcDbEntity
  8
0
  6
Continuous
 62
     7
370
    25
100
AcDbCircle
 10
4510.140872565
 20
7735.0544456334
 30
0.0
 40
6.5
100
AcDbArc
 50
270.0
 51
0.0
  0
LINE
  5
174
330
1F
100
AcDbEntity
  8
0
  6
Continuous
 62
     7
370
    25
100
AcDbLine
 10
4380.5403894023
 20
7728.5544456334
 30
0.0
 11
4510.140872565
 21
7728.5544456334
 31
0.0
  0
LINE
  5
175
330
1F
100
AcDbEntity
  8
0
  6
Continuous
 62
     7
370
    25
100
AcDbLine
 10
4510.140872565
 20
7731.5544456334
 30
0.0
 11
4472.620196932
 21
7731.5544456334
 31
0.0
  0
LINE
  5
176
330
1F
100
AcDbEntity
  8
0
  6
Continuous
 62
     7
370
    25
100
AcDbLine
 10
4418.0610650353
 20
7731.5544456334
 30
0.0
 11
4380.5403894023
 21
7731.5544456334
 31
0.0
  0
LINE
  5
177
330
1F
100
AcDbEntity
  8
0
  6
Continuous
 62
     7
370
    25
100
AcDbLine
 10
4374.0403894023
 20
7782.5865249716
 30
0.0
 11
4374.0403894023
 21
7735.0544456334
 31
0.0
  0
LINE
  5
178
330
1F
100
AcDbEntity
  8
0
  6
Continuous
 62
     7
370
    25
100
AcDbLine
 10
4377.0403894023
 20
7735.0544456334
 30
0.0
 11
4377.0403894023
 21
7782.5544456334
 31
0.0
  0
ARC
  5
179
330
1F
100
AcDbEntity
  8
0
  6
Continuous
 62
     7
370
    25
100
AcDbCircle
 10
4380.5403894023
 20
7735.0544456334
 30
0.0
 40
3.5
100
AcDbArc
 50
180.0
 51
270.0
  0
ARC
  5
17A
330
1F
100
AcDbEntity
  8
0
  6
Continuous
 62
     7
370
    25
100
AcDbCircle
 10
4380.5403894023
 20
7735.0544456334
 30
0.0
 40
6.5
100
AcDbArc
 50
180.0
 51
270.0
  0
LINE
  5
17B
330
1F
100
AcDbEntity
  8
0
  6
Continuous
 62
     7
370
    25
100
AcDbLine
 10
4542.4927273697
 20
7732.5544456334
 30
0.0
 11
4542.4927273697
 21
7782.6151049192
 31
0.0
  0
LINE
  5
17C
330
1F
100
AcDbEntity
  8
0
  6
Continuous
 62
     7
370
    25
100
AcDbLine
 10
4539.4927273697
 20
7782.5544456334
 30
0.0
 11
4539.4927273697
 21
7732.5544456334
 31
0.0
  0
ARC
  5
17D
330
1F
100
AcDbEntity
  8
0
  6
Continuous
 62
     7
370
    25
100
AcDbCircle
 10
4535.9927273697
 20
7732.5544456334
 30
0.0
 40
3.500000000000909
100
AcDbArc
 50
270.0
 51
0.0
  0
ARC
  5
17E
330
1F
100
AcDbEntity
  8
0
  6
Continuous
 62
     7
370
    25
100
AcDbCircle
 10
4535.9927273697
 20
7732.5544456334
 30
0.0
 40
6.5
100
AcDbArc
 50
270.0
 51
0.0
  0
LINE
  5
17F
330
1F
100
AcDbEntity
  8
0
  6
Continuous
 62
     7
370
    25
100
AcDbLine
 10
4354.6885345976
 20
7726.0544456334
 30
0.0
 11
4535.9927273697
 21
7726.0544456334
 31
0.0
  0
LINE
  5
180
330
1F
100
AcDbEntity
  8
0
  6
Continuous
 62
     7
370
    25
100
AcDbLine
 10
4535.9927273697
 20
7729.0544456334
 30
0.0
 11
4512.640872565
 21
7729.0544456334
 31
0.0
  0
LINE
  5
181
330
1F
100
AcDbEntity
  8
0
  6
Continuous
 62
     7
370
    25
100
AcDbLine
 10
4378.0403894023
 20
7729.0544456334
 30
0.0
 11
4354.6885345976
 21
7729.0544456334
 31
0.0
  0
LINE
  5
182
330
1F
100
AcDbEntity
  8
0
  6
Continuous
 62
     7
370
    25
100
AcDbLine
 10
4348.1885345976
 20
7782.6121569086
 30
0.0
 11
4348.1885345976
 21
7732.5544456334
 31
0.0
  0
LINE
  5
183
330
1F
100
AcDbEntity
  8
0
  6
Continuous
 62
     7
370
    25
100
AcDbLine
 10
4351.1885345976
 20
7732.5544456334
 30
0.0
 11
4351.1885345976
 21
7782.5544456334
 31
0.0
  0
ARC
  5
184
330
1F
100
AcDbEntity
  8
0
  6
Continuous
 62
     7
370
    25
100
AcDbCircle
 10
4354.6885345976
 20
7732.5544456334
 30
0.0
 40
3.500000000000909
100
AcDbArc
 50
180.0
 51
270.0
  0
ARC
  5
185
330
1F
100
AcDbEntity
  8
0
  6
Continuous
 62
     7
370
    25
100
AcDbCircle
 10
4354.6885345976
 20
7732.5544456334
 30
0.0
 40
6.5
100
AcDbArc
 50
180.0
 51
270.0
  0
LINE
  5
186
330
1F
100
AcDbEntity
  8
0
  6
Continuous
 62
     7
370
    25
100
AcDbLine
 10
4561.7307017526
 20
7732.5544456334
 30
0.0
 11
4561.7307017526
 21
7782.637875954
 31
0.0
  0
LINE
  5
187
330
1F
100
AcDbEntity
  8
0
  6
Continuous
 62
     7
370
    25
100
AcDbLine
 10
4558.7307017526
 20
7782.5544456334
 30
0.0
 11
4558.7307017526
 21
7732.5544456334
 31
0.0
  0
ARC
  5
188
330
1F
100
AcDbEntity
  8
0
  6
Continuous
 62
     7
370
    25
100
AcDbCircle
 10
4555.2307017526
 20
7732.5544456334
 30
0.0
 40
3.500000000000909
100
AcDbArc
 50
270.0
 51
0.0
  0
ARC
  5
189
330
1F
100
AcDbEntity
  8
0
  6
Continuous
 62
     7
370
    25
100
AcDbCircle
 10
4555.2307017526
 20
7732.5544456334
 30
0.0
 40
6.5
100
AcDbArc
 50
270.0
 51
0.0
  0
LINE
  5
18A
330
1F
100
AcDbEntity
  8
0
  6
Continuous
 62
     7
370
    25
100
AcDbLine
 10
4335.4505602148
 20
7726.0544456334
 30
0.0
 11
4354.6885345976
 21
7726.0544456334
 31
0.0
  0
LINE
  5
18B
330
1F
100
AcDbEntity
  8
0
  6
Continuous
 62
     7
370
    25
100
AcDbLine
 10
4535.9927273697
 20
7726.0544456334
 30
0.0
 11
4555.2307017526
 21
7726.0544456334
 31
0.0
  0
LINE
  5
18C
330
1F
100
AcDbEntity
  8
0
  6
Continuous
 62
     7
370
    25
100
AcDbLine
 10
4555.2307017526
 20
7729.0544456334
 30
0.0
 11
4541.4699529448
 21
7729.0544456334
 31
0.0
  0
LINE
  5
18D
330
1F
100
AcDbEntity
  8
0
  6
Continuous
 62
     7
370
    25
100
AcDbLine
 10
4349.2113090225
 20
7729.0544456334
 30
0.0
 11
4335.4505602148
 21
7729.0544456334
 31
0.0
  0
LINE
  5
18E
330
1F
100
AcDbEntity
  8
0
  6
Continuous
 62
     7
370
    25
100
AcDbLine
 10
4328.9505602148
 20
7782.6360519786
 30
0.0
 11
4328.9505602148
 21
7732.5544456334
 31
0.0
  0
LINE
  5
18F
330
1F
100
AcDbEntity
  8
0
  6
Continuous
 62
     7
370
    25
100
AcDbLine
 10
4331.9505602148
 20
7732.5544456334
 30
0.0
 11
4331.9505602148
 21
7782.5544456334
 31
0.0
  0
ARC
  5
190
330
1F
100
AcDbEntity
  8
0
  6
Continuous
 62
     7
370
    25
100
AcDbCircle
 10
4335.4505602148
 20
7732.5544456334
 30
0.0
 40
3.500000000000909
100
AcDbArc
 50
180.0
 51
270.0
  0
ARC
  5
191
330
1F
100
AcDbEntity
  8
0
  6
Continuous
 62
     7
370
    25
100
AcDbCircle
 10
4335.4505602148
 20
7732.5544456334
 30
0.0
 40
6.5
100
AcDbArc
 50
180.0
 51
270.0
  0
ARC
  5
192
330
1F
100
AcDbEntity
  8
0
  6
Continuous
 62
     7
370
    25
100
AcDbCircle
 10
4584.6262622565
 20
7786.5544456334
 30
0.0
 40
4.000000000000909
100
AcDbArc
 50
270.0
 51
90.0
  0
LINE
  5
193
330
1F
100
AcDbEntity
  8
0
  6
Continuous
 62
     7
370
    25
100
AcDbLine
 10
4584.6262622565
 20
7790.5544456334
 30
0.0
 11
4574.4583879918
 21
7790.5544456334
 31
0.0
  0
LINE
  5
194
330
1F
100
AcDbEntity
  8
0
  6
Continuous
 62
     7
370
    25
100
AcDbLine
 10
4577.2357931946
 20
7782.5544456334
 30
0.0
 11
4582.6014491964
 21
7782.5544456334
 31
0.0
  0
LINE
  5
195
330
1F
100
AcDbEntity
  8
0
  6
Continuous
 62
     7
370
    25
100
AcDbLine
 10
4574.4583879918
 20
7782.5544456334
 30
0.0
 11
4574.5630812608
 21
7782.5544456334
 31
0.0
  0
ARC
  5
196
330
1F
100
AcDbEntity
  8
0
  6
Continuous
 62
     7
370
    25
100
AcDbCircle
 10
4306.0549997108
 20
7786.5544456334
 30
0.0
 40
4.000000000000909
100
AcDbArc
 50
90.0
 51
270.0
  0
LINE
  5
197
330
1F
100
AcDbEntity
  8
0
  6
Continuous
 62
     7
370
    25
100
AcDbLine
 10
4316.2228739756
 20
7790.5544456334
 30
0.0
 11
4306.0549997108
 21
7790.5544456334
 31
0.0
  0
LINE
  5
198
330
1F
100
AcDbEntity
  8
0
  6
Continuous
 62
     7
370
    25
100
AcDbLine
 10
4316.110830206
 20
7782.5544456334
 30
0.0
 11
4316.2228739756
 21
7782.5544456334
 31
0.0
  0
LINE
  5
199
330
1F
100
AcDbEntity
  8
0
  6
Continuous
 62
     7
370
    25
100
AcDbLine
 10
4308.0812744544
 20
7782.5544456334
 30
0.0
 11
4313.4454687727
 21
7782.5544456334
 31
0.0
  0
LINE
  5
19A
330
1F
100
AcDbEntity
  8
0
  6
Continuous
 62
     7
370
    25
100
AcDbLine
 10
4577.2357931946
 20
7732.5544456334
 30
0.0
 11
4577.2357931946
 21
7782.6796689504
 31
0.0
  0
LINE
  5
19B
330
1F
100
AcDbEntity
  8
0
  6
Continuous
 62
     7
370
    25
100
AcDbLine
 10
4574.2357931946
 20
7782.5544456334
 30
0.0
 11
4574.2357931946
 21
7732.5544456334
 31
0.0
  0
ARC
  5
19C
330
1F
100
AcDbEntity
  8
0
  6
Continuous
 62
     7
370
    25
100
AcDbCircle
 10
4570.7357931946
 20
7732.5544456334
 30
0.0
 40
3.500000000000909
100
AcDbArc
 50
270.0
 51
0.0
  0
ARC
  5
19D
330
1F
100
AcDbEntity
  8
0
  6
Continuous
 62
     7
370
    25
100
AcDbCircle
 10
4570.7357931946
 20
7732.5544456334
 30
0.0
 40
6.5
100
AcDbArc
 50
270.0
 51
0.0
  0
LINE
  5
19E
330
1F
100
AcDbEntity
  8
0
  6
Continuous
 62
     7
370
    25
100
AcDbLine
 10
4319.9454687727
 20
7726.0544456334
 30
0.0
 11
4335.4505602148
 21
7726.0544456334
 31
0.0
  0
LINE
  5
19F
330
1F
100
AcDbEntity
  8
0
  6
Continuous
 62
     7
370
    25
100
AcDbLine
 10
4555.2307017526
 20
7726.0544456334
 30
0.0
 11
4570.7357931946
 21
7726.0544456334
 31
0.0
  0
LINE
  5
1A0
330
1F
100
AcDbEntity
  8
0
  6
Continuous
 62
     7
370
    25
100
AcDbLine
 10
4570.7357931946
 20
7729.0544456334
 30
0.0
 11
4560.7079273276
 21
7729.0544456334
 31
0.0
  0
LINE
  5
1A1
330
1F
100
AcDbEntity
  8
0
  6
Continuous
 62
     7
370
    25
100
AcDbLine
 10
4329.9733346397
 20
7729.0544456334
 30
0.0
 11
4319.9454687727
 21
7729.0544456334
 31
0.0
  0
LINE
  5
1A2
330
1F
100
AcDbEntity
  8
0
  6
Continuous
 62
     7
370
    25
100
AcDbLine
 10
4313.4454687727
 20
7782.6794795244
 30
0.0
 11
4313.4454687727
 21
7732.5544456334
 31
0.0
  0
LINE
  5
1A3
330
1F
100
AcDbEntity
  8
0
  6
Continuous
 62
     7
370
    25
100
AcDbLine
 10
4316.4454687727
 20
7732.5544456334
 30
0.0
 11
4316.4454687727
 21
7782.5544456334
 31
0.0
  0
ARC
  5
1A4
330
1F
100
AcDbEntity
  8
0
  6
Continuous
 62
     7
370
    25
100
AcDbCircle
 10
4319.9454687727
 20
7732.5544456334
 30
0.0
 40
3.500000000000909
100
AcDbArc
 50
180.0
 51
270.0
  0
ARC
  5
1A5
330
1F
100
AcDbEntity
  8
0
  6
Continuous
 62
     7
370
    25
100
AcDbCircle
 10
4319.9454687727
 20
7732.5544456334
 30
0.0
 40
6.5
100
AcDbArc
 50
180.0
 51
270.0
  0
LINE
  5
1A6
330
1F
100
AcDbEntity
  8
0
  6
Continuous
 62
     7
370
    25
100
AcDbLine
 10
4584.6485831564
 20
7732.5544456334
 30
0.0
 11
4584.6485831564
 21
7782.8121060186
 31
0.0
  0
LINE
  5
1A7
330
1F
100
AcDbEntity
  8
0
  6
Continuous
 62
     7
370
    25
100
AcDbLine
 10
4581.6485831564
 20
7782.5544456334
 30
0.0
 11
4581.6485831564
 21
7732.5544456334
 31
0.0
  0
ARC
  5
1A8
330
1F
100
AcDbEntity
  8
0
  6
Continuous
 62
     7
370
    25
100
AcDbCircle
 10
4578.1485831564
 20
7732.5544456334
 30
0.0
 40
3.5
100
AcDbArc
 50
270.0
 51
0.0
  0
ARC
  5
1A9
330
1F
100
AcDbEntity
  8
0
  6
Continuous
 62
     7
370
    25
100
AcDbCircle
 10
4578.1485831564
 20
7732.5544456334
 30
0.0
 40
6.5
100
AcDbArc
 50
270.0
 51
0.0
  0
LINE
  5
1AA
330
1F
100
AcDbEntity
  8
0
  6
Continuous
 62
     7
370
    25
100
AcDbLine
 10
4312.532678811
 20
7726.0544456334
 30
0.0
 11
4319.9454687727
 21
7726.0544456334
 31
0.0
  0
LINE
  5
1AB
330
1F
100
AcDbEntity
  8
0
  6
Continuous
 62
     7
370
    25
100
AcDbLine
 10
4570.7357931946
 20
7726.0544456334
 30
0.0
 11
4578.1485831564
 21
7726.0544456334
 31
0.0
  0
LINE
  5
1AC
330
1F
100
AcDbEntity
  8
0
  6
Continuous
 62
     7
370
    25
100
AcDbLine
 10
4578.1485831564
 20
7729.0544456334
 30
0.0
 11
4576.2130187697
 21
7729.0544456334
 31
0.0
  0
LINE
  5
1AD
330
1F
100
AcDbEntity
  8
0
  6
Continuous
 62
     7
370
    25
100
AcDbLine
 10
4314.4682431977
 20
7729.0544456334
 30
0.0
 11
4312.532678811
 21
7729.0544456334
 31
0.0
  0
LINE
  5
1AE
330
1F
100
AcDbEntity
  8
0
  6
Continuous
 62
     7
370
    25
100
AcDbLine
 10
4306.032678811
 20
7782.8096597352
 30
0.0
 11
4306.032678811
 21
7732.5544456334
 31
0.0
  0
LINE
  5
1AF
330
1F
100
AcDbEntity
  8
0
  6
Continuous
 62
     7
370
    25
100
AcDbLine
 10
4309.032678811
 20
7732.5544456334
 30
0.0
 11
4309.032678811
 21
7782.5544456334
 31
0.0
  0
ARC
  5
1B0
330
1F
100
AcDbEntity
  8
0
  6
Continuous
 62
     7
370
    25
100
AcDbCircle
 10
4312.532678811
 20
7732.5544456334
 30
0.0
 40
3.5
100
AcDbArc
 50
180.0
 51
270.0
  0
ARC
  5
1B1
330
1F
100
AcDbEntity
  8
0
  6
Continuous
 62
     7
370
    25
100
AcDbCircle
 10
4312.532678811
 20
7732.5544456334
 30
0.0
 40
6.5
100
AcDbArc
 50
180.0
 51
270.0
  0
LINE
  5
1B2
330
1F
100
AcDbEntity
  8
0
  6
Continuous
 62
     7
370
    25
100
AcDbLine
 10
4586.0308235653
 20
7732.5544456334
 30
0.0
 11
4586.0308235653
 21
7782.8091542522
 31
0.0
  0
ARC
  5
1B3
330
1F
100
AcDbEntity
  8
0
  6
Continuous
 62
     7
370
    25
100
AcDbCircle
 10
4579.5308235653
 20
7732.5544456334
 30
0.0
 40
6.5
100
AcDbArc
 50
270.0
 51
0.0
  0
LINE
  5
1B4
330
1F
100
AcDbEntity
  8
0
  6
Continuous
 62
     7
370
    25
100
AcDbLine
 10
4311.150438402
 20
7726.0544456334
 30
0.0
 11
4312.532678811
 21
7726.0544456334
 31
0.0
  0
LINE
  5
1B5
330
1F
100
AcDbEntity
  8
0
  6
Continuous
 62
     7
370
    25
100
AcDbLine
 10
4578.1485831564
 20
7726.0544456334
 30
0.0
 11
4579.5308235653
 21
7726.0544456334
 31
0.0
  0
LINE
  5
1B6
330
1F
100
AcDbEntity
  8
0
  6
Continuous
 62
     7
370
    25
100
AcDbLine
 10
4304.650438402
 20
7782.8091542522
 30
0.0
 11
4304.650438402
 21
7732.5544456334
 31
0.0
  0
ARC
  5
1B7
330
1F
100
AcDbEntity
  8
0
  6
Continuous
 62
     7
370
    25
100
AcDbCircle
 10
4311.150438402
 20
7732.5544456334
 30
0.0
 40
6.5
100
AcDbArc
 50
180.0
 51
270.0
  0
LINE
  5
1B8
330
1F
100
AcDbEntity
  8
0
  6
Continuous
 62
     7
370
    25
100
AcDbLine
 10
4579.5815592122
 20
7782.5544456334
 30
0.0
 11
4579.5815592122
 21
7732.5544456334
 31
0.0
  0
ARC
  5
1B9
330
1F
100
AcDbEntity
  8
0
  6
Continuous
 62
     7
370
    25
100
AcDbCircle
 10
4576.0815592122
 20
7732.5544456334
 30
0.0
 40
3.500000000000452
100
AcDbArc
 50
272.1790080204
 51
0.0
  0
LINE
  5
1BA
330
1F
100
AcDbEntity
  8
0
  6
Continuous
 62
     7
370
    25
100
AcDbLine
 10
4311.0997027552
 20
7732.5544456334
 30
0.0
 11
4311.0997027552
 21
7782.5544456334
 31
0.0
  0
ARC
  5
1BB
330
1F
100
AcDbEntity
  8
0
  6
Continuous
 62
     7
370
    25
100
AcDbCircle
 10
4314.5997027552
 20
7732.5544456334
 30
0.0
 40
3.50000000000066
100
AcDbArc
 50
180.0
 51
267.8209919795
  0
LINE
  5
1BC
330
1F
100
AcDbEntity
  8
0
  6
Continuous
 62
     7
370
    25
100
AcDbLine
 10
4572.6776606229
 20
7732.5544456334
 30
0.0
 11
4572.6776606229
 21
7782.5544456334
 31
0.0
  0
LINE
  5
1BD
330
1F
100
AcDbEntity
  8
0
  6
Continuous
 62
     7
370
    25
100
AcDbLine
 10
4569.6776606229
 20
7782.5544456334
 30
0.0
 11
4569.6776606229
 21
7732.5544456334
 31
0.0
  0
ARC
  5
1BE
330
1F
100
AcDbEntity
  8
0
  6
Continuous
 62
     7
370
    25
100
AcDbCircle
 10
4566.1776606229
 20
7732.5544456334
 30
0.0
 40
3.5
100
AcDbArc
 50
270.0
 51
0.0
  0
ARC
  5
1BF
330
1F
100
AcDbEntity
  8
0
  6
Continuous
 62
     7
370
    25
100
AcDbCircle
 10
4566.1776606229
 20
7732.5544456334
 30
0.0
 40
6.500000000000525
100
AcDbArc
 50
328.970920413
 51
0.0
  0
LINE
  5
1C0
330
1F
100
AcDbEntity
  8
0
  6
Continuous
 62
     7
370
    25
100
AcDbLine
 10
4318.0036013444
 20
7782.5544456334
 30
0.0
 11
4318.0036013444
 21
7732.5544456334
 31
0.0
  0
LINE
  5
1C1
330
1F
100
AcDbEntity
  8
0
  6
Continuous
 62
     7
370
    25
100
AcDbLine
 10
4321.0036013444
 20
7732.5544456334
 30
0.0
 11
4321.0036013444
 21
7782.5544456334
 31
0.0
  0
ARC
  5
1C2
330
1F
100
AcDbEntity
  8
0
  6
Continuous
 62
     7
370
    25
100
AcDbCircle
 10
4324.5036013444
 20
7732.5544456334
 30
0.0
 40
3.5
100
AcDbArc
 50
180.0
 51
270.0
  0
ARC
  5
1C3
330
1F
100
AcDbEntity
  8
0
  6
Continuous
 62
     7
370
    25
100
AcDbCircle
 10
4324.5036013444
 20
7732.5544456334
 30
0.0
 40
6.500000000001007
100
AcDbArc
 50
180.0
 51
211.0290795871
  0
LINE
  5
1C4
330
1F
100
AcDbEntity
  8
0
  6
Continuous
 62
     7
370
    25
100
AcDbLine
 10
4558.411319384
 20
7782.5544456334
 30
0.0
 11
4558.411319384
 21
7732.5544456334
 31
0.0
  0
ARC
  5
1C5
330
1F
100
AcDbEntity
  8
0
  6
Continuous
 62
     7
370
    25
100
AcDbCircle
 10
4554.911319384
 20
7732.5544456334
 30
0.0
 40
3.5
100
AcDbArc
 50
270.0
 51
0.0
  0
LINE
  5
1C6
330
1F
100
AcDbEntity
  8
0
  6
Continuous
 62
     7
370
    25
100
AcDbLine
 10
4332.2699425833
 20
7732.5544456334
 30
0.0
 11
4332.2699425833
 21
7782.5544456334
 31
0.0
  0
ARC
  5
1C7
330
1F
100
AcDbEntity
  8
0
  6
Continuous
 62
     7
370
    25
100
AcDbCircle
 10
4335.7699425833
 20
7732.5544456334
 30
0.0
 40
3.5
100
AcDbArc
 50
180.0
 51
270.0
  0
LINE
  5
1C8
330
1F
100
AcDbEntity
  8
0
  6
Continuous
 62
     7
370
    25
100
AcDbLine
 10
4550.1449781451
 20
7732.5544456334
 30
0.0
 11
4550.1449781451
 21
7781.5760803006
 31
0.0
  0
LINE
  5
1C9
330
1F
100
AcDbEntity
  8
0
  6
Continuous
 62
     7
370
    25
100
AcDbLine
 10
4547.1449781451
 20
7782.5544456334
 30
0.0
 11
4547.1449781451
 21
7732.5544456334
 31
0.0
  0
ARC
  5
1CA
330
1F
100
AcDbEntity
  8
0
  6
Continuous
 62
     7
370
    25
100
AcDbCircle
 10
4543.6449781451
 20
7732.5544456334
 30
0.0
 40
3.500000000000909
100
AcDbArc
 50
270.0
 51
0.0
  0
ARC
  5
1CB
330
1F
100
AcDbEntity
  8
0
  6
Continuous
 62
     7
370
    25
100
AcDbCircle
 10
4543.6449781451
 20
7732.5544456334
 30
0.0
 40
6.500000000000957
100
AcDbArc
 50
327.4210296072
 51
0.0
  0
LINE
  5
1CC
330
1F
100
AcDbEntity
  8
0
  6
Continuous
 62
     7
370
    25
100
AcDbLine
 10
4340.5362838222
 20
7782.5544456334
 30
0.0
 11
4340.5362838222
 21
7732.5544456334
 31
0.0
  0
LINE
  5
1CD
330
1F
100
AcDbEntity
  8
0
  6
Continuous
 62
     7
370
    25
100
AcDbLine
 10
4343.5362838222
 20
7732.5544456334
 30
0.0
 11
4343.5362838222
 21
7782.5544456334
 31
0.0
  0
ARC
  5
1CE
330
1F
100
AcDbEntity
  8
0
  6
Continuous
 62
     7
370
    25
100
AcDbCircle
 10
4347.0362838222
 20
7732.5544456334
 30
0.0
 40
3.500000000000909
100
AcDbArc
 50
180.0
 51
270.0
  0
ARC
  5
1CF
330
1F
100
AcDbEntity
  8
0
  6
Continuous
 62
     7
370
    25
100
AcDbCircle
 10
4347.0362838222
 20
7732.5544456334
 30
0.0
 40
6.500000000000957
100
AcDbArc
 50
180.0
 51
212.5789703928
  0
LINE
  5
1D0
330
1F
100
AcDbEntity
  8
0
  6
Continuous
 62
     7
370
    25
100
AcDbLine
 10
4538.8786369063
 20
7732.5544456334
 30
0.0
 11
4538.8786369063
 21
7782.5544456334
 31
0.0
  0
LINE
  5
1D1
330
1F
100
AcDbEntity
  8
0
  6
Continuous
 62
     7
370
    25
100
AcDbLine
 10
4535.8786369063
 20
7782.5544456334
 30
0.0
 11
4535.8786369063
 21
7732.5544456334
 31
0.0
  0
ARC
  5
1D2
330
1F
100
AcDbEntity
  8
0
  6
Continuous
 62
     7
370
    25
100
AcDbCircle
 10
4532.3786369063
 20
7732.5544456334
 30
0.0
 40
3.500000000000909
100
AcDbArc
 50
270.0
 51
0.0
  0
ARC
  5
1D3
330
1F
100
AcDbEntity
  8
0
  6
Continuous
 62
     7
370
    25
100
AcDbCircle
 10
4532.3786369063
 20
7732.5544456334
 30
0.0
 40
6.500000000000049
100
AcDbArc
 50
336.4244367851
 51
0.0
  0
LINE
  5
1D4
330
1F
100
AcDbEntity
  8
0
  6
Continuous
 62
     7
370
    25
100
AcDbLine
 10
4351.8026250611
 20
7782.5544456334
 30
0.0
 11
4351.8026250611
 21
7732.5544456334
 31
0.0
  0
LINE
  5
1D5
330
1F
100
AcDbEntity
  8
0
  6
Continuous
 62
     7
370
    25
100
AcDbLine
 10
4354.8026250611
 20
7732.5544456334
 30
0.0
 11
4354.8026250611
 21
7782.5544456334
 31
0.0
  0
ARC
  5
1D6
330
1F
100
AcDbEntity
  8
0
  6
Continuous
 62
     7
370
    25
100
AcDbCircle
 10
4358.3026250611
 20
7732.5544456334
 30
0.0
 40
3.500000000000909
100
AcDbArc
 50
180.0
 51
270.0
  0
ARC
  5
1D7
330
1F
100
AcDbEntity
  8
0
  6
Continuous
 62
     7
370
    25
100
AcDbCircle
 10
4358.3026250611
 20
7732.5544456334
 30
0.0
 40
6.5
100
AcDbArc
 50
180.0
 51
203.5755632148
  0
LINE
  5
1D8
330
1F
100
AcDbEntity
  8
0
  6
Continuous
 62
     7
370
    25
100
AcDbLine
 10
4527.6122956674
 20
7732.5544456334
 30
0.0
 11
4527.6122956674
 21
7782.5544456334
 31
0.0
  0
LINE
  5
1D9
330
1F
100
AcDbEntity
  8
0
  6
Continuous
 62
     7
370
    25
100
AcDbLine
 10
4524.6122956674
 20
7782.5544456334
 30
0.0
 11
4524.6122956674
 21
7732.5544456334
 31
0.0
  0
ARC
  5
1DA
330
1F
100
AcDbEntity
  8
0
  6
Continuous
 62
     7
370
    25
100
AcDbCircle
 10
4521.1122956674
 20
7732.5544456334
 30
0.0
 40
3.5
100
AcDbArc
 50
270.0
 51
0.0
  0
ARC
  5
1DB
330
1F
100
AcDbEntity
  8
0
  6
Continuous
 62
     7
370
    25
100
AcDbCircle
 10
4521.1122956674
 20
7732.5544456334
 30
0.0
 40
6.500000000000191
100
AcDbArc
 50
327.4210296072
 51
0.0
  0
LINE
  5
1DC
330
1F
100
AcDbEntity
  8
0
  6
Continuous
 62
     7
370
    25
100
AcDbLine
 10
4363.0689663
 20
7781.5544456334
 30
0.0
 11
4363.0689663
 21
7732.5544456334
 31
0.0
  0
LINE
  5
1DD
330
1F
100
AcDbEntity
  8
0
  6
Continuous
 62
     7
370
    25
100
AcDbLine
 10
4366.0689663
 20
7732.5544456334
 30
0.0
 11
4366.0689663
 21
7782.5544456334
 31
0.0
  0
ARC
  5
1DE
330
1F
100
AcDbEntity
  8
0
  6
Continuous
 62
     7
370
    25
100
AcDbCircle
 10
4369.5689663
 20
7732.5544456334
 30
0.0
 40
3.5
100
AcDbArc
 50
180.0
 51
270.0
  0
ARC
  5
1DF
330
1F
100
AcDbEntity
  8
0
  6
Continuous
 62
     7
370
    25
100
AcDbCircle
 10
4369.5689663
 20
7732.5544456334
 30
0.0
 40
6.500000000000191
100
AcDbArc
 50
180.0
 51
212.5789703928
  0
LINE
  5
1E0
330
1F
100
AcDbEntity
  8
0
  6
Continuous
 62
     7
370
    25
100
AcDbLine
 10
4516.3459544285
 20
7732.5544456334
 30
0.0
 11
4516.3459544285
 21
7733.1187392849
 31
0.0
  0
LINE
  5
1E1
330
1F
100
AcDbEntity
  8
0
  6
Continuous
 62
     7
370
    25
100
AcDbLine
 10
4513.3459544285
 20
7782.5544456334
 30
0.0
 11
4513.3459544285
 21
7733.6482272121
 31
0.0
  0
ARC
  5
1E2
330
1F
100
AcDbEntity
  8
0
  6
Continuous
 62
     7
370
    25
100
AcDbCircle
 10
4509.8459544285
 20
7732.5544456334
 30
0.0
 40
6.500000000000957
100
AcDbArc
 50
327.4210296072
 51
0.0
  0
LINE
  5
1E3
330
1F
100
AcDbEntity
  8
0
  6
Continuous
 62
     7
370
    25
100
AcDbLine
 10
4374.3353075389
 20
7733.1187392849
 30
0.0
 11
4374.3353075389
 21
7732.5544456334
 31
0.0
  0
LINE
  5
1E4
330
1F
100
AcDbEntity
  8
0
  6
Continuous
 62
     7
370
    25
100
AcDbLine
 10
4377.3353075388
 20
7733.6482272121
 30
0.0
 11
4377.3353075388
 21
7782.5544456334
 31
0.0
  0
ARC
  5
1E5
330
1F
100
AcDbEntity
  8
0
  6
Continuous
 62
     7
370
    25
100
AcDbCircle
 10
4380.8353075389
 20
7732.5544456334
 30
0.0
 40
6.500000000000191
100
AcDbArc
 50
180.0
 51
212.5789703928
  0
LINE
  5
1E6
330
1F
100
AcDbEntity
  8
0
  6
Continuous
 62
     7
370
    25
100
AcDbLine
 10
4505.0796131896
 20
7732.5544456334
 30
0.0
 11
4505.0796131896
 21
7782.5544456334
 31
0.0
  0
LINE
  5
1E7
330
1F
100
AcDbEntity
  8
0
  6
Continuous
 62
     7
370
    25
100
AcDbLine
 10
4502.0796131896
 20
7782.5544456334
 30
0.0
 11
4502.0796131896
 21
7732.5544456334
 31
0.0
  0
LWPOLYLINE
  5
1E8
330
1F
100
AcDbEntity
  8
0
  6
Continuous
 62
     7
370
    25
100
AcDbPolyline
 90
        3
 70
   128
 43
0.0
 10
4502.0796131896
 20
7732.5544456334
 10
4502.012361671
 20
7731.8716295063
 10
4501.9337151558
 20
7731.5544456334
  0
LINE
  5
1E9
330
1F
100
AcDbEntity
  8
0
  6
Continuous
 62
     7
370
    25
100
AcDbLine
 10
4505.0022294789
 20
7731.5544456334
 30
0.0
 11
4505.0796131896
 21
7732.5544456334
 31
0.0
  0
LINE
  5
1EA
330
1F
100
AcDbEntity
  8
0
  6
Continuous
 62
     7
370
    25
100
AcDbLine
 10
4385.6016487777
 20
7782.5544456334
 30
0.0
 11
4385.6016487777
 21
7732.5544456334
 31
0.0
  0
LINE
  5
1EB
330
1F
100
AcDbEntity
  8
0
  6
Continuous
 62
     7
370
    25
100
AcDbLine
 10
4388.6016487777
 20
7732.5544456334
 30
0.0
 11
4388.6016487777
 21
7782.5544456334
 31
0.0
  0
LWPOLYLINE
  5
1EC
330
1F
100
AcDbEntity
  8
0
  6
Continuous
 62
     7
370
    25
100
AcDbPolyline
 90
        3
 70
   128
 43
0.0
 10
4388.7475468115
 20
7731.5544456334
 10
4388.6689002963
 20
7731.8716295063
 10
4388.6016487777
 20
7732.5544456334
  0
LINE
  5
1ED
330
1F
100
AcDbEntity
  8
0
  6
Continuous
 62
     7
370
    25
100
AcDbLine
 10
4385.6016487777
 20
7732.5544456334
 30
0.0
 11
4385.6790324884
 21
7731.5544456334
 31
0.0
  0
LINE
  5
1EE
330
1F
100
AcDbEntity
  8
0
  6
Continuous
 62
     7
370
    25
100
AcDbLine
 10
4493.8132719507
 20
7732.5544456334
 30
0.0
 11
4493.8132719507
 21
7782.5544456334
 31
0.0
  0
LINE
  5
1EF
330
1F
100
AcDbEntity
  8
0
  6
Continuous
 62
     7
370
    25
100
AcDbLine
 10
4490.8132719507
 20
7782.5544456334
 30
0.0
 11
4490.8132719507
 21
7732.5544456334
 31
0.0
  0
LWPOLYLINE
  5
1F0
330
1F
100
AcDbEntity
  8
0
  6
Continuous
 62
     7
370
    25
100
AcDbPolyline
 90
        3
 70
   128
 43
0.0
 10
4490.8132719507
 20
7732.5544456334
 10
4490.7460204321
 20
7731.8716295063
 10
4490.667373917
 20
7731.5544456334
  0
LINE
  5
1F1
330
1F
100
AcDbEntity
  8
0
  6
Continuous
 62
     7
370
    25
100
AcDbLine
 10
4493.73588824
 20
7731.5544456334
 30
0.0
 11
4493.8132719507
 21
7732.5544456334
 31
0.0
  0
LINE
  5
1F2
330
1F
100
AcDbEntity
  8
0
  6
Continuous
 62
     7
370
    25
100
AcDbLine
 10
4396.8679900166
 20
7782.5544456334
 30
0.0
 11
4396.8679900166
 21
7732.5544456334
 31
0.0
  0
LINE
  5
1F3
330
1F
100
AcDbEntity
  8
0
  6
Continuous
 62
     7
370
    25
100
AcDbLine
 10
4399.8679900166
 20
7732.5544456334
 30
0.0
 11
4399.8679900166
 21
7782.5544456334
 31
0.0
  0
LWPOLYLINE
  5
1F4
330
1F
100
AcDbEntity
  8
0
  6
Continuous
 62
     7
370
    25
100
AcDbPolyline
 90
        3
 70
   128
 43
0.0
 10
4400.0138880504
 20
7731.5544456334
 10
4399.9352415352
 20
7731.8716295063
 10
4399.8679900166
 20
7732.5544456334
  0
LINE
  5
1F5
330
1F
100
AcDbEntity
  8
0
  6
Continuous
 62
     7
370
    25
100
AcDbLine
 10
4396.8679900166
 20
7732.5544456334
 30
0.0
 11
4396.9453737273
 21
7731.5544456334
 31
0.0
  0
LINE
  5
1F6
330
1F
100
AcDbEntity
  8
0
  6
Continuous
 62
     7
370
    25
100
AcDbLine
 10
4482.5469307118
 20
7732.5544456334
 30
0.0
 11
4482.5469307118
 21
7781.5544456334
 31
0.0
  0
LINE
  5
1F7
330
1F
100
AcDbEntity
  8
0
  6
Continuous
 62
     7
370
    25
100
AcDbLine
 10
4479.5469307118
 20
7782.5544456334
 30
0.0
 11
4479.5469307118
 21
7732.5544456334
 31
0.0
  0
LWPOLYLINE
  5
1F8
330
1F
100
AcDbEntity
  8
0
  6
Continuous
 62
     7
370
    25
100
AcDbPolyline
 90
        3
 70
   128
 43
0.0
 10
4479.5469307118
 20
7732.5544456334
 10
4479.4796791932
 20
7731.8716295063
 10
4479.4010326781
 20
7731.5544456334
  0
LINE
  5
1F9
330
1F
100
AcDbEntity
  8
0
  6
Continuous
 62
     7
370
    25
100
AcDbLine
 10
4482.4695470012
 20
7731.5544456334
 30
0.0
 11
4482.5469307118
 21
7732.5544456334
 31
0.0
  0
LINE
  5
1FA
330
1F
100
AcDbEntity
  8
0
  6
Continuous
 62
     7
370
    25
100
AcDbLine
 10
4408.1343312555
 20
7782.5544456334
 30
0.0
 11
4408.1343312555
 21
7732.5544456334
 31
0.0
  0
LINE
  5
1FB
330
1F
100
AcDbEntity
  8
0
  6
Continuous
 62
     7
370
    25
100
AcDbLine
 10
4411.1343312555
 20
7732.5544456334
 30
0.0
 11
4411.1343312555
 21
7782.5544456334
 31
0.0
  0
LWPOLYLINE
  5
1FC
330
1F
100
AcDbEntity
  8
0
  6
Continuous
 62
     7
370
    25
100
AcDbPolyline
 90
        3
 70
   128
 43
0.0
 10
4411.2802292893
 20
7731.5544456334
 10
4411.2015827741
 20
7731.8716295063
 10
4411.1343312555
 20
7732.5544456334
  0
LINE
  5
1FD
330
1F
100
AcDbEntity
  8
0
  6
Continuous
 62
     7
370
    25
100
AcDbLine
 10
4408.1343312555
 20
7732.5544456334
 30
0.0
 11
4408.2117149662
 21
7731.5544456334
 31
0.0
  0
LINE
  5
1FE
330
1F
100
AcDbEntity
  8
0
  6
Continuous
 62
     7
370
    25
100
AcDbLine
 10
4468.2805894729
 20
7782.5544456334
 30
0.0
 11
4468.2805894729
 21
7734.0544456334
 31
0.0
  0
LINE
  5
1FF
330
1F
100
AcDbEntity
  8
0
  6
Continuous
 62
     7
370
    25
100
AcDbLine
 10
4471.2805894729
 20
7734.2524024552
 30
0.0
 11
4471.2805894729
 21
7781.5760803006
 31
0.0
  0
LINE
  5
200
330
1F
100
AcDbEntity
  8
0
  6
Continuous
 62
     7
370
    25
100
AcDbLine
 10
4422.4006724944
 20
7734.0544456334
 30
0.0
 11
4422.4006724944
 21
7782.5544456334
 31
0.0
  0
LINE
  5
201
330
1F
100
AcDbEntity
  8
0
  6
Continuous
 62
     7
370
    25
100
AcDbLine
 10
4419.4006724944
 20
7782.5544456334
 30
0.0
 11
4419.4006724944
 21
7734.2524024552
 31
0.0
  0
LINE
  5
202
330
1F
100
AcDbEntity
  8
0
  6
Continuous
 62
     7
370
    25
100
AcDbLine
 10
4457.0142482341
 20
7782.5544456334
 30
0.0
 11
4457.0142482341
 21
7737.5544456334
 31
0.0
  0
LINE
  5
203
330
1F
100
AcDbEntity
  8
0
  6
Continuous
 62
     7
370
    25
100
AcDbLine
 10
4460.0142482341
 20
7737.5544456334
 30
0.0
 11
4460.0142482341
 21
7782.5544456334
 31
0.0
  0
LINE
  5
204
330
1F
100
AcDbEntity
  8
0
  6
Continuous
 62
     7
370
    25
100
AcDbLine
 10
4433.6670137333
 20
7737.5544456334
 30
0.0
 11
4433.6670137333
 21
7782.5544456334
 31
0.0
  0
LINE
  5
205
330
1F
100
AcDbEntity
  8
0
  6
Continuous
 62
     7
370
    25
100
AcDbLine
 10
4430.6670137333
 20
7782.5544456334
 30
0.0
 11
4430.6670137333
 21
7737.5544456334
 31
0.0
  0
ARC
  5
206
330
1F
100
AcDbEntity
  8
0
  6
Continuous
 62
     7
370
    25
100
AcDbCircle
 10
4453.5142482341
 20
7737.5544456334
 30
0.0
 40
3.5
100
AcDbArc
 50
270.0
 51
0.0
  0
ARC
  5
207
330
1F
100
AcDbEntity
  8
0
  6
Continuous
 62
     7
370
    25
100
AcDbCircle
 10
4453.5142482341
 20
7737.5544456334
 30
0.0
 40
6.5
100
AcDbArc
 50
327.4210296072
 51
0.0
  0
ARC
  5
208
330
1F
100
AcDbEntity
  8
0
  6
Continuous
 62
     7
370
    25
100
AcDbCircle
 10
4437.1670137333
 20
7737.5544456334
 30
0.0
 40
3.5
100
AcDbArc
 50
180.0
 51
270.0
  0
ARC
  5
209
330
1F
100
AcDbEntity
  8
0
  6
Continuous
 62
     7
370
    25
100
AcDbCircle
 10
4437.1670137333
 20
7737.5544456334
 30
0.0
 40
6.500000000000681
100
AcDbArc
 50
180.0
 51
212.5789703928
  0
LINE
  5
20A
330
1F
100
AcDbEntity
  8
0
  6
Continuous
 62
     7
370
    25
100
AcDbLine
 10
4375.7832956051
 20
7790.8419099384
 30
0.0
 11
4367.7168695661
 21
7790.8419099384
 31
0.0
  0
LINE
  5
20B
330
1F
100
AcDbEntity
  8
0
  6
Continuous
 62
     7
370
    25
100
AcDbLine
 10
4375.7832956051
 20
7790.8419099384
 30
0.0
 11
4376.0769807737
 21
7790.5544456334
 31
0.0
  0
LINE
  5
20C
330
1F
100
AcDbEntity
  8
0
  6
Continuous
 62
     7
370
    25
100
AcDbLine
 10
4356.8889643426
 20
7790.8419099384
 30
0.0
 11
4357.1826495112
 21
7790.5544456334
 31
0.0
  0
ARC
  5
20D
330
1F
100
AcDbEntity
  8
0
  6
Continuous
 62
     7
370
    25
100
AcDbCircle
 10
4355.0695272822
 20
7784.3108703142
 30
0.0
 40
2.747783327391145
100
AcDbArc
 50
264.42586304
 51
320.2666813026
  0
LINE
  5
20E
330
1F
100
AcDbEntity
  8
0
  6
Continuous
 62
     7
370
    25
100
AcDbLine
 10
4364.9553903816
 20
7790.8419099384
 30
0.0
 11
4356.8889643426
 21
7790.8419099384
 31
0.0
  0
LINE
  5
20F
330
1F
100
AcDbEntity
  8
0
  6
Continuous
 62
     7
370
    25
100
AcDbLine
 10
4364.9553903816
 20
7790.8419099384
 30
0.0
 11
4365.2490755502
 21
7790.5544456334
 31
0.0
  0
ARC
  5
210
330
1F
100
AcDbEntity
  8
0
  6
Continuous
 62
     7
370
    25
100
AcDbCircle
 10
4363.0924183872
 20
7784.3793176225
 30
0.0
 40
2.826496239014176
100
AcDbArc
 50
271.9424983025
 51
320.4423213932
  0
ARC
  5
211
330
1F
100
AcDbEntity
  8
0
  6
Continuous
 62
     7
370
    25
100
AcDbCircle
 10
4365.8409179083
 20
7784.3906509256
 30
0.0
 40
2.84235357301312
100
AcDbArc
 50
274.6019149714
 51
319.7581212101
  0
LINE
  5
212
330
1F
100
AcDbEntity
  8
0
  6
Continuous
 62
     7
370
    25
100
AcDbLine
 10
4368.0105547347
 20
7790.5544456334
 30
0.0
 11
4367.7168695661
 21
7790.8419099384
 31
0.0
  0
LINE
  5
213
330
1F
100
AcDbEntity
  8
0
  6
Continuous
 62
     7
370
    25
100
AcDbLine
 10
4356.7704800777
 20
7790.5544456334
 30
0.0
 11
4356.8889643426
 21
7790.8419099384
 31
0.0
  0
LINE
  5
214
330
1F
100
AcDbEntity
  8
0
  6
Continuous
 62
     7
370
    25
100
AcDbLine
 10
4350.3131533696
 20
7726.0544456334
 30
0.0
 11
4350.3131533696
 21
7713.5544456334
 31
0.0
  0
LINE
  5
215
330
1F
100
AcDbEntity
  8
0
  6
Continuous
 62
     7
370
    25
100
AcDbLine
 10
4350.3131533696
 20
7713.5544456334
 30
0.0
 11
4349.6262037554
 21
7713.5544456334
 31
0.0
  0
LINE
  5
216
330
1F
100
AcDbEntity
  8
0
  6
Continuous
 62
     7
370
    25
100
AcDbLine
 10
4349.6262037554
 20
7713.5544456334
 30
0.0
 11
4349.6262037554
 21
7726.0544456334
 31
0.0
  0
LINE
  5
217
330
1F
100
AcDbEntity
  8
0
  6
Continuous
 62
     7
370
    25
100
AcDbLine
 10
4369.207484632
 20
7781.5544456334
 30
0.0
 11
4369.207484632
 21
7729.0731626797
 31
0.0
  0
LINE
  5
218
330
1F
100
AcDbEntity
  8
0
  6
Continuous
 62
     7
370
    25
100
AcDbLine
 10
4369.207484632
 20
7726.0544456334
 30
0.0
 11
4369.207484632
 21
7713.5544456334
 31
0.0
  0
LINE
  5
219
330
1F
100
AcDbEntity
  8
0
  6
Continuous
 62
     7
370
    25
100
AcDbLine
 10
4369.207484632
 20
7713.5544456334
 30
0.0
 11
4350.3131533696
 21
7713.5544456334
 31
0.0
  0
LWPOLYLINE
  5
21A
330
1F
100
AcDbEntity
  8
0
  6
Continuous
 62
     7
370
    25
100
AcDbPolyline
 90
        9
 70
   128
 43
0.0
 10
4359.7603190008
 20
7777.3419099384
 10
4360.3502208596
 20
7777.4773668341
 10
4360.8761976988
 20
7777.8690586649
 10
4361.2812517664
 20
7778.4745395431
 10
4361.5214891691
 20
7779.2281962205
 10
4361.5708764568
 20
7780.0483583021
 10
4361.4240617503
 20
7780.8461485
 10
4361.0969547014
 20
7781.5351138674
 10
4361.0838844225
 20
7781.5544456334
  0
LWPOLYLINE
  5
21B
330
1F
100
AcDbEntity
  8
0
  6
Continuous
 62
     7
370
    25
100
AcDbPolyline
 90
        9
 70
   128
 43
0.0
 10
4358.4367535791
 20
7781.5544456334
 10
4358.4236833002
 20
7781.5351138674
 10
4358.0965762513
 20
7780.8461485
 10
4357.9497615448
 20
7780.0483583021
 10
4357.9991488325
 20
7779.2281962205
 10
4358.2393862352
 20
7778.4745395431
 10
4358.6444403028
 20
7777.8690586649
 10
4359.170417142
 20
7777.4773668341
 10
4359.7603190008
 20
7777.3419099384
  0
LINE
  5
21C
330
1F
100
AcDbEntity
  8
0
  6
Continuous
 62
     7
370
    25
100
AcDbLine
 10
4367.7168695661
 20
7790.8419099384
 30
0.0
 11
4367.5983853012
 21
7790.5544456334
 31
0.0
  0
LWPOLYLINE
  5
21D
330
1F
100
AcDbEntity
  8
0
  6
Continuous
 62
     7
370
    25
100
AcDbPolyline
 90
        8
 70
   128
 43
0.0
 10
4360.3969348084
 20
7781.5544456334
 10
4360.6711644243
 20
7781.031778421
 10
4360.8653537338
 20
7780.2533964141
 10
4360.8653537338
 20
7779.4304234627
 10
4360.6711644243
 20
7778.6520414558
 10
4360.3038292301
 20
7778.0026001617
 10
4359.8031546193
 20
7777.5524766217
 10
4359.4168441931
 20
7777.3869954766
  0
LINE
  5
21E
330
1F
100
AcDbEntity
  8
0
  6
Continuous
 62
     7
370
    25
100
AcDbLine
 10
4488.7269326692
 20
7790.8419099384
 30
0.0
 11
4480.6605066302
 21
7790.8419099384
 31
0.0
  0
LINE
  5
21F
330
1F
100
AcDbEntity
  8
0
  6
Continuous
 62
     7
370
    25
100
AcDbLine
 10
4488.7269326692
 20
7790.8419099384
 30
0.0
 11
4488.4332475006
 21
7790.5544456334
 31
0.0
  0
ARC
  5
220
330
1F
100
AcDbEntity
  8
0
  6
Continuous
 62
     7
370
    25
100
AcDbCircle
 10
4490.5463697296
 20
7784.3108703142
 30
0.0
 40
2.747783327390239
100
AcDbArc
 50
219.7333186974
 51
275.57413696
  0
LINE
  5
221
330
1F
100
AcDbEntity
  8
0
  6
Continuous
 62
     7
370
    25
100
AcDbLine
 10
4469.8326014067
 20
7790.8419099384
 30
0.0
 11
4469.5389162381
 21
7790.5544456334
 31
0.0
  0
ARC
  5
222
330
1F
100
AcDbEntity
  8
0
  6
Continuous
 62
     7
370
    25
100
AcDbCircle
 10
4471.6854194089
 20
7784.3545152326
 30
0.0
 40
2.801379378819366
100
AcDbArc
 50
219.9833856827
 51
268.2478644127
  0
LINE
  5
223
330
1F
100
AcDbEntity
  8
0
  6
Continuous
 62
     7
370
    25
100
AcDbLine
 10
4477.8990274457
 20
7790.8419099384
 30
0.0
 11
4469.8326014067
 21
7790.8419099384
 31
0.0
  0
LINE
  5
224
330
1F
100
AcDbEntity
  8
0
  6
Continuous
 62
     7
370
    25
100
AcDbLine
 10
4477.8990274457
 20
7790.8419099384
 30
0.0
 11
4477.6053422771
 21
7790.5544456334
 31
0.0
  0
ARC
  5
225
330
1F
100
AcDbEntity
  8
0
  6
Continuous
 62
     7
370
    25
100
AcDbCircle
 10
4479.7749791035
 20
7784.3906509256
 30
0.0
 40
2.842353573014979
100
AcDbArc
 50
220.2418787899
 51
265.3980850286
  0
ARC
  5
226
330
1F
100
AcDbEntity
  8
0
  6
Continuous
 62
     7
370
    25
100
AcDbCircle
 10
4482.5256983761
 20
7784.3886247411
 30
0.0
 40
2.835873889564652
100
AcDbArc
 50
218.8533125622
 51
268.0190536835
  0
LINE
  5
227
330
1F
100
AcDbEntity
  8
0
  6
Continuous
 62
     7
370
    25
100
AcDbLine
 10
4480.3668214616
 20
7790.5544456334
 30
0.0
 11
4480.6605066302
 21
7790.8419099384
 31
0.0
  0
LINE
  5
228
330
1F
100
AcDbEntity
  8
0
  6
Continuous
 62
     7
370
    25
100
AcDbLine
 10
4495.3027436422
 20
7713.5544456334
 30
0.0
 11
4495.9896932564
 21
7713.5544456334
 31
0.0
  0
LINE
  5
229
330
1F
100
AcDbEntity
  8
0
  6
Continuous
 62
     7
370
    25
100
AcDbLine
 10
4495.3027436422
 20
7782.5544456334
 30
0.0
 11
4495.3027436422
 21
7731.5544456334
 31
0.0
  0
LINE
  5
22A
330
1F
100
AcDbEntity
  8
0
  6
Continuous
 62
     7
370
    25
100
AcDbLine
 10
4495.3027436422
 20
7726.0544456334
 30
0.0
 11
4495.3027436422
 21
7713.5544456334
 31
0.0
  0
LINE
  5
22B
330
1F
100
AcDbEntity
  8
0
  6
Continuous
 62
     7
370
    25
100
AcDbLine
 10
4488.8454169341
 20
7790.5544456334
 30
0.0
 11
4488.7269326692
 21
7790.8419099384
 31
0.0
  0
LINE
  5
22C
330
1F
100
AcDbEntity
  8
0
  6
Continuous
 62
     7
370
    25
100
AcDbLine
 10
4495.9896932564
 20
7713.5544456334
 30
0.0
 11
4495.9896932564
 21
7726.0544456334
 31
0.0
  0
LINE
  5
22D
330
1F
100
AcDbEntity
  8
0
  6
Continuous
 62
     7
370
    25
100
AcDbLine
 10
4495.9896932564
 20
7731.5544456334
 30
0.0
 11
4495.9896932564
 21
7782.5544456334
 31
0.0
  0
LINE
  5
22E
330
1F
100
AcDbEntity
  8
0
  6
Continuous
 62
     7
370
    25
100
AcDbLine
 10
4495.3027436422
 20
7713.5544456334
 30
0.0
 11
4476.4084123798
 21
7713.5544456334
 31
0.0
  0
LINE
  5
22F
330
1F
100
AcDbEntity
  8
0
  6
Continuous
 62
     7
370
    25
100
AcDbLine
 10
4476.4084123798
 20
7735.9087401669
 30
0.0
 11
4476.4084123798
 21
7731.5544456334
 31
0.0
  0
LINE
  5
230
330
1F
100
AcDbEntity
  8
0
  6
Continuous
 62
     7
370
    25
100
AcDbLine
 10
4476.4084123798
 20
7726.0544456334
 30
0.0
 11
4476.4084123798
 21
7713.5544456334
 31
0.0
  0
LWPOLYLINE
  5
231
330
1F
100
AcDbEntity
  8
0
  6
Continuous
 62
     7
370
    25
100
AcDbPolyline
 90
        9
 70
   128
 43
0.0
 10
4485.855578011
 20
7777.3419099384
 10
4486.4454798698
 20
7777.4773668341
 10
4486.971456709
 20
7777.8690586649
 10
4487.3765107766
 20
7778.4745395431
 10
4487.6167481793
 20
7779.2281962205
 10
4487.6661354669
 20
7780.0483583021
 10
4487.5193207605
 20
7780.8461485
 10
4487.1922137116
 20
7781.5351138674
 10
4487.1791434327
 20
7781.5544456334
  0
LWPOLYLINE
  5
232
330
1F
100
AcDbEntity
  8
0
  6
Continuous
 62
     7
370
    25
100
AcDbPolyline
 90
        9
 70
   128
 43
0.0
 10
4484.5320125893
 20
7781.5544456334
 10
4484.5189423104
 20
7781.5351138674
 10
4484.1918352615
 20
7780.8461485
 10
4484.045020555
 20
7780.0483583021
 10
4484.0944078427
 20
7779.2281962205
 10
4484.3346452454
 20
7778.4745395431
 10
4484.739699313
 20
7777.8690586649
 10
4485.2656761522
 20
7777.4773668341
 10
4485.855578011
 20
7777.3419099384
  0
LINE
  5
233
330
1F
100
AcDbEntity
  8
0
  6
Continuous
 62
     7
370
    25
100
AcDbLine
 10
4478.0175117106
 20
7790.5544456334
 30
0.0
 11
4477.8990274457
 21
7790.8419099384
 31
0.0
  0
ARC
  5
234
330
1F
100
AcDbEntity
  8
0
  6
Continuous
 62
     7
370
    25
100
AcDbCircle
 10
4487.7221099542
 20
7779.9062718397
 30
0.0
 40
2.997036121931613
100
AcDbArc
 50
146.637475167
 51
181.2305319878
  0
ARC
  5
235
330
1F
100
AcDbEntity
  8
0
  6
Continuous
 62
     7
370
    25
100
AcDbCircle
 10
4487.090181395
 20
7779.5913410688
 30
0.0
 40
2.377656331220744
100
AcDbArc
 50
173.9506622278
 51
247.9884901269
  0
LINE
  5
236
330
1F
100
AcDbEntity
  8
0
  6
Continuous
 62
     7
370
    25
100
AcDbLine
 10
4567.5913213414
 20
7790.8419099384
 30
0.0
 11
4559.5248953024
 21
7790.8419099384
 31
0.0
  0
LINE
  5
237
330
1F
100
AcDbEntity
  8
0
  6
Continuous
 62
     7
370
    25
100
AcDbLine
 10
4567.5913213414
 20
7790.8419099384
 30
0.0
 11
4567.2976361728
 21
7790.5544456334
 31
0.0
  0
ARC
  5
238
330
1F
100
AcDbEntity
  8
0
  6
Continuous
 62
     7
370
    25
100
AcDbCircle
 10
4569.4107584018
 20
7784.3108703142
 30
0.0
 40
2.747783327389335
100
AcDbArc
 50
219.7333186974
 51
275.57413696
  0
LINE
  5
239
330
1F
100
AcDbEntity
  8
0
  6
Continuous
 62
     7
370
    25
100
AcDbLine
 10
4548.6969900789
 20
7790.8419099384
 30
0.0
 11
4548.4033049103
 21
7790.5544456334
 31
0.0
  0
ARC
  5
23A
330
1F
100
AcDbEntity
  8
0
  6
Continuous
 62
     7
370
    25
100
AcDbCircle
 10
4550.5498080811
 20
7784.3545152326
 30
0.0
 40
2.80137937881675
100
AcDbArc
 50
219.9833856827
 51
268.2478644127
  0
LINE
  5
23B
330
1F
100
AcDbEntity
  8
0
  6
Continuous
 62
     7
370
    25
100
AcDbLine
 10
4556.7634161179
 20
7790.8419099384
 30
0.0
 11
4548.6969900789
 21
7790.8419099384
 31
0.0
  0
LINE
  5
23C
330
1F
100
AcDbEntity
  8
0
  6
Continuous
 62
     7
370
    25
100
AcDbLine
 10
4556.7634161179
 20
7790.8419099384
 30
0.0
 11
4556.4697309493
 21
7790.5544456334
 31
0.0
  0
ARC
  5
23D
330
1F
100
AcDbEntity
  8
0
  6
Continuous
 62
     7
370
    25
100
AcDbCircle
 10
4558.6393677757
 20
7784.3906509256
 30
0.0
 40
2.842353573016573
100
AcDbArc
 50
220.2418787899
 51
265.3980850286
  0
LINE
  5
23E
330
1F
100
AcDbEntity
  8
0
  6
Continuous
 62
     7
370
    25
100
AcDbLine
 10
4559.2312101338
 20
7790.5544456334
 30
0.0
 11
4559.5248953024
 21
7790.8419099384
 31
0.0
  0
LINE
  5
23F
330
1F
100
AcDbEntity
  8
0
  6
Continuous
 62
     7
370
    25
100
AcDbLine
 10
4574.1671323144
 20
7713.5544456334
 30
0.0
 11
4574.8540819286
 21
7713.5544456334
 31
0.0
  0
LINE
  5
240
330
1F
100
AcDbEntity
  8
0
  6
Continuous
 62
     7
370
    25
100
AcDbLine
 10
4574.1671323144
 20
7782.5544456334
 30
0.0
 11
4574.1671323144
 21
7731.8645819912
 31
0.0
  0
LINE
  5
241
330
1F
100
AcDbEntity
  8
0
  6
Continuous
 62
     7
370
    25
100
AcDbLine
 10
4574.1671323144
 20
7726.0544456334
 30
0.0
 11
4574.1671323144
 21
7713.5544456334
 31
0.0
  0
LINE
  5
242
330
1F
100
AcDbEntity
  8
0
  6
Continuous
 62
     7
370
    25
100
AcDbLine
 10
4567.7098056063
 20
7790.5544456334
 30
0.0
 11
4567.5913213414
 21
7790.8419099384
 31
0.0
  0
LINE
  5
243
330
1F
100
AcDbEntity
  8
0
  6
Continuous
 62
     7
370
    25
100
AcDbLine
 10
4574.8540819286
 20
7713.5544456334
 30
0.0
 11
4574.8540819286
 21
7726.0544456334
 31
0.0
  0
LINE
  5
244
330
1F
100
AcDbEntity
  8
0
  6
Continuous
 62
     7
370
    25
100
AcDbLine
 10
4574.1671323144
 20
7713.5544456334
 30
0.0
 11
4555.272801052
 21
7713.5544456334
 31
0.0
  0
LINE
  5
245
330
1F
100
AcDbEntity
  8
0
  6
Continuous
 62
     7
370
    25
100
AcDbLine
 10
4555.272801052
 20
7781.5544456334
 30
0.0
 11
4555.272801052
 21
7729.0731626797
 31
0.0
  0
LINE
  5
246
330
1F
100
AcDbEntity
  8
0
  6
Continuous
 62
     7
370
    25
100
AcDbLine
 10
4555.272801052
 20
7726.0544456334
 30
0.0
 11
4555.272801052
 21
7713.5544456334
 31
0.0
  0
LWPOLYLINE
  5
247
330
1F
100
AcDbEntity
  8
0
  6
Continuous
 62
     7
370
    25
100
AcDbPolyline
 90
        9
 70
   128
 43
0.0
 10
4564.7199666832
 20
7777.3419099384
 10
4565.309868542
 20
7777.4773668341
 10
4565.8358453812
 20
7777.8690586649
 10
4566.2408994488
 20
7778.4745395431
 10
4566.4811368515
 20
7779.2281962205
 10
4566.5305241391
 20
7780.0483583021
 10
4566.3837094327
 20
7780.8461485
 10
4566.0566023838
 20
7781.5351138674
 10
4566.0435321049
 20
7781.5544456334
  0
LWPOLYLINE
  5
248
330
1F
100
AcDbEntity
  8
0
  6
Continuous
 62
     7
370
    25
100
AcDbPolyline
 90
        9
 70
   128
 43
0.0
 10
4563.3964012615
 20
7781.5544456334
 10
4563.3833309826
 20
7781.5351138674
 10
4563.0562239337
 20
7780.8461485
 10
4562.9094092272
 20
7780.0483583021
 10
4562.9587965149
 20
7779.2281962205
 10
4563.1990339176
 20
7778.4745395431
 10
4563.6040879852
 20
7777.8690586649
 10
4564.1300648244
 20
7777.4773668341
 10
4564.7199666832
 20
7777.3419099384
  0
LINE
  5
249
330
1F
100
AcDbEntity
  8
0
  6
Continuous
 62
     7
370
    25
100
AcDbLine
 10
4556.8819003828
 20
7790.5544456334
 30
0.0
 11
4556.7634161179
 21
7790.8419099384
 31
0.0
  0
ARC
  5
24A
330
1F
100
AcDbEntity
  8
0
  6
Continuous
 62
     7
370
    25
100
AcDbCircle
 10
4566.5864986264
 20
7779.9062718397
 30
0.0
 40
2.99703612192076
100
AcDbArc
 50
146.6374751669
 51
181.2305319878
  0
ARC
  5
24B
330
1F
100
AcDbEntity
  8
0
  6
Continuous
 62
     7
370
    25
100
AcDbCircle
 10
4565.9545700672
 20
7779.5913410688
 30
0.0
 40
2.377656331226082
100
AcDbArc
 50
173.9506622279
 51
247.9884901268
  0
LWPOLYLINE
  5
24C
330
1F
100
AcDbEntity
  8
0
  6
Continuous
 62
     7
370
    25
100
AcDbPolyline
 90
       12
 70
   128
 43
0.0
 10
4473.640627358
 20
7782.5624763188
 10
4473.6392672218
 20
7782.5546329198
 10
4473.7882936944
 20
7782.5865528628
 10
4474.0686380283
 20
7782.6614379405
 10
4474.4746108748
 20
7782.7562394444
 10
4474.9719795939
 20
7782.8298745092
 10
4475.4691714395
 20
7782.8434900001
 10
4475.9018575438
 20
7782.7985570142
 10
4476.2619916759
 20
7782.7150719593
 10
4476.5197386711
 20
7782.6216371016
 10
4476.6198053997
 20
7782.5619054735
 10
4476.6150299879
 20
7782.5619153603
  0
LWPOLYLINE
  5
24D
330
1F
100
AcDbEntity
  8
0
  6
Continuous
 62
     7
370
    25
100
AcDbPolyline
 90
       11
 70
   128
 43
0.0
 10
4513.7144950027
 20
7782.5609446203
 10
4513.7399040061
 20
7782.5549498409
 10
4513.9774265127
 20
7782.5894660566
 10
4514.3298271623
 20
7782.6660269966
 10
4514.7867460637
 20
7782.7609078543
 10
4515.3021507344
 20
7782.8321789326
 10
4515.7801796032
 20
7782.8424631229
 10
4516.1667667364
 20
7782.7950719266
 10
4516.4573869425
 20
7782.7102478516
 10
4516.6214104417
 20
7782.6174211293
 10
4516.6187264766
 20
7782.5907780851
  0
LWPOLYLINE
  5
24E
330
1F
100
AcDbEntity
  8
0
  6
Continuous
 62
     7
370
    25
100
AcDbPolyline
 90
       10
 70
   128
 43
0.0
 10
4539.6412882671
 20
7782.5597309091
 10
4539.8264937493
 20
7782.568894151
 10
4540.1751636102
 20
7782.6300633957
 10
4540.6192843649
 20
7782.7212184706
 10
4541.1295425544
 20
7782.8083893923
 10
4541.6217543888
 20
7782.8461962286
 10
4542.0171417266
 20
7782.8206674254
 10
4542.3043902689
 20
7782.7488414587
 10
4542.4693711884
 20
7782.6545317173
 10
4542.4703972678
 20
7782.6151049192
  0
LWPOLYLINE
  5
24F
330
1F
100
AcDbEntity
  8
0
  6
Continuous
 62
     7
370
    25
100
AcDbPolyline
 90
       10
 70
   128
 43
0.0
 10
4558.9124994866
 20
7782.5636482606
 10
4559.0527941895
 20
7782.5581470727
 10
4559.3990305623
 20
7782.6036432801
 10
4559.8325999617
 20
7782.6869128307
 10
4560.3335573941
 20
7782.780757548
 10
4560.8343420049
 20
7782.8403183221
 10
4561.2435246495
 20
7782.8361509545
 10
4561.5339066073
 20
7782.7785035612
 10
4561.7020062691
 20
7782.688655026
 10
4561.7092624463
 20
7782.637875954
  0
LWPOLYLINE
  5
250
330
1F
100
AcDbEntity
  8
0
  6
Continuous
 62
     7
370
    25
100
AcDbPolyline
 90
       10
 70
   128
 43
0.0
 10
4328.9635520693
 20
7782.6360519786
 10
4328.9983176206
 20
7782.7052581516
 10
4329.2071399629
 20
7782.7963115078
 10
4329.562694901
 20
7782.844550453
 10
4329.9917458155
 20
7782.8286181982
 10
4330.4516596871
 20
7782.7630248648
 10
4330.9322225962
 20
7782.670191082
 10
4331.3836637868
 20
7782.5870185805
 10
4331.721367792
 20
7782.5544610445
 10
4331.7582416606
 20
7782.5597472778
  0
LWPOLYLINE
  5
251
330
1F
100
AcDbEntity
  8
0
  6
Continuous
 62
     7
370
    25
100
AcDbPolyline
 90
       10
 70
   128
 43
0.0
 10
4348.2003851373
 20
7782.6121569086
 10
4348.2371671384
 20
7782.6766455309
 10
4348.4425570708
 20
7782.7712845255
 10
4348.7996432805
 20
7782.8367828351
 10
4349.2387915708
 20
7782.8395747117
 10
4349.6997301704
 20
7782.7867904617
 10
4350.1709208438
 20
7782.6991952551
 10
4350.6176251587
 20
7782.608209629
 10
4350.9601307775
 20
7782.5576830123
 10
4351.0605106543
 20
7782.5629911623
  0
ARC
  5
252
330
1F
100
AcDbEntity
  8
0
  6
Continuous
 62
     7
370
    25
100
AcDbCircle
 10
4375.4723027126
 20
7777.6634403375
 30
0.0
 40
5.124474125651185
100
AcDbArc
 50
72.7835049335
 51
106.1162515896
  0
LWPOLYLINE
  5
253
330
1F
100
AcDbEntity
  8
0
  6
Continuous
 62
     7
370
    25
100
AcDbPolyline
 90
       11
 70
   128
 43
0.0
 10
4414.0798797712
 20
7782.5668071062
 10
4414.0744838385
 20
7782.5751558553
 10
4414.2093717437
 20
7782.6420887062
 10
4414.4904875095
 20
7782.7353026418
 10
4414.9083186673
 20
7782.8178861369
 10
4415.3940938918
 20
7782.8461471155
 10
4415.866180609
 20
7782.8125767411
 10
4416.3047607453
 20
7782.7357310957
 10
4416.6897367661
 20
7782.6410476522
 10
4416.957880128
 20
7782.570259187
 10
4417.0559444808
 20
7782.5574383045
  0
LWPOLYLINE
  5
254
330
1F
100
AcDbEntity
  8
0
  6
Continuous
 62
     7
370
    25
100
AcDbPolyline
 90
        9
 70
   128
 43
0.0
 10
4574.5216348064
 20
7782.5553846625
 10
4574.8551454583
 20
7782.5747825018
 10
4575.2746156978
 20
7782.6405934142
 10
4575.7590963776
 20
7782.7321873479
 10
4576.2637497806
 20
7782.8144542233
 10
4576.7012261099
 20
7782.8463461079
 10
4577.0128135909
 20
7782.8183368495
 10
4577.1937684744
 20
7782.7463633786
 10
4577.2191842674
 20
7782.6796689504
  0
ARC
  5
255
330
1F
100
AcDbEntity
  8
0
  6
Continuous
 62
     7
370
    25
100
AcDbCircle
 10
4584.7138609414
 20
7773.2938730865
 30
0.0
 40
9.51848710116372
100
AcDbArc
 50
90.4187125856
 51
103.2428231384
  0
LWPOLYLINE
  5
256
330
1F
100
AcDbEntity
  8
0
  6
Continuous
 62
     7
370
    25
100
AcDbPolyline
 90
        9
 70
   128
 43
0.0
 10
4313.459821445
 20
7782.6794795244
 10
4313.4947276768
 20
7782.7516922486
 10
4313.7095404522
 20
7782.8262713847
 10
4314.0583448679
 20
7782.8450482003
 10
4314.4786809958
 20
7782.8062775473
 10
4314.9465280779
 20
7782.727633587
 10
4315.439913639
 20
7782.6345785088
 10
4315.8903780242
 20
7782.5676594031
 10
4316.1752941095
 20
7782.5593233215
  0
ARC
  5
257
330
1F
100
AcDbEntity
  8
0
  6
Continuous
 62
     7
370
    25
100
AcDbCircle
 10
4308.574938738
 20
7794.8909861142
 30
0.0
 40
12.34348574990715
100
AcDbArc
 50
258.1703178032
 51
267.7963864737
  0
LWPOLYLINE
  5
258
330
1F
100
AcDbEntity
  8
0
  6
Continuous
 62
     8
370
    25
100
AcDbPolyline
 90
       14
 70
   128
 43
0.0
 10
4574.4583879918
 20
7782.5544456334
 10
4574.9030701067
 20
7782.6252966305
 10
4575.4688219099
 20
7782.9351374235
 10
4575.9710844338
 20
7783.4723926623
 10
4576.378298677
 20
7784.2033046242
 10
4576.6648778709
 20
7785.0819474227
 10
4576.8128151908
 20
7786.0531126991
 10
4576.8128151908
 20
7787.0557785677
 10
4576.6648778709
 20
7788.0269438441
 10
4576.378298677
 20
7788.9055866426
 10
4575.9710844338
 20
7789.6364986045
 10
4575.4688219099
 20
7790.1737538433
 10
4574.9030701067
 20
7790.4835946363
 10
4574.4583879918
 20
7790.5544456334
  0
LWPOLYLINE
  5
259
330
1F
100
AcDbEntity
  8
0
  6
Continuous
 62
     8
370
    25
100
AcDbPolyline
 90
       14
 70
   128
 43
0.0
 10
4316.2228739756
 20
7782.5544456334
 10
4315.7781918606
 20
7782.6252966305
 10
4315.2124400575
 20
7782.9351374235
 10
4314.7101775335
 20
7783.4723926623
 10
4314.3029632903
 20
7784.2033046242
 10
4314.0163840965
 20
7785.0819474227
 10
4313.8684467766
 20
7786.0531126991
 10
4313.8684467766
 20
7787.0557785677
 10
4314.0163840965
 20
7788.0269438441
 10
4314.3029632903
 20
7788.9055866426
 10
4314.7101775335
 20
7789.6364986045
 10
4315.2124400575
 20
7790.1737538433
 10
4315.7781918606
 20
7790.4835946363
 10
4316.2228739756
 20
7790.5544456334
  0
LINE
  5
25A
330
1F
100
AcDbEntity
  8
0
  6
Continuous
 62
     8
370
    25
100
AcDbLine
 10
4475.120196932
 20
7737.5544456334
 30
0.0
 11
4476.620196932
 21
7737.5544456334
 31
0.0
  0
LINE
  5
25B
330
1F
100
AcDbEntity
  8
0
  6
Continuous
 62
     8
370
    25
100
AcDbLine
 10
4473.620196932
 20
7737.5544456334
 30
0.0
 11
4475.120196932
 21
7737.5544456334
 31
0.0
  0
LINE
  5
25C
330
1F
100
AcDbEntity
  8
0
  6
Continuous
 62
     8
370
    25
100
AcDbLine
 10
4470.120196932
 20
7732.5544456334
 30
0.0
 11
4470.120196932
 21
7731.0544456334
 31
0.0
  0
LINE
  5
25D
330
1F
100
AcDbEntity
  8
0
  6
Continuous
 62
     8
370
    25
100
AcDbLine
 10
4470.120196932
 20
7734.0544456334
 30
0.0
 11
4470.120196932
 21
7732.5544456334
 31
0.0
  0
LINE
  5
25E
330
1F
100
AcDbEntity
  8
0
  6
Continuous
 62
     8
370
    25
100
AcDbLine
 10
4420.5610650353
 20
7732.5544456334
 30
0.0
 11
4420.5610650353
 21
7731.0544456334
 31
0.0
  0
LINE
  5
25F
330
1F
100
AcDbEntity
  8
0
  6
Continuous
 62
     8
370
    25
100
AcDbLine
 10
4420.5610650353
 20
7734.0544456334
 30
0.0
 11
4420.5610650353
 21
7732.5544456334
 31
0.0
  0
LINE
  5
260
330
1F
100
AcDbEntity
  8
0
  6
Continuous
 62
     8
370
    25
100
AcDbLine
 10
4415.5610650353
 20
7737.5544456334
 30
0.0
 11
4414.0610650353
 21
7737.5544456334
 31
0.0
  0
LINE
  5
261
330
1F
100
AcDbEntity
  8
0
  6
Continuous
 62
     8
370
    25
100
AcDbLine
 10
4417.0610650353
 20
7737.5544456334
 30
0.0
 11
4415.5610650353
 21
7737.5544456334
 31
0.0
  0
LINE
  5
262
330
1F
100
AcDbEntity
  8
0
  6
Continuous
 62
     8
370
    25
100
AcDbLine
 10
4515.140872565
 20
7735.0544456334
 30
0.0
 11
4516.640872565
 21
7735.0544456334
 31
0.0
  0
LINE
  5
263
330
1F
100
AcDbEntity
  8
0
  6
Continuous
 62
     8
370
    25
100
AcDbLine
 10
4513.640872565
 20
7735.0544456334
 30
0.0
 11
4515.140872565
 21
7735.0544456334
 31
0.0
  0
LINE
  5
264
330
1F
100
AcDbEntity
  8
0
  6
Continuous
 62
     8
370
    25
100
AcDbLine
 10
4510.140872565
 20
7730.0544456334
 30
0.0
 11
4510.140872565
 21
7728.5544456334
 31
0.0
  0
LINE
  5
265
330
1F
100
AcDbEntity
  8
0
  6
Continuous
 62
     8
370
    25
100
AcDbLine
 10
4510.140872565
 20
7731.5544456334
 30
0.0
 11
4510.140872565
 21
7730.0544456334
 31
0.0
  0
LINE
  5
266
330
1F
100
AcDbEntity
  8
0
  6
Continuous
 62
     8
370
    25
100
AcDbLine
 10
4380.5403894023
 20
7730.0544456334
 30
0.0
 11
4380.5403894023
 21
7728.5544456334
 31
0.0
  0
LINE
  5
267
330
1F
100
AcDbEntity
  8
0
  6
Continuous
 62
     8
370
    25
100
AcDbLine
 10
4380.5403894023
 20
7731.5544456334
 30
0.0
 11
4380.5403894023
 21
7730.0544456334
 31
0.0
  0
LINE
  5
268
330
1F
100
AcDbEntity
  8
0
  6
Continuous
 62
     8
370
    25
100
AcDbLine
 10
4375.5403894023
 20
7735.0544456334
 30
0.0
 11
4374.0403894023
 21
7735.0544456334
 31
0.0
  0
LINE
  5
269
330
1F
100
AcDbEntity
  8
0
  6
Continuous
 62
     8
370
    25
100
AcDbLine
 10
4377.0403894023
 20
7735.0544456334
 30
0.0
 11
4375.5403894023
 21
7735.0544456334
 31
0.0
  0
LINE
  5
26A
330
1F
100
AcDbEntity
  8
0
  6
Continuous
 62
     8
370
    25
100
AcDbLine
 10
4540.9927273697
 20
7732.5544456334
 30
0.0
 11
4542.4927273697
 21
7732.5544456334
 31
0.0
  0
LINE
  5
26B
330
1F
100
AcDbEntity
  8
0
  6
Continuous
 62
     8
370
    25
100
AcDbLine
 10
4539.4927273697
 20
7732.5544456334
 30
0.0
 11
4540.9927273697
 21
7732.5544456334
 31
0.0
  0
LINE
  5
26C
330
1F
100
AcDbEntity
  8
0
  6
Continuous
 62
     8
370
    25
100
AcDbLine
 10
4535.9927273697
 20
7727.5544456334
 30
0.0
 11
4535.9927273697
 21
7726.0544456334
 31
0.0
  0
LINE
  5
26D
330
1F
100
AcDbEntity
  8
0
  6
Continuous
 62
     8
370
    25
100
AcDbLine
 10
4535.9927273697
 20
7729.0544456334
 30
0.0
 11
4535.9927273697
 21
7727.5544456334
 31
0.0
  0
LINE
  5
26E
330
1F
100
AcDbEntity
  8
0
  6
Continuous
 62
     8
370
    25
100
AcDbLine
 10
4354.6885345976
 20
7727.5544456334
 30
0.0
 11
4354.6885345976
 21
7726.0544456334
 31
0.0
  0
LINE
  5
26F
330
1F
100
AcDbEntity
  8
0
  6
Continuous
 62
     8
370
    25
100
AcDbLine
 10
4354.6885345976
 20
7729.0544456334
 30
0.0
 11
4354.6885345976
 21
7727.5544456334
 31
0.0
  0
LINE
  5
270
330
1F
100
AcDbEntity
  8
0
  6
Continuous
 62
     8
370
    25
100
AcDbLine
 10
4349.6885345976
 20
7732.5544456334
 30
0.0
 11
4348.1885345976
 21
7732.5544456334
 31
0.0
  0
LINE
  5
271
330
1F
100
AcDbEntity
  8
0
  6
Continuous
 62
     8
370
    25
100
AcDbLine
 10
4351.1885345976
 20
7732.5544456334
 30
0.0
 11
4349.6885345976
 21
7732.5544456334
 31
0.0
  0
LINE
  5
272
330
1F
100
AcDbEntity
  8
0
  6
Continuous
 62
     8
370
    25
100
AcDbLine
 10
4560.2307017526
 20
7732.5544456334
 30
0.0
 11
4561.7307017526
 21
7732.5544456334
 31
0.0
  0
LINE
  5
273
330
1F
100
AcDbEntity
  8
0
  6
Continuous
 62
     8
370
    25
100
AcDbLine
 10
4558.7307017526
 20
7732.5544456334
 30
0.0
 11
4560.2307017526
 21
7732.5544456334
 31
0.0
  0
LINE
  5
274
330
1F
100
AcDbEntity
  8
0
  6
Continuous
 62
     8
370
    25
100
AcDbLine
 10
4555.2307017526
 20
7727.5544456334
 30
0.0
 11
4555.2307017526
 21
7726.0544456334
 31
0.0
  0
LINE
  5
275
330
1F
100
AcDbEntity
  8
0
  6
Continuous
 62
     8
370
    25
100
AcDbLine
 10
4555.2307017526
 20
7729.0544456334
 30
0.0
 11
4555.2307017526
 21
7727.5544456334
 31
0.0
  0
LINE
  5
276
330
1F
100
AcDbEntity
  8
0
  6
Continuous
 62
     8
370
    25
100
AcDbLine
 10
4335.4505602148
 20
7727.5544456334
 30
0.0
 11
4335.4505602148
 21
7726.0544456334
 31
0.0
  0
LINE
  5
277
330
1F
100
AcDbEntity
  8
0
  6
Continuous
 62
     8
370
    25
100
AcDbLine
 10
4335.4505602148
 20
7729.0544456334
 30
0.0
 11
4335.4505602148
 21
7727.5544456334
 31
0.0
  0
LINE
  5
278
330
1F
100
AcDbEntity
  8
0
  6
Continuous
 62
     8
370
    25
100
AcDbLine
 10
4330.4505602148
 20
7732.5544456334
 30
0.0
 11
4328.9505602148
 21
7732.5544456334
 31
0.0
  0
LINE
  5
279
330
1F
100
AcDbEntity
  8
0
  6
Continuous
 62
     8
370
    25
100
AcDbLine
 10
4331.9505602148
 20
7732.5544456334
 30
0.0
 11
4330.4505602148
 21
7732.5544456334
 31
0.0
  0
LINE
  5
27A
330
1F
100
AcDbEntity
  8
0
  6
Continuous
 62
     8
370
    25
100
AcDbLine
 10
4575.7357931946
 20
7732.5544456334
 30
0.0
 11
4577.2357931946
 21
7732.5544456334
 31
0.0
  0
LINE
  5
27B
330
1F
100
AcDbEntity
  8
0
  6
Continuous
 62
     8
370
    25
100
AcDbLine
 10
4574.2357931946
 20
7732.5544456334
 30
0.0
 11
4575.7357931946
 21
7732.5544456334
 31
0.0
  0
LINE
  5
27C
330
1F
100
AcDbEntity
  8
0
  6
Continuous
 62
     8
370
    25
100
AcDbLine
 10
4570.7357931946
 20
7727.5544456334
 30
0.0
 11
4570.7357931946
 21
7726.0544456334
 31
0.0
  0
LINE
  5
27D
330
1F
100
AcDbEntity
  8
0
  6
Continuous
 62
     8
370
    25
100
AcDbLine
 10
4570.7357931946
 20
7729.0544456334
 30
0.0
 11
4570.7357931946
 21
7727.5544456334
 31
0.0
  0
LINE
  5
27E
330
1F
100
AcDbEntity
  8
0
  6
Continuous
 62
     8
370
    25
100
AcDbLine
 10
4319.9454687727
 20
7727.5544456334
 30
0.0
 11
4319.9454687727
 21
7726.0544456334
 31
0.0
  0
LINE
  5
27F
330
1F
100
AcDbEntity
  8
0
  6
Continuous
 62
     8
370
    25
100
AcDbLine
 10
4319.9454687727
 20
7729.0544456334
 30
0.0
 11
4319.9454687727
 21
7727.5544456334
 31
0.0
  0
LINE
  5
280
330
1F
100
AcDbEntity
  8
0
  6
Continuous
 62
     8
370
    25
100
AcDbLine
 10
4314.9454687727
 20
7732.5544456334
 30
0.0
 11
4313.4454687727
 21
7732.5544456334
 31
0.0
  0
LINE
  5
281
330
1F
100
AcDbEntity
  8
0
  6
Continuous
 62
     8
370
    25
100
AcDbLine
 10
4316.4454687727
 20
7732.5544456334
 30
0.0
 11
4314.9454687727
 21
7732.5544456334
 31
0.0
  0
LINE
  5
282
330
1F
100
AcDbEntity
  8
0
  6
Continuous
 62
     8
370
    25
100
AcDbLine
 10
4583.1485831564
 20
7732.5544456334
 30
0.0
 11
4584.6485831564
 21
7732.5544456334
 31
0.0
  0
LINE
  5
283
330
1F
100
AcDbEntity
  8
0
  6
Continuous
 62
     8
370
    25
100
AcDbLine
 10
4581.6485831564
 20
7732.5544456334
 30
0.0
 11
4583.1485831564
 21
7732.5544456334
 31
0.0
  0
LINE
  5
284
330
1F
100
AcDbEntity
  8
0
  6
Continuous
 62
     8
370
    25
100
AcDbLine
 10
4578.1485831564
 20
7727.5544456334
 30
0.0
 11
4578.1485831564
 21
7726.0544456334
 31
0.0
  0
LINE
  5
285
330
1F
100
AcDbEntity
  8
0
  6
Continuous
 62
     8
370
    25
100
AcDbLine
 10
4578.1485831564
 20
7729.0544456334
 30
0.0
 11
4578.1485831564
 21
7727.5544456334
 31
0.0
  0
LINE
  5
286
330
1F
100
AcDbEntity
  8
0
  6
Continuous
 62
     8
370
    25
100
AcDbLine
 10
4312.532678811
 20
7727.5544456334
 30
0.0
 11
4312.532678811
 21
7726.0544456334
 31
0.0
  0
LINE
  5
287
330
1F
100
AcDbEntity
  8
0
  6
Continuous
 62
     8
370
    25
100
AcDbLine
 10
4312.532678811
 20
7729.0544456334
 30
0.0
 11
4312.532678811
 21
7727.5544456334
 31
0.0
  0
LINE
  5
288
330
1F
100
AcDbEntity
  8
0
  6
Continuous
 62
     8
370
    25
100
AcDbLine
 10
4307.532678811
 20
7732.5544456334
 30
0.0
 11
4306.032678811
 21
7732.5544456334
 31
0.0
  0
LINE
  5
289
330
1F
100
AcDbEntity
  8
0
  6
Continuous
 62
     8
370
    25
100
AcDbLine
 10
4309.032678811
 20
7732.5544456334
 30
0.0
 11
4307.532678811
 21
7732.5544456334
 31
0.0
  0
LINE
  5
28A
330
1F
100
AcDbEntity
  8
0
  6
Continuous
 62
     8
370
    25
100
AcDbLine
 10
4584.6485831564
 20
7732.5544456334
 30
0.0
 11
4586.0308235653
 21
7732.5544456334
 31
0.0
  0
LINE
  5
28B
330
1F
100
AcDbEntity
  8
0
  6
Continuous
 62
     8
370
    25
100
AcDbLine
 10
4579.5308235653
 20
7726.2031141626
 30
0.0
 11
4579.5308235653
 21
7726.0544456334
 31
0.0
  0
LINE
  5
28C
330
1F
100
AcDbEntity
  8
0
  6
Continuous
 62
     8
370
    25
100
AcDbLine
 10
4311.150438402
 20
7726.2031141626
 30
0.0
 11
4311.150438402
 21
7726.0544456334
 31
0.0
  0
LINE
  5
28D
330
1F
100
AcDbEntity
  8
0
  6
Continuous
 62
     8
370
    25
100
AcDbLine
 10
4306.032678811
 20
7732.5544456334
 30
0.0
 11
4304.650438402
 21
7732.5544456334
 31
0.0
  0
LINE
  5
28E
330
1F
100
AcDbEntity
  8
0
  6
Continuous
 62
     8
370
    25
100
AcDbLine
 10
4581.0815592122
 20
7732.5544456334
 30
0.0
 11
4581.6485831564
 21
7732.5544456334
 31
0.0
  0
LINE
  5
28F
330
1F
100
AcDbEntity
  8
0
  6
Continuous
 62
     8
370
    25
100
AcDbLine
 10
4579.5815592122
 20
7732.5544456334
 30
0.0
 11
4581.0815592122
 21
7732.5544456334
 31
0.0
  0
LINE
  5
290
330
1F
100
AcDbEntity
  8
0
  6
Continuous
 62
     8
370
    25
100
AcDbLine
 10
4309.5997027552
 20
7732.5544456334
 30
0.0
 11
4309.032678811
 21
7732.5544456334
 31
0.0
  0
LINE
  5
291
330
1F
100
AcDbEntity
  8
0
  6
Continuous
 62
     8
370
    25
100
AcDbLine
 10
4311.0997027552
 20
7732.5544456334
 30
0.0
 11
4309.5997027552
 21
7732.5544456334
 31
0.0
  0
LINE
  5
292
330
1F
100
AcDbEntity
  8
0
  6
Continuous
 62
     8
370
    25
100
AcDbLine
 10
4571.1776606229
 20
7732.5544456334
 30
0.0
 11
4572.6776606229
 21
7732.5544456334
 31
0.0
  0
LINE
  5
293
330
1F
100
AcDbEntity
  8
0
  6
Continuous
 62
     8
370
    25
100
AcDbLine
 10
4569.6776606229
 20
7732.5544456334
 30
0.0
 11
4571.1776606229
 21
7732.5544456334
 31
0.0
  0
LINE
  5
294
330
1F
100
AcDbEntity
  8
0
  6
Continuous
 62
     8
370
    25
100
AcDbLine
 10
4319.5036013444
 20
7732.5544456334
 30
0.0
 11
4318.0036013444
 21
7732.5544456334
 31
0.0
  0
LINE
  5
295
330
1F
100
AcDbEntity
  8
0
  6
Continuous
 62
     8
370
    25
100
AcDbLine
 10
4321.0036013444
 20
7732.5544456334
 30
0.0
 11
4319.5036013444
 21
7732.5544456334
 31
0.0
  0
LINE
  5
296
330
1F
100
AcDbEntity
  8
0
  6
Continuous
 62
     8
370
    25
100
AcDbLine
 10
4558.411319384
 20
7732.5544456334
 30
0.0
 11
4558.7307017526
 21
7732.5544456334
 31
0.0
  0
LINE
  5
297
330
1F
100
AcDbEntity
  8
0
  6
Continuous
 62
     8
370
    25
100
AcDbLine
 10
4332.2699425833
 20
7732.5544456334
 30
0.0
 11
4331.9505602148
 21
7732.5544456334
 31
0.0
  0
LINE
  5
298
330
1F
100
AcDbEntity
  8
0
  6
Continuous
 62
     8
370
    25
100
AcDbLine
 10
4548.6449781451
 20
7732.5544456334
 30
0.0
 11
4550.1449781451
 21
7732.5544456334
 31
0.0
  0
LINE
  5
299
330
1F
100
AcDbEntity
  8
0
  6
Continuous
 62
     8
370
    25
100
AcDbLine
 10
4547.1449781451
 20
7732.5544456334
 30
0.0
 11
4548.6449781451
 21
7732.5544456334
 31
0.0
  0
LINE
  5
29A
330
1F
100
AcDbEntity
  8
0
  6
Continuous
 62
     8
370
    25
100
AcDbLine
 10
4342.0362838222
 20
7732.5544456334
 30
0.0
 11
4340.5362838222
 21
7732.5544456334
 31
0.0
  0
LINE
  5
29B
330
1F
100
AcDbEntity
  8
0
  6
Continuous
 62
     8
370
    25
100
AcDbLine
 10
4343.5362838222
 20
7732.5544456334
 30
0.0
 11
4342.0362838222
 21
7732.5544456334
 31
0.0
  0
LINE
  5
29C
330
1F
100
AcDbEntity
  8
0
  6
Continuous
 62
     8
370
    25
100
AcDbLine
 10
4537.3786369063
 20
7732.5544456334
 30
0.0
 11
4538.8786369063
 21
7732.5544456334
 31
0.0
  0
LINE
  5
29D
330
1F
100
AcDbEntity
  8
0
  6
Continuous
 62
     8
370
    25
100
AcDbLine
 10
4535.8786369063
 20
7732.5544456334
 30
0.0
 11
4537.3786369063
 21
7732.5544456334
 31
0.0
  0
LINE
  5
29E
330
1F
100
AcDbEntity
  8
0
  6
Continuous
 62
     8
370
    25
100
AcDbLine
 10
4353.3026250611
 20
7732.5544456334
 30
0.0
 11
4351.8026250611
 21
7732.5544456334
 31
0.0
  0
LINE
  5
29F
330
1F
100
AcDbEntity
  8
0
  6
Continuous
 62
     8
370
    25
100
AcDbLine
 10
4354.8026250611
 20
7732.5544456334
 30
0.0
 11
4353.3026250611
 21
7732.5544456334
 31
0.0
  0
LINE
  5
2A0
330
1F
100
AcDbEntity
  8
0
  6
Continuous
 62
     8
370
    25
100
AcDbLine
 10
4526.1122956674
 20
7732.5544456334
 30
0.0
 11
4527.6122956674
 21
7732.5544456334
 31
0.0
  0
LINE
  5
2A1
330
1F
100
AcDbEntity
  8
0
  6
Continuous
 62
     8
370
    25
100
AcDbLine
 10
4524.6122956674
 20
7732.5544456334
 30
0.0
 11
4526.1122956674
 21
7732.5544456334
 31
0.0
  0
LINE
  5
2A2
330
1F
100
AcDbEntity
  8
0
  6
Continuous
 62
     8
370
    25
100
AcDbLine
 10
4364.5689663
 20
7732.5544456334
 30
0.0
 11
4363.0689663
 21
7732.5544456334
 31
0.0
  0
LINE
  5
2A3
330
1F
100
AcDbEntity
  8
0
  6
Continuous
 62
     8
370
    25
100
AcDbLine
 10
4366.0689663
 20
7732.5544456334
 30
0.0
 11
4364.5689663
 21
7732.5544456334
 31
0.0
  0
LINE
  5
2A4
330
1F
100
AcDbEntity
  8
0
  6
Continuous
 62
     8
370
    25
100
AcDbLine
 10
4516.140872565
 20
7732.5544456334
 30
0.0
 11
4516.3459544285
 21
7732.5544456334
 31
0.0
  0
LINE
  5
2A5
330
1F
100
AcDbEntity
  8
0
  6
Continuous
 62
     8
370
    25
100
AcDbLine
 10
4374.5403894023
 20
7732.5544456334
 30
0.0
 11
4374.3353075389
 21
7732.5544456334
 31
0.0
  0
LINE
  5
2A6
330
1F
100
AcDbEntity
  8
0
  6
Continuous
 62
     8
370
    25
100
AcDbLine
 10
4503.5796131896
 20
7732.5544456334
 30
0.0
 11
4505.0796131896
 21
7732.5544456334
 31
0.0
  0
LINE
  5
2A7
330
1F
100
AcDbEntity
  8
0
  6
Continuous
 62
     8
370
    25
100
AcDbLine
 10
4502.0796131896
 20
7732.5544456334
 30
0.0
 11
4503.5796131896
 21
7732.5544456334
 31
0.0
  0
LINE
  5
2A8
330
1F
100
AcDbEntity
  8
0
  6
Continuous
 62
     8
370
    25
100
AcDbLine
 10
4387.1016487777
 20
7732.5544456334
 30
0.0
 11
4385.6016487777
 21
7732.5544456334
 31
0.0
  0
LINE
  5
2A9
330
1F
100
AcDbEntity
  8
0
  6
Continuous
 62
     8
370
    25
100
AcDbLine
 10
4388.6016487777
 20
7732.5544456334
 30
0.0
 11
4387.1016487777
 21
7732.5544456334
 31
0.0
  0
LINE
  5
2AA
330
1F
100
AcDbEntity
  8
0
  6
Continuous
 62
     8
370
    25
100
AcDbLine
 10
4492.3132719507
 20
7732.5544456334
 30
0.0
 11
4493.8132719507
 21
7732.5544456334
 31
0.0
  0
LINE
  5
2AB
330
1F
100
AcDbEntity
  8
0
  6
Continuous
 62
     8
370
    25
100
AcDbLine
 10
4490.8132719507
 20
7732.5544456334
 30
0.0
 11
4492.3132719507
 21
7732.5544456334
 31
0.0
  0
LINE
  5
2AC
330
1F
100
AcDbEntity
  8
0
  6
Continuous
 62
     8
370
    25
100
AcDbLine
 10
4398.3679900166
 20
7732.5544456334
 30
0.0
 11
4396.8679900166
 21
7732.5544456334
 31
0.0
  0
LINE
  5
2AD
330
1F
100
AcDbEntity
  8
0
  6
Continuous
 62
     8
370
    25
100
AcDbLine
 10
4399.8679900166
 20
7732.5544456334
 30
0.0
 11
4398.3679900166
 21
7732.5544456334
 31
0.0
  0
LINE
  5
2AE
330
1F
100
AcDbEntity
  8
0
  6
Continuous
 62
     8
370
    25
100
AcDbLine
 10
4481.0469307118
 20
7732.5544456334
 30
0.0
 11
4482.5469307118
 21
7732.5544456334
 31
0.0
  0
LINE
  5
2AF
330
1F
100
AcDbEntity
  8
0
  6
Continuous
 62
     8
370
    25
100
AcDbLine
 10
4479.5469307118
 20
7732.5544456334
 30
0.0
 11
4481.0469307118
 21
7732.5544456334
 31
0.0
  0
LINE
  5
2B0
330
1F
100
AcDbEntity
  8
0
  6
Continuous
 62
     8
370
    25
100
AcDbLine
 10
4409.6343312555
 20
7732.5544456334
 30
0.0
 11
4408.1343312555
 21
7732.5544456334
 31
0.0
  0
LINE
  5
2B1
330
1F
100
AcDbEntity
  8
0
  6
Continuous
 62
     8
370
    25
100
AcDbLine
 10
4411.1343312555
 20
7732.5544456334
 30
0.0
 11
4409.6343312555
 21
7732.5544456334
 31
0.0
  0
LINE
  5
2B2
330
1F
100
AcDbEntity
  8
0
  6
Continuous
 62
     8
370
    25
100
AcDbLine
 10
4458.5142482341
 20
7737.5544456334
 30
0.0
 11
4460.0142482341
 21
7737.5544456334
 31
0.0
  0
LINE
  5
2B3
330
1F
100
AcDbEntity
  8
0
  6
Continuous
 62
     8
370
    25
100
AcDbLine
 10
4457.0142482341
 20
7737.5544456334
 30
0.0
 11
4458.5142482341
 21
7737.5544456334
 31
0.0
  0
LINE
  5
2B4
330
1F
100
AcDbEntity
  8
0
  6
Continuous
 62
     8
370
    25
100
AcDbLine
 10
4432.1670137333
 20
7737.5544456334
 30
0.0
 11
4430.6670137333
 21
7737.5544456334
 31
0.0
  0
LINE
  5
2B5
330
1F
100
AcDbEntity
  8
0
  6
Continuous
 62
     8
370
    25
100
AcDbLine
 10
4433.6670137333
 20
7737.5544456334
 30
0.0
 11
4432.1670137333
 21
7737.5544456334
 31
0.0
  0
LINE
  5
2B6
330
1F
100
AcDbEntity
  8
0
  6
Continuous
 62
     7
370
    25
100
AcDbLine
 10
4369.3844539631
 20
7533.1089169454
 30
0.0
 11
4377.450880002
 21
7540.7340576626
 31
0.0
  0
LINE
  5
2B7
330
1F
100
AcDbEntity
  8
0
  6
Continuous
 62
     7
370
    25
100
AcDbLine
 10
4358.5565487396
 20
7522.8733676943
 30
0.0
 11
4366.6229747785
 21
7530.4985084115
 31
0.0
  0
LINE
  5
2B8
330
1F
100
AcDbEntity
  8
0
  6
Continuous
 62
     7
370
    25
100
AcDbLine
 10
4478.9929222333
 20
7573.0985084115
 30
0.0
 11
4487.0593482722
 21
7565.4733676943
 31
0.0
  0
LINE
  5
2B9
330
1F
100
AcDbEntity
  8
0
  6
Continuous
 62
     7
370
    25
100
AcDbLine
 10
4468.1650170098
 20
7583.3340576626
 30
0.0
 11
4476.2314430487
 21
7575.7089169454
 31
0.0
  0
LINE
  5
2BA
330
1F
100
AcDbEntity
  8
0
  6
Continuous
 62
     7
370
    25
100
AcDbLine
 10
4557.8573109055
 20
7498.5485084115
 30
0.0
 11
4565.9237369444
 21
7490.9233676943
 31
0.0
  0
LINE
  5
2BB
330
1F
100
AcDbEntity
  8
0
  6
Continuous
 62
     7
370
    25
100
AcDbLine
 10
4547.029405682
 20
7508.7840576626
 30
0.0
 11
4555.0958317209
 21
7501.1589169454
 31
0.0
  0
LINE
  5
2BC
330
1F
100
AcDbEntity
  8
0
  6
Continuous
 62
     7
370
    25
100
AcDbLine
 10
4579.5478010674
 20
7490.4292943514
 30
0.0
 11
4458.0884294403
 21
7605.2440581154
 31
0.0
  0
LINE
  5
2BD
330
1F
100
AcDbEntity
  8
0
  6
Continuous
 62
     7
370
    25
100
AcDbLine
 10
4452.592832527
 20
7599.430417727
 30
0.0
 11
4468.8519666239
 21
7584.0607627112
 31
0.0
  0
LINE
  5
2BE
330
1F
100
AcDbEntity
  8
0
  6
Continuous
 62
     7
370
    25
100
AcDbLine
 10
4476.9183926629
 20
7576.4356219939
 30
0.0
 11
4479.6798718474
 21
7573.8252134601
 31
0.0
  0
LINE
  5
2BF
330
1F
100
AcDbEntity
  8
0
  6
Continuous
 62
     7
370
    25
100
AcDbLine
 10
4487.7462978864
 20
7566.2000727428
 30
0.0
 11
4547.7163552961
 21
7509.5107627112
 31
0.0
  0
LINE
  5
2C0
330
1F
100
AcDbEntity
  8
0
  6
Continuous
 62
     7
370
    25
100
AcDbLine
 10
4555.7827813351
 20
7501.8856219939
 30
0.0
 11
4558.5442605196
 21
7499.2752134601
 31
0.0
  0
LINE
  5
2C1
330
1F
100
AcDbEntity
  8
0
  6
Continuous
 62
     7
370
    25
100
AcDbLine
 10
4566.6106865586
 20
7491.6500727428
 30
0.0
 11
4574.052204154
 21
7484.6156539629
 31
0.0
  0
LINE
  5
2C2
330
1F
100
AcDbEntity
  8
0
  6
Continuous
 62
     7
370
    25
100
AcDbLine
 10
4432.592832527
 20
7605.2440581154
 30
0.0
 11
4311.1334609
 21
7490.4292943514
 31
0.0
  0
LINE
  5
2C3
330
1F
100
AcDbEntity
  8
0
  6
Continuous
 62
     7
370
    25
100
AcDbLine
 10
4316.6290578133
 20
7484.6156539629
 30
0.0
 11
4357.8695991254
 21
7523.6000727428
 31
0.0
  0
LINE
  5
2C4
330
1F
100
AcDbEntity
  8
0
  6
Continuous
 62
     7
370
    25
100
AcDbLine
 10
4365.9360251644
 20
7531.2252134601
 30
0.0
 11
4368.6975043489
 21
7533.8356219939
 31
0.0
  0
LINE
  5
2C5
330
1F
100
AcDbEntity
  8
0
  6
Continuous
 62
     7
370
    25
100
AcDbLine
 10
4376.7639303879
 20
7541.4607627112
 30
0.0
 11
4438.0884294403
 21
7599.430417727
 31
0.0
  0
ARC
  5
2C6
330
1F
100
AcDbEntity
  8
0
  6
Continuous
 62
     7
370
    25
100
AcDbCircle
 10
4331.0549997108
 20
7469.3548479433
 30
0.0
 40
20.99999999999963
100
AcDbArc
 50
133.3891268071
 51
233.6095279429
  0
ARC
  5
2C7
330
1F
100
AcDbEntity
  8
0
  6
Continuous
 62
     7
370
    25
100
AcDbCircle
 10
4331.0549997108
 20
7469.3548479433
 30
0.0
 40
28.99999999999936
100
AcDbArc
 50
133.3891268071
 51
233.6095279429
  0
ARC
  5
2C8
330
1F
100
AcDbEntity
  8
0
  6
Continuous
 62
     7
370
    25
100
AcDbCircle
 10
4559.6262622565
 20
7469.3548479433
 30
0.0
 40
20.99999999999963
100
AcDbArc
 50
306.3904720571
 51
46.6108731929
  0
ARC
  5
2C9
330
1F
100
AcDbEntity
  8
0
  6
Continuous
 62
     7
370
    25
100
AcDbCircle
 10
4559.6262622565
 20
7469.3548479433
 30
0.0
 40
28.99999999999952
100
AcDbArc
 50
306.3904720571
 51
46.6108731929
  0
ARC
  5
2CA
330
1F
100
AcDbEntity
  8
0
  6
Continuous
 62
     7
370
    25
100
AcDbCircle
 10
4445.3406309837
 20
7624.4220885426
 30
0.0
 40
213.6319148597529
100
AcDbArc
 50
270.0
 51
306.3904720571
  0
ARC
  5
2CB
330
1F
100
AcDbEntity
  8
0
  6
Continuous
 62
     7
370
    25
100
AcDbCircle
 10
4445.3406309837
 20
7624.4220885426
 30
0.0
 40
213.6319148597529
100
AcDbArc
 50
233.6095279429
 51
270.0
  0
ARC
  5
2CC
330
1F
100
AcDbEntity
  8
0
  6
Continuous
 62
     7
370
    25
100
AcDbCircle
 10
4445.3406309837
 20
7624.4220885426
 30
0.0
 40
221.6319148597521
100
AcDbArc
 50
233.6095279429
 51
306.3904720571
  0
LINE
  5
2CD
330
1F
100
AcDbEntity
  8
0
  6
Continuous
 62
     7
370
    25
100
AcDbLine
 10
4453.9226906194
 20
7600.8372379212
 30
0.0
 11
4453.5142482341
 21
7600.8372379212
 31
0.0
  0
LINE
  5
2CE
330
1F
100
AcDbEntity
  8
0
  6
Continuous
 62
     7
370
    25
100
AcDbLine
 10
4453.5142482341
 20
7597.8372379212
 30
0.0
 11
4454.2782134985
 21
7597.8372379212
 31
0.0
  0
LINE
  5
2CF
330
1F
100
AcDbEntity
  8
0
  6
Continuous
 62
     7
370
    25
100
AcDbLine
 10
4437.1670137333
 20
7600.8372379212
 30
0.0
 11
4436.7585713479
 21
7600.8372379212
 31
0.0
  0
LINE
  5
2D0
330
1F
100
AcDbEntity
  8
0
  6
Continuous
 62
     7
370
    25
100
AcDbLine
 10
4436.4030484688
 20
7597.8372379212
 30
0.0
 11
4437.1670137333
 21
7597.8372379212
 31
0.0
  0
LINE
  5
2D1
330
1F
100
AcDbEntity
  8
0
  6
Continuous
 62
     7
370
    25
100
AcDbLine
 10
4453.5142482341
 20
7600.8372379212
 30
0.0
 11
4437.1670137333
 21
7600.8372379212
 31
0.0
  0
LINE
  5
2D2
330
1F
100
AcDbEntity
  8
0
  6
Continuous
 62
     7
370
    25
100
AcDbLine
 10
4437.1670137333
 20
7597.8372379212
 30
0.0
 11
4453.5142482341
 21
7597.8372379212
 31
0.0
  0
LINE
  5
2D3
330
1F
100
AcDbEntity
  8
0
  6
Continuous
 62
     7
370
    25
100
AcDbLine
 10
4464.7805894729
 20
7587.1872379212
 30
0.0
 11
4465.5445547374
 21
7587.1872379212
 31
0.0
  0
LINE
  5
2D4
330
1F
100
AcDbEntity
  8
0
  6
Continuous
 62
     7
370
    25
100
AcDbLine
 10
4425.1367072299
 20
7587.1872379212
 30
0.0
 11
4425.9006724944
 21
7587.1872379212
 31
0.0
  0
LINE
  5
2D5
330
1F
100
AcDbEntity
  8
0
  6
Continuous
 62
     7
370
    25
100
AcDbLine
 10
4413.870365991
 20
7576.5372379212
 30
0.0
 11
4414.6343312555
 21
7576.5372379212
 31
0.0
  0
LINE
  5
2D6
330
1F
100
AcDbEntity
  8
0
  6
Continuous
 62
     7
370
    25
100
AcDbLine
 10
4487.4505771391
 20
7565.8872379212
 30
0.0
 11
4488.0772372152
 21
7565.8872379212
 31
0.0
  0
LINE
  5
2D7
330
1F
100
AcDbEntity
  8
0
  6
Continuous
 62
     7
370
    25
100
AcDbLine
 10
4402.6040247521
 20
7565.8872379212
 30
0.0
 11
4403.3679900166
 21
7565.8872379212
 31
0.0
  0
LINE
  5
2D8
330
1F
100
AcDbEntity
  8
0
  6
Continuous
 62
     7
370
    25
100
AcDbLine
 10
4391.3376835133
 20
7555.2372379212
 30
0.0
 11
4392.1016487777
 21
7555.2372379212
 31
0.0
  0
LINE
  5
2D9
330
1F
100
AcDbEntity
  8
0
  6
Continuous
 62
     7
370
    25
100
AcDbLine
 10
4498.5796131896
 20
7555.2372379212
 30
0.0
 11
4499.3435784541
 21
7555.2372379212
 31
0.0
  0
LINE
  5
2DA
330
1F
100
AcDbEntity
  8
0
  6
Continuous
 62
     7
370
    25
100
AcDbLine
 10
4509.8459544285
 20
7544.5872379212
 30
0.0
 11
4510.609919693
 21
7544.5872379212
 31
0.0
  0
LINE
  5
2DB
330
1F
100
AcDbEntity
  8
0
  6
Continuous
 62
     7
370
    25
100
AcDbLine
 10
4380.0713422744
 20
7544.5872379212
 30
0.0
 11
4380.8353075389
 21
7544.5872379212
 31
0.0
  0
LINE
  5
2DC
330
1F
100
AcDbEntity
  8
0
  6
Continuous
 62
     7
370
    25
100
AcDbLine
 10
4521.1122956674
 20
7533.9372379212
 30
0.0
 11
4521.8762609318
 21
7533.9372379212
 31
0.0
  0
LINE
  5
2DD
330
1F
100
AcDbEntity
  8
0
  6
Continuous
 62
     7
370
    25
100
AcDbLine
 10
4532.3786369063
 20
7523.2872379212
 30
0.0
 11
4533.1426021707
 21
7523.2872379212
 31
0.0
  0
LINE
  5
2DE
330
1F
100
AcDbEntity
  8
0
  6
Continuous
 62
     7
370
    25
100
AcDbLine
 10
4357.5386597966
 20
7523.2872379212
 30
0.0
 11
4358.1653198727
 21
7523.2872379212
 31
0.0
  0
LINE
  5
2DF
330
1F
100
AcDbEntity
  8
0
  6
Continuous
 62
     7
370
    25
100
AcDbLine
 10
4346.2723185577
 20
7512.6372379212
 30
0.0
 11
4347.0362838222
 21
7512.6372379212
 31
0.0
  0
LINE
  5
2E0
330
1F
100
AcDbEntity
  8
0
  6
Continuous
 62
     7
370
    25
100
AcDbLine
 10
4543.6449781451
 20
7512.6372379212
 30
0.0
 11
4544.4089434096
 21
7512.6372379212
 31
0.0
  0
LINE
  5
2E1
330
1F
100
AcDbEntity
  8
0
  6
Continuous
 62
     7
370
    25
100
AcDbLine
 10
4335.0059773188
 20
7501.9872379212
 30
0.0
 11
4335.7699425833
 21
7501.9872379212
 31
0.0
  0
LINE
  5
2E2
330
1F
100
AcDbEntity
  8
0
  6
Continuous
 62
     7
370
    25
100
AcDbLine
 10
4323.73963608
 20
7491.3372379212
 30
0.0
 11
4324.5036013444
 21
7491.3372379212
 31
0.0
  0
LINE
  5
2E3
330
1F
100
AcDbEntity
  8
0
  6
Continuous
 62
     7
370
    25
100
AcDbLine
 10
4566.3149658113
 20
7491.3372379212
 30
0.0
 11
4566.9416258874
 21
7491.3372379212
 31
0.0
  0
LINE
  5
2E4
330
1F
100
AcDbEntity
  8
0
  6
Continuous
 62
     7
370
    25
100
AcDbLine
 10
4313.3751541971
 20
7480.6872379212
 30
0.0
 11
4314.5997027552
 21
7480.6872379212
 31
0.0
  0
LINE
  5
2E5
330
1F
100
AcDbEntity
  8
0
  6
Continuous
 62
     7
370
    25
100
AcDbLine
 10
4576.0815592122
 20
7480.6872379212
 30
0.0
 11
4577.3061077702
 21
7480.6872379212
 31
0.0
  0
LINE
  5
2E6
330
1F
100
AcDbEntity
  8
0
  6
Continuous
 62
     7
370
    25
100
AcDbLine
 10
4310.0660896886
 20
7470.0372379212
 30
0.0
 11
4311.150438402
 21
7470.0372379212
 31
0.0
  0
LINE
  5
2E7
330
1F
100
AcDbEntity
  8
0
  6
Continuous
 62
     7
370
    25
100
AcDbLine
 10
4311.150438402
 20
7473.0372379212
 30
0.0
 11
4310.3803774881
 21
7473.0372379212
 31
0.0
  0
LINE
  5
2E8
330
1F
100
AcDbEntity
  8
0
  6
Continuous
 62
     7
370
    25
100
AcDbLine
 10
4579.5308235653
 20
7470.0372379212
 30
0.0
 11
4580.6151722787
 21
7470.0372379212
 31
0.0
  0
LINE
  5
2E9
330
1F
100
AcDbEntity
  8
0
  6
Continuous
 62
     7
370
    25
100
AcDbLine
 10
4580.3008844792
 20
7473.0372379212
 30
0.0
 11
4579.5308235653
 21
7473.0372379212
 31
0.0
  0
LINE
  5
2EA
330
1F
100
AcDbEntity
  8
0
  6
Continuous
 62
     7
370
    25
100
AcDbLine
 10
4312.532678811
 20
7462.3872379212
 30
0.0
 11
4311.2445880396
 21
7462.3872379212
 31
0.0
  0
LINE
  5
2EB
330
1F
100
AcDbEntity
  8
0
  6
Continuous
 62
     7
370
    25
100
AcDbLine
 10
4579.4366739277
 20
7462.3872379212
 30
0.0
 11
4578.1485831564
 21
7462.3872379212
 31
0.0
  0
LINE
  5
2EC
330
1F
100
AcDbEntity
  8
0
  6
Continuous
 62
     7
370
    25
100
AcDbLine
 10
4319.9454687727
 20
7451.7372379212
 30
0.0
 11
4319.5688638318
 21
7451.7372379212
 31
0.0
  0
LINE
  5
2ED
330
1F
100
AcDbEntity
  8
0
  6
Continuous
 62
     7
370
    25
100
AcDbLine
 10
4571.1123981356
 20
7451.7372379212
 30
0.0
 11
4570.7357931946
 21
7451.7372379212
 31
0.0
  0
LINE
  5
2EE
330
1F
100
AcDbEntity
  8
0
  6
Continuous
 62
     7
370
    25
100
AcDbLine
 10
4395.0776838549
 20
7416.7872379212
 30
0.0
 11
4495.6035781125
 21
7416.7872379212
 31
0.0
  0
LINE
  5
2EF
330
1F
100
AcDbEntity
  8
0
  6
Continuous
 62
     7
370
    25
100
AcDbLine
 10
4506.6853370128
 20
7419.7872379212
 30
0.0
 11
4383.9959249545
 21
7419.7872379212
 31
0.0
  0
LINE
  5
2F0
330
1F
100
AcDbEntity
  8
0
  6
Continuous
 62
     7
370
    25
100
AcDbLine
 10
4462.370937487
 20
7590.1872379212
 30
0.0
 11
4428.3103244803
 21
7590.1872379212
 31
0.0
  0
LINE
  5
2F1
330
1F
100
AcDbEntity
  8
0
  6
Continuous
 62
     7
370
    25
100
AcDbLine
 10
4425.9006724944
 20
7587.1872379212
 30
0.0
 11
4464.7805894729
 21
7587.1872379212
 31
0.0
  0
LINE
  5
2F2
330
1F
100
AcDbEntity
  8
0
  6
Continuous
 62
     7
370
    25
100
AcDbLine
 10
4414.6343312555
 20
7576.5372379212
 30
0.0
 11
4475.3551851361
 21
7576.5372379212
 31
0.0
  0
LINE
  5
2F3
330
1F
100
AcDbEntity
  8
0
  6
Continuous
 62
     7
370
    25
100
AcDbLine
 10
4472.1815678857
 20
7579.5372379212
 30
0.0
 11
4417.0439832414
 21
7579.5372379212
 31
0.0
  0
LINE
  5
2F4
330
1F
100
AcDbEntity
  8
0
  6
Continuous
 62
     7
370
    25
100
AcDbLine
 10
4403.3679900166
 20
7565.8872379212
 30
0.0
 11
4486.621526375
 21
7565.8872379212
 31
0.0
  0
LINE
  5
2F5
330
1F
100
AcDbEntity
  8
0
  6
Continuous
 62
     7
370
    25
100
AcDbLine
 10
4483.4479091246
 20
7568.8872379212
 30
0.0
 11
4405.7776420025
 21
7568.8872379212
 31
0.0
  0
LINE
  5
2F6
330
1F
100
AcDbEntity
  8
0
  6
Continuous
 62
     7
370
    25
100
AcDbLine
 10
4392.1016487777
 20
7555.2372379212
 30
0.0
 11
4498.5796131896
 21
7555.2372379212
 31
0.0
  0
LINE
  5
2F7
330
1F
100
AcDbEntity
  8
0
  6
Continuous
 62
     7
370
    25
100
AcDbLine
 10
4496.1699612037
 20
7558.2372379212
 30
0.0
 11
4394.5113007637
 21
7558.2372379212
 31
0.0
  0
LINE
  5
2F8
330
1F
100
AcDbEntity
  8
0
  6
Continuous
 62
     7
370
    25
100
AcDbLine
 10
4380.8353075389
 20
7544.5872379212
 30
0.0
 11
4509.8459544285
 21
7544.5872379212
 31
0.0
  0
LINE
  5
2F9
330
1F
100
AcDbEntity
  8
0
  6
Continuous
 62
     7
370
    25
100
AcDbLine
 10
4507.4363024426
 20
7547.5872379212
 30
0.0
 11
4383.2449595248
 21
7547.5872379212
 31
0.0
  0
LINE
  5
2FA
330
1F
100
AcDbEntity
  8
0
  6
Continuous
 62
     7
370
    25
100
AcDbLine
 10
4370.2607118757
 20
7533.9372379212
 30
0.0
 11
4521.1122956674
 21
7533.9372379212
 31
0.0
  0
LINE
  5
2FB
330
1F
100
AcDbEntity
  8
0
  6
Continuous
 62
     7
370
    25
100
AcDbLine
 10
4518.7026436815
 20
7536.9372379212
 30
0.0
 11
4373.4343291261
 21
7536.9372379212
 31
0.0
  0
LINE
  5
2FC
330
1F
100
AcDbEntity
  8
0
  6
Continuous
 62
     7
370
    25
100
AcDbLine
 10
4358.9943706368
 20
7523.2872379212
 30
0.0
 11
4532.3786369063
 21
7523.2872379212
 31
0.0
  0
LINE
  5
2FD
330
1F
100
AcDbEntity
  8
0
  6
Continuous
 62
     7
370
    25
100
AcDbLine
 10
4529.9689849203
 20
7526.2872379212
 30
0.0
 11
4362.1679878872
 21
7526.2872379212
 31
0.0
  0
LINE
  5
2FE
330
1F
100
AcDbEntity
  8
0
  6
Continuous
 62
     7
370
    25
100
AcDbLine
 10
4347.0362838222
 20
7512.6372379212
 30
0.0
 11
4543.6449781451
 21
7512.6372379212
 31
0.0
  0
LINE
  5
2FF
330
1F
100
AcDbEntity
  8
0
  6
Continuous
 62
     7
370
    25
100
AcDbLine
 10
4541.2353261592
 20
7515.6372379212
 30
0.0
 11
4349.4459358081
 21
7515.6372379212
 31
0.0
  0
LINE
  5
300
330
1F
100
AcDbEntity
  8
0
  6
Continuous
 62
     7
370
    25
100
AcDbLine
 10
4335.7699425833
 20
7501.9872379212
 30
0.0
 11
4554.2195738083
 21
7501.9872379212
 31
0.0
  0
LINE
  5
301
330
1F
100
AcDbEntity
  8
0
  6
Continuous
 62
     7
370
    25
100
AcDbLine
 10
4551.0459565579
 20
7504.9872379212
 30
0.0
 11
4338.1795945692
 21
7504.9872379212
 31
0.0
  0
LINE
  5
302
330
1F
100
AcDbEntity
  8
0
  6
Continuous
 62
     7
370
    25
100
AcDbLine
 10
4324.5036013444
 20
7491.3372379212
 30
0.0
 11
4565.4859150472
 21
7491.3372379212
 31
0.0
  0
LINE
  5
303
330
1F
100
AcDbEntity
  8
0
  6
Continuous
 62
     7
370
    25
100
AcDbLine
 10
4562.3122977968
 20
7494.3372379212
 30
0.0
 11
4326.9132533303
 21
7494.3372379212
 31
0.0
  0
LINE
  5
304
330
1F
100
AcDbEntity
  8
0
  6
Continuous
 62
     7
370
    25
100
AcDbLine
 10
4314.5997027552
 20
7480.6872379212
 30
0.0
 11
4576.0815592122
 21
7480.6872379212
 31
0.0
  0
LINE
  5
305
330
1F
100
AcDbEntity
  8
0
  6
Continuous
 62
     7
370
    25
100
AcDbLine
 10
4574.9749624465
 20
7483.6872379212
 30
0.0
 11
4315.7062995209
 21
7483.6872379212
 31
0.0
  0
LINE
  5
306
330
1F
100
AcDbEntity
  8
0
  6
Continuous
 62
     7
370
    25
100
AcDbLine
 10
4311.150438402
 20
7470.0372379212
 30
0.0
 11
4579.5308235653
 21
7470.0372379212
 31
0.0
  0
LINE
  5
307
330
1F
100
AcDbEntity
  8
0
  6
Continuous
 62
     7
370
    25
100
AcDbLine
 10
4579.5308235653
 20
7473.0372379212
 30
0.0
 11
4311.150438402
 21
7473.0372379212
 31
0.0
  0
LINE
  5
308
330
1F
100
AcDbEntity
  8
0
  6
Continuous
 62
     7
370
    25
100
AcDbLine
 10
4312.5713109434
 20
7459.3872379212
 30
0.0
 11
4578.1099510239
 21
7459.3872379212
 31
0.0
  0
LINE
  5
309
330
1F
100
AcDbEntity
  8
0
  6
Continuous
 62
     7
370
    25
100
AcDbLine
 10
4578.1485831564
 20
7462.3872379212
 30
0.0
 11
4312.532678811
 21
7462.3872379212
 31
0.0
  0
LINE
  5
30A
330
1F
100
AcDbEntity
  8
0
  6
Continuous
 62
     7
370
    25
100
AcDbLine
 10
4323.794638418
 20
7448.7372379212
 30
0.0
 11
4566.8866235494
 21
7448.7372379212
 31
0.0
  0
LINE
  5
30B
330
1F
100
AcDbEntity
  8
0
  6
Continuous
 62
     7
370
    25
100
AcDbLine
 10
4570.7357931946
 20
7451.7372379212
 30
0.0
 11
4319.9454687727
 21
7451.7372379212
 31
0.0
  0
LINE
  5
30C
330
1F
100
AcDbEntity
  8
0
  6
Continuous
 62
     7
370
    25
100
AcDbLine
 10
4340.8517871268
 20
7438.0872379212
 30
0.0
 11
4549.8294748405
 21
7438.0872379212
 31
0.0
  0
LINE
  5
30D
330
1F
100
AcDbEntity
  8
0
  6
Continuous
 62
     7
370
    25
100
AcDbLine
 10
4555.0079807021
 20
7441.0872379212
 30
0.0
 11
4335.6732812652
 21
7441.0872379212
 31
0.0
  0
LINE
  5
30E
330
1F
100
AcDbEntity
  8
0
  6
Continuous
 62
     7
370
    25
100
AcDbLine
 10
4362.6631632412
 20
7427.4372379212
 30
0.0
 11
4528.0180987261
 21
7427.4372379212
 31
0.0
  0
LINE
  5
30F
330
1F
100
AcDbEntity
  8
0
  6
Continuous
 62
     7
370
    25
100
AcDbLine
 10
4534.8307018074
 20
7430.4372379212
 30
0.0
 11
4355.8505601599
 21
7430.4372379212
 31
0.0
  0
LINE
  5
310
330
1F
100
AcDbEntity
  8
0
  6
Continuous
 62
     7
370
    25
100
AcDbLine
 10
4375.7832956051
 20
7542.4981491988
 30
0.0
 11
4367.7168695661
 21
7534.8730084816
 31
0.0
  0
LINE
  5
311
330
1F
100
AcDbEntity
  8
0
  6
Continuous
 62
     7
370
    25
100
AcDbLine
 10
4375.7832956051
 20
7542.4981491988
 30
0.0
 11
4377.450880002
 21
7540.7340576626
 31
0.0
  0
LINE
  5
312
330
1F
100
AcDbEntity
  8
0
  6
Continuous
 62
     7
370
    25
100
AcDbLine
 10
4356.8889643426
 20
7524.6374592305
 30
0.0
 11
4358.5565487396
 21
7522.8733676943
 31
0.0
  0
LINE
  5
313
330
1F
100
AcDbEntity
  8
0
  6
Continuous
 62
     7
370
    25
100
AcDbLine
 10
4364.9553903816
 20
7532.2625999477
 30
0.0
 11
4356.8889643426
 21
7524.6374592305
 31
0.0
  0
LINE
  5
314
330
1F
100
AcDbEntity
  8
0
  6
Continuous
 62
     7
370
    25
100
AcDbLine
 10
4364.9553903816
 20
7532.2625999477
 30
0.0
 11
4366.6229747785
 21
7530.4985084115
 31
0.0
  0
LINE
  5
315
330
1F
100
AcDbEntity
  8
0
  6
Continuous
 62
     7
370
    25
100
AcDbLine
 10
4369.3844539631
 20
7533.1089169454
 30
0.0
 11
4367.7168695661
 21
7534.8730084816
 31
0.0
  0
LINE
  5
316
330
1F
100
AcDbEntity
  8
0
  6
Continuous
 62
     7
370
    25
100
AcDbLine
 10
4375.4298625739
 20
7542.8720362537
 30
0.0
 11
4367.3634365349
 21
7535.2468955364
 31
0.0
  0
LINE
  5
317
330
1F
100
AcDbEntity
  8
0
  6
Continuous
 62
     7
370
    25
100
AcDbLine
 10
4375.4298625739
 20
7542.8720362537
 30
0.0
 11
4375.7832956051
 21
7542.4981491988
 31
0.0
  0
LINE
  5
318
330
1F
100
AcDbEntity
  8
0
  6
Continuous
 62
     7
370
    25
100
AcDbLine
 10
4367.7168695661
 20
7534.8730084816
 30
0.0
 11
4367.3634365349
 21
7535.2468955364
 31
0.0
  0
LINE
  5
319
330
1F
100
AcDbEntity
  8
0
  6
Continuous
 62
     7
370
    25
100
AcDbLine
 10
4356.5355313115
 20
7525.0113462853
 30
0.0
 11
4356.8889643426
 21
7524.6374592305
 31
0.0
  0
LINE
  5
31A
330
1F
100
AcDbEntity
  8
0
  6
Continuous
 62
     7
370
    25
100
AcDbLine
 10
4364.6019573504
 20
7532.6364870026
 30
0.0
 11
4356.5355313115
 21
7525.0113462853
 31
0.0
  0
LINE
  5
31B
330
1F
100
AcDbEntity
  8
0
  6
Continuous
 62
     7
370
    25
100
AcDbLine
 10
4364.6019573504
 20
7532.6364870026
 30
0.0
 11
4364.9553903816
 21
7532.2625999477
 31
0.0
  0
LINE
  5
31C
330
1F
100
AcDbEntity
  8
0
  6
Continuous
 62
     7
370
    25
100
AcDbLine
 10
4371.2683334745
 20
7547.2744030996
 30
0.0
 11
4352.3740022121
 21
7529.4137131313
 31
0.0
  0
LINE
  5
31D
330
1F
100
AcDbEntity
  8
0
  6
Continuous
 62
     7
370
    25
100
AcDbLine
 10
4368.5205350179
 20
7550.1812232938
 30
0.0
 11
4349.6262037554
 21
7532.3205333255
 31
0.0
  0
LINE
  5
31E
330
1F
100
AcDbEntity
  8
0
  6
Continuous
 62
     7
370
    25
100
AcDbLine
 10
4349.6262037554
 20
7532.3205333255
 30
0.0
 11
4352.3740022121
 21
7529.4137131313
 31
0.0
  0
LINE
  5
31F
330
1F
100
AcDbEntity
  8
0
  6
Continuous
 62
     7
370
    25
100
AcDbLine
 10
4368.5205350179
 20
7550.1812232938
 30
0.0
 11
4371.2683334745
 21
7547.2744030996
 31
0.0
  0
LINE
  5
320
330
1F
100
AcDbEntity
  8
0
  6
Continuous
 62
     7
370
    25
100
AcDbLine
 10
4488.7269326692
 20
7567.2374592305
 30
0.0
 11
4480.6605066302
 21
7574.8625999477
 31
0.0
  0
LINE
  5
321
330
1F
100
AcDbEntity
  8
0
  6
Continuous
 62
     7
370
    25
100
AcDbLine
 10
4488.7269326692
 20
7567.2374592305
 30
0.0
 11
4487.0593482722
 21
7565.4733676943
 31
0.0
  0
LINE
  5
322
330
1F
100
AcDbEntity
  8
0
  6
Continuous
 62
     7
370
    25
100
AcDbLine
 10
4469.8326014067
 20
7585.0981491988
 30
0.0
 11
4468.1650170098
 21
7583.3340576626
 31
0.0
  0
LINE
  5
323
330
1F
100
AcDbEntity
  8
0
  6
Continuous
 62
     7
370
    25
100
AcDbLine
 10
4477.8990274457
 20
7577.4730084816
 30
0.0
 11
4469.8326014067
 21
7585.0981491988
 31
0.0
  0
LINE
  5
324
330
1F
100
AcDbEntity
  8
0
  6
Continuous
 62
     7
370
    25
100
AcDbLine
 10
4477.8990274457
 20
7577.4730084816
 30
0.0
 11
4476.2314430487
 21
7575.7089169454
 31
0.0
  0
LINE
  5
325
330
1F
100
AcDbEntity
  8
0
  6
Continuous
 62
     7
370
    25
100
AcDbLine
 10
4478.9929222333
 20
7573.0985084115
 30
0.0
 11
4480.6605066302
 21
7574.8625999477
 31
0.0
  0
LINE
  5
326
330
1F
100
AcDbEntity
  8
0
  6
Continuous
 62
     7
370
    25
100
AcDbLine
 10
4478.2524604768
 20
7577.8468955364
 30
0.0
 11
4470.1860344379
 21
7585.4720362537
 31
0.0
  0
LINE
  5
327
330
1F
100
AcDbEntity
  8
0
  6
Continuous
 62
     7
370
    25
100
AcDbLine
 10
4470.1860344379
 20
7585.4720362537
 30
0.0
 11
4469.8326014067
 21
7585.0981491988
 31
0.0
  0
LINE
  5
328
330
1F
100
AcDbEntity
  8
0
  6
Continuous
 62
     7
370
    25
100
AcDbLine
 10
4478.2524604768
 20
7577.8468955364
 30
0.0
 11
4477.8990274457
 21
7577.4730084816
 31
0.0
  0
LINE
  5
329
330
1F
100
AcDbEntity
  8
0
  6
Continuous
 62
     7
370
    25
100
AcDbLine
 10
4489.0803657003
 20
7567.6113462853
 30
0.0
 11
4481.0139396614
 21
7575.2364870026
 31
0.0
  0
LINE
  5
32A
330
1F
100
AcDbEntity
  8
0
  6
Continuous
 62
     7
370
    25
100
AcDbLine
 10
4489.0803657003
 20
7567.6113462853
 30
0.0
 11
4488.7269326692
 21
7567.2374592305
 31
0.0
  0
LINE
  5
32B
330
1F
100
AcDbEntity
  8
0
  6
Continuous
 62
     7
370
    25
100
AcDbLine
 10
4480.6605066302
 20
7574.8625999477
 30
0.0
 11
4481.0139396614
 21
7575.2364870026
 31
0.0
  0
LINE
  5
32C
330
1F
100
AcDbEntity
  8
0
  6
Continuous
 62
     7
370
    25
100
AcDbLine
 10
4493.2418947997
 20
7572.0137131313
 30
0.0
 11
4474.3475635373
 21
7589.8744030996
 31
0.0
  0
LINE
  5
32D
330
1F
100
AcDbEntity
  8
0
  6
Continuous
 62
     7
370
    25
100
AcDbLine
 10
4495.9896932564
 20
7574.9205333255
 30
0.0
 11
4477.0953619939
 21
7592.7812232938
 31
0.0
  0
LINE
  5
32E
330
1F
100
AcDbEntity
  8
0
  6
Continuous
 62
     7
370
    25
100
AcDbLine
 10
4495.9896932564
 20
7574.9205333255
 30
0.0
 11
4493.2418947997
 21
7572.0137131313
 31
0.0
  0
LINE
  5
32F
330
1F
100
AcDbEntity
  8
0
  6
Continuous
 62
     7
370
    25
100
AcDbLine
 10
4477.0953619939
 20
7592.7812232938
 30
0.0
 11
4474.3475635373
 21
7589.8744030996
 31
0.0
  0
LINE
  5
330
330
1F
100
AcDbEntity
  8
0
  6
Continuous
 62
     7
370
    25
100
AcDbLine
 10
4567.5913213414
 20
7492.6874592305
 30
0.0
 11
4559.5248953024
 21
7500.3125999477
 31
0.0
  0
LINE
  5
331
330
1F
100
AcDbEntity
  8
0
  6
Continuous
 62
     7
370
    25
100
AcDbLine
 10
4567.5913213414
 20
7492.6874592305
 30
0.0
 11
4565.9237369444
 21
7490.9233676943
 31
0.0
  0
LINE
  5
332
330
1F
100
AcDbEntity
  8
0
  6
Continuous
 62
     7
370
    25
100
AcDbLine
 10
4548.6969900789
 20
7510.5481491988
 30
0.0
 11
4547.029405682
 21
7508.7840576626
 31
0.0
  0
LINE
  5
333
330
1F
100
AcDbEntity
  8
0
  6
Continuous
 62
     7
370
    25
100
AcDbLine
 10
4556.7634161179
 20
7502.9230084816
 30
0.0
 11
4548.6969900789
 21
7510.5481491988
 31
0.0
  0
LINE
  5
334
330
1F
100
AcDbEntity
  8
0
  6
Continuous
 62
     7
370
    25
100
AcDbLine
 10
4556.7634161179
 20
7502.9230084816
 30
0.0
 11
4555.0958317209
 21
7501.1589169454
 31
0.0
  0
LINE
  5
335
330
1F
100
AcDbEntity
  8
0
  6
Continuous
 62
     7
370
    25
100
AcDbLine
 10
4557.8573109055
 20
7498.5485084115
 30
0.0
 11
4559.5248953024
 21
7500.3125999477
 31
0.0
  0
LINE
  5
336
330
1F
100
AcDbEntity
  8
0
  6
Continuous
 62
     7
370
    25
100
AcDbLine
 10
4557.116849149
 20
7503.2968955364
 30
0.0
 11
4549.0504231101
 21
7510.9220362537
 31
0.0
  0
LINE
  5
337
330
1F
100
AcDbEntity
  8
0
  6
Continuous
 62
     7
370
    25
100
AcDbLine
 10
4549.0504231101
 20
7510.9220362537
 30
0.0
 11
4548.6969900789
 21
7510.5481491988
 31
0.0
  0
LINE
  5
338
330
1F
100
AcDbEntity
  8
0
  6
Continuous
 62
     7
370
    25
100
AcDbLine
 10
4557.116849149
 20
7503.2968955364
 30
0.0
 11
4556.7634161179
 21
7502.9230084816
 31
0.0
  0
LINE
  5
339
330
1F
100
AcDbEntity
  8
0
  6
Continuous
 62
     7
370
    25
100
AcDbLine
 10
4567.9447543725
 20
7493.0613462853
 30
0.0
 11
4559.8783283336
 21
7500.6864870026
 31
0.0
  0
LINE
  5
33A
330
1F
100
AcDbEntity
  8
0
  6
Continuous
 62
     7
370
    25
100
AcDbLine
 10
4567.9447543725
 20
7493.0613462853
 30
0.0
 11
4567.5913213414
 21
7492.6874592305
 31
0.0
  0
LINE
  5
33B
330
1F
100
AcDbEntity
  8
0
  6
Continuous
 62
     7
370
    25
100
AcDbLine
 10
4559.5248953024
 20
7500.3125999477
 30
0.0
 11
4559.8783283336
 21
7500.6864870026
 31
0.0
  0
LINE
  5
33C
330
1F
100
AcDbEntity
  8
0
  6
Continuous
 62
     7
370
    25
100
AcDbLine
 10
4572.1062834719
 20
7497.4637131313
 30
0.0
 11
4553.2119522095
 21
7515.3244030996
 31
0.0
  0
LINE
  5
33D
330
1F
100
AcDbEntity
  8
0
  6
Continuous
 62
     7
370
    25
100
AcDbLine
 10
4574.8540819286
 20
7500.3705333255
 30
0.0
 11
4555.9597506661
 21
7518.2312232938
 31
0.0
  0
LINE
  5
33E
330
1F
100
AcDbEntity
  8
0
  6
Continuous
 62
     7
370
    25
100
AcDbLine
 10
4574.8540819286
 20
7500.3705333255
 30
0.0
 11
4572.1062834719
 21
7497.4637131313
 31
0.0
  0
LINE
  5
33F
330
1F
100
AcDbEntity
  8
0
  6
Continuous
 62
     7
370
    25
100
AcDbLine
 10
4555.9597506661
 20
7518.2312232938
 30
0.0
 11
4553.2119522095
 21
7515.3244030996
 31
0.0
  0
LINE
  5
340
330
1F
100
AcDbEntity
  8
0
  6
Continuous
 62
     7
370
    25
100
AcDbLine
 10
4458.0884294403
 20
7605.2440581154
 30
0.0
 11
4452.592832527
 21
7599.430417727
 31
0.0
  0
LINE
  5
341
330
1F
100
AcDbEntity
  8
0
  6
Continuous
 62
     7
370
    25
100
AcDbLine
 10
4432.592832527
 20
7605.2440581154
 30
0.0
 11
4438.0884294403
 21
7599.430417727
 31
0.0
  0
LINE
  5
342
330
1F
100
AcDbEntity
  8
0
  6
Continuous
 62
     8
370
    25
100
AcDbLine
 10
4579.5478010674
 20
7490.4292943514
 30
0.0
 11
4574.052204154
 21
7484.6156539629
 31
0.0
  0
LINE
  5
343
330
1F
100
AcDbEntity
  8
0
  6
Continuous
 62
     8
370
    25
100
AcDbLine
 10
4311.1334609
 20
7490.4292943514
 30
0.0
 11
4316.6290578133
 21
7484.6156539629
 31
0.0
  0
LINE
  5
344
330
1F
100
AcDbEntity
  8
0
  6
Continuous
 62
     8
370
    25
100
AcDbLine
 10
4313.8497338579
 20
7446.0100663651
 30
0.0
 11
4318.5960140932
 21
7452.4500061108
 31
0.0
  0
LINE
  5
345
330
1F
100
AcDbEntity
  8
0
  6
Continuous
 62
     8
370
    25
100
AcDbLine
 10
4576.8315281094
 20
7446.0100663651
 30
0.0
 11
4572.0852478741
 21
7452.4500061108
 31
0.0
  0
LINE
  5
346
330
1F
100
AcDbEntity
  8
0
  6
Continuous
 62
     8
370
    25
100
AcDbLine
 10
4453.5142482341
 20
7600.8372379212
 30
0.0
 11
4453.5142482341
 21
7600.4051579879
 31
0.0
  0
LINE
  5
347
330
1F
100
AcDbEntity
  8
0
  6
Continuous
 62
     8
370
    25
100
AcDbLine
 10
4453.5142482341
 20
7598.5594093781
 30
0.0
 11
4453.5142482341
 21
7597.8372379212
 31
0.0
  0
LINE
  5
348
330
1F
100
AcDbEntity
  8
0
  6
Continuous
 62
     8
370
    25
100
AcDbLine
 10
4437.1670137333
 20
7600.8372379212
 30
0.0
 11
4437.1670137333
 21
7600.4051579879
 31
0.0
  0
LINE
  5
349
330
1F
100
AcDbEntity
  8
0
  6
Continuous
 62
     8
370
    25
100
AcDbLine
 10
4437.1670137333
 20
7598.5594093781
 30
0.0
 11
4437.1670137333
 21
7597.8372379212
 31
0.0
  0
LINE
  5
34A
330
1F
100
AcDbEntity
  8
0
  6
Continuous
 62
     8
370
    25
100
AcDbLine
 10
4464.7805894729
 20
7587.9094093781
 30
0.0
 11
4464.7805894729
 21
7587.1872379212
 31
0.0
  0
LINE
  5
34B
330
1F
100
AcDbEntity
  8
0
  6
Continuous
 62
     8
370
    25
100
AcDbLine
 10
4425.9006724944
 20
7587.9094093781
 30
0.0
 11
4425.9006724944
 21
7587.1872379212
 31
0.0
  0
LINE
  5
34C
330
1F
100
AcDbEntity
  8
0
  6
Continuous
 62
     8
370
    25
100
AcDbLine
 10
4414.6343312555
 20
7577.2594093781
 30
0.0
 11
4414.6343312555
 21
7576.5372379212
 31
0.0
  0
LINE
  5
34D
330
1F
100
AcDbEntity
  8
0
  6
Continuous
 62
     8
370
    25
100
AcDbLine
 10
4403.3679900166
 20
7566.6094093781
 30
0.0
 11
4403.3679900166
 21
7565.8872379212
 31
0.0
  0
LINE
  5
34E
330
1F
100
AcDbEntity
  8
0
  6
Continuous
 62
     8
370
    25
100
AcDbLine
 10
4392.1016487777
 20
7555.9594093781
 30
0.0
 11
4392.1016487777
 21
7555.2372379212
 31
0.0
  0
LINE
  5
34F
330
1F
100
AcDbEntity
  8
0
  6
Continuous
 62
     8
370
    25
100
AcDbLine
 10
4498.5796131896
 20
7555.9594093781
 30
0.0
 11
4498.5796131896
 21
7555.2372379212
 31
0.0
  0
LINE
  5
350
330
1F
100
AcDbEntity
  8
0
  6
Continuous
 62
     8
370
    25
100
AcDbLine
 10
4509.8459544285
 20
7545.3094093781
 30
0.0
 11
4509.8459544285
 21
7544.5872379212
 31
0.0
  0
LINE
  5
351
330
1F
100
AcDbEntity
  8
0
  6
Continuous
 62
     8
370
    25
100
AcDbLine
 10
4380.8353075389
 20
7545.3094093781
 30
0.0
 11
4380.8353075389
 21
7544.5872379212
 31
0.0
  0
LINE
  5
352
330
1F
100
AcDbEntity
  8
0
  6
Continuous
 62
     8
370
    25
100
AcDbLine
 10
4521.1122956674
 20
7534.6594093781
 30
0.0
 11
4521.1122956674
 21
7533.9372379212
 31
0.0
  0
LINE
  5
353
330
1F
100
AcDbEntity
  8
0
  6
Continuous
 62
     8
370
    25
100
AcDbLine
 10
4532.3786369063
 20
7524.0094093781
 30
0.0
 11
4532.3786369063
 21
7523.2872379212
 31
0.0
  0
LINE
  5
354
330
1F
100
AcDbEntity
  8
0
  6
Continuous
 62
     8
370
    25
100
AcDbLine
 10
4347.0362838222
 20
7513.3594093781
 30
0.0
 11
4347.0362838222
 21
7512.6372379212
 31
0.0
  0
LINE
  5
355
330
1F
100
AcDbEntity
  8
0
  6
Continuous
 62
     8
370
    25
100
AcDbLine
 10
4543.6449781451
 20
7513.3594093781
 30
0.0
 11
4543.6449781451
 21
7512.6372379212
 31
0.0
  0
LINE
  5
356
330
1F
100
AcDbEntity
  8
0
  6
Continuous
 62
     8
370
    25
100
AcDbLine
 10
4335.7699425833
 20
7502.7094093781
 30
0.0
 11
4335.7699425833
 21
7501.9872379212
 31
0.0
  0
LINE
  5
357
330
1F
100
AcDbEntity
  8
0
  6
Continuous
 62
     8
370
    25
100
AcDbLine
 10
4324.5036013444
 20
7492.0594093781
 30
0.0
 11
4324.5036013444
 21
7491.3372379212
 31
0.0
  0
LINE
  5
358
330
1F
100
AcDbEntity
  8
0
  6
Continuous
 62
     8
370
    25
100
AcDbLine
 10
4314.5997027552
 20
7482.4018093559
 30
0.0
 11
4314.5997027552
 21
7480.6872379212
 31
0.0
  0
LINE
  5
359
330
1F
100
AcDbEntity
  8
0
  6
Continuous
 62
     8
370
    25
100
AcDbLine
 10
4576.0815592122
 20
7482.4018093559
 30
0.0
 11
4576.0815592122
 21
7480.6872379212
 31
0.0
  0
LINE
  5
35A
330
1F
100
AcDbEntity
  8
0
  6
Continuous
 62
     8
370
    25
100
AcDbLine
 10
4311.150438402
 20
7473.0372379212
 30
0.0
 11
4311.150438402
 21
7470.0372379212
 31
0.0
  0
LINE
  5
35B
330
1F
100
AcDbEntity
  8
0
  6
Continuous
 62
     8
370
    25
100
AcDbLine
 10
4579.5308235653
 20
7473.0372379212
 30
0.0
 11
4579.5308235653
 21
7470.0372379212
 31
0.0
  0
LINE
  5
35C
330
1F
100
AcDbEntity
  8
0
  6
Continuous
 62
     8
370
    25
100
AcDbLine
 10
4312.532678811
 20
7462.3872379212
 30
0.0
 11
4312.532678811
 21
7459.4592111025
 31
0.0
  0
LINE
  5
35D
330
1F
100
AcDbEntity
  8
0
  6
Continuous
 62
     8
370
    25
100
AcDbLine
 10
4578.1485831564
 20
7462.3872379212
 30
0.0
 11
4578.1485831564
 21
7459.4592111025
 31
0.0
  0
LINE
  5
35E
330
1F
100
AcDbEntity
  8
0
  6
Continuous
 62
     8
370
    25
100
AcDbLine
 10
4319.9454687727
 20
7451.7372379212
 30
0.0
 11
4319.9454687727
 21
7451.4635723003
 31
0.0
  0
LINE
  5
35F
330
1F
100
AcDbEntity
  8
0
  6
Continuous
 62
     8
370
    25
100
AcDbLine
 10
4570.7357931946
 20
7451.7372379212
 30
0.0
 11
4570.7357931946
 21
7451.4635723003
 31
0.0
  0
ENDSEC
  0
SECTION
  2
OBJECTS
  0
DICTIONARY
  5
C
330
0
100
AcDbDictionary
281
     1
  3
ACAD_GROUP
350
D
  3
ACAD_LAYOUT
350
1A
  3
ACAD_MLINESTYLE
350
17
  3
ACAD_PLOTSETTINGS
350
19
  3
ACAD_PLOTSTYLENAME
350
E
  3
ACAD_SCALELIST
350
47
  3
DWGPROPS
350
360
  0
DICTIONARY
  5
D
102
{ACAD_REACTORS
330
C
102
}
330
C
100
AcDbDictionary
281
     1
  0
DICTIONARY
  5
1A
102
{ACAD_REACTORS
330
C
102
}
330
C
100
AcDbDictionary
281
     1
  3
Layout1
350
1E
  3
Layout2
350
26
  3
Model
350
22
  0
DICTIONARY
  5
17
102
{ACAD_REACTORS
330
C
102
}
330
C
100
AcDbDictionary
281
     1
  3
Standard
350
18
  0
DICTIONARY
  5
19
102
{ACAD_REACTORS
330
C
102
}
330
C
100
AcDbDictionary
281
     1
  0
ACDBDICTIONARYWDFLT
  5
E
102
{ACAD_REACTORS
330
C
102
}
330
C
100
AcDbDictionary
281
     1
  3
Normal
350
F
100
AcDbDictionaryWithDefault
340
F
  0
DICTIONARY
  5
47
102
{ACAD_REACTORS
330
C
102
}
330
C
100
AcDbDictionary
281
     1
  3
A0
350
48
  3
A1
350
49
  3
A2
350
4A
  3
A3
350
4B
  3
A4
350
4C
  3
A5
350
4D
  3
A6
350
4E
  3
A7
350
4F
  3
A8
350
50
  3
A9
350
51
  3
B0
350
52
  3
B1
350
53
  3
B2
350
54
  3
B3
350
55
  3
B4
350
56
  3
B5
350
57
  3
B6
350
58
  3
B7
350
59
  3
B8
350
5A
  3
B9
350
5B
  3
C0
350
5C
  3
C1
350
5D
  3
C2
350
5E
  3
C3
350
5F
  3
C4
350
60
  3
C5
350
61
  3
C6
350
62
  3
C7
350
63
  3
C8
350
64
  3
C9
350
65
  3
D0
350
66
  3
D1
350
67
  3
D2
350
68
  0
XRECORD
  5
360
102
{ACAD_REACTORS
330
C
102
}
330
C
100
AcDbXrecord
280
     1
  1
DWGPROPS COOKIE
  2

  3

  4

  6

  7

  8
radek.stransky
  9

300
=
301
=
302
=
303
=
304
=
305
=
306
=
307
=
308
=
309
=
 40
0.0
 41
2459179.215984364
 42
2459179.215984537
  1

 90
        0
  0
LAYOUT
  5
1E
102
{ACAD_REACTORS
330
1A
102
}
330
1A
100
AcDbPlotSettings
  1

  2
none_device
  4

  6

 40
0.0
 41
0.0
 42
0.0
 43
0.0
 44
0.0
 45
0.0
 46
0.0
 47
0.0
 48
0.0
 49
0.0
140
0.0
141
0.0
142
1.0
143
1.0
 70
   688
 72
     1
 73
     0
 74
     5
  7

 75
    16
147
1.0
148
0.0
149
0.0
100
AcDbLayout
  1
Layout1
 70
     1
 71
     1
 10
0.0
 20
0.0
 11
420.0
 21
297.0
 12
0.0
 22
0.0
 32
0.0
 14
1.0000000000E+20
 24
1.0000000000E+20
 34
1.0000000000E+20
 15
-1.0000000000E+20
 25
-1.0000000000E+20
 35
-1.0000000000E+20
146
0.0
 13
0.0
 23
0.0
 33
0.0
 16
1.0
 26
0.0
 36
0.0
 17
0.0
 27
1.0
 37
0.0
 76
     0
330
1B
  0
LAYOUT
  5
26
102
{ACAD_REACTORS
330
1A
102
}
330
1A
100
AcDbPlotSettings
  1

  2
none_device
  4

  6

 40
0.0
 41
0.0
 42
0.0
 43
0.0
 44
0.0
 45
0.0
 46
0.0
 47
0.0
 48
0.0
 49
0.0
140
0.0
141
0.0
142
1.0
143
1.0
 70
   688
 72
     1
 73
     0
 74
     5
  7

 75
    16
147
1.0
148
0.0
149
0.0
100
AcDbLayout
  1
Layout2
 70
     1
 71
     2
 10
0.0
 20
0.0
 11
0.0
 21
0.0
 12
0.0
 22
0.0
 32
0.0
 14
0.0
 24
0.0
 34
0.0
 15
0.0
 25
0.0
 35
0.0
146
0.0
 13
0.0
 23
0.0
 33
0.0
 16
1.0
 26
0.0
 36
0.0
 17
0.0
 27
1.0
 37
0.0
 76
     0
330
23
  0
LAYOUT
  5
22
102
{ACAD_REACTORS
330
1A
102
}
330
1A
100
AcDbPlotSettings
  1

  2
none_device
  4
Letter_(8.50_x_11.00_Inches)
  6

 40
6.35
 41
6.35
 42
6.35000508
 43
6.35000508
 44
215.9
 45
279.4
 46
0.0
 47
0.0
 48
0.0
 49
0.0
140
0.0
141
0.0
142
1.0
143
1.0
 70
  1712
 72
     1
 73
     0
 74
     0
  7

 75
     0
147
1.0
148
0.0
149
0.0
100
AcDbLayout
  1
Model
 70
     1
 71
     0
 10
0.0
 20
0.0
 11
20000.0
 21
10000.0
 12
0.0
 22
0.0
 32
0.0
 14
0.0
 24
0.0
 34
0.0
 15
20000.0
 25
10000.0
 35
0.0
146
0.0
 13
0.0
 23
0.0
 33
0.0
 16
1.0
 26
0.0
 36
0.0
 17
0.0
 27
1.0
 37
0.0
 76
     0
330
1F
331
29
  0
MLINESTYLE
  5
18
102
{ACAD_REACTORS
330
17
102
}
330
17
100
AcDbMlineStyle
  2
Standard
 70
     0
  3

 62
   256
 51
90.0
 52
90.0
 71
     2
 49
0.5
 62
   256
  6
BYLAYER
 49
-0.5
 62
   256
  6
BYLAYER
  0
ACDBPLACEHOLDER
  5
F
102
{ACAD_REACTORS
330
E
102
}
330
E
  0
SCALE
  5
48
102
{ACAD_REACTORS
330
47
102
}
330
47
100
AcDbScale
 70
     0
300
1:1
140
1.0
141
1.0
290
     1
  0
SCALE
  5
49
102
{ACAD_REACTORS
330
47
102
}
330
47
100
AcDbScale
 70
     0
300
1:2
140
1.0
141
2.0
290
     0
  0
SCALE
  5
4A
102
{ACAD_REACTORS
330
47
102
}
330
47
100
AcDbScale
 70
     0
300
1:4
140
1.0
141
4.0
290
     0
  0
SCALE
  5
4B
102
{ACAD_REACTORS
330
47
102
}
330
47
100
AcDbScale
 70
     0
300
1:5
140
1.0
141
5.0
290
     0
  0
SCALE
  5
4C
102
{ACAD_REACTORS
330
47
102
}
330
47
100
AcDbScale
 70
     0
300
1:8
140
1.0
141
8.0
290
     0
  0
SCALE
  5
4D
102
{ACAD_REACTORS
330
47
102
}
330
47
100
AcDbScale
 70
     0
300
1:10
140
1.0
141
10.0
290
     0
  0
SCALE
  5
4E
102
{ACAD_REACTORS
330
47
102
}
330
47
100
AcDbScale
 70
     0
300
1:16
140
1.0
141
16.0
290
     0
  0
SCALE
  5
4F
102
{ACAD_REACTORS
330
47
102
}
330
47
100
AcDbScale
 70
     0
300
1:20
140
1.0
141
20.0
290
     0
  0
SCALE
  5
50
102
{ACAD_REACTORS
330
47
102
}
330
47
100
AcDbScale
 70
     0
300
1:30
140
1.0
141
30.0
290
     0
  0
SCALE
  5
51
102
{ACAD_REACTORS
330
47
102
}
330
47
100
AcDbScale
 70
     0
300
1:40
140
1.0
141
40.0
290
     0
  0
SCALE
  5
52
102
{ACAD_REACTORS
330
47
102
}
330
47
100
AcDbScale
 70
     0
300
1:50
140
1.0
141
50.0
290
     0
  0
SCALE
  5
53
102
{ACAD_REACTORS
330
47
102
}
330
47
100
AcDbScale
 70
     0
300
1:100
140
1.0
141
100.0
290
     0
  0
SCALE
  5
54
102
{ACAD_REACTORS
330
47
102
}
330
47
100
AcDbScale
 70
     0
300
2:1
140
2.0
141
1.0
290
     0
  0
SCALE
  5
55
102
{ACAD_REACTORS
330
47
102
}
330
47
100
AcDbScale
 70
     0
300
4:1
140
4.0
141
1.0
290
     0
  0
SCALE
  5
56
102
{ACAD_REACTORS
330
47
102
}
330
47
100
AcDbScale
 70
     0
300
8:1
140
8.0
141
1.0
290
     0
  0
SCALE
  5
57
102
{ACAD_REACTORS
330
47
102
}
330
47
100
AcDbScale
 70
     0
300
10:1
140
10.0
141
1.0
290
     0
  0
SCALE
  5
58
102
{ACAD_REACTORS
330
47
102
}
330
47
100
AcDbScale
 70
     0
300
100:1
140
100.0
141
1.0
290
     0
  0
SCALE
  5
59
102
{ACAD_REACTORS
330
47
102
}
330
47
100
AcDbScale
 70
     0
300
1/128" = 1'-0"
140
0.0078125
141
12.0
290
     0
  0
SCALE
  5
5A
102
{ACAD_REACTORS
330
47
102
}
330
47
100
AcDbScale
 70
     0
300
1/64" = 1'-0"
140
0.015625
141
12.0
290
     0
  0
SCALE
  5
5B
102
{ACAD_REACTORS
330
47
102
}
330
47
100
AcDbScale
 70
     0
300
1/32" = 1'-0"
140
0.03125
141
12.0
290
     0
  0
SCALE
  5
5C
102
{ACAD_REACTORS
330
47
102
}
330
47
100
AcDbScale
 70
     0
300
1/16" = 1'-0"
140
0.0625
141
12.0
290
     0
  0
SCALE
  5
5D
102
{ACAD_REACTORS
330
47
102
}
330
47
100
AcDbScale
 70
     0
300
3/32" = 1'-0"
140
0.09375
141
12.0
290
     0
  0
SCALE
  5
5E
102
{ACAD_REACTORS
330
47
102
}
330
47
100
AcDbScale
 70
     0
300
1/8" = 1'-0"
140
0.125
141
12.0
290
     0
  0
SCALE
  5
5F
102
{ACAD_REACTORS
330
47
102
}
330
47
100
AcDbScale
 70
     0
300
3/16" = 1'-0"
140
0.1875
141
12.0
290
     0
  0
SCALE
  5
60
102
{ACAD_REACTORS
330
47
102
}
330
47
100
AcDbScale
 70
     0
300
1/4" = 1'-0"
140
0.25
141
12.0
290
     0
  0
SCALE
  5
61
102
{ACAD_REACTORS
330
47
102
}
330
47
100
AcDbScale
 70
     0
300
3/8" = 1'-0"
140
0.375
141
12.0
290
     0
  0
SCALE
  5
62
102
{ACAD_REACTORS
330
47
102
}
330
47
100
AcDbScale
 70
     0
300
1/2" = 1'-0"
140
0.5
141
12.0
290
     0
  0
SCALE
  5
63
102
{ACAD_REACTORS
330
47
102
}
330
47
100
AcDbScale
 70
     0
300
3/4" = 1'-0"
140
0.75
141
12.0
290
     0
  0
SCALE
  5
64
102
{ACAD_REACTORS
330
47
102
}
330
47
100
AcDbScale
 70
     0
300
1" = 1'-0"
140
1.0
141
12.0
290
     0
  0
SCALE
  5
65
102
{ACAD_REACTORS
330
47
102
}
330
47
100
AcDbScale
 70
     0
300
1-1/2" = 1'-0"
140
1.5
141
12.0
290
     0
  0
SCALE
  5
66
102
{ACAD_REACTORS
330
47
102
}
330
47
100
AcDbScale
 70
     0
300
3" = 1'-0"
140
3.0
141
12.0
290
     0
  0
SCALE
  5
67
102
{ACAD_REACTORS
330
47
102
}
330
47
100
AcDbScale
 70
     0
300
6" = 1'-0"
140
6.0
141
12.0
290
     0
  0
SCALE
  5
68
102
{ACAD_REACTORS
330
47
102
}
330
47
100
AcDbScale
 70
     0
300
1'-0" = 1'-0"
140
12.0
141
12.0
290
     0
  0
ENDSEC
  0
EOF
