  0
SECTION
  2
HEADER
  9
$ACADVER
  1
AC1015
  9
$ACADMAINTVER
 70
     6
  9
$DWGCODEPAGE
  3
ANSI_1250
  9
$INSBASE
 10
0.0
 20
0.0
 30
0.0
  9
$EXTMIN
 10
0.0
 20
0.0
 30
0.0
  9
$EXTMAX
 10
20000.0
 20
10000.0
 30
0.0
  9
$LIMMIN
 10
0.0
 20
0.0
  9
$LIMMAX
 10
20000.0
 20
10000.0
  9
$ORTHOMODE
 70
     0
  9
$REGENMODE
 70
     1
  9
$FILLMODE
 70
     1
  9
$QTEXTMODE
 70
     0
  9
$MIRRTEXT
 70
     1
  9
$LTSCALE
 40
1.0
  9
$ATTMODE
 70
     1
  9
$TEXTSIZE
 40
2.0
  9
$TRACEWID
 40
1.0
  9
$TEXTSTYLE
  7
Standard
  9
$CLAYER
  8
0
  9
$CELTYPE
  6
ByLayer
  9
$CECOLOR
 62
   256
  9
$CELTSCALE
 40
1.0
  9
$DISPSILH
 70
     0
  9
$DIMSCALE
 40
1.0
  9
$DIMASZ
 40
2.0
  9
$DIMEXO
 40
1.0
  9
$DIMDLI
 40
3.75
  9
$DIMRND
 40
0.0
  9
$DIMDLE
 40
0.0
  9
$DIMEXE
 40
1.0
  9
$DIMTP
 40
0.0
  9
$DIMTM
 40
0.0
  9
$DIMTXT
 40
2.0
  9
$DIMCEN
 40
2.5
  9
$DIMTSZ
 40
0.0
  9
$DIMTOL
 70
     0
  9
$DIMLIM
 70
     0
  9
$DIMTIH
 70
     1
  9
$DIMTOH
 70
     1
  9
$DIMSE1
 70
     0
  9
$DIMSE2
 70
     0
  9
$DIMTAD
 70
     1
  9
$DIMZIN
 70
     0
  9
$DIMBLK
  1

  9
$DIMASO
 70
     1
  9
$DIMSHO
 70
     1
  9
$DIMPOST
  1

  9
$DIMAPOST
  1

  9
$DIMALT
 70
     0
  9
$DIMALTD
 70
     3
  9
$DIMALTF
 40
0.0393700787
  9
$DIMLFAC
 40
1.0
  9
$DIMTOFL
 70
     1
  9
$DIMTVP
 40
0.0
  9
$DIMTIX
 70
     0
  9
$DIMSOXD
 70
     0
  9
$DIMSAH
 70
     0
  9
$DIMBLK1
  1

  9
$DIMBLK2
  1

  9
$DIMSTYLE
  2
ISO-25
  9
$DIMCLRD
 70
     0
  9
$DIMCLRE
 70
     0
  9
$DIMCLRT
 70
     0
  9
$DIMTFAC
 40
1.0
  9
$DIMGAP
 40
1.524
  9
$DIMJUST
 70
     0
  9
$DIMSD1
 70
     0
  9
$DIMSD2
 70
     0
  9
$DIMTOLJ
 70
     0
  9
$DIMTZIN
 70
     0
  9
$DIMALTZ
 70
     0
  9
$DIMALTTZ
 70
     0
  9
$DIMUPT
 70
     0
  9
$DIMDEC
 70
     2
  9
$DIMTDEC
 70
     0
  9
$DIMALTU
 70
     2
  9
$DIMALTTD
 70
     3
  9
$DIMTXSTY
  7
Standard
  9
$DIMAUNIT
 70
     0
  9
$DIMADEC
 70
     2
  9
$DIMALTRND
 40
0.0
  9
$DIMAZIN
 70
     0
  9
$DIMDSEP
 70
    44
  9
$DIMATFIT
 70
     3
  9
$DIMFRAC
 70
     0
  9
$DIMLDRBLK
  1

  9
$DIMLUNIT
 70
     2
  9
$DIMLWD
 70
    -2
  9
$DIMLWE
 70
    -2
  9
$DIMTMOVE
 70
     0
  9
$LUNITS
 70
     2
  9
$LUPREC
 70
     3
  9
$SKETCHINC
 40
1.0
  9
$FILLETRAD
 40
10.0
  9
$AUNITS
 70
     0
  9
$AUPREC
 70
     2
  9
$MENU
  1
.
  9
$ELEVATION
 40
0.0
  9
$PELEVATION
 40
0.0
  9
$THICKNESS
 40
0.0
  9
$LIMCHECK
 70
     0
  9
$CHAMFERA
 40
0.0
  9
$CHAMFERB
 40
0.0
  9
$CHAMFERC
 40
0.0
  9
$CHAMFERD
 40
0.0
  9
$SKPOLY
 70
     0
  9
$TDCREATE
 40
2459107.538502384
  9
$TDUCREATE
 40
2459107.455169051
  9
$TDUPDATE
 40
2459107.538502755
  9
$TDUUPDATE
 40
2459107.455169421
  9
$TDINDWG
 40
0.0000000116
  9
$TDUSRTIMER
 40
0.0000000116
  9
$USRTIMER
 70
     1
  9
$ANGBASE
 50
0.0
  9
$ANGDIR
 70
     0
  9
$PDMODE
 70
     0
  9
$PDSIZE
 40
-1.0
  9
$PLINEWID
 40
0.0
  9
$SPLFRAME
 70
     0
  9
$SPLINETYPE
 70
     6
  9
$SPLINESEGS
 70
     8
  9
$HANDSEED
  5
4F0
  9
$SURFTAB1
 70
     6
  9
$SURFTAB2
 70
     6
  9
$SURFTYPE
 70
     6
  9
$SURFU
 70
     6
  9
$SURFV
 70
     6
  9
$UCSBASE
  2

  9
$UCSNAME
  2

  9
$UCSORG
 10
0.0
 20
0.0
 30
0.0
  9
$UCSXDIR
 10
1.0
 20
0.0
 30
0.0
  9
$UCSYDIR
 10
0.0
 20
1.0
 30
0.0
  9
$UCSORTHOREF
  2

  9
$UCSORTHOVIEW
 70
     0
  9
$UCSORGTOP
 10
0.0
 20
0.0
 30
0.0
  9
$UCSORGBOTTOM
 10
0.0
 20
0.0
 30
0.0
  9
$UCSORGLEFT
 10
0.0
 20
0.0
 30
0.0
  9
$UCSORGRIGHT
 10
0.0
 20
0.0
 30
0.0
  9
$UCSORGFRONT
 10
0.0
 20
0.0
 30
0.0
  9
$UCSORGBACK
 10
0.0
 20
0.0
 30
0.0
  9
$PUCSBASE
  2

  9
$PUCSNAME
  2

  9
$PUCSORG
 10
0.0
 20
0.0
 30
0.0
  9
$PUCSXDIR
 10
1.0
 20
0.0
 30
0.0
  9
$PUCSYDIR
 10
0.0
 20
1.0
 30
0.0
  9
$PUCSORTHOREF
  2

  9
$PUCSORTHOVIEW
 70
     0
  9
$PUCSORGTOP
 10
0.0
 20
0.0
 30
0.0
  9
$PUCSORGBOTTOM
 10
0.0
 20
0.0
 30
0.0
  9
$PUCSORGLEFT
 10
0.0
 20
0.0
 30
0.0
  9
$PUCSORGRIGHT
 10
0.0
 20
0.0
 30
0.0
  9
$PUCSORGFRONT
 10
0.0
 20
0.0
 30
0.0
  9
$PUCSORGBACK
 10
0.0
 20
0.0
 30
0.0
  9
$USERI1
 70
     0
  9
$USERI2
 70
     0
  9
$USERI3
 70
     0
  9
$USERI4
 70
     0
  9
$USERI5
 70
     0
  9
$USERR1
 40
0.0
  9
$USERR2
 40
0.0
  9
$USERR3
 40
0.0
  9
$USERR4
 40
0.0
  9
$USERR5
 40
0.0
  9
$WORLDVIEW
 70
     1
  9
$SHADEDGE
 70
     3
  9
$SHADEDIF
 70
    70
  9
$TILEMODE
 70
     1
  9
$MAXACTVP
 70
    64
  9
$PINSBASE
 10
0.0
 20
0.0
 30
0.0
  9
$PLIMCHECK
 70
     0
  9
$PEXTMIN
 10
1.0000000000E+20
 20
1.0000000000E+20
 30
1.0000000000E+20
  9
$PEXTMAX
 10
-1.0000000000E+20
 20
-1.0000000000E+20
 30
-1.0000000000E+20
  9
$PLIMMIN
 10
0.0
 20
0.0
  9
$PLIMMAX
 10
420.0
 20
297.0
  9
$UNITMODE
 70
     0
  9
$VISRETAIN
 70
     1
  9
$PLINEGEN
 70
     0
  9
$PSLTSCALE
 70
     1
  9
$TREEDEPTH
 70
  3020
  9
$CMLSTYLE
  2
Standard
  9
$CMLJUST
 70
     0
  9
$CMLSCALE
 40
20.0
  9
$PROXYGRAPHICS
 70
     1
  9
$MEASUREMENT
 70
     1
  9
$CELWEIGHT
370
    -1
  9
$ENDCAPS
280
     0
  9
$JOINSTYLE
280
     0
  9
$LWDISPLAY
290
     1
  9
$INSUNITS
 70
     4
  9
$HYPERLINKBASE
  1

  9
$STYLESHEET
  1

  9
$XEDIT
290
     1
  9
$CEPSNTYPE
380
     0
  9
$PSTYLEMODE
290
     1
  9
$FINGERPRINTGUID
  2
{a846b585-1a6d-4375-a190-5cd8bee8584b}
  9
$VERSIONGUID
  2
{FAEB1C32-E019-11D5-929B-00C0DF256EC4}
  9
$EXTNAMES
290
     1
  9
$PSVPSCALE
 40
0.0
  9
$OLESTARTUP
290
     0
  0
ENDSEC
  0
SECTION
  2
CLASSES
  0
CLASS
  1
ACDBDICTIONARYWDFLT
  2
AcDbDictionaryWithDefault
  3
ObjectDBX Classes
 90
        0
280
     0
281
     0
  0
CLASS
  1
VISUALSTYLE
  2
AcDbVisualStyle
  3
ObjectDBX Classes
 90
     4095
280
     0
281
     0
  0
CLASS
  1
MATERIAL
  2
AcDbMaterial
  3
ObjectDBX Classes
 90
     1153
280
     0
281
     0
  0
CLASS
  1
SCALE
  2
AcDbScale
  3
ObjectDBX Classes
 90
     1153
280
     0
281
     0
  0
CLASS
  1
TABLESTYLE
  2
AcDbTableStyle
  3
ObjectDBX Classes
 90
     4095
280
     0
281
     0
  0
CLASS
  1
MLEADERSTYLE
  2
AcDbMLeaderStyle
  3
ACDB_MLEADERSTYLE_CLASS
 90
     4095
280
     0
281
     0
  0
CLASS
  1
SUN
  2
AcDbSun
  3
SCENEOE
 90
     1153
280
     0
281
     0
  0
CLASS
  1
ACDBPLACEHOLDER
  2
AcDbPlaceHolder
  3
ObjectDBX Classes
 90
        0
280
     0
281
     0
  0
CLASS
  1
LAYOUT
  2
AcDbLayout
  3
ObjectDBX Classes
 90
        0
280
     0
281
     0
  0
ENDSEC
  0
SECTION
  2
TABLES
  0
TABLE
  2
VPORT
  5
8
330
0
100
AcDbSymbolTable
 70
     1
  0
VPORT
  5
29
330
8
100
AcDbSymbolTableRecord
100
AcDbViewportTableRecord
  2
*Active
 70
     0
 10
0.0
 20
0.0
 11
1.0
 21
1.0
 12
10000.0
 22
5000.0
 13
0.0
 23
0.0
 14
10.0
 24
10.0
 15
10.0
 25
10.0
 16
0.0
 26
0.0
 36
1.0
 17
0.0
 27
0.0
 37
0.0
 40
10000.0
 41
2.0
 42
50.0
 43
0.0
 44
0.0
 50
0.0
 51
0.0
 71
     0
 72
  2000
 73
     1
 74
     3
 75
     0
 76
     0
 77
     0
 78
     0
281
     0
 65
     1
110
0.0
120
0.0
130
0.0
111
1.0
121
0.0
131
0.0
112
0.0
122
1.0
132
0.0
 79
     0
146
0.0
  0
ENDTAB
  0
TABLE
  2
LTYPE
  5
5
330
0
100
AcDbSymbolTable
 70
     6
  0
LTYPE
  5
14
330
5
100
AcDbSymbolTableRecord
100
AcDbLinetypeTableRecord
  2
ByBlock
 70
     0
  3

 72
    65
 73
     0
 40
0.0
  0
LTYPE
  5
15
330
5
100
AcDbSymbolTableRecord
100
AcDbLinetypeTableRecord
  2
ByLayer
 70
     0
  3

 72
    65
 73
     0
 40
0.0
  0
LTYPE
  5
16
330
5
100
AcDbSymbolTableRecord
100
AcDbLinetypeTableRecord
  2
Continuous
 70
     0
  3
Solid line
 72
    65
 73
     0
 40
0.0
  0
LTYPE
  5
6E
330
5
100
AcDbSymbolTableRecord
100
AcDbLinetypeTableRecord
  2
HIDDEN
 70
     0
  3
Hidden __ __ __ __ __ __ __ __ __ __ __ __ __ __
 72
    65
 73
     2
 40
1.905
 49
1.27
 74
     0
 49
-0.635
 74
     0
  0
LTYPE
  5
6F
330
5
100
AcDbSymbolTableRecord
100
AcDbLinetypeTableRecord
  2
PHANTOM
 70
     0
  3
Phantom ______  __  __  ______  __  __  ______
 72
    65
 73
     6
 40
12.7
 49
6.35
 74
     0
 49
-1.27
 74
     0
 49
1.27
 74
     0
 49
-1.27
 74
     0
 49
1.27
 74
     0
 49
-1.27
 74
     0
  0
LTYPE
  5
70
330
5
100
AcDbSymbolTableRecord
100
AcDbLinetypeTableRecord
  2
CENTER
 70
     0
  3
Center ____ _ ____ _ ____ _ ____ _ ____ _ ____
 72
    65
 73
     4
 40
10.16
 49
6.35
 74
     0
 49
-1.27
 74
     0
 49
1.27
 74
     0
 49
-1.27
 74
     0
  0
LTYPE
  5
71
330
5
100
AcDbSymbolTableRecord
100
AcDbLinetypeTableRecord
  2
CENTERX2
 70
     0
  3
Center (2x) ________  __  ________  __  _____
 72
    65
 73
     4
 40
20.32
 49
12.7
 74
     0
 49
-2.54
 74
     0
 49
2.54
 74
     0
 49
-2.54
 74
     0
  0
LTYPE
  5
72
330
5
100
AcDbSymbolTableRecord
100
AcDbLinetypeTableRecord
  2
DOT2
 70
     0
  3
Dot (.5x) ........................................
 72
    65
 73
     2
 40
0.635
 49
0.0
 74
     0
 49
-0.635
 74
     0
  0
ENDTAB
  0
TABLE
  2
LAYER
  5
2
330
0
100
AcDbSymbolTable
 70
    13
  0
LAYER
  5
10
330
2
100
AcDbSymbolTableRecord
100
AcDbLayerTableRecord
  2
0
 70
     0
 62
     7
  6
Continuous
370
    -3
390
F
  0
LAYER
  5
73
330
2
100
AcDbSymbolTableRecord
100
AcDbLayerTableRecord
  2
FORMAT
 70
     0
 62
     7
  6
Continuous
370
    -3
390
F
  0
LAYER
  5
74
330
2
100
AcDbSymbolTableRecord
100
AcDbLayerTableRecord
  2
OSA
 70
     0
 62
     7
  6
CENTER
370
    -3
390
F
  0
LAYER
  5
75
330
2
100
AcDbSymbolTableRecord
100
AcDbLayerTableRecord
  2
0_35
 70
     0
 62
     7
  6
Continuous
370
    35
390
F
  0
LAYER
  5
76
330
2
100
AcDbSymbolTableRecord
100
AcDbLayerTableRecord
  2
0_5
 70
     0
 62
     7
  6
Continuous
370
    50
390
F
  0
LAYER
  5
77
330
2
100
AcDbSymbolTableRecord
100
AcDbLayerTableRecord
  2
0_25
 70
     0
 62
     7
  6
Continuous
370
    25
390
F
  0
LAYER
  5
78
330
2
100
AcDbSymbolTableRecord
100
AcDbLayerTableRecord
  2
0_18
 70
     0
 62
     7
  6
Continuous
370
    -3
390
F
  0
LAYER
  5
79
330
2
100
AcDbSymbolTableRecord
100
AcDbLayerTableRecord
  2
SLD-0
 70
     0
 62
   179
  6
Continuous
370
    -3
390
F
  0
LAYER
  5
7A
330
2
100
AcDbSymbolTableRecord
100
AcDbLayerTableRecord
  2
KOTY
 70
     0
 62
     7
  6
Continuous
370
    -3
390
F
  0
LAYER
  5
7B
330
2
100
AcDbSymbolTableRecord
100
AcDbLayerTableRecord
  2
SILNA
 70
     0
 62
   179
  6
Continuous
370
    -3
390
F
  0
LAYER
  5
7C
330
2
100
AcDbSymbolTableRecord
100
AcDbLayerTableRecord
  2
0_18_1
 70
     0
 62
   179
  6
Continuous
370
    -3
390
F
  0
LAYER
  5
7D
330
2
100
AcDbSymbolTableRecord
100
AcDbLayerTableRecord
  2
0_35_1
 70
     0
 62
   179
  6
Continuous
370
    35
390
F
  0
LAYER
  5
7E
330
2
100
AcDbSymbolTableRecord
100
AcDbLayerTableRecord
  2
0_5_1
 70
     0
 62
   179
  6
Continuous
370
    50
390
F
  0
ENDTAB
  0
TABLE
  2
STYLE
  5
3
330
0
100
AcDbSymbolTable
 70
     1
  0
STYLE
  5
11
330
3
100
AcDbSymbolTableRecord
100
AcDbTextStyleTableRecord
  2
Standard
 70
     0
 40
0.0
 41
1.0
 50
0.0
 71
     0
 42
2.0
  3
txt
  4

  0
ENDTAB
  0
TABLE
  2
VIEW
  5
6
330
0
100
AcDbSymbolTable
 70
     0
  0
ENDTAB
  0
TABLE
  2
UCS
  5
7
330
0
100
AcDbSymbolTable
 70
     0
  0
ENDTAB
  0
TABLE
  2
APPID
  5
9
330
0
100
AcDbSymbolTable
 70
     1
  0
APPID
  5
12
330
9
100
AcDbSymbolTableRecord
100
AcDbRegAppTableRecord
  2
ACAD
 70
     0
  0
ENDTAB
  0
TABLE
  2
DIMSTYLE
  5
A
330
0
100
AcDbSymbolTable
 70
     1
100
AcDbDimStyleTable
  0
DIMSTYLE
105
27
330
A
100
AcDbSymbolTableRecord
100
AcDbDimStyleTableRecord
  2
ISO-25
 70
     0
 41
2.5
 42
0.625
 43
3.75
 44
1.25
 73
     0
 74
     0
 77
     1
 78
     8
140
2.5
141
2.5
143
0.0393700787
147
0.625
171
     3
172
     1
178
     0
271
     2
272
     2
274
     3
278
    44
283
     0
284
     8
340
11
  0
ENDTAB
  0
TABLE
  2
BLOCK_RECORD
  5
1
330
0
100
AcDbSymbolTable
 70
     1
  0
BLOCK_RECORD
  5
1F
330
1
100
AcDbSymbolTableRecord
100
AcDbBlockTableRecord
  2
*Model_Space
340
22
  0
BLOCK_RECORD
  5
1B
330
1
100
AcDbSymbolTableRecord
100
AcDbBlockTableRecord
  2
*Paper_Space
340
1E
  0
BLOCK_RECORD
  5
23
330
1
100
AcDbSymbolTableRecord
100
AcDbBlockTableRecord
  2
*Paper_Space0
340
26
  0
ENDTAB
  0
ENDSEC
  0
SECTION
  2
BLOCKS
  0
BLOCK
  5
20
330
1F
100
AcDbEntity
  8
0
100
AcDbBlockBegin
  2
*Model_Space
 70
     0
 10
0.0
 20
0.0
 30
0.0
  3
*Model_Space
  1

  0
ENDBLK
  5
21
330
1F
100
AcDbEntity
  8
0
100
AcDbBlockEnd
  0
BLOCK
  5
1C
330
1B
100
AcDbEntity
 67
     1
  8
0
100
AcDbBlockBegin
  2
*Paper_Space
 70
     0
 10
0.0
 20
0.0
 30
0.0
  3
*Paper_Space
  1

  0
ENDBLK
  5
1D
330
1B
100
AcDbEntity
 67
     1
  8
0
100
AcDbBlockEnd
  0
BLOCK
  5
24
330
23
100
AcDbEntity
  8
0
100
AcDbBlockBegin
  2
*Paper_Space0
 70
     0
 10
0.0
 20
0.0
 30
0.0
  3
*Paper_Space0
  1

  0
ENDBLK
  5
25
330
23
100
AcDbEntity
  8
0
100
AcDbBlockEnd
  0
ENDSEC
  0
SECTION
  2
ENTITIES
  0
LINE
  5
7F
330
1F
100
AcDbEntity
  8
0
  6
Continuous
 62
     7
370
    25
100
AcDbLine
 10
6240.7687553361
 20
5255.4492860395
 30
0.0
 11
6240.7687553361
 21
5254.403793359
 31
0.0
  0
LINE
  5
80
330
1F
100
AcDbEntity
  8
0
  6
Continuous
 62
     7
370
    25
100
AcDbLine
 10
6307.2687553361
 20
5254.403793359
 30
0.0
 11
6307.2687553361
 21
5255.4492860395
 31
0.0
  0
LINE
  5
81
330
1F
100
AcDbEntity
  8
0
  6
Continuous
 62
     7
370
    25
100
AcDbLine
 10
6234.0187553361
 20
5252.895718745
 30
0.0
 11
6234.0187553361
 21
5252.3994295927
 31
0.0
  0
LINE
  5
82
330
1F
100
AcDbEntity
  8
0
  6
Continuous
 62
     7
370
    25
100
AcDbLine
 10
6314.0187553361
 20
5252.3994295927
 30
0.0
 11
6314.0187553361
 21
5252.895718745
 31
0.0
  0
ARC
  5
83
330
1F
100
AcDbEntity
  8
0
  6
Continuous
 62
     7
370
    25
100
AcDbCircle
 10
6234.6690973836
 20
5252.950488293
 30
0.0
 40
0.05476954799542
100
AcDbArc
 50
270.0
 51
330.0000000003
  0
ARC
  5
84
330
1F
100
AcDbEntity
  8
0
  6
Continuous
 62
     7
370
    25
100
AcDbCircle
 10
6313.3684132886
 20
5252.950488293
 30
0.0
 40
0.0547695479945602
100
AcDbArc
 50
209.9999999989
 51
270.0
  0
LINE
  5
85
330
1F
100
AcDbEntity
  8
0
  6
Continuous
 62
     7
370
    25
100
AcDbLine
 10
6313.3209814687
 20
5252.923103519
 30
0.0
 11
6313.0818700835
 21
5253.3372565868
 31
0.0
  0
LINE
  5
86
330
1F
100
AcDbEntity
  8
0
  6
Continuous
 62
     7
370
    25
100
AcDbLine
 10
6234.9556405887
 20
5253.3372565868
 30
0.0
 11
6234.7165292035
 21
5252.923103519
 31
0.0
  0
ARC
  5
87
330
1F
100
AcDbEntity
  8
0
  6
Continuous
 62
     7
370
    25
100
AcDbCircle
 10
6235.0504726402
 20
5253.2825052764
 30
0.0
 40
0.1095026209371498
100
AcDbArc
 50
90.0
 51
150.0000000001
  0
ARC
  5
88
330
1F
100
AcDbEntity
  8
0
  6
Continuous
 62
     7
370
    25
100
AcDbCircle
 10
6312.987038032
 20
5253.2825052764
 30
0.0
 40
0.1095026209377465
100
AcDbArc
 50
29.9999999999
 51
90.0
  0
LINE
  5
89
330
1F
100
AcDbEntity
  8
0
  6
Continuous
 62
     7
370
    25
100
AcDbLine
 10
6312.987038032
 20
5253.3920078973
 30
0.0
 11
6235.0504726402
 21
5253.3920078973
 31
0.0
  0
ARC
  5
8A
330
1F
100
AcDbEntity
  8
0
  6
Continuous
 62
     7
370
    25
100
AcDbCircle
 10
6314.0573135552
 20
5235.4613588722
 30
0.0
 40
6.853085275294285
100
AcDbArc
 50
305.7382565022
 51
359.7686518055
  0
LINE
  5
8B
330
1F
100
AcDbEntity
  8
0
  6
Continuous
 62
     7
370
    25
100
AcDbLine
 10
6320.940503559
 20
5235.4326640883
 30
0.0
 11
6321.0187553361
 21
5244.3994295927
 31
0.0
  0
ARC
  5
8C
330
1F
100
AcDbEntity
  8
0
  6
Continuous
 62
     7
370
    25
100
AcDbCircle
 10
6321.0187553361
 20
5247.3994295927
 30
0.0
 40
2.0
100
AcDbArc
 50
0.0
 51
90.0
  0
LINE
  5
8D
330
1F
100
AcDbEntity
  8
0
  6
Continuous
 62
     7
370
    25
100
AcDbLine
 10
6323.0187553361
 20
5244.3994295927
 30
0.0
 11
6323.0187553361
 21
5247.3994295927
 31
0.0
  0
LINE
  5
8E
330
1F
100
AcDbEntity
  8
0
  6
Continuous
 62
     7
370
    25
100
AcDbLine
 10
6315.7687553361
 20
5249.3994295927
 30
0.0
 11
6315.7687553361
 21
5252.3994295927
 31
0.0
  0
LINE
  5
8F
330
1F
100
AcDbEntity
  8
0
  6
Continuous
 62
     7
370
    25
100
AcDbLine
 10
6232.2687553361
 20
5252.3994295927
 30
0.0
 11
6232.2687553361
 21
5249.3994295927
 31
0.0
  0
LINE
  5
90
330
1F
100
AcDbEntity
  8
0
  6
Continuous
 62
     7
370
    25
100
AcDbLine
 10
6306.2595003184
 20
5177.2161909546
 30
0.0
 11
6307.4613636571
 21
5223.1135001483
 31
0.0
  0
ARC
  5
91
330
1F
100
AcDbEntity
  8
0
  6
Continuous
 62
     7
370
    25
100
AcDbCircle
 10
6299.2618990435
 20
5177.3994295927
 30
0.0
 40
6.999999999999091
100
AcDbArc
 50
270.0
 51
358.5
  0
ARC
  5
92
330
1F
100
AcDbEntity
  8
0
  6
Continuous
 62
     7
370
    25
100
AcDbCircle
 10
6142.4529357327
 20
5217.2502820412
 30
0.0
 40
26.99999999999926
100
AcDbArc
 50
228.2942528904
 51
287.8227912466
  0
ARC
  5
93
330
1F
100
AcDbEntity
  8
0
  6
Continuous
 62
     7
370
    25
100
AcDbCircle
 10
6142.4529357327
 20
5217.2502820412
 30
0.0
 40
27.00000000000122
100
AcDbArc
 50
73.1772087534
 51
132.7057471096
  0
ARC
  5
94
330
1F
100
AcDbEntity
  8
0
  6
Continuous
 62
     7
370
    25
100
AcDbCircle
 10
6207.0187553361
 20
5242.3278084955
 30
0.0
 40
2.000000000000287
100
AcDbArc
 50
0.5
 51
92.0154937467
  0
ARC
  5
95
330
1F
100
AcDbEntity
  8
0
  6
Continuous
 62
     7
370
    25
100
AcDbCircle
 10
6207.4465848332
 20
5193.3034039414
 30
0.0
 40
2.000000000001267
100
AcDbArc
 50
268.9845062533
 51
0.5
  0
LINE
  5
96
330
1F
100
AcDbEntity
  8
0
  6
Continuous
 62
     7
370
    25
100
AcDbLine
 10
6209.4465086793
 20
5193.3208570124
 30
0.0
 11
6209.0186791822
 21
5242.3452615665
 31
0.0
  0
LINE
  5
97
330
1F
100
AcDbEntity
  8
0
  6
Continuous
 62
     7
370
    25
100
AcDbLine
 10
6206.9484158409
 20
5244.3265712016
 30
0.0
 11
6181.9484158409
 21
5243.4467832338
 31
0.0
  0
LINE
  5
98
330
1F
100
AcDbEntity
  8
0
  6
Continuous
 62
     7
370
    25
100
AcDbLine
 10
6182.3995924741
 20
5191.7470618739
 30
0.0
 11
6207.4111392702
 21
5191.303718063
 31
0.0
  0
ARC
  5
99
330
1F
100
AcDbEntity
  8
0
  6
Continuous
 62
     7
370
    25
100
AcDbCircle
 10
6182.0187553361
 20
5241.4480205277
 30
0.0
 40
2.000000000000287
100
AcDbArc
 50
92.0154937467
 51
180.0
  0
ARC
  5
9A
330
1F
100
AcDbEntity
  8
0
  6
Continuous
 62
     7
370
    25
100
AcDbCircle
 10
6182.4350380371
 20
5193.7467477523
 30
0.0
 40
2.000000000000027
100
AcDbArc
 50
181.0
 51
268.9845062532
  0
LINE
  5
9B
330
1F
100
AcDbEntity
  8
0
  6
Continuous
 62
     7
370
    25
100
AcDbLine
 10
6180.0187553361
 20
5241.4480205277
 30
0.0
 11
6180.0187553361
 21
5237.5788755501
 31
0.0
  0
LINE
  5
9C
330
1F
100
AcDbEntity
  8
0
  6
Continuous
 62
     7
370
    25
100
AcDbLine
 10
6180.367816756
 20
5197.5803986275
 30
0.0
 11
6180.4353426467
 21
5193.7118429394
 31
0.0
  0
LINE
  5
9D
330
1F
100
AcDbEntity
  8
0
  6
Continuous
 62
     7
370
    25
100
AcDbLine
 10
6158.8439579679
 20
5194.1782609364
 30
0.0
 11
6159.6816489914
 21
5194.1928828876
 31
0.0
  0
LINE
  5
9E
330
1F
100
AcDbEntity
  8
0
  6
Continuous
 62
     7
370
    25
100
AcDbLine
 10
6159.2766178735
 20
5240.6048519475
 30
0.0
 11
6158.4387992462
 21
5240.6048519475
 31
0.0
  0
ARC
  5
9F
330
1F
100
AcDbEntity
  8
0
  6
Continuous
 62
     7
370
    25
100
AcDbCircle
 10
6158.4387992462
 20
5240.3548519475
 30
0.0
 40
0.2500000000002153
100
AcDbArc
 50
90.0
 51
168.4999999999
  0
ARC
  5
A0
330
1F
100
AcDbEntity
  8
0
  6
Continuous
 62
     7
370
    25
100
AcDbCircle
 10
6158.8395948663
 20
5194.4282228602
 30
0.0
 40
0.2499999999996683
100
AcDbArc
 50
192.5000000002
 51
271.0000000001
  0
ARC
  5
A1
330
1F
100
AcDbEntity
  8
0
  6
Continuous
 62
     7
370
    25
100
AcDbCircle
 10
6159.2766178735
 20
5240.3548519475
 30
0.0
 40
0.2500000000003411
100
AcDbArc
 50
10.5
 51
90.0
  0
ARC
  5
A2
330
1F
100
AcDbEntity
  8
0
  6
Continuous
 62
     7
370
    25
100
AcDbCircle
 10
6159.6772858898
 20
5194.4428448114
 30
0.0
 40
0.2500000000005312
100
AcDbArc
 50
271.0000000001
 51
350.4999999998
  0
LINE
  5
A3
330
1F
100
AcDbEntity
  8
0
  6
Continuous
 62
     7
370
    25
100
AcDbLine
 10
6158.19381807
 20
5240.4046939311
 30
0.0
 11
6157.7776256225
 21
5238.3590426963
 31
0.0
  0
LINE
  5
A4
330
1F
100
AcDbEntity
  8
0
  6
Continuous
 62
     7
370
    25
100
AcDbLine
 10
6158.1436902683
 20
5196.4121890691
 30
0.0
 11
6158.5955208645
 21
5194.3741129567
 31
0.0
  0
LINE
  5
A5
330
1F
100
AcDbEntity
  8
0
  6
Continuous
 62
     7
370
    25
100
AcDbLine
 10
6159.9238572901
 20
5194.4015829099
 30
0.0
 11
6160.4266870424
 21
5197.4063750249
 31
0.0
  0
LINE
  5
A6
330
1F
100
AcDbEntity
  8
0
  6
Continuous
 62
     7
370
    25
100
AcDbLine
 10
6160.0776256225
 20
5237.4048519475
 30
0.0
 11
6159.5224316004
 21
5240.4004108288
 31
0.0
  0
ARC
  5
A7
330
1F
100
AcDbEntity
  8
0
  6
Continuous
 62
     7
370
    25
100
AcDbCircle
 10
6142.4529357327
 20
5217.2502820412
 30
0.0
 40
23.99999999999999
100
AcDbArc
 50
290.0012723466
 51
303.9103151897
  0
ARC
  5
A8
330
1F
100
AcDbEntity
  8
0
  6
Continuous
 62
     7
370
    25
100
AcDbCircle
 10
6142.4529357327
 20
5217.2502820412
 30
0.0
 40
24.00000000000075
100
AcDbArc
 50
57.0896848103
 51
70.9987276534
  0
LINE
  5
A9
330
1F
100
AcDbEntity
  8
0
  6
Continuous
 62
     7
370
    25
100
AcDbLine
 10
6247.9587877665
 20
5199.7602920953
 30
0.0
 11
6248.5555511569
 21
5176.9708176516
 31
0.0
  0
LWPOLYLINE
  5
AA
330
1F
100
AcDbEntity
  8
0
  6
Continuous
 62
     7
370
    25
100
AcDbPolyline
 90
        7
 70
   128
 43
0.0
 10
6248.5546292297
 20
5177.0102427623
 10
6248.7298527927
 20
5175.85137039
 10
6249.682352959
 20
5173.9519580093
 10
6251.4345951168
 20
5172.2132892446
 10
6253.372505967
 20
5171.0942535688
 10
6254.5536721013
 20
5170.6770975743
 10
6256.5859270358
 20
5170.3994295927
  0
LINE
  5
AB
330
1F
100
AcDbEntity
  8
0
  6
Continuous
 62
     7
370
    25
100
AcDbLine
 10
6215.075531391
 20
5237.8848113999
 30
0.0
 11
6209.0580632208
 21
5237.8322977507
 31
0.0
  0
LINE
  5
AC
330
1F
100
AcDbEntity
  8
0
  6
Continuous
 62
     7
370
    25
100
AcDbLine
 10
6209.4071246407
 20
5197.8338208282
 30
0.0
 11
6216.6498673256
 21
5197.897027286
 31
0.0
  0
ARC
  5
AD
330
1F
100
AcDbEntity
  8
0
  6
Continuous
 62
     7
370
    25
100
AcDbCircle
 10
6156.3077385655
 20
5238.6580945979
 30
0.0
 40
1.500000000000889
100
AcDbArc
 50
237.0896848103
 51
348.5
  0
ARC
  5
AE
330
1F
100
AcDbEntity
  8
0
  6
Continuous
 62
     7
370
    25
100
AcDbCircle
 10
6156.6792462576
 20
5196.0875296482
 30
0.0
 40
1.50000000000058
100
AcDbArc
 50
12.5
 51
123.9103151897
  0
LINE
  5
AF
330
1F
100
AcDbEntity
  8
0
  6
Continuous
 62
     7
370
    25
100
AcDbLine
 10
6180.0187553361
 20
5237.5788755501
 30
0.0
 11
6160.0776256225
 21
5237.4048519475
 31
0.0
  0
LINE
  5
B0
330
1F
100
AcDbEntity
  8
0
  6
Continuous
 62
     7
370
    25
100
AcDbLine
 10
6160.4266870424
 20
5197.4063750249
 30
0.0
 11
6180.367816756
 21
5197.5803986275
 31
0.0
  0
LINE
  5
B1
330
1F
100
AcDbEntity
  8
0
  6
Continuous
 62
     7
370
    25
100
AcDbLine
 10
6055.5892852738
 20
5236.492900816
 30
0.0
 11
6052.103555101
 21
5236.1771712445
 31
0.0
  0
LINE
  5
B2
330
1F
100
AcDbEntity
  8
0
  6
Continuous
 62
     7
370
    25
100
AcDbLine
 10
6052.4476355123
 20
5196.7494613827
 30
0.0
 11
6055.9383450323
 21
5196.4946142781
 31
0.0
  0
LINE
  5
B3
330
1F
100
AcDbEntity
  8
0
  6
Continuous
 62
     7
370
    25
100
AcDbLine
 10
6124.1406343974
 20
5237.0911393767
 30
0.0
 11
6055.5892852738
 21
5236.492900816
 31
0.0
  0
LINE
  5
B4
330
1F
100
AcDbEntity
  8
0
  6
Continuous
 62
     7
370
    25
100
AcDbLine
 10
6055.9383450323
 20
5196.4946142781
 30
0.0
 11
6124.4896941558
 21
5197.0928528388
 31
0.0
  0
LINE
  5
B5
330
1F
100
AcDbEntity
  8
0
  6
Continuous
 62
     7
370
    25
100
AcDbLine
 10
6052.103555101
 20
5236.1771712445
 30
0.0
 11
6052.103555101
 21
5233.9623861136
 31
0.0
  0
LINE
  5
B6
330
1F
100
AcDbEntity
  8
0
  6
Continuous
 62
     7
370
    25
100
AcDbLine
 10
6052.408982182
 20
5198.9639091911
 30
0.0
 11
6052.4476355123
 21
5196.7494613827
 31
0.0
  0
ARC
  5
B7
330
1F
100
AcDbEntity
  8
0
  6
Continuous
 62
     7
370
    25
100
AcDbCircle
 10
6215.05807832
 20
5239.884735246
 30
0.0
 40
1.999999999999448
100
AcDbArc
 50
270.5
 51
0.5
  0
ARC
  5
B8
330
1F
100
AcDbEntity
  8
0
  6
Continuous
 62
     7
370
    25
100
AcDbCircle
 10
6222.9650514225
 20
5204.7389202588
 30
0.0
 40
8.836610070287595
100
AcDbArc
 50
235.009226554
 51
282.7578591473
  0
LWPOLYLINE
  5
B9
330
1F
100
AcDbEntity
  8
0
  6
Continuous
 62
     7
370
    25
100
AcDbPolyline
 90
        3
 70
   128
 43
0.0
 10
6224.9633717953
 20
5196.1248175348
 10
6224.9688376205
 20
5196.1253242031
 10
6224.9584834298
 20
5196.1244618841
  0
ARC
  5
BA
330
1F
100
AcDbEntity
  8
0
  6
Continuous
 62
     7
370
    25
100
AcDbCircle
 10
6216.8306388976
 20
5196.266725529
 30
0.0
 40
1.612651671829461
100
AcDbArc
 50
48.436053313
 51
96.206883188
  0
LINE
  5
BB
330
1F
100
AcDbEntity
  8
0
  6
Continuous
 62
     7
370
    25
100
AcDbLine
 10
6831.3187553361
 20
5239.1994295927
 30
0.0
 11
6830.3187553361
 21
5240.1994295927
 31
0.0
  0
LINE
  5
BC
330
1F
100
AcDbEntity
  8
0
  6
Continuous
 62
     7
370
    25
100
AcDbLine
 10
6822.3187553361
 20
5240.1994295927
 30
0.0
 11
6821.3187553361
 21
5239.1994295927
 31
0.0
  0
LINE
  5
BD
330
1F
100
AcDbEntity
  8
0
  6
Continuous
 62
     7
370
    25
100
AcDbLine
 10
6831.3187553361
 20
5160.1994295927
 30
0.0
 11
6831.3187553361
 21
5230.1994295927
 31
0.0
  0
LINE
  5
BE
330
1F
100
AcDbEntity
  8
0
  6
Continuous
 62
     7
370
    25
100
AcDbLine
 10
6821.3187553361
 20
5230.1994295927
 30
0.0
 11
6821.3187553361
 21
5160.1994295927
 31
0.0
  0
LINE
  5
BF
330
1F
100
AcDbEntity
  8
0
  6
Continuous
 62
     7
370
    25
100
AcDbLine
 10
5726.7187553361
 20
5239.1994295927
 30
0.0
 11
5725.7187553361
 21
5240.1994295927
 31
0.0
  0
LINE
  5
C0
330
1F
100
AcDbEntity
  8
0
  6
Continuous
 62
     7
370
    25
100
AcDbLine
 10
5717.7187553361
 20
5240.1994295927
 30
0.0
 11
5716.7187553361
 21
5239.1994295927
 31
0.0
  0
LINE
  5
C1
330
1F
100
AcDbEntity
  8
0
  6
Continuous
 62
     7
370
    25
100
AcDbLine
 10
5726.7187553361
 20
5155.1994295927
 30
0.0
 11
5726.7187553361
 21
5230.1994295927
 31
0.0
  0
LINE
  5
C2
330
1F
100
AcDbEntity
  8
0
  6
Continuous
 62
     7
370
    25
100
AcDbLine
 10
5716.7187553361
 20
5230.1994295927
 30
0.0
 11
5716.7187553361
 21
5155.1994295927
 31
0.0
  0
LINE
  5
C3
330
1F
100
AcDbEntity
  8
0
  6
Continuous
 62
     7
370
    25
100
AcDbLine
 10
5703.4187553361
 20
5274.1994295927
 30
0.0
 11
5700.7187553361
 21
5274.1994295927
 31
0.0
  0
LINE
  5
C4
330
1F
100
AcDbEntity
  8
0
  6
Continuous
 62
     7
370
    25
100
AcDbLine
 10
6844.6187553361
 20
5274.1994295927
 30
0.0
 11
5703.4187553361
 21
5274.1994295927
 31
0.0
  0
LINE
  5
C5
330
1F
100
AcDbEntity
  8
0
  6
Continuous
 62
     7
370
    25
100
AcDbLine
 10
6847.3187553361
 20
5274.1994295927
 30
0.0
 11
6844.6187553361
 21
5274.1994295927
 31
0.0
  0
LINE
  5
C6
330
1F
100
AcDbEntity
  8
0
  6
Continuous
 62
     7
370
    25
100
AcDbLine
 10
6238.2332985674
 20
5256.9994295927
 30
0.0
 11
6240.7687553361
 21
5255.4492860395
 31
0.0
  0
LINE
  5
C7
330
1F
100
AcDbEntity
  8
0
  6
Continuous
 62
     7
370
    25
100
AcDbLine
 10
6242.478791473
 20
5254.403793359
 30
0.0
 11
6244.13369517
 21
5253.3920078973
 31
0.0
  0
LINE
  5
C8
330
1F
100
AcDbEntity
  8
0
  6
Continuous
 62
     7
370
    25
100
AcDbLine
 10
6303.9038155022
 20
5253.3920078973
 30
0.0
 11
6305.5587191992
 21
5254.403793359
 31
0.0
  0
LINE
  5
C9
330
1F
100
AcDbEntity
  8
0
  6
Continuous
 62
     7
370
    25
100
AcDbLine
 10
6307.2687553361
 20
5255.4492860395
 30
0.0
 11
6309.8042121048
 21
5256.9994295927
 31
0.0
  0
LINE
  5
CA
330
1F
100
AcDbEntity
  8
0
  6
Continuous
 62
     7
370
    25
100
AcDbLine
 10
6307.2687553361
 20
5254.403793359
 30
0.0
 11
6240.7687553361
 21
5254.403793359
 31
0.0
  0
LINE
  5
CB
330
1F
100
AcDbEntity
  8
0
  6
Continuous
 62
     7
370
    25
100
AcDbLine
 10
6234.0187553361
 20
5252.895718745
 30
0.0
 11
6314.0187553361
 21
5252.895718745
 31
0.0
  0
LWPOLYLINE
  5
CC
330
1F
100
AcDbEntity
  8
0
  6
Continuous
 62
     7
370
    25
100
AcDbPolyline
 90
       18
 70
   128
 43
0.0
 10
6317.7728701909
 20
5229.6989024751
 10
6317.8179474112
 20
5229.7297823121
 10
6317.0746431675
 20
5229.2267691506
 10
6315.5331883308
 20
5228.2006136862
 10
6313.4513558374
 20
5226.8468725163
 10
6310.813533529
 20
5225.1831812465
 10
6307.714577978
 20
5223.3001186353
 10
6304.1299940575
 20
5221.218314352
 10
6300.166592331
 20
5219.02862017
 10
6295.901327706
 20
5216.7990864528
 10
6289.4196487345
 20
5213.6588028027
 10
6282.5436487513
 20
5210.6312176293
 10
6275.8778265166
 20
5207.9868787103
 10
6269.1422089835
 20
5205.5871331617
 10
6262.71152514
 20
5203.5476754949
 10
6256.5475900396
 20
5201.8108974715
 10
6250.8859445234
 20
5200.403244367
 10
6245.8615497504
 20
5199.2978336541
  0
LWPOLYLINE
  5
CD
330
1F
100
AcDbEntity
  8
0
  6
Continuous
 62
     7
370
    25
100
AcDbPolyline
 90
        9
 70
   128
 43
0.0
 10
6239.2281711583
 20
5206.0922647075
 10
6239.4919429644
 20
5204.6197544863
 10
6239.9821298386
 20
5203.2173246852
 10
6240.6763318122
 20
5201.9490618506
 10
6241.54282608
 20
5200.8729215288
 10
6242.5420166316
 20
5200.0380798831
 10
6243.6282436615
 20
5199.4826865006
 10
6244.7518700762
 20
5199.2321210788
 10
6245.8615497504
 20
5199.2978336541
  0
LINE
  5
CE
330
1F
100
AcDbEntity
  8
0
  6
Continuous
 62
     7
370
    25
100
AcDbLine
 10
6239.2281711583
 20
5206.0922647075
 30
0.0
 11
6238.978939987
 21
5244.3994295927
 31
0.0
  0
ARC
  5
CF
330
1F
100
AcDbEntity
  8
0
  6
Continuous
 62
     7
370
    25
100
AcDbCircle
 10
6240.07644716
 20
5247.6367790091
 30
0.0
 40
1.791632486064159
100
AcDbArc
 50
100.3196220903
 51
187.6127302625
  0
LINE
  5
D0
330
1F
100
AcDbEntity
  8
0
  6
Continuous
 62
     7
370
    25
100
AcDbLine
 10
6239.7554956289
 20
5249.3994295927
 30
0.0
 11
6321.0187553361
 21
5249.3994295927
 31
0.0
  0
LINE
  5
D1
330
1F
100
AcDbEntity
  8
0
  6
Continuous
 62
     7
370
    25
100
AcDbLine
 10
6238.3006058891
 20
5247.3994295927
 30
0.0
 11
6238.3006058891
 21
5244.3994295927
 31
0.0
  0
LINE
  5
D2
330
1F
100
AcDbEntity
  8
0
  6
Continuous
 62
     7
370
    25
100
AcDbLine
 10
6238.3006058891
 20
5244.3994295927
 30
0.0
 11
6323.0187553361
 21
5244.3994295927
 31
0.0
  0
LINE
  5
D3
330
1F
100
AcDbEntity
  8
0
  6
Continuous
 62
     7
370
    25
100
AcDbLine
 10
6232.2687553361
 20
5252.3994295927
 30
0.0
 11
6315.7687553361
 21
5252.3994295927
 31
0.0
  0
LINE
  5
D4
330
1F
100
AcDbEntity
  8
0
  6
Continuous
 62
     7
370
    25
100
AcDbLine
 10
6250.1743875592
 20
5177.2161909546
 30
0.0
 11
6249.7305071389
 21
5200.1363370965
 31
0.0
  0
LINE
  5
D5
330
1F
100
AcDbEntity
  8
0
  6
Continuous
 62
     7
370
    25
100
AcDbLine
 10
6220.7625077158
 20
5247.3994295927
 30
0.0
 11
6220.7625077158
 21
5244.3994295927
 31
0.0
  0
LINE
  5
D6
330
1F
100
AcDbEntity
  8
0
  6
Continuous
 62
     7
370
    25
100
AcDbLine
 10
6238.3006058891
 20
5247.3994295927
 30
0.0
 11
6220.7625077158
 21
5247.3994295927
 31
0.0
  0
LINE
  5
D7
330
1F
100
AcDbEntity
  8
0
  6
Continuous
 62
     7
370
    25
100
AcDbLine
 10
6220.7625077158
 20
5244.3994295927
 30
0.0
 11
6238.3006058891
 21
5244.3994295927
 31
0.0
  0
ARC
  5
D8
330
1F
100
AcDbEntity
  8
0
  6
Continuous
 62
     7
370
    25
100
AcDbCircle
 10
6223.8177785637
 20
5247.8833259388
 30
0.0
 40
3.093353459917352
100
AcDbArc
 50
150.6517591702
 51
188.9997984493
  0
LINE
  5
D9
330
1F
100
AcDbEntity
  8
0
  6
Continuous
 62
     7
370
    25
100
AcDbLine
 10
6221.1214356073
 20
5249.3994295927
 30
0.0
 11
6239.7554956289
 21
5249.3994295927
 31
0.0
  0
ARC
  5
DA
330
1F
100
AcDbEntity
  8
0
  6
Continuous
 62
     7
370
    25
100
AcDbCircle
 10
6207.3936298622
 20
5330.8161065324
 30
0.0
 40
128.7224717719351
100
AcDbArc
 50
276.5444516408
 51
284.318474563
  0
LWPOLYLINE
  5
DB
330
1F
100
AcDbEntity
  8
0
  6
Continuous
 62
     7
370
    25
100
AcDbPolyline
 90
        6
 70
   128
 43
0.0
 10
6222.0646474319
 20
5202.9324250771
 10
6222.2378171069
 20
5201.588960521
 10
6222.5043085579
 20
5200.2485252856
 10
6223.230756787
 20
5198.0224189335
 10
6224.1303911652
 20
5196.5803864899
 10
6225.0664761678
 20
5196.1354266237
  0
ARC
  5
DC
330
1F
100
AcDbEntity
  8
0
  6
Continuous
 62
     7
370
    25
100
AcDbCircle
 10
6205.4363668662
 20
5395.1697422802
 30
0.0
 40
200.0000000001492
100
AcDbArc
 50
275.6326806459
 51
281.6613043232
  0
LINE
  5
DD
330
1F
100
AcDbEntity
  8
0
  6
Continuous
 62
     7
370
    25
100
AcDbLine
 10
6222.0646474319
 20
5202.9324250771
 30
0.0
 11
6222.0034090068
 21
5244.3994295927
 31
0.0
  0
LINE
  5
DE
330
1F
100
AcDbEntity
  8
0
  6
Continuous
 62
     7
370
    25
100
AcDbLine
 10
6299.2618990435
 20
5170.3994295927
 30
0.0
 11
6256.5859270358
 21
5170.3994295927
 31
0.0
  0
ARC
  5
DF
330
1F
100
AcDbEntity
  8
0
  6
Continuous
 62
     7
370
    25
100
AcDbCircle
 10
6256.8854772398
 20
5177.104756726
 30
0.0
 40
6.712014771167593
100
AcDbArc
 50
179.0487201603
 51
267.4420996519
  0
LINE
  5
E0
330
1F
100
AcDbEntity
  8
0
  6
Continuous
 62
     7
370
    25
100
AcDbLine
 10
6150.2670753606
 20
5243.094802193
 30
0.0
 11
6150.7169342992
 21
5191.5460736758
 31
0.0
  0
LINE
  5
E1
330
1F
100
AcDbEntity
  8
0
  6
Continuous
 62
     7
370
    25
100
AcDbLine
 10
6124.1406343974
 20
5237.0911393767
 30
0.0
 11
6124.4896941558
 21
5197.0928528388
 31
0.0
  0
LINE
  5
E2
330
1F
100
AcDbEntity
  8
0
  6
Continuous
 62
     7
370
    25
100
AcDbLine
 10
6215.0187553361
 20
5247.3994295927
 30
0.0
 11
6215.0187553361
 21
5244.3994295927
 31
0.0
  0
LINE
  5
E3
330
1F
100
AcDbEntity
  8
0
  6
Continuous
 62
     7
370
    25
100
AcDbLine
 10
6220.7625077158
 20
5247.3994295927
 30
0.0
 11
6215.0187553361
 21
5247.3994295927
 31
0.0
  0
LINE
  5
E4
330
1F
100
AcDbEntity
  8
0
  6
Continuous
 62
     7
370
    25
100
AcDbLine
 10
6215.0187553361
 20
5244.3994295927
 30
0.0
 11
6220.7625077158
 21
5244.3994295927
 31
0.0
  0
ARC
  5
E5
330
1F
100
AcDbEntity
  8
0
  6
Continuous
 62
     7
370
    25
100
AcDbCircle
 10
6217.0187553361
 20
5247.3994295927
 30
0.0
 40
2.0
100
AcDbArc
 50
90.0
 51
180.0
  0
LINE
  5
E6
330
1F
100
AcDbEntity
  8
0
  6
Continuous
 62
     7
370
    25
100
AcDbLine
 10
6217.0187553361
 20
5249.3994295927
 30
0.0
 11
6221.1214356073
 21
5249.3994295927
 31
0.0
  0
LINE
  5
E7
330
1F
100
AcDbEntity
  8
0
  6
Continuous
 62
     7
370
    25
100
AcDbLine
 10
6180.367816756
 20
5197.5803986275
 30
0.0
 11
6180.0187553361
 21
5237.5788755501
 31
0.0
  0
LINE
  5
E8
330
1F
100
AcDbEntity
  8
0
  6
Continuous
 62
     7
370
    25
100
AcDbLine
 10
6160.0776256225
 20
5237.4048519475
 30
0.0
 11
6160.4266870424
 21
5197.4063750249
 31
0.0
  0
ARC
  5
E9
330
1F
100
AcDbEntity
  8
0
  6
Continuous
 62
     7
370
    25
100
AcDbCircle
 10
6220.6942476888
 20
5246.6725229277
 30
0.0
 40
43.76156024910997
100
AcDbArc
 50
265.6588877915
 51
271.794519202
  0
LWPOLYLINE
  5
EA
330
1F
100
AcDbEntity
  8
0
  6
Continuous
 62
     7
370
    25
100
AcDbPolyline
 90
       11
 70
   128
 43
0.0
 10
6217.1183232808
 20
5232.9900732163
 10
6217.2756194896
 20
5230.9459559464
 10
6217.6396865851
 20
5228.7537518256
 10
6218.3510606342
 20
5225.3386855482
 10
6219.0238711509
 20
5221.7231014123
 10
6219.2969571782
 20
5219.1890369266
 10
6219.3229421487
 20
5216.5896001429
 10
6218.7048671643
 20
5211.58830264
 10
6218.0542560291
 20
5208.2281328917
 10
6217.5167526775
 20
5204.9548397935
 10
6217.3817542264
 20
5203.0365071461
  0
LINE
  5
EB
330
1F
100
AcDbEntity
  8
0
  6
Continuous
 62
     7
370
    25
100
AcDbLine
 10
6217.1183232808
 20
5232.9900732163
 30
0.0
 11
6217.0187553361
 21
5244.3994295927
 31
0.0
  0
ARC
  5
EC
330
1F
100
AcDbEntity
  8
0
  6
Continuous
 62
     7
370
    25
100
AcDbCircle
 10
6224.3794223422
 20
5203.1016276717
 30
0.0
 40
7.000000000000417
100
AcDbArc
 50
181.914945567
 51
275.6326806458
  0
LWPOLYLINE
  5
ED
330
1F
100
AcDbEntity
  8
0
  6
Continuous
 62
     7
370
    25
100
AcDbPolyline
 90
        4
 70
   128
 43
0.0
 10
6217.3817629049
 20
5203.0365113281
 10
6217.3817622372
 20
5203.0364660739
 10
6217.3833347494
 20
5202.8677984383
 10
6217.3833362467
 20
5202.867753733
  0
LWPOLYLINE
  5
EE
330
1F
100
AcDbEntity
  8
0
  6
Continuous
 62
     7
370
    25
100
AcDbPolyline
 90
       12
 70
   128
 43
0.0
 10
6215.3707559867
 20
5204.3705579716
 10
6215.5609290267
 20
5206.1146596789
 10
6216.2809055865
 20
5209.0213682274
 10
6217.1898760065
 20
5212.1464144353
 10
6217.7247271125
 20
5214.3792216511
 10
6218.0380611415
 20
5216.6937528676
 10
6218.0047626296
 20
5219.0462221668
 10
6217.6498913252
 20
5221.360296578
 10
6216.7567617548
 20
5224.6595515621
 10
6215.813584782
 20
5227.7503844661
 10
6215.3325011085
 20
5229.7464472124
 10
6215.1303687679
 20
5231.6010703993
  0
ARC
  5
EF
330
1F
100
AcDbEntity
  8
0
  6
Continuous
 62
     7
370
    25
100
AcDbCircle
 10
6215.379857893
 20
5233.3610905543
 30
0.0
 40
1.77761519162663
100
AcDbArc
 50
261.9318731471
 51
347.952862863
  0
ARC
  5
F0
330
1F
100
AcDbEntity
  8
0
  6
Continuous
 62
     7
370
    25
100
AcDbCircle
 10
6215.62363942
 20
5202.5690114508
 30
0.0
 40
1.81920859098918
100
AcDbArc
 50
14.8907936099
 51
97.990412116
  0
LINE
  5
F1
330
1F
100
AcDbEntity
  8
0
  6
Continuous
 62
     7
370
    25
100
AcDbLine
 10
6215.3724892376
 20
5204.1721584099
 30
0.0
 11
6215.370773051
 21
5204.3705578682
 31
0.0
  0
LINE
  5
F2
330
1F
100
AcDbEntity
  8
0
  6
Continuous
 62
     7
370
    25
100
AcDbLine
 10
6215.7718976569
 20
5202.0152682386
 30
0.0
 11
6215.3724833559
 21
5204.1721582739
 31
0.0
  0
LINE
  5
F3
330
1F
100
AcDbEntity
  8
0
  6
Continuous
 62
     7
370
    25
100
AcDbLine
 10
6055.5892852738
 20
5236.492900816
 30
0.0
 11
6055.9383450323
 21
5196.4946142781
 31
0.0
  0
LINE
  5
F4
330
1F
100
AcDbEntity
  8
0
  6
Continuous
 62
     7
370
    25
100
AcDbLine
 10
6052.103555101
 20
5236.1771712445
 30
0.0
 11
6052.4476355123
 21
5196.7494613827
 31
0.0
  0
LINE
  5
F5
330
1F
100
AcDbEntity
  8
0
  6
Continuous
 62
     7
370
    25
100
AcDbLine
 10
6052.103555101
 20
5233.9623861136
 30
0.0
 11
6052.408982182
 21
5198.9639091911
 31
0.0
  0
ARC
  5
F6
330
1F
100
AcDbEntity
  8
0
  6
Continuous
 62
     7
370
    25
100
AcDbCircle
 10
6215.6724657455
 20
5202.4325105256
 30
0.0
 40
1.765353851704063
100
AcDbArc
 50
14.2723990243
 51
99.7836484595
  0
ARC
  5
F7
330
1F
100
AcDbEntity
  8
0
  6
Continuous
 62
     7
370
    25
100
AcDbCircle
 10
6216.1314120213
 20
5200.3522489256
 30
0.0
 40
1.701435809411332
100
AcDbArc
 50
23.183457049
 51
102.198580133
  0
LINE
  5
F8
330
1F
100
AcDbEntity
  8
0
  6
Continuous
 62
     7
370
    25
100
AcDbLine
 10
6217.9334509187
 20
5197.5369389727
 30
0.0
 11
6217.9329880992
 21
5197.5263917295
 31
0.0
  0
LINE
  5
F9
330
1F
100
AcDbEntity
  8
0
  6
Continuous
 62
     7
370
    25
100
AcDbLine
 10
6817.8187553361
 20
5160.1994295927
 30
0.0
 11
6817.8187553361
 21
5153.1994295927
 31
0.0
  0
LINE
  5
FA
330
1F
100
AcDbEntity
  8
0
  6
Continuous
 62
     7
370
    25
100
AcDbLine
 10
6817.8187553361
 20
5160.1994295927
 30
0.0
 11
6826.3187553361
 21
5160.1994295927
 31
0.0
  0
LINE
  5
FB
330
1F
100
AcDbEntity
  8
0
  6
Continuous
 62
     7
370
    25
100
AcDbLine
 10
6826.3187553361
 20
5160.1994295927
 30
0.0
 11
6826.3187553361
 21
5153.1994295927
 31
0.0
  0
LINE
  5
FC
330
1F
100
AcDbEntity
  8
0
  6
Continuous
 62
     7
370
    25
100
AcDbLine
 10
6817.8187553361
 20
5153.1994295927
 30
0.0
 11
6826.3187553361
 21
5153.1994295927
 31
0.0
  0
LINE
  5
FD
330
1F
100
AcDbEntity
  8
0
  6
Continuous
 62
     7
370
    25
100
AcDbLine
 10
6826.3187553361
 20
5160.1994295927
 30
0.0
 11
6834.8187553361
 21
5160.1994295927
 31
0.0
  0
LINE
  5
FE
330
1F
100
AcDbEntity
  8
0
  6
Continuous
 62
     7
370
    25
100
AcDbLine
 10
6834.8187553361
 20
5160.1994295927
 30
0.0
 11
6834.8187553361
 21
5153.1994295927
 31
0.0
  0
LINE
  5
FF
330
1F
100
AcDbEntity
  8
0
  6
Continuous
 62
     7
370
    25
100
AcDbLine
 10
6826.3187553361
 20
5153.1994295927
 30
0.0
 11
6834.8187553361
 21
5153.1994295927
 31
0.0
  0
LINE
  5
100
330
1F
100
AcDbEntity
  8
0
  6
Continuous
 62
     7
370
    25
100
AcDbLine
 10
6826.3187553361
 20
5240.1994295927
 30
0.0
 11
6830.3187553361
 21
5240.1994295927
 31
0.0
  0
LINE
  5
101
330
1F
100
AcDbEntity
  8
0
  6
Continuous
 62
     7
370
    25
100
AcDbLine
 10
6822.3187553361
 20
5240.1994295927
 30
0.0
 11
6826.3187553361
 21
5240.1994295927
 31
0.0
  0
LINE
  5
102
330
1F
100
AcDbEntity
  8
0
  6
Continuous
 62
     7
370
    25
100
AcDbLine
 10
5726.7187553361
 20
5160.1994295927
 30
0.0
 11
5730.2187553361
 21
5160.1994295927
 31
0.0
  0
LINE
  5
103
330
1F
100
AcDbEntity
  8
0
  6
Continuous
 62
     7
370
    25
100
AcDbLine
 10
5730.2187553361
 20
5160.1994295927
 30
0.0
 11
5730.2187553361
 21
5155.1994295927
 31
0.0
  0
LINE
  5
104
330
1F
100
AcDbEntity
  8
0
  6
Continuous
 62
     7
370
    25
100
AcDbLine
 10
5713.2187553361
 20
5160.1994295927
 30
0.0
 11
5713.2187553361
 21
5155.1994295927
 31
0.0
  0
LINE
  5
105
330
1F
100
AcDbEntity
  8
0
  6
Continuous
 62
     7
370
    25
100
AcDbLine
 10
5713.2187553361
 20
5160.1994295927
 30
0.0
 11
5716.7187553361
 21
5160.1994295927
 31
0.0
  0
LINE
  5
106
330
1F
100
AcDbEntity
  8
0
  6
Continuous
 62
     7
370
    25
100
AcDbLine
 10
6840.3187553361
 20
5155.1994295927
 30
0.0
 11
6840.3187553361
 21
5153.1994295927
 31
0.0
  0
LINE
  5
107
330
1F
100
AcDbEntity
  8
0
  6
Continuous
 62
     7
370
    25
100
AcDbLine
 10
6790.3187553361
 20
5153.1994295927
 30
0.0
 11
6817.8187553361
 21
5153.1994295927
 31
0.0
  0
LINE
  5
108
330
1F
100
AcDbEntity
  8
0
  6
Continuous
 62
     7
370
    25
100
AcDbLine
 10
6834.8187553361
 20
5153.1994295927
 30
0.0
 11
6840.3187553361
 21
5153.1994295927
 31
0.0
  0
LINE
  5
109
330
1F
100
AcDbEntity
  8
0
  6
Continuous
 62
     7
370
    25
100
AcDbLine
 10
6790.3187553361
 20
5155.1994295927
 30
0.0
 11
6817.8187553361
 21
5155.1994295927
 31
0.0
  0
LINE
  5
10A
330
1F
100
AcDbEntity
  8
0
  6
Continuous
 62
     7
370
    25
100
AcDbLine
 10
6834.8187553361
 20
5155.1994295927
 30
0.0
 11
6840.3187553361
 21
5155.1994295927
 31
0.0
  0
LINE
  5
10B
330
1F
100
AcDbEntity
  8
0
  6
Continuous
 62
     7
370
    25
100
AcDbLine
 10
6790.3187553361
 20
5155.1994295927
 30
0.0
 11
6790.3187553361
 21
5153.1994295927
 31
0.0
  0
LINE
  5
10C
330
1F
100
AcDbEntity
  8
0
  6
Continuous
 62
     7
370
    25
100
AcDbLine
 10
5707.7187553361
 20
5155.1994295927
 30
0.0
 11
5707.7187553361
 21
5153.1994295927
 31
0.0
  0
LINE
  5
10D
330
1F
100
AcDbEntity
  8
0
  6
Continuous
 62
     7
370
    25
100
AcDbLine
 10
5707.7187553361
 20
5155.1994295927
 30
0.0
 11
5757.7187553361
 21
5155.1994295927
 31
0.0
  0
LINE
  5
10E
330
1F
100
AcDbEntity
  8
0
  6
Continuous
 62
     7
370
    25
100
AcDbLine
 10
5757.7187553361
 20
5155.1994295927
 30
0.0
 11
5757.7187553361
 21
5153.1994295927
 31
0.0
  0
LINE
  5
10F
330
1F
100
AcDbEntity
  8
0
  6
Continuous
 62
     7
370
    25
100
AcDbLine
 10
5707.7187553361
 20
5153.1994295927
 30
0.0
 11
5757.7187553361
 21
5153.1994295927
 31
0.0
  0
LINE
  5
110
330
1F
100
AcDbEntity
  8
0
  6
Continuous
 62
     7
370
    25
100
AcDbLine
 10
5717.7187553361
 20
5240.1994295927
 30
0.0
 11
5725.7187553361
 21
5240.1994295927
 31
0.0
  0
LINE
  5
111
330
1F
100
AcDbEntity
  8
0
  6
Continuous
 62
     7
370
    25
100
AcDbLine
 10
6826.3187553361
 20
5239.1994295927
 30
0.0
 11
6826.3187553361
 21
5232.1994295927
 31
0.0
  0
LINE
  5
112
330
1F
100
AcDbEntity
  8
0
  6
Continuous
 62
     7
370
    25
100
AcDbLine
 10
6834.8187553361
 20
5239.1994295927
 30
0.0
 11
6834.8187553361
 21
5232.1994295927
 31
0.0
  0
LINE
  5
113
330
1F
100
AcDbEntity
  8
0
  6
Continuous
 62
     7
370
    25
100
AcDbLine
 10
6826.3187553361
 20
5232.1994295927
 30
0.0
 11
6828.3507325016
 21
5232.1994295927
 31
0.0
  0
LINE
  5
114
330
1F
100
AcDbEntity
  8
0
  6
Continuous
 62
     7
370
    25
100
AcDbLine
 10
6826.3187553361
 20
5239.1994295927
 30
0.0
 11
6834.8187553361
 21
5239.1994295927
 31
0.0
  0
LINE
  5
115
330
1F
100
AcDbEntity
  8
0
  6
Continuous
 62
     7
370
    25
100
AcDbLine
 10
6817.8187553361
 20
5239.1994295927
 30
0.0
 11
6817.8187553361
 21
5232.1994295927
 31
0.0
  0
LINE
  5
116
330
1F
100
AcDbEntity
  8
0
  6
Continuous
 62
     7
370
    25
100
AcDbLine
 10
6824.2867781706
 20
5232.1994295927
 30
0.0
 11
6826.3187553361
 21
5232.1994295927
 31
0.0
  0
LINE
  5
117
330
1F
100
AcDbEntity
  8
0
  6
Continuous
 62
     7
370
    25
100
AcDbLine
 10
6817.8187553361
 20
5239.1994295927
 30
0.0
 11
6826.3187553361
 21
5239.1994295927
 31
0.0
  0
LINE
  5
118
330
1F
100
AcDbEntity
  8
0
  6
Continuous
 62
     7
370
    25
100
AcDbLine
 10
5721.7187553361
 20
5239.1994295927
 30
0.0
 11
5721.7187553361
 21
5232.1994295927
 31
0.0
  0
LINE
  5
119
330
1F
100
AcDbEntity
  8
0
  6
Continuous
 62
     7
370
    25
100
AcDbLine
 10
5730.2187553361
 20
5239.1994295927
 30
0.0
 11
5730.2187553361
 21
5232.1994295927
 31
0.0
  0
LINE
  5
11A
330
1F
100
AcDbEntity
  8
0
  6
Continuous
 62
     7
370
    25
100
AcDbLine
 10
5730.2187553361
 20
5239.1994295927
 30
0.0
 11
5721.7187553361
 21
5239.1994295927
 31
0.0
  0
LINE
  5
11B
330
1F
100
AcDbEntity
  8
0
  6
Continuous
 62
     7
370
    25
100
AcDbLine
 10
5723.7507325016
 20
5232.1994295927
 30
0.0
 11
5721.7187553361
 21
5232.1994295927
 31
0.0
  0
LINE
  5
11C
330
1F
100
AcDbEntity
  8
0
  6
Continuous
 62
     7
370
    25
100
AcDbLine
 10
5713.2187553361
 20
5239.1994295927
 30
0.0
 11
5713.2187553361
 21
5232.1994295927
 31
0.0
  0
LINE
  5
11D
330
1F
100
AcDbEntity
  8
0
  6
Continuous
 62
     7
370
    25
100
AcDbLine
 10
5721.7187553361
 20
5239.1994295927
 30
0.0
 11
5713.2187553361
 21
5239.1994295927
 31
0.0
  0
LINE
  5
11E
330
1F
100
AcDbEntity
  8
0
  6
Continuous
 62
     7
370
    25
100
AcDbLine
 10
5721.7187553361
 20
5232.1994295927
 30
0.0
 11
5719.6867781706
 21
5232.1994295927
 31
0.0
  0
LINE
  5
11F
330
1F
100
AcDbEntity
  8
0
  6
Continuous
 62
     7
370
    25
100
AcDbLine
 10
5719.6867781706
 20
5232.1994295927
 30
0.0
 11
5711.7187553361
 21
5232.1994295927
 31
0.0
  0
LINE
  5
120
330
1F
100
AcDbEntity
  8
0
  6
Continuous
 62
     7
370
    25
100
AcDbLine
 10
5731.7187553361
 20
5232.1994295927
 30
0.0
 11
5723.7507325016
 21
5232.1994295927
 31
0.0
  0
LINE
  5
121
330
1F
100
AcDbEntity
  8
0
  6
Continuous
 62
     7
370
    25
100
AcDbLine
 10
5731.7187553361
 20
5232.1994295927
 30
0.0
 11
5731.7187553361
 21
5230.1994295927
 31
0.0
  0
LINE
  5
122
330
1F
100
AcDbEntity
  8
0
  6
Continuous
 62
     7
370
    25
100
AcDbLine
 10
5711.7187553361
 20
5232.1994295927
 30
0.0
 11
5711.7187553361
 21
5230.1994295927
 31
0.0
  0
LINE
  5
123
330
1F
100
AcDbEntity
  8
0
  6
Continuous
 62
     7
370
    25
100
AcDbLine
 10
5731.7187553361
 20
5230.1994295927
 30
0.0
 11
5711.7187553361
 21
5230.1994295927
 31
0.0
  0
LINE
  5
124
330
1F
100
AcDbEntity
  8
0
  6
Continuous
 62
     7
370
    25
100
AcDbLine
 10
6816.3187553361
 20
5232.1994295927
 30
0.0
 11
6824.2867781706
 21
5232.1994295927
 31
0.0
  0
LINE
  5
125
330
1F
100
AcDbEntity
  8
0
  6
Continuous
 62
     7
370
    25
100
AcDbLine
 10
6828.3507325016
 20
5232.1994295927
 30
0.0
 11
6836.3187553361
 21
5232.1994295927
 31
0.0
  0
LINE
  5
126
330
1F
100
AcDbEntity
  8
0
  6
Continuous
 62
     7
370
    25
100
AcDbLine
 10
6836.3187553361
 20
5232.1994295927
 30
0.0
 11
6836.3187553361
 21
5230.1994295927
 31
0.0
  0
LINE
  5
127
330
1F
100
AcDbEntity
  8
0
  6
Continuous
 62
     7
370
    25
100
AcDbLine
 10
6816.3187553361
 20
5232.1994295927
 30
0.0
 11
6816.3187553361
 21
5230.1994295927
 31
0.0
  0
LINE
  5
128
330
1F
100
AcDbEntity
  8
0
  6
Continuous
 62
     7
370
    25
100
AcDbLine
 10
6816.3187553361
 20
5230.1994295927
 30
0.0
 11
6836.3187553361
 21
5230.1994295927
 31
0.0
  0
LINE
  5
129
330
1F
100
AcDbEntity
  8
0
  6
Continuous
 62
     7
370
    25
100
AcDbLine
 10
5731.7187553361
 20
5232.4493156103
 30
0.0
 11
5731.7187553361
 21
5232.1994295927
 31
0.0
  0
LINE
  5
12A
330
1F
100
AcDbEntity
  8
0
  6
Continuous
 62
     7
370
    25
100
AcDbLine
 10
5711.7187553361
 20
5232.4493156103
 30
0.0
 11
5711.7187553361
 21
5232.1994295927
 31
0.0
  0
LINE
  5
12B
330
1F
100
AcDbEntity
  8
0
  6
Continuous
 62
     7
370
    25
100
AcDbLine
 10
6836.3187553361
 20
5232.4493156103
 30
0.0
 11
6836.3187553361
 21
5232.1994295927
 31
0.0
  0
LINE
  5
12C
330
1F
100
AcDbEntity
  8
0
  6
Continuous
 62
     7
370
    25
100
AcDbLine
 10
6816.3187553361
 20
5232.4493156103
 30
0.0
 11
6816.3187553361
 21
5232.1994295927
 31
0.0
  0
LINE
  5
12D
330
1F
100
AcDbEntity
  8
0
  6
Continuous
 62
     7
370
    25
100
AcDbLine
 10
6816.3187553361
 20
5256.2497715399
 30
0.0
 11
6836.3187553361
 21
5256.2497715399
 31
0.0
  0
LINE
  5
12E
330
1F
100
AcDbEntity
  8
0
  6
Continuous
 62
     7
370
    25
100
AcDbLine
 10
6836.3187553361
 20
5256.2497715399
 30
0.0
 11
6836.3187553361
 21
5232.4493156103
 31
0.0
  0
LINE
  5
12F
330
1F
100
AcDbEntity
  8
0
  6
Continuous
 62
     7
370
    25
100
AcDbLine
 10
6816.3187553361
 20
5256.2497715399
 30
0.0
 11
6816.3187553361
 21
5232.4493156103
 31
0.0
  0
LINE
  5
130
330
1F
100
AcDbEntity
  8
0
  6
Continuous
 62
     7
370
    25
100
AcDbLine
 10
5731.7187553361
 20
5256.2497715399
 30
0.0
 11
5711.7187553361
 21
5256.2497715399
 31
0.0
  0
LINE
  5
131
330
1F
100
AcDbEntity
  8
0
  6
Continuous
 62
     7
370
    25
100
AcDbLine
 10
5731.7187553361
 20
5256.2497715399
 30
0.0
 11
5731.7187553361
 21
5232.4493156103
 31
0.0
  0
LINE
  5
132
330
1F
100
AcDbEntity
  8
0
  6
Continuous
 62
     7
370
    25
100
AcDbLine
 10
5711.7187553361
 20
5256.2497715399
 30
0.0
 11
5711.7187553361
 21
5232.4493156103
 31
0.0
  0
LINE
  5
133
330
1F
100
AcDbEntity
  8
0
  6
Continuous
 62
     7
370
    25
100
AcDbLine
 10
6876.3187553361
 20
5258.1994295927
 30
0.0
 11
6876.3187553361
 21
5256.9994295927
 31
0.0
  0
LINE
  5
134
330
1F
100
AcDbEntity
  8
0
  6
Continuous
 62
     7
370
    25
100
AcDbLine
 10
5671.7187553361
 20
5256.9994295927
 30
0.0
 11
6876.3187553361
 21
5256.9994295927
 31
0.0
  0
LINE
  5
135
330
1F
100
AcDbEntity
  8
0
  6
Continuous
 62
     7
370
    25
100
AcDbLine
 10
5671.7187553361
 20
5258.1994295927
 30
0.0
 11
5671.7187553361
 21
5256.9994295927
 31
0.0
  0
LINE
  5
136
330
1F
100
AcDbEntity
  8
0
  6
Continuous
 62
     7
370
    25
100
AcDbLine
 10
5671.7187553361
 20
5258.1994295927
 30
0.0
 11
6876.3187553361
 21
5258.1994295927
 31
0.0
  0
LINE
  5
137
330
1F
100
AcDbEntity
  8
0
  6
Continuous
 62
     7
370
    25
100
AcDbLine
 10
5703.4187553361
 20
5272.1478882613
 30
0.0
 11
5699.055499886
 21
5272.1478882613
 31
0.0
  0
ARC
  5
138
330
1F
100
AcDbEntity
  8
0
  6
Continuous
 62
     7
370
    25
100
AcDbCircle
 10
5700.7187553361
 20
5272.4994295927
 30
0.0
 40
1.700000000000129
100
AcDbArc
 50
90.0
 51
191.9342465732
  0
LINE
  5
139
330
1F
100
AcDbEntity
  8
0
  6
Continuous
 62
     7
370
    25
100
AcDbLine
 10
6844.6187553361
 20
5272.1478882613
 30
0.0
 11
5703.4187553361
 21
5272.1478882613
 31
0.0
  0
LINE
  5
13A
330
1F
100
AcDbEntity
  8
0
  6
Continuous
 62
     7
370
    25
100
AcDbLine
 10
6848.9820107862
 20
5272.1478882613
 30
0.0
 11
6844.6187553361
 21
5272.1478882613
 31
0.0
  0
ARC
  5
13B
330
1F
100
AcDbEntity
  8
0
  6
Continuous
 62
     7
370
    25
100
AcDbCircle
 10
6847.3187553361
 20
5272.4994295927
 30
0.0
 40
1.700000000001019
100
AcDbArc
 50
348.0657534268
 51
90.0
  0
LINE
  5
13C
330
1F
100
AcDbEntity
  8
0
  6
Continuous
 62
     7
370
    25
100
AcDbLine
 10
5703.4187553361
 20
5267.9408303581
 30
0.0
 11
5699.9446926654
 21
5267.9408303581
 31
0.0
  0
LINE
  5
13D
330
1F
100
AcDbEntity
  8
0
  6
Continuous
 62
     7
370
    25
100
AcDbLine
 10
5699.055499886
 20
5272.1478882613
 30
0.0
 11
5699.9446926654
 21
5267.9408303581
 31
0.0
  0
LINE
  5
13E
330
1F
100
AcDbEntity
  8
0
  6
Continuous
 62
     7
370
    25
100
AcDbLine
 10
5703.4187553361
 20
5272.1478882613
 30
0.0
 11
5703.4187553361
 21
5267.9408303581
 31
0.0
  0
LINE
  5
13F
330
1F
100
AcDbEntity
  8
0
  6
Continuous
 62
     7
370
    25
100
AcDbLine
 10
6844.6187553361
 20
5267.9408303581
 30
0.0
 11
5703.4187553361
 21
5267.9408303581
 31
0.0
  0
LINE
  5
140
330
1F
100
AcDbEntity
  8
0
  6
Continuous
 62
     7
370
    25
100
AcDbLine
 10
6844.6187553361
 20
5272.1478882613
 30
0.0
 11
6844.6187553361
 21
5267.9408303581
 31
0.0
  0
LINE
  5
141
330
1F
100
AcDbEntity
  8
0
  6
Continuous
 62
     7
370
    25
100
AcDbLine
 10
6848.0928180068
 20
5267.9408303581
 30
0.0
 11
6844.6187553361
 21
5267.9408303581
 31
0.0
  0
LINE
  5
142
330
1F
100
AcDbEntity
  8
0
  6
Continuous
 62
     7
370
    25
100
AcDbLine
 10
6848.9820107862
 20
5272.1478882613
 30
0.0
 11
6848.0928180068
 21
5267.9408303581
 31
0.0
  0
LINE
  5
143
330
1F
100
AcDbEntity
  8
0
  6
Continuous
 62
     7
370
    25
100
AcDbLine
 10
6846.8187553361
 20
5267.9408303581
 30
0.0
 11
6846.8187553361
 21
5258.1994295927
 31
0.0
  0
LINE
  5
144
330
1F
100
AcDbEntity
  8
0
  6
Continuous
 62
     7
370
    25
100
AcDbLine
 10
5701.2187553361
 20
5267.9408303581
 30
0.0
 11
5701.2187553361
 21
5258.1994295927
 31
0.0
  0
LINE
  5
145
330
1F
100
AcDbEntity
  8
0
  6
Continuous
 62
     7
370
    25
100
AcDbLine
 10
6836.3187553361
 20
5256.9994295927
 30
0.0
 11
6836.3187553361
 21
5256.2497715399
 31
0.0
  0
LINE
  5
146
330
1F
100
AcDbEntity
  8
0
  6
Continuous
 62
     7
370
    25
100
AcDbLine
 10
6816.3187553361
 20
5256.9994295927
 30
0.0
 11
6816.3187553361
 21
5256.2497715399
 31
0.0
  0
LINE
  5
147
330
1F
100
AcDbEntity
  8
0
  6
Continuous
 62
     7
370
    25
100
AcDbLine
 10
5731.7187553361
 20
5256.9994295927
 30
0.0
 11
5731.7187553361
 21
5256.2497715399
 31
0.0
  0
LINE
  5
148
330
1F
100
AcDbEntity
  8
0
  6
Continuous
 62
     7
370
    25
100
AcDbLine
 10
5711.7187553361
 20
5256.9994295927
 30
0.0
 11
5711.7187553361
 21
5256.2497715399
 31
0.0
  0
LINE
  5
149
330
1F
100
AcDbEntity
  8
0
  6
Continuous
 62
     8
370
    25
100
AcDbLine
 10
6234.7165292035
 20
5252.923103519
 30
0.0
 11
6313.3209814687
 21
5252.923103519
 31
0.0
  0
LINE
  5
14A
330
1F
100
AcDbEntity
  8
0
  6
Continuous
 62
     8
370
    25
100
AcDbLine
 10
6234.9556405887
 20
5253.3372565868
 30
0.0
 11
6313.0818700835
 21
5253.3372565868
 31
0.0
  0
LWPOLYLINE
  5
14B
330
1F
100
AcDbEntity
  8
0
  6
Continuous
 62
     8
370
    25
100
AcDbPolyline
 90
       21
 70
   128
 43
0.0
 10
6239.2281711583
 20
5206.0922647075
 10
6244.8184801106
 20
5207.1353732179
 10
6251.3617451663
 20
5208.5173712913
 10
6258.2381055483
 20
5210.1610893164
 10
6265.6601580369
 20
5212.1614387324
 10
6273.1951379386
 20
5214.4404027525
 10
6280.8705471193
 20
5217.0289802436
 10
6288.5790349941
 20
5219.9122435854
 10
6292.3725753885
 20
5221.4399276079
 10
6296.0256362785
 20
5222.9809736583
 10
6299.6547344444
 20
5224.5821730839
 10
6303.0844385434
 20
5226.1611725038
 10
6306.3851815572
 20
5227.7433096771
 10
6309.4223907289
 20
5229.2544697144
 10
6312.085423543
 20
5230.6246000666
 10
6314.4495177519
 20
5231.8769677283
 10
6316.5581699416
 20
5233.0234095748
 10
6318.2851979403
 20
5233.9834474385
 10
6320.0229739419
 20
5234.9689634832
 10
6320.8744351873
 20
5235.4590951625
 10
6320.8304561075
 20
5235.433671994
  0
LINE
  5
14C
330
1F
100
AcDbEntity
  8
0
  6
Continuous
 62
     8
370
    25
100
AcDbLine
 10
6323.0187553361
 20
5247.3994295927
 30
0.0
 11
6238.3006058891
 21
5247.3994295927
 31
0.0
  0
LINE
  5
14D
330
1F
100
AcDbEntity
  8
0
  6
Continuous
 62
     8
370
    25
100
AcDbLine
 10
6250.1743875592
 20
5177.2161909546
 30
0.0
 11
6306.2595003184
 21
5177.2161909546
 31
0.0
  0
LINE
  5
14E
330
1F
100
AcDbEntity
  8
0
  6
Continuous
 62
     8
370
    25
100
AcDbLine
 10
6207.4111392702
 20
5191.303718063
 30
0.0
 11
6206.9484158409
 21
5244.3265712016
 31
0.0
  0
LINE
  5
14F
330
1F
100
AcDbEntity
  8
0
  6
Continuous
 62
     8
370
    25
100
AcDbLine
 10
6181.9484158409
 20
5243.4467832338
 30
0.0
 11
6182.3995924741
 21
5191.7470618739
 31
0.0
  0
LINE
  5
150
330
1F
100
AcDbEntity
  8
0
  6
Continuous
 62
     8
370
    25
100
AcDbLine
 10
6180.4353426467
 20
5193.7118429394
 30
0.0
 11
6180.0187553361
 21
5241.4480205277
 31
0.0
  0
LINE
  5
151
330
1F
100
AcDbEntity
  8
0
  6
Continuous
 62
     8
370
    25
100
AcDbLine
 10
6159.2766178735
 20
5240.6048519475
 30
0.0
 11
6159.6816489914
 21
5194.1928828876
 31
0.0
  0
LINE
  5
152
330
1F
100
AcDbEntity
  8
0
  6
Continuous
 62
     8
370
    25
100
AcDbLine
 10
6158.4387992462
 20
5240.6048519475
 30
0.0
 11
6158.8439579679
 21
5194.1782609364
 31
0.0
  0
LINE
  5
153
330
1F
100
AcDbEntity
  8
0
  6
Continuous
 62
     8
370
    25
100
AcDbLine
 10
6158.19381807
 20
5240.4046939311
 30
0.0
 11
6158.5955208645
 21
5194.3741129567
 31
0.0
  0
LINE
  5
154
330
1F
100
AcDbEntity
  8
0
  6
Continuous
 62
     8
370
    25
100
AcDbLine
 10
6159.5224316004
 20
5240.4004108288
 30
0.0
 11
6159.9238572901
 21
5194.4015829099
 31
0.0
  0
LINE
  5
155
330
1F
100
AcDbEntity
  8
0
  6
Continuous
 62
     8
370
    25
100
AcDbLine
 10
6157.7776256225
 20
5238.3590426963
 30
0.0
 11
6158.1436902683
 21
5196.4121890691
 31
0.0
  0
LINE
  5
156
330
1F
100
AcDbEntity
  8
0
  6
Continuous
 62
     8
370
    25
100
AcDbLine
 10
6155.4927501636
 20
5237.3988115063
 30
0.0
 11
6155.8424044621
 21
5197.3323974361
 31
0.0
  0
ARC
  5
157
330
1F
100
AcDbEntity
  8
0
  6
Continuous
 62
     8
370
    25
100
AcDbCircle
 10
6249.9684159886
 20
5172.72292204
 30
0.0
 40
4.497987308355345
100
AcDbArc
 50
87.3753972295
 51
107.4379694264
  0
LINE
  5
158
330
1F
100
AcDbEntity
  8
0
  6
Continuous
 62
     8
370
    25
100
AcDbLine
 10
6215.1303687679
 20
5231.6010703993
 30
0.0
 11
6215.075531391
 21
5237.8848113999
 31
0.0
  0
LWPOLYLINE
  5
159
330
1F
100
AcDbEntity
  8
0
  6
Continuous
 62
     8
370
    25
100
AcDbPolyline
 90
        6
 70
   128
 43
0.0
 10
6216.6493861121
 20
5197.9521689002
 10
6216.6553650177
 20
5197.9165433936
 10
6216.5931599036
 20
5198.2856125127
 10
6216.4438585374
 20
5199.1406172645
 10
6216.2041408676
 20
5200.3697669088
 10
6215.7718976569
 20
5202.0152682386
  0
ARC
  5
15A
330
1F
100
AcDbEntity
  8
0
  6
Continuous
 62
     8
370
    25
100
AcDbCircle
 10
6203.9160636526
 20
5198.3303947385
 30
0.0
 40
14.03982613206618
100
AcDbArc
 50
356.7602233054
 51
11.052987354
  0
LINE
  5
15B
330
1F
100
AcDbEntity
  8
0
  6
Continuous
 62
     8
370
    25
100
AcDbLine
 10
5731.7187553361
 20
5232.4493156103
 30
0.0
 11
5730.2187553361
 21
5232.4493156103
 31
0.0
  0
LINE
  5
15C
330
1F
100
AcDbEntity
  8
0
  6
Continuous
 62
     8
370
    25
100
AcDbLine
 10
5713.2187553361
 20
5232.4493156103
 30
0.0
 11
5711.7187553361
 21
5232.4493156103
 31
0.0
  0
LINE
  5
15D
330
1F
100
AcDbEntity
  8
0
  6
Continuous
 62
     8
370
    25
100
AcDbLine
 10
6816.3187553361
 20
5232.4493156103
 30
0.0
 11
6817.8187553361
 21
5232.4493156103
 31
0.0
  0
LINE
  5
15E
330
1F
100
AcDbEntity
  8
0
  6
Continuous
 62
     8
370
    25
100
AcDbLine
 10
6834.8187553361
 20
5232.4493156103
 30
0.0
 11
6836.3187553361
 21
5232.4493156103
 31
0.0
  0
LINE
  5
15F
330
1F
100
AcDbEntity
  8
0
  6
Continuous
 62
     8
370
    25
100
AcDbLine
 10
5703.4187553361
 20
5274.1994295927
 30
0.0
 11
5703.4187553361
 21
5272.1478882613
 31
0.0
  0
LINE
  5
160
330
1F
100
AcDbEntity
  8
0
  6
Continuous
 62
     8
370
    25
100
AcDbLine
 10
6844.6187553361
 20
5274.1994295927
 30
0.0
 11
6844.6187553361
 21
5272.1478882613
 31
0.0
  0
LINE
  5
161
330
1F
100
AcDbEntity
  8
0
  6
Continuous
 62
     8
370
    25
100
AcDbLine
 10
6844.6187553361
 20
5267.9408303581
 30
0.0
 11
6844.6187553361
 21
5258.1994295927
 31
0.0
  0
LINE
  5
162
330
1F
100
AcDbEntity
  8
0
  6
Continuous
 62
     8
370
    25
100
AcDbLine
 10
5703.4187553361
 20
5267.9408303581
 30
0.0
 11
5703.4187553361
 21
5258.1994295927
 31
0.0
  0
LINE
  5
163
330
1F
100
AcDbEntity
  8
0
  6
Continuous
 62
     7
370
    25
100
AcDbLine
 10
7171.8700654642
 20
5254.9994295927
 30
0.0
 11
7171.8700654642
 21
5254.403793359
 31
0.0
  0
LINE
  5
164
330
1F
100
AcDbEntity
  8
0
  6
Continuous
 62
     7
370
    25
100
AcDbLine
 10
7238.3700654642
 20
5254.403793359
 30
0.0
 11
7238.3700654642
 21
5254.9994295927
 31
0.0
  0
LINE
  5
165
330
1F
100
AcDbEntity
  8
0
  6
Continuous
 62
     7
370
    25
100
AcDbLine
 10
7165.1200654642
 20
5252.895718745
 30
0.0
 11
7165.1200654642
 21
5252.3994295927
 31
0.0
  0
LINE
  5
166
330
1F
100
AcDbEntity
  8
0
  6
Continuous
 62
     7
370
    25
100
AcDbLine
 10
7245.1200654642
 20
5252.3994295927
 30
0.0
 11
7245.1200654642
 21
5252.895718745
 31
0.0
  0
ARC
  5
167
330
1F
100
AcDbEntity
  8
0
  6
Continuous
 62
     7
370
    25
100
AcDbCircle
 10
7165.7704075117
 20
5252.950488293
 30
0.0
 40
0.0547695479958025
100
AcDbArc
 50
270.0
 51
330.0000000008
  0
ARC
  5
168
330
1F
100
AcDbEntity
  8
0
  6
Continuous
 62
     7
370
    25
100
AcDbCircle
 10
7244.4697234167
 20
5252.950488293
 30
0.0
 40
0.0547695479945105
100
AcDbArc
 50
210.0000000002
 51
270.0
  0
LINE
  5
169
330
1F
100
AcDbEntity
  8
0
  6
Continuous
 62
     7
370
    25
100
AcDbLine
 10
7244.4222915968
 20
5252.923103519
 30
0.0
 11
7244.1831802116
 21
5253.3372565868
 31
0.0
  0
LINE
  5
16A
330
1F
100
AcDbEntity
  8
0
  6
Continuous
 62
     7
370
    25
100
AcDbLine
 10
7166.0569507168
 20
5253.3372565868
 30
0.0
 11
7165.8178393316
 21
5252.923103519
 31
0.0
  0
ARC
  5
16B
330
1F
100
AcDbEntity
  8
0
  6
Continuous
 62
     7
370
    25
100
AcDbCircle
 10
7166.1517827683
 20
5253.2825052764
 30
0.0
 40
0.109502620936837
100
AcDbArc
 50
90.0
 51
149.9999999999
  0
ARC
  5
16C
330
1F
100
AcDbEntity
  8
0
  6
Continuous
 62
     7
370
    25
100
AcDbCircle
 10
7244.0883481601
 20
5253.2825052764
 30
0.0
 40
0.1095026209379374
100
AcDbArc
 50
29.9999999997
 51
90.0
  0
LINE
  5
16D
330
1F
100
AcDbEntity
  8
0
  6
Continuous
 62
     7
370
    25
100
AcDbLine
 10
7244.0883481601
 20
5253.3920078973
 30
0.0
 11
7210.8935681561
 21
5253.3920078973
 31
0.0
  0
LINE
  5
16E
330
1F
100
AcDbEntity
  8
0
  6
Continuous
 62
     7
370
    25
100
AcDbLine
 10
7199.3465627723
 20
5253.3920078973
 30
0.0
 11
7166.1517827683
 21
5253.3920078973
 31
0.0
  0
LINE
  5
16F
330
1F
100
AcDbEntity
  8
0
  6
Continuous
 62
     7
370
    25
100
AcDbLine
 10
7185.1201606602
 20
5217.0919961077
 30
0.0
 11
7185.1201606602
 21
5216.493757547
 31
0.0
  0
LINE
  5
170
330
1F
100
AcDbEntity
  8
0
  6
Continuous
 62
     7
370
    25
100
AcDbLine
 10
7225.1199702682
 20
5216.493757547
 30
0.0
 11
7225.1199702682
 21
5217.0919961077
 31
0.0
  0
ARC
  5
171
330
1F
100
AcDbEntity
  8
0
  6
Continuous
 62
     7
370
    25
100
AcDbCircle
 10
7205.1200654642
 20
5217.2502820412
 30
0.0
 40
27.00000000000102
100
AcDbArc
 50
0.0
 51
83.6206297916
  0
ARC
  5
172
330
1F
100
AcDbEntity
  8
0
  6
Continuous
 62
     7
370
    25
100
AcDbCircle
 10
7205.1200654642
 20
5217.2502820412
 30
0.0
 40
27.00000000000082
100
AcDbArc
 50
96.3793702084
 51
0.0
  0
ARC
  5
173
330
1F
100
AcDbEntity
  8
0
  6
Continuous
 62
     7
370
    25
100
AcDbCircle
 10
7240.7443680552
 20
5147.0684811442
 30
0.0
 40
52.79442234745849
100
AcDbArc
 50
98.6113344955
 51
109.5792512048
  0
ARC
  5
174
330
1F
100
AcDbEntity
  8
0
  6
Continuous
 62
     7
370
    25
100
AcDbCircle
 10
7169.7685714352
 20
5148.109137152
 30
0.0
 40
51.72268379423456
100
AcDbArc
 50
70.3260562123
 51
81.523490746
  0
LINE
  5
175
330
1F
100
AcDbEntity
  8
0
  6
Continuous
 62
     7
370
    25
100
AcDbLine
 10
7246.8700654642
 20
5249.3994295927
 30
0.0
 11
7246.8700654642
 21
5252.3994295927
 31
0.0
  0
LINE
  5
176
330
1F
100
AcDbEntity
  8
0
  6
Continuous
 62
     7
370
    25
100
AcDbLine
 10
7163.3700654642
 20
5252.3994295927
 30
0.0
 11
7163.3700654642
 21
5249.3994295927
 31
0.0
  0
LINE
  5
177
330
1F
100
AcDbEntity
  8
0
  6
Continuous
 62
     7
370
    25
100
AcDbLine
 10
7158.2363614349
 20
5231.0732312898
 30
0.0
 11
7158.3791577645
 21
5214.7103926381
 31
0.0
  0
LINE
  5
178
330
1F
100
AcDbEntity
  8
0
  6
Continuous
 62
     7
370
    25
100
AcDbLine
 10
7251.861024943
 20
5214.716325943
 30
0.0
 11
7252.1200654642
 21
5244.3994295927
 31
0.0
  0
LWPOLYLINE
  5
179
330
1F
100
AcDbEntity
  8
0
  6
Continuous
 62
     7
370
    25
100
AcDbPolyline
 90
       14
 70
   128
 43
0.0
 10
7158.4155189591
 20
5214.733515774
 10
7158.430229616
 20
5213.7232745704
 10
7158.7731748275
 20
5211.7426988402
 10
7159.4156415154
 20
5209.8926403822
 10
7160.3248593087
 20
5208.1922781254
 10
7161.4757677828
 20
5206.6442712646
 10
7162.8629910044
 20
5205.2357107882
 10
7164.5035160272
 20
5203.9494430714
 10
7166.4354388481
 20
5202.7712215909
 10
7168.6993308925
 20
5201.700109785
 10
7171.2942286686
 20
5200.755136546
 10
7174.1272350173
 20
5199.9664365693
 10
7177.1617486998
 20
5199.3152194412
 10
7177.4311340548
 20
5199.2702986762
  0
LWPOLYLINE
  5
17A
330
1F
100
AcDbEntity
  8
0
  6
Continuous
 62
     7
370
    25
100
AcDbPolyline
 90
       13
 70
   128
 43
0.0
 10
7232.788589047
 20
5199.2801391464
 10
7234.3502310494
 20
5199.5690056167
 10
7237.2277032504
 20
5200.2518949327
 10
7239.9930172168
 20
5201.1101520523
 10
7242.4979119022
 20
5202.1312013368
 10
7244.8623549078
 20
5203.4011049002
 10
7246.6884893044
 20
5204.6859753092
 10
7248.2159957875
 20
5206.0788049684
 10
7249.470722725
 20
5207.5797981912
 10
7250.4656663998
 20
5209.1892791781
 10
7251.2618239096
 20
5211.0854736808
 10
7251.7194318691
 20
5213.0218019975
 10
7251.8413353446
 20
5214.7427782335
  0
ARC
  5
17B
330
1F
100
AcDbEntity
  8
0
  6
Continuous
 62
     7
370
    25
100
AcDbCircle
 10
7158.1200654642
 20
5247.3994295927
 30
0.0
 40
2.0
100
AcDbArc
 50
120.0010464823
 51
180.0
  0
ARC
  5
17C
330
1F
100
AcDbEntity
  8
0
  6
Continuous
 62
     7
370
    25
100
AcDbCircle
 10
7252.1200654642
 20
5247.3994295927
 30
0.0
 40
1.999999999999091
100
AcDbArc
 50
0.0
 51
90.0
  0
LINE
  5
17D
330
1F
100
AcDbEntity
  8
0
  6
Continuous
 62
     7
370
    25
100
AcDbLine
 10
7254.1200654642
 20
5244.3994295927
 30
0.0
 11
7254.1200654642
 21
5247.3994295927
 31
0.0
  0
LINE
  5
17E
330
1F
100
AcDbEntity
  8
0
  6
Continuous
 62
     7
370
    25
100
AcDbLine
 10
7156.1200654642
 20
5247.3994295927
 30
0.0
 11
7156.1200654642
 21
5244.3994295927
 31
0.0
  0
LINE
  5
17F
330
1F
100
AcDbEntity
  8
0
  6
Continuous
 62
     7
370
    25
100
AcDbLine
 10
7172.2700452775
 20
5200.4834722989
 30
0.0
 11
7172.8793204819
 21
5177.2161909546
 31
0.0
  0
LINE
  5
180
330
1F
100
AcDbEntity
  8
0
  6
Continuous
 62
     7
370
    25
100
AcDbLine
 10
7237.3608104464
 20
5177.2161909546
 30
0.0
 11
7237.9700548222
 21
5200.4822949992
 31
0.0
  0
ARC
  5
181
330
1F
100
AcDbEntity
  8
0
  6
Continuous
 62
     7
370
    25
100
AcDbCircle
 10
7230.3632091716
 20
5177.3994295927
 30
0.0
 40
7.000000000000411
100
AcDbArc
 50
270.0
 51
358.5
  0
ARC
  5
182
330
1F
100
AcDbEntity
  8
0
  6
Continuous
 62
     7
370
    25
100
AcDbCircle
 10
7179.8769217568
 20
5177.3994295927
 30
0.0
 40
6.999999999999502
100
AcDbArc
 50
181.5
 51
270.0
  0
LINE
  5
183
330
1F
100
AcDbEntity
  8
0
  6
Continuous
 62
     7
370
    25
100
AcDbLine
 10
7150.1200654642
 20
5239.1994295927
 30
0.0
 11
7149.1200654642
 21
5240.1994295927
 31
0.0
  0
LINE
  5
184
330
1F
100
AcDbEntity
  8
0
  6
Continuous
 62
     7
370
    25
100
AcDbLine
 10
7141.1200654642
 20
5240.1994295927
 30
0.0
 11
7140.1200654642
 21
5239.1994295927
 31
0.0
  0
LINE
  5
185
330
1F
100
AcDbEntity
  8
0
  6
Continuous
 62
     7
370
    25
100
AcDbLine
 10
7150.1200654642
 20
5160.1994295927
 30
0.0
 11
7150.1200654642
 21
5230.1994295927
 31
0.0
  0
LINE
  5
186
330
1F
100
AcDbEntity
  8
0
  6
Continuous
 62
     7
370
    25
100
AcDbLine
 10
7140.1200654642
 20
5230.1994295927
 30
0.0
 11
7140.1200654642
 21
5160.1994295927
 31
0.0
  0
LINE
  5
187
330
1F
100
AcDbEntity
  8
0
  6
Continuous
 62
     7
370
    25
100
AcDbLine
 10
7297.1200654642
 20
5239.1994295927
 30
0.0
 11
7296.1200654642
 21
5240.1994295927
 31
0.0
  0
LINE
  5
188
330
1F
100
AcDbEntity
  8
0
  6
Continuous
 62
     7
370
    25
100
AcDbLine
 10
7288.1200654642
 20
5240.1994295927
 30
0.0
 11
7287.1200654642
 21
5239.1994295927
 31
0.0
  0
LINE
  5
189
330
1F
100
AcDbEntity
  8
0
  6
Continuous
 62
     7
370
    25
100
AcDbLine
 10
7297.1200654642
 20
5155.1994295927
 30
0.0
 11
7297.1200654642
 21
5230.1994295927
 31
0.0
  0
LINE
  5
18A
330
1F
100
AcDbEntity
  8
0
  6
Continuous
 62
     7
370
    25
100
AcDbLine
 10
7287.1200654642
 20
5230.1994295927
 30
0.0
 11
7287.1200654642
 21
5155.1994295927
 31
0.0
  0
LINE
  5
18B
330
1F
100
AcDbEntity
  8
0
  6
Continuous
 62
     7
370
    25
100
AcDbLine
 10
7155.1200654642
 20
5274.1994295927
 30
0.0
 11
7152.4200654642
 21
5274.1994295927
 31
0.0
  0
LINE
  5
18C
330
1F
100
AcDbEntity
  8
0
  6
Continuous
 62
     7
370
    25
100
AcDbLine
 10
7255.1200654642
 20
5274.1994295927
 30
0.0
 11
7155.1200654642
 21
5274.1994295927
 31
0.0
  0
LINE
  5
18D
330
1F
100
AcDbEntity
  8
0
  6
Continuous
 62
     7
370
    25
100
AcDbLine
 10
7257.8200654642
 20
5274.1994295927
 30
0.0
 11
7255.1200654642
 21
5274.1994295927
 31
0.0
  0
LINE
  5
18E
330
1F
100
AcDbEntity
  8
0
  6
Continuous
 62
     7
370
    25
100
AcDbLine
 10
7202.1200654642
 20
5249.9994295927
 30
0.0
 11
7202.1200654642
 21
5234.9994295927
 31
0.0
  0
LINE
  5
18F
330
1F
100
AcDbEntity
  8
0
  6
Continuous
 62
     7
370
    25
100
AcDbLine
 10
7208.1200654642
 20
5234.9994295927
 30
0.0
 11
7208.1200654642
 21
5249.9994295927
 31
0.0
  0
LINE
  5
190
330
1F
100
AcDbEntity
  8
0
  6
Continuous
 62
     7
370
    25
100
AcDbLine
 10
7173.5801016011
 20
5254.403793359
 30
0.0
 11
7175.2350052981
 21
5253.3920078973
 31
0.0
  0
LINE
  5
191
330
1F
100
AcDbEntity
  8
0
  6
Continuous
 62
     7
370
    25
100
AcDbLine
 10
7235.0051256302
 20
5253.3920078973
 30
0.0
 11
7236.6600293273
 21
5254.403793359
 31
0.0
  0
LINE
  5
192
330
1F
100
AcDbEntity
  8
0
  6
Continuous
 62
     7
370
    25
100
AcDbLine
 10
7238.3700654642
 20
5254.403793359
 30
0.0
 11
7210.8935681561
 21
5254.403793359
 31
0.0
  0
LINE
  5
193
330
1F
100
AcDbEntity
  8
0
  6
Continuous
 62
     7
370
    25
100
AcDbLine
 10
7199.3465627723
 20
5254.403793359
 30
0.0
 11
7171.8700654642
 21
5254.403793359
 31
0.0
  0
LINE
  5
194
330
1F
100
AcDbEntity
  8
0
  6
Continuous
 62
     7
370
    25
100
AcDbLine
 10
7165.1200654642
 20
5252.895718745
 30
0.0
 11
7199.3465627723
 21
5252.895718745
 31
0.0
  0
LINE
  5
195
330
1F
100
AcDbEntity
  8
0
  6
Continuous
 62
     7
370
    25
100
AcDbLine
 10
7210.8935681561
 20
5252.895718745
 30
0.0
 11
7245.1200654642
 21
5252.895718745
 31
0.0
  0
LWPOLYLINE
  5
196
330
1F
100
AcDbEntity
  8
0
  6
Continuous
 62
     7
370
    25
100
AcDbPolyline
 90
        8
 70
   128
 43
0.0
 10
7215.2051042741
 20
5230.329193335
 10
7214.7643525285
 20
5230.3257872403
 10
7211.1936210166
 20
5230.3000081795
 10
7207.4593303911
 20
5230.2747290932
 10
7203.672065411
 20
5230.2504589573
 10
7199.9408446246
 20
5230.225484533
 10
7196.3564315732
 20
5230.1997880934
 10
7195.0951637678
 20
5230.1900643358
  0
LINE
  5
197
330
1F
100
AcDbEntity
  8
0
  6
Continuous
 62
     7
370
    25
100
AcDbLine
 10
7205.1200654642
 20
5228.8994295927
 30
0.0
 11
7214.8109106078
 21
5228.8994295927
 31
0.0
  0
LINE
  5
198
330
1F
100
AcDbEntity
  8
0
  6
Continuous
 62
     7
370
    25
100
AcDbLine
 10
7195.4292203206
 20
5228.8994295927
 30
0.0
 11
7205.1200654642
 21
5228.8994295927
 31
0.0
  0
LWPOLYLINE
  5
199
330
1F
100
AcDbEntity
  8
0
  6
Continuous
 62
     7
370
    25
100
AcDbPolyline
 90
        7
 70
   128
 43
0.0
 10
7195.9875274313
 20
5231.2401483872
 10
7196.2418098333
 20
5231.2431795886
 10
7200.6374579526
 20
5231.2914319611
 10
7205.1200654642
 20
5231.3369295886
 10
7209.6026729757
 20
5231.3824272162
 10
7213.9983210951
 20
5231.4306795886
 10
7214.0655465247
 20
5231.4314809568
  0
LWPOLYLINE
  5
19A
330
1F
100
AcDbEntity
  8
0
  6
Continuous
 62
     7
370
    25
100
AcDbPolyline
 90
        5
 70
   128
 43
0.0
 10
7196.3558769177
 20
5231.431931742
 10
7200.6374579526
 20
5231.4789319651
 10
7205.1200654642
 20
5231.5244295927
 10
7209.6026729757
 20
5231.5699272203
 10
7213.6607901626
 20
5231.6144744125
  0
LWPOLYLINE
  5
19B
330
1F
100
AcDbEntity
  8
0
  6
Continuous
 62
     7
370
    25
100
AcDbPolyline
 90
        7
 70
   128
 43
0.0
 10
7195.2282331497
 20
5230.7580709195
 10
7196.5525100576
 20
5230.7744295907
 10
7200.7943296645
 20
5230.8226819631
 10
7205.1200654642
 20
5230.8681795907
 10
7209.4458012639
 20
5230.9136772182
 10
7213.6876208708
 20
5230.9619295907
 10
7214.8063738889
 20
5230.9757494441
  0
LWPOLYLINE
  5
19C
330
1F
100
AcDbEntity
  8
0
  6
Continuous
 62
     7
370
    25
100
AcDbPolyline
 90
        4
 70
   128
 43
0.0
 10
7198.0057750868
 20
5232.290961054
 10
7200.7943296645
 20
5232.3226819631
 10
7205.1200654642
 20
5232.3681795907
 10
7208.0911929673
 20
5232.3994295927
  0
LWPOLYLINE
  5
19D
330
1F
100
AcDbEntity
  8
0
  6
Continuous
 62
     7
370
    25
100
AcDbPolyline
 90
        7
 70
   128
 43
0.0
 10
7195.2165474096
 20
5230.3829265666
 10
7196.5525100576
 20
5230.3994295907
 10
7200.7943296645
 20
5230.4476819631
 10
7205.1200654642
 20
5230.4931795907
 10
7209.4458012639
 20
5230.5386772182
 10
7213.6876208708
 20
5230.5869295907
 10
7215.0167082153
 20
5230.6033476847
  0
LWPOLYLINE
  5
19E
330
1F
100
AcDbEntity
  8
0
  6
Continuous
 62
     7
370
    25
100
AcDbPolyline
 90
        5
 70
   128
 43
0.0
 10
7197.2694422539
 20
5231.9075849774
 10
7200.7943296645
 20
5231.9476819631
 10
7205.1200654642
 20
5231.9931795907
 10
7209.4458012639
 20
5232.0386772182
 10
7212.6420906584
 20
5232.0750362718
  0
CIRCLE
  5
19F
330
1F
100
AcDbEntity
  8
0
  6
Continuous
 62
     7
370
    25
100
AcDbCircle
 10
7205.1200022451
 20
5216.4627056762
 30
0.0
 40
17.49968043751101
  0
ARC
  5
1A0
330
1F
100
AcDbEntity
  8
0
  6
Continuous
 62
     7
370
    25
100
AcDbCircle
 10
7205.1200654642
 20
5216.4628407626
 30
0.0
 40
19.71434232641821
100
AcDbArc
 50
98.7529037444
 51
81.2470962556
  0
ARC
  5
1A1
330
1F
100
AcDbEntity
  8
0
  6
Continuous
 62
     7
370
    25
100
AcDbCircle
 10
7205.1200654642
 20
5216.4932748615
 30
0.0
 40
19.99963762810179
100
AcDbArc
 50
98.6270840614
 51
81.3729159386
  0
ARC
  5
1A2
330
1F
100
AcDbEntity
  8
0
  6
Continuous
 62
     7
370
    25
100
AcDbCircle
 10
7205.1206257191
 20
5217.0917248586
 30
0.0
 40
19.99934455095168
100
AcDbArc
 50
0.0007770969
 51
81.3744119802
  0
ARC
  5
1A3
330
1F
100
AcDbEntity
  8
0
  6
Continuous
 62
     7
370
    25
100
AcDbCircle
 10
7205.119577348
 20
5217.0916628367
 30
0.0
 40
19.99941669060336
100
AcDbArc
 50
98.6257657018
 51
179.9990452211
  0
ARC
  5
1A4
330
1F
100
AcDbEntity
  8
0
  6
Continuous
 62
     7
370
    25
100
AcDbCircle
 10
7202.68044872
 20
5217.3405010765
 30
0.0
 40
15.04056685106171
100
AcDbArc
 50
177.7865545128
 51
205.5322813903
  0
ARC
  5
1A5
330
1F
100
AcDbEntity
  8
0
  6
Continuous
 62
     7
370
    25
100
AcDbCircle
 10
7205.1200654642
 20
5217.9213422988
 30
0.0
 40
17.50023986067562
100
AcDbArc
 50
203.8052968746
 51
336.1947031254
  0
ARC
  5
1A6
330
1F
100
AcDbEntity
  8
0
  6
Continuous
 62
     7
370
    25
100
AcDbCircle
 10
7206.7737577385
 20
5217.4467341698
 30
0.0
 40
15.79739587787524
100
AcDbArc
 50
335.348694842
 51
1.7302785812
  0
ARC
  5
1A7
330
1F
100
AcDbEntity
  8
0
  6
Continuous
 62
     7
370
    25
100
AcDbCircle
 10
7205.1201160993
 20
5217.8134230062
 30
0.0
 40
26.51314433461698
100
AcDbArc
 50
59.5202020559
 51
83.5030967343
  0
ARC
  5
1A8
330
1F
100
AcDbEntity
  8
0
  6
Continuous
 62
     7
370
    25
100
AcDbCircle
 10
7205.1200086058
 20
5217.8134423661
 30
0.0
 40
26.51312449342733
100
AcDbArc
 50
96.248458015
 51
120.4798075851
  0
LINE
  5
1A9
330
1F
100
AcDbEntity
  8
0
  6
Continuous
 62
     7
370
    25
100
AcDbLine
 10
7183.0679782316
 20
5249.3994295927
 30
0.0
 11
7187.9868009875
 21
5249.3994295927
 31
0.0
  0
LINE
  5
1AA
330
1F
100
AcDbEntity
  8
0
  6
Continuous
 62
     7
370
    25
100
AcDbLine
 10
7187.9868009875
 20
5249.3994295927
 30
0.0
 11
7187.9868009875
 21
5247.3994295927
 31
0.0
  0
LINE
  5
1AB
330
1F
100
AcDbEntity
  8
0
  6
Continuous
 62
     7
370
    25
100
AcDbLine
 10
7187.9868009875
 20
5247.3994295927
 30
0.0
 11
7181.1004491292
 21
5247.3994295927
 31
0.0
  0
ARC
  5
1AC
330
1F
100
AcDbEntity
  8
0
  6
Continuous
 62
     7
370
    25
100
AcDbCircle
 10
7183.0843476504
 20
5247.4155332466
 30
0.0
 40
1.983963878169058
100
AcDbArc
 50
90.4727451245
 51
180.4650697254
  0
LINE
  5
1AD
330
1F
100
AcDbEntity
  8
0
  6
Continuous
 62
     7
370
    25
100
AcDbLine
 10
7181.1004491292
 20
5247.3994295927
 30
0.0
 11
7181.1004491292
 21
5244.3994295927
 31
0.0
  0
LINE
  5
1AE
330
1F
100
AcDbEntity
  8
0
  6
Continuous
 62
     7
370
    25
100
AcDbLine
 10
7187.9868009875
 20
5247.3994295927
 30
0.0
 11
7187.9868009875
 21
5244.3994295927
 31
0.0
  0
LINE
  5
1AF
330
1F
100
AcDbEntity
  8
0
  6
Continuous
 62
     7
370
    25
100
AcDbLine
 10
7181.1004491292
 20
5244.3994295927
 30
0.0
 11
7187.9868009875
 21
5244.3994295927
 31
0.0
  0
LINE
  5
1B0
330
1F
100
AcDbEntity
  8
0
  6
Continuous
 62
     7
370
    25
100
AcDbLine
 10
7222.2533299409
 20
5247.3994295927
 30
0.0
 11
7222.2533299409
 21
5244.3994295927
 31
0.0
  0
LINE
  5
1B1
330
1F
100
AcDbEntity
  8
0
  6
Continuous
 62
     7
370
    25
100
AcDbLine
 10
7187.9868009875
 20
5244.3994295927
 30
0.0
 11
7202.1200654642
 21
5244.3994295927
 31
0.0
  0
LINE
  5
1B2
330
1F
100
AcDbEntity
  8
0
  6
Continuous
 62
     7
370
    25
100
AcDbLine
 10
7208.1200654642
 20
5244.3994295927
 30
0.0
 11
7222.2533299409
 21
5244.3994295927
 31
0.0
  0
LINE
  5
1B3
330
1F
100
AcDbEntity
  8
0
  6
Continuous
 62
     7
370
    25
100
AcDbLine
 10
7187.9868009875
 20
5249.3994295927
 30
0.0
 11
7202.1200654642
 21
5249.3994295927
 31
0.0
  0
LINE
  5
1B4
330
1F
100
AcDbEntity
  8
0
  6
Continuous
 62
     7
370
    25
100
AcDbLine
 10
7208.1200654642
 20
5249.3994295927
 30
0.0
 11
7222.2533299409
 21
5249.3994295927
 31
0.0
  0
LINE
  5
1B5
330
1F
100
AcDbEntity
  8
0
  6
Continuous
 62
     7
370
    25
100
AcDbLine
 10
7222.2533299409
 20
5249.3994295927
 30
0.0
 11
7222.2533299409
 21
5247.3994295927
 31
0.0
  0
LINE
  5
1B6
330
1F
100
AcDbEntity
  8
0
  6
Continuous
 62
     7
370
    25
100
AcDbLine
 10
7229.1396817992
 20
5247.3994295927
 30
0.0
 11
7222.2533299409
 21
5247.3994295927
 31
0.0
  0
LINE
  5
1B7
330
1F
100
AcDbEntity
  8
0
  6
Continuous
 62
     7
370
    25
100
AcDbLine
 10
7229.1396817992
 20
5247.3994295927
 30
0.0
 11
7229.1396817992
 21
5244.3994295927
 31
0.0
  0
LINE
  5
1B8
330
1F
100
AcDbEntity
  8
0
  6
Continuous
 62
     7
370
    25
100
AcDbLine
 10
7222.2533299409
 20
5244.3994295927
 30
0.0
 11
7229.1396817992
 21
5244.3994295927
 31
0.0
  0
LINE
  5
1B9
330
1F
100
AcDbEntity
  8
0
  6
Continuous
 62
     7
370
    25
100
AcDbLine
 10
7222.2533299409
 20
5249.3994295927
 30
0.0
 11
7227.1721526968
 21
5249.3994295927
 31
0.0
  0
ARC
  5
1BA
330
1F
100
AcDbEntity
  8
0
  6
Continuous
 62
     7
370
    25
100
AcDbCircle
 10
7227.155783278
 20
5247.4155332466
 30
0.0
 40
1.983963878169464
100
AcDbArc
 50
359.5349302747
 51
89.5272548755
  0
LWPOLYLINE
  5
1BB
330
1F
100
AcDbEntity
  8
0
  6
Continuous
 62
     7
370
    25
100
AcDbPolyline
 90
        3
 70
   128
 43
0.0
 10
7222.8931062677
 20
5196.8008151112
 10
7222.5611108588
 20
5196.5803864899
 10
7222.185060305
 20
5196.5149835099
  0
LWPOLYLINE
  5
1BC
330
1F
100
AcDbEntity
  8
0
  6
Continuous
 62
     7
370
    25
100
AcDbPolyline
 90
        3
 70
   128
 43
0.0
 10
7187.3470246607
 20
5196.8008151112
 10
7187.6790200696
 20
5196.5803864899
 10
7188.0765615702
 20
5196.5112457891
  0
LINE
  5
1BD
330
1F
100
AcDbEntity
  8
0
  6
Continuous
 62
     7
370
    25
100
AcDbLine
 10
7171.5758588097
 20
5247.3994295927
 30
0.0
 11
7171.5758588097
 21
5244.3994295927
 31
0.0
  0
LINE
  5
1BE
330
1F
100
AcDbEntity
  8
0
  6
Continuous
 62
     7
370
    25
100
AcDbLine
 10
7181.1004491292
 20
5247.3994295927
 30
0.0
 11
7171.5758588097
 21
5247.3994295927
 31
0.0
  0
LINE
  5
1BF
330
1F
100
AcDbEntity
  8
0
  6
Continuous
 62
     7
370
    25
100
AcDbLine
 10
7171.5758588097
 20
5244.3994295927
 30
0.0
 11
7181.1004491292
 21
5244.3994295927
 31
0.0
  0
ARC
  5
1C0
330
1F
100
AcDbEntity
  8
0
  6
Continuous
 62
     7
370
    25
100
AcDbCircle
 10
7173.3337931082
 20
5247.6640171745
 30
0.0
 40
1.777734397018369
100
AcDbArc
 50
102.5271579555
 51
188.5593696972
  0
LINE
  5
1C1
330
1F
100
AcDbEntity
  8
0
  6
Continuous
 62
     7
370
    25
100
AcDbLine
 10
7172.9481983403
 20
5249.3994295927
 30
0.0
 11
7183.0679782316
 21
5249.3994295927
 31
0.0
  0
ARC
  5
1C2
330
1F
100
AcDbEntity
  8
0
  6
Continuous
 62
     7
370
    25
100
AcDbCircle
 10
7236.9032851636
 20
5247.6619225339
 30
0.0
 40
1.780443090935558
100
AcDbArc
 50
351.5219073502
 51
77.391564997
  0
LINE
  5
1C3
330
1F
100
AcDbEntity
  8
0
  6
Continuous
 62
     7
370
    25
100
AcDbLine
 10
7238.6642721187
 20
5247.3994295927
 30
0.0
 11
7229.1396817992
 21
5247.3994295927
 31
0.0
  0
LINE
  5
1C4
330
1F
100
AcDbEntity
  8
0
  6
Continuous
 62
     7
370
    25
100
AcDbLine
 10
7227.1721526968
 20
5249.3994295927
 30
0.0
 11
7237.2919325881
 21
5249.3994295927
 31
0.0
  0
LINE
  5
1C5
330
1F
100
AcDbEntity
  8
0
  6
Continuous
 62
     7
370
    25
100
AcDbLine
 10
7238.6642721187
 20
5247.3994295927
 30
0.0
 11
7238.6642721187
 21
5244.3994295927
 31
0.0
  0
LINE
  5
1C6
330
1F
100
AcDbEntity
  8
0
  6
Continuous
 62
     7
370
    25
100
AcDbLine
 10
7229.1396817992
 20
5244.3994295927
 30
0.0
 11
7238.6642721187
 21
5244.3994295927
 31
0.0
  0
LINE
  5
1C7
330
1F
100
AcDbEntity
  8
0
  6
Continuous
 62
     7
370
    25
100
AcDbLine
 10
7174.0185757387
 20
5206.0922647075
 30
0.0
 11
7173.7957723309
 21
5244.3994295927
 31
0.0
  0
LINE
  5
1C8
330
1F
100
AcDbEntity
  8
0
  6
Continuous
 62
     7
370
    25
100
AcDbLine
 10
7236.2215551897
 20
5206.0922647075
 30
0.0
 11
7236.4443585975
 21
5244.3994295927
 31
0.0
  0
LINE
  5
1C9
330
1F
100
AcDbEntity
  8
0
  6
Continuous
 62
     7
370
    25
100
AcDbLine
 10
7197.890802394
 20
5232.3994295927
 30
0.0
 11
7212.3493285344
 21
5232.3994295927
 31
0.0
  0
LINE
  5
1CA
330
1F
100
AcDbEntity
  8
0
  6
Continuous
 62
     7
370
    25
100
AcDbLine
 10
7210.8935681561
 20
5252.3994295927
 30
0.0
 11
7246.8700654642
 21
5252.3994295927
 31
0.0
  0
LINE
  5
1CB
330
1F
100
AcDbEntity
  8
0
  6
Continuous
 62
     7
370
    25
100
AcDbLine
 10
7163.3700654642
 20
5252.3994295927
 30
0.0
 11
7199.3465627723
 21
5252.3994295927
 31
0.0
  0
LINE
  5
1CC
330
1F
100
AcDbEntity
  8
0
  6
Continuous
 62
     7
370
    25
100
AcDbLine
 10
7237.2919325881
 20
5249.3994295927
 30
0.0
 11
7252.1200654642
 21
5249.3994295927
 31
0.0
  0
LINE
  5
1CD
330
1F
100
AcDbEntity
  8
0
  6
Continuous
 62
     7
370
    25
100
AcDbLine
 10
7159.1200355707
 20
5249.3994295927
 30
0.0
 11
7172.9481983403
 21
5249.3994295927
 31
0.0
  0
LINE
  5
1CE
330
1F
100
AcDbEntity
  8
0
  6
Continuous
 62
     7
370
    25
100
AcDbLine
 10
7238.6642721187
 20
5244.3994295927
 30
0.0
 11
7254.1200654642
 21
5244.3994295927
 31
0.0
  0
LINE
  5
1CF
330
1F
100
AcDbEntity
  8
0
  6
Continuous
 62
     7
370
    25
100
AcDbLine
 10
7156.1200654642
 20
5244.3994295927
 30
0.0
 11
7157.1200030777
 21
5244.3994295927
 31
0.0
  0
LINE
  5
1D0
330
1F
100
AcDbEntity
  8
0
  6
Continuous
 62
     7
370
    25
100
AcDbLine
 10
7159.1200030777
 20
5244.3994295927
 30
0.0
 11
7171.5758588097
 21
5244.3994295927
 31
0.0
  0
LINE
  5
1D1
330
1F
100
AcDbEntity
  8
0
  6
Continuous
 62
     7
370
    25
100
AcDbLine
 10
7193.8608104464
 20
5177.2161909546
 30
0.0
 11
7194.261813461
 21
5192.5298782534
 31
0.0
  0
ARC
  5
1D2
330
1F
100
AcDbEntity
  8
0
  6
Continuous
 62
     7
370
    25
100
AcDbCircle
 10
7188.6401872401
 20
5225.6275626864
 30
0.0
 40
48.69205088743183
100
AcDbArc
 50
263.8450785085
 51
276.1549214915
  0
ARC
  5
1D3
330
1F
100
AcDbEntity
  8
0
  6
Continuous
 62
     7
370
    25
100
AcDbCircle
 10
7221.5999436882
 20
5225.6275626034
 30
0.0
 40
48.69205080488537
100
AcDbArc
 50
263.845078498
 51
276.154921502
  0
LINE
  5
1D4
330
1F
100
AcDbEntity
  8
0
  6
Continuous
 62
     7
370
    25
100
AcDbLine
 10
7216.3793204819
 20
5177.2161909546
 30
0.0
 11
7215.9783174674
 21
5192.5298782534
 31
0.0
  0
LINE
  5
1D5
330
1F
100
AcDbEntity
  8
0
  6
Continuous
 62
     7
370
    25
100
AcDbLine
 10
7194.5585726275
 20
5203.967341734
 30
0.0
 11
7195.4292203206
 21
5228.8994295927
 31
0.0
  0
LINE
  5
1D6
330
1F
100
AcDbEntity
  8
0
  6
Continuous
 62
     7
370
    25
100
AcDbLine
 10
7215.6815583009
 20
5203.967341734
 30
0.0
 11
7214.8109106078
 21
5228.8994295927
 31
0.0
  0
LWPOLYLINE
  5
1D7
330
1F
100
AcDbEntity
  8
0
  6
Continuous
 62
     7
370
    25
100
AcDbPolyline
 90
        6
 70
   128
 43
0.0
 10
7186.8632091716
 20
5170.3994295927
 10
7185.5855915492
 20
5170.8919921844
 10
7184.4810718891
 20
5172.3293369154
 10
7183.7170537558
 20
5174.538324184
 10
7183.5041429596
 20
5175.8420431363
 10
7183.4195640338
 20
5177.2161909546
  0
ARC
  5
1D8
330
1F
100
AcDbEntity
  8
0
  6
Continuous
 62
     7
370
    25
100
AcDbCircle
 10
7186.8632091716
 20
5177.3994295927
 30
0.0
 40
6.999999999998181
100
AcDbArc
 50
270.0
 51
358.5
  0
LWPOLYLINE
  5
1D9
330
1F
100
AcDbEntity
  8
0
  6
Continuous
 62
     7
370
    25
100
AcDbPolyline
 90
        6
 70
   128
 43
0.0
 10
7226.8205668946
 20
5177.2161909546
 10
7226.7359906947
 20
5175.8420614451
 10
7226.5230839787
 20
5174.5383470362
 10
7225.7590590393
 20
5172.3293369154
 10
7224.6545393792
 20
5170.8919921844
 10
7223.3769217568
 20
5170.3994295927
  0
ARC
  5
1DA
330
1F
100
AcDbEntity
  8
0
  6
Continuous
 62
     7
370
    25
100
AcDbCircle
 10
7223.3769217568
 20
5177.3994295927
 30
0.0
 40
6.999999999999091
100
AcDbArc
 50
181.5
 51
270.0
  0
LINE
  5
1DB
330
1F
100
AcDbEntity
  8
0
  6
Continuous
 62
     7
370
    25
100
AcDbLine
 10
7186.8632091716
 20
5170.3994295927
 30
0.0
 11
7179.8769217568
 21
5170.3994295927
 31
0.0
  0
LINE
  5
1DC
330
1F
100
AcDbEntity
  8
0
  6
Continuous
 62
     7
370
    25
100
AcDbLine
 10
7230.3632091716
 20
5170.3994295927
 30
0.0
 11
7223.3769217568
 21
5170.3994295927
 31
0.0
  0
LINE
  5
1DD
330
1F
100
AcDbEntity
  8
0
  6
Continuous
 62
     7
370
    25
100
AcDbLine
 10
7193.8608104464
 20
5177.2161909546
 30
0.0
 11
7195.2547639677
 21
5177.2161909546
 31
0.0
  0
LWPOLYLINE
  5
1DE
330
1F
100
AcDbEntity
  8
0
  6
Continuous
 62
     7
370
    25
100
AcDbPolyline
 90
        9
 70
   128
 43
0.0
 10
7190.3067126543
 20
5170.3994295927
 10
7191.256468569
 20
5170.5295003788
 10
7192.170928627
 20
5170.9148789056
 10
7193.0161086745
 20
5171.5412433196
 10
7193.7605992163
 20
5172.3853159887
 10
7194.3767326895
 20
5173.4157285716
 10
7194.8416116755
 20
5174.594187761
 10
7195.1379598386
 20
5175.8768983819
 10
7195.2547639677
 20
5177.2161909546
  0
LINE
  5
1DF
330
1F
100
AcDbEntity
  8
0
  6
Continuous
 62
     7
370
    25
100
AcDbLine
 10
7190.3067126543
 20
5170.3994295927
 30
0.0
 11
7186.8632091716
 21
5170.3994295927
 31
0.0
  0
LINE
  5
1E0
330
1F
100
AcDbEntity
  8
0
  6
Continuous
 62
     7
370
    25
100
AcDbLine
 10
7214.9853669606
 20
5177.2161909546
 30
0.0
 11
7216.3793204819
 21
5177.2161909546
 31
0.0
  0
LWPOLYLINE
  5
1E1
330
1F
100
AcDbEntity
  8
0
  6
Continuous
 62
     7
370
    25
100
AcDbPolyline
 90
        9
 70
   128
 43
0.0
 10
7214.9853669606
 20
5177.2161909546
 10
7215.1021710898
 20
5175.8768983819
 10
7215.3985192529
 20
5174.594187761
 10
7215.8633982389
 20
5173.4157285716
 10
7216.4795317121
 20
5172.3853159887
 10
7217.2240222539
 20
5171.5412433196
 10
7218.0692023014
 20
5170.9148789056
 10
7218.9836623594
 20
5170.5295003788
 10
7219.9334182741
 20
5170.3994295927
  0
LINE
  5
1E2
330
1F
100
AcDbEntity
  8
0
  6
Continuous
 62
     7
370
    25
100
AcDbLine
 10
7223.3769217568
 20
5170.3994295927
 30
0.0
 11
7219.9334182741
 21
5170.3994295927
 31
0.0
  0
LINE
  5
1E3
330
1F
100
AcDbEntity
  8
0
  6
Continuous
 62
     7
370
    25
100
AcDbLine
 10
7195.2547639677
 20
5177.2161909546
 30
0.0
 11
7198.9974046549
 21
5177.2161909546
 31
0.0
  0
LINE
  5
1E4
330
1F
100
AcDbEntity
  8
0
  6
Continuous
 62
     7
370
    25
100
AcDbLine
 10
7211.2427262735
 20
5177.2161909546
 30
0.0
 11
7214.9853669606
 21
5177.2161909546
 31
0.0
  0
LWPOLYLINE
  5
1E5
330
1F
100
AcDbEntity
  8
0
  6
Continuous
 62
     7
370
    25
100
AcDbPolyline
 90
        9
 70
   128
 43
0.0
 10
7194.0493533414
 20
5170.3994295927
 10
7194.9991092561
 20
5170.5295003788
 10
7195.9135693141
 20
5170.9148789056
 10
7196.7587493616
 20
5171.5412433196
 10
7197.5032399034
 20
5172.3853159887
 10
7198.1193733766
 20
5173.4157285716
 10
7198.5842523626
 20
5174.594187761
 10
7198.8806005257
 20
5175.8768983819
 10
7198.9974046549
 20
5177.2161909546
  0
LINE
  5
1E6
330
1F
100
AcDbEntity
  8
0
  6
Continuous
 62
     7
370
    25
100
AcDbLine
 10
7194.0493533414
 20
5170.3994295927
 30
0.0
 11
7190.3067126543
 21
5170.3994295927
 31
0.0
  0
LWPOLYLINE
  5
1E7
330
1F
100
AcDbEntity
  8
0
  6
Continuous
 62
     7
370
    25
100
AcDbPolyline
 90
        9
 70
   128
 43
0.0
 10
7211.2427262735
 20
5177.2161909546
 10
7211.3595304027
 20
5175.8768983819
 10
7211.6558785657
 20
5174.594187761
 10
7212.1207575518
 20
5173.4157285716
 10
7212.736891025
 20
5172.3853159887
 10
7213.4813815667
 20
5171.5412433196
 10
7214.3265616142
 20
5170.9148789056
 10
7215.2410216723
 20
5170.5295003788
 10
7216.190777587
 20
5170.3994295927
  0
LINE
  5
1E8
330
1F
100
AcDbEntity
  8
0
  6
Continuous
 62
     7
370
    25
100
AcDbLine
 10
7219.9334182741
 20
5170.3994295927
 30
0.0
 11
7216.190777587
 21
5170.3994295927
 31
0.0
  0
LINE
  5
1E9
330
1F
100
AcDbEntity
  8
0
  6
Continuous
 62
     7
370
    25
100
AcDbLine
 10
7198.9974046549
 20
5177.2161909546
 30
0.0
 11
7202.3627061513
 21
5177.2161909546
 31
0.0
  0
LINE
  5
1EA
330
1F
100
AcDbEntity
  8
0
  6
Continuous
 62
     7
370
    25
100
AcDbLine
 10
7207.8774247771
 20
5177.2161909546
 30
0.0
 11
7211.2427262735
 21
5177.2161909546
 31
0.0
  0
LINE
  5
1EB
330
1F
100
AcDbEntity
  8
0
  6
Continuous
 62
     7
370
    25
100
AcDbLine
 10
7202.3627061513
 20
5170.3994295927
 30
0.0
 11
7202.3627061513
 21
5177.2161909546
 31
0.0
  0
LINE
  5
1EC
330
1F
100
AcDbEntity
  8
0
  6
Continuous
 62
     7
370
    25
100
AcDbLine
 10
7202.3627061513
 20
5170.3994295927
 30
0.0
 11
7194.0493533414
 21
5170.3994295927
 31
0.0
  0
LINE
  5
1ED
330
1F
100
AcDbEntity
  8
0
  6
Continuous
 62
     7
370
    25
100
AcDbLine
 10
7207.8774247771
 20
5177.2161909546
 30
0.0
 11
7207.8774247771
 21
5170.3994295927
 31
0.0
  0
LINE
  5
1EE
330
1F
100
AcDbEntity
  8
0
  6
Continuous
 62
     7
370
    25
100
AcDbLine
 10
7216.190777587
 20
5170.3994295927
 30
0.0
 11
7207.8774247771
 21
5170.3994295927
 31
0.0
  0
LINE
  5
1EF
330
1F
100
AcDbEntity
  8
0
  6
Continuous
 62
     7
370
    25
100
AcDbLine
 10
7202.3627061513
 20
5177.2161909546
 30
0.0
 11
7207.8774247771
 21
5177.2161909546
 31
0.0
  0
LINE
  5
1F0
330
1F
100
AcDbEntity
  8
0
  6
Continuous
 62
     7
370
    25
100
AcDbLine
 10
7207.8774247771
 20
5170.3994295927
 30
0.0
 11
7202.3627061513
 21
5170.3994295927
 31
0.0
  0
LINE
  5
1F1
330
1F
100
AcDbEntity
  8
0
  6
Continuous
 62
     7
370
    25
100
AcDbLine
 10
7297.1200654642
 20
5160.1994295927
 30
0.0
 11
7301.9350200404
 21
5160.1994295927
 31
0.0
  0
LINE
  5
1F2
330
1F
100
AcDbEntity
  8
0
  6
Continuous
 62
     7
370
    25
100
AcDbLine
 10
7301.9350200404
 20
5160.1994295927
 30
0.0
 11
7301.9350200404
 21
5155.1994295927
 31
0.0
  0
LINE
  5
1F3
330
1F
100
AcDbEntity
  8
0
  6
Continuous
 62
     7
370
    25
100
AcDbLine
 10
7282.305110888
 20
5160.1994295927
 30
0.0
 11
7282.305110888
 21
5155.1994295927
 31
0.0
  0
LINE
  5
1F4
330
1F
100
AcDbEntity
  8
0
  6
Continuous
 62
     7
370
    25
100
AcDbLine
 10
7282.305110888
 20
5160.1994295927
 30
0.0
 11
7287.1200654642
 21
5160.1994295927
 31
0.0
  0
LINE
  5
1F5
330
1F
100
AcDbEntity
  8
0
  6
Continuous
 62
     7
370
    25
100
AcDbLine
 10
7140.2125881761
 20
5160.1994295927
 30
0.0
 11
7140.2125881761
 21
5153.1994295927
 31
0.0
  0
LINE
  5
1F6
330
1F
100
AcDbEntity
  8
0
  6
Continuous
 62
     7
370
    25
100
AcDbLine
 10
7140.2125881761
 20
5160.1994295927
 30
0.0
 11
7150.0275427523
 21
5160.1994295927
 31
0.0
  0
LINE
  5
1F7
330
1F
100
AcDbEntity
  8
0
  6
Continuous
 62
     7
370
    25
100
AcDbLine
 10
7150.0275427523
 20
5160.1994295927
 30
0.0
 11
7150.0275427523
 21
5153.1994295927
 31
0.0
  0
LINE
  5
1F8
330
1F
100
AcDbEntity
  8
0
  6
Continuous
 62
     7
370
    25
100
AcDbLine
 10
7140.2125881761
 20
5153.1994295927
 30
0.0
 11
7150.0275427523
 21
5153.1994295927
 31
0.0
  0
LINE
  5
1F9
330
1F
100
AcDbEntity
  8
0
  6
Continuous
 62
     7
370
    25
100
AcDbLine
 10
7135.305110888
 20
5160.1994295927
 30
0.0
 11
7135.305110888
 21
5153.1994295927
 31
0.0
  0
LINE
  5
1FA
330
1F
100
AcDbEntity
  8
0
  6
Continuous
 62
     7
370
    25
100
AcDbLine
 10
7135.305110888
 20
5160.1994295927
 30
0.0
 11
7140.2125881761
 21
5160.1994295927
 31
0.0
  0
LINE
  5
1FB
330
1F
100
AcDbEntity
  8
0
  6
Continuous
 62
     7
370
    25
100
AcDbLine
 10
7135.305110888
 20
5153.1994295927
 30
0.0
 11
7140.2125881761
 21
5153.1994295927
 31
0.0
  0
LINE
  5
1FC
330
1F
100
AcDbEntity
  8
0
  6
Continuous
 62
     7
370
    25
100
AcDbLine
 10
7154.9350200404
 20
5160.1994295927
 30
0.0
 11
7154.9350200404
 21
5153.1994295927
 31
0.0
  0
LINE
  5
1FD
330
1F
100
AcDbEntity
  8
0
  6
Continuous
 62
     7
370
    25
100
AcDbLine
 10
7150.0275427523
 20
5153.1994295927
 30
0.0
 11
7154.9350200404
 21
5153.1994295927
 31
0.0
  0
LINE
  5
1FE
330
1F
100
AcDbEntity
  8
0
  6
Continuous
 62
     7
370
    25
100
AcDbLine
 10
7150.0275427523
 20
5160.1994295927
 30
0.0
 11
7154.9350200404
 21
5160.1994295927
 31
0.0
  0
LINE
  5
1FF
330
1F
100
AcDbEntity
  8
0
  6
Continuous
 62
     7
370
    25
100
AcDbLine
 10
7141.1200654642
 20
5240.1994295927
 30
0.0
 11
7149.1200654642
 21
5240.1994295927
 31
0.0
  0
LINE
  5
200
330
1F
100
AcDbEntity
  8
0
  6
Continuous
 62
     7
370
    25
100
AcDbLine
 10
7130.1200654642
 20
5155.1994295927
 30
0.0
 11
7130.1200654642
 21
5153.1994295927
 31
0.0
  0
LINE
  5
201
330
1F
100
AcDbEntity
  8
0
  6
Continuous
 62
     7
370
    25
100
AcDbLine
 10
7130.1200654642
 20
5155.1994295927
 30
0.0
 11
7135.305110888
 21
5155.1994295927
 31
0.0
  0
LINE
  5
202
330
1F
100
AcDbEntity
  8
0
  6
Continuous
 62
     7
370
    25
100
AcDbLine
 10
7154.9350200404
 20
5155.1994295927
 30
0.0
 11
7160.1200654642
 21
5155.1994295927
 31
0.0
  0
LINE
  5
203
330
1F
100
AcDbEntity
  8
0
  6
Continuous
 62
     7
370
    25
100
AcDbLine
 10
7160.1200654642
 20
5155.1994295927
 30
0.0
 11
7160.1200654642
 21
5153.1994295927
 31
0.0
  0
LINE
  5
204
330
1F
100
AcDbEntity
  8
0
  6
Continuous
 62
     7
370
    25
100
AcDbLine
 10
7130.1200654642
 20
5153.1994295927
 30
0.0
 11
7135.305110888
 21
5153.1994295927
 31
0.0
  0
LINE
  5
205
330
1F
100
AcDbEntity
  8
0
  6
Continuous
 62
     7
370
    25
100
AcDbLine
 10
7154.9350200404
 20
5153.1994295927
 30
0.0
 11
7160.1200654642
 21
5153.1994295927
 31
0.0
  0
LINE
  5
206
330
1F
100
AcDbEntity
  8
0
  6
Continuous
 62
     7
370
    25
100
AcDbLine
 10
7277.1200654642
 20
5155.1994295927
 30
0.0
 11
7277.1200654642
 21
5153.1994295927
 31
0.0
  0
LINE
  5
207
330
1F
100
AcDbEntity
  8
0
  6
Continuous
 62
     7
370
    25
100
AcDbLine
 10
7277.1200654642
 20
5153.1994295927
 30
0.0
 11
7307.1200654642
 21
5153.1994295927
 31
0.0
  0
LINE
  5
208
330
1F
100
AcDbEntity
  8
0
  6
Continuous
 62
     7
370
    25
100
AcDbLine
 10
7277.1200654642
 20
5155.1994295927
 30
0.0
 11
7307.1200654642
 21
5155.1994295927
 31
0.0
  0
LINE
  5
209
330
1F
100
AcDbEntity
  8
0
  6
Continuous
 62
     7
370
    25
100
AcDbLine
 10
7307.1200654642
 20
5155.1994295927
 30
0.0
 11
7307.1200654642
 21
5153.1994295927
 31
0.0
  0
LINE
  5
20A
330
1F
100
AcDbEntity
  8
0
  6
Continuous
 62
     7
370
    25
100
AcDbLine
 10
7288.1200654642
 20
5240.1994295927
 30
0.0
 11
7296.1200654642
 21
5240.1994295927
 31
0.0
  0
LINE
  5
20B
330
1F
100
AcDbEntity
  8
0
  6
Continuous
 62
     7
370
    25
100
AcDbLine
 10
7276.3200654642
 20
5258.1994295927
 30
0.0
 11
7276.3200654642
 21
5256.9994295927
 31
0.0
  0
LINE
  5
20C
330
1F
100
AcDbEntity
  8
0
  6
Continuous
 62
     7
370
    25
100
AcDbLine
 10
7133.9200654642
 20
5258.1994295927
 30
0.0
 11
7276.3200654642
 21
5258.1994295927
 31
0.0
  0
LINE
  5
20D
330
1F
100
AcDbEntity
  8
0
  6
Continuous
 62
     7
370
    25
100
AcDbLine
 10
7133.9200654642
 20
5258.1994295927
 30
0.0
 11
7133.9200654642
 21
5256.9994295927
 31
0.0
  0
LINE
  5
20E
330
1F
100
AcDbEntity
  8
0
  6
Continuous
 62
     7
370
    25
100
AcDbLine
 10
7133.9200654642
 20
5256.9994295927
 30
0.0
 11
7276.3200654642
 21
5256.9994295927
 31
0.0
  0
LINE
  5
20F
330
1F
100
AcDbEntity
  8
0
  6
Continuous
 62
     7
370
    25
100
AcDbLine
 10
7155.1200654642
 20
5272.1478882613
 30
0.0
 11
7150.7568100141
 21
5272.1478882613
 31
0.0
  0
ARC
  5
210
330
1F
100
AcDbEntity
  8
0
  6
Continuous
 62
     7
370
    25
100
AcDbCircle
 10
7152.4016961313
 20
5272.506664623
 30
0.0
 40
1.683558973216535
100
AcDbArc
 50
89.3750030156
 51
192.3044287047
  0
LINE
  5
211
330
1F
100
AcDbEntity
  8
0
  6
Continuous
 62
     7
370
    25
100
AcDbLine
 10
7255.1200654642
 20
5272.1478882613
 30
0.0
 11
7155.1200654642
 21
5272.1478882613
 31
0.0
  0
LINE
  5
212
330
1F
100
AcDbEntity
  8
0
  6
Continuous
 62
     7
370
    25
100
AcDbLine
 10
7259.4833209143
 20
5272.1478882613
 30
0.0
 11
7255.1200654642
 21
5272.1478882613
 31
0.0
  0
ARC
  5
213
330
1F
100
AcDbEntity
  8
0
  6
Continuous
 62
     7
370
    25
100
AcDbCircle
 10
7257.8200654642
 20
5272.4994295927
 30
0.0
 40
1.699999999999818
100
AcDbArc
 50
348.0657534268
 51
90.0
  0
LINE
  5
214
330
1F
100
AcDbEntity
  8
0
  6
Continuous
 62
     7
370
    25
100
AcDbLine
 10
7155.1200654642
 20
5267.9408303581
 30
0.0
 11
7151.6460027935
 21
5267.9408303581
 31
0.0
  0
LINE
  5
215
330
1F
100
AcDbEntity
  8
0
  6
Continuous
 62
     7
370
    25
100
AcDbLine
 10
7150.7568100141
 20
5272.1478882613
 30
0.0
 11
7151.6460027935
 21
5267.9408303581
 31
0.0
  0
LINE
  5
216
330
1F
100
AcDbEntity
  8
0
  6
Continuous
 62
     7
370
    25
100
AcDbLine
 10
7155.1200654642
 20
5272.1478882613
 30
0.0
 11
7155.1200654642
 21
5267.9408303581
 31
0.0
  0
LINE
  5
217
330
1F
100
AcDbEntity
  8
0
  6
Continuous
 62
     7
370
    25
100
AcDbLine
 10
7255.1200654642
 20
5267.9408303581
 30
0.0
 11
7155.1200654642
 21
5267.9408303581
 31
0.0
  0
LINE
  5
218
330
1F
100
AcDbEntity
  8
0
  6
Continuous
 62
     7
370
    25
100
AcDbLine
 10
7255.1200654642
 20
5272.1478882613
 30
0.0
 11
7255.1200654642
 21
5267.9408303581
 31
0.0
  0
LINE
  5
219
330
1F
100
AcDbEntity
  8
0
  6
Continuous
 62
     7
370
    25
100
AcDbLine
 10
7258.5941281349
 20
5267.9408303581
 30
0.0
 11
7255.1200654642
 21
5267.9408303581
 31
0.0
  0
LINE
  5
21A
330
1F
100
AcDbEntity
  8
0
  6
Continuous
 62
     7
370
    25
100
AcDbLine
 10
7259.4833209143
 20
5272.1478882613
 30
0.0
 11
7258.5941281349
 21
5267.9408303581
 31
0.0
  0
LINE
  5
21B
330
1F
100
AcDbEntity
  8
0
  6
Continuous
 62
     7
370
    25
100
AcDbLine
 10
7152.9200654642
 20
5267.9408303581
 30
0.0
 11
7152.9200654642
 21
5258.1994295927
 31
0.0
  0
LINE
  5
21C
330
1F
100
AcDbEntity
  8
0
  6
Continuous
 62
     7
370
    25
100
AcDbLine
 10
7257.3200654642
 20
5267.9408303581
 30
0.0
 11
7257.3200654642
 21
5258.1994295927
 31
0.0
  0
ARC
  5
21D
330
1F
100
AcDbEntity
  8
0
  6
Continuous
 62
     7
370
    25
100
AcDbCircle
 10
7156.1199302935
 20
5233.1994295927
 30
0.0
 40
1.000000000000909
100
AcDbArc
 50
270.0
 51
359.9996276583
  0
LINE
  5
21E
330
1F
100
AcDbEntity
  8
0
  6
Continuous
 62
     7
370
    25
100
AcDbLine
 10
7157.1199302934
 20
5233.1994230941
 30
0.0
 11
7157.1200654643
 21
5253.9994490885
 31
0.0
  0
ARC
  5
21F
330
1F
100
AcDbEntity
  8
0
  6
Continuous
 62
     7
370
    25
100
AcDbCircle
 10
7160.1200654642
 20
5253.9994295927
 30
0.0
 40
3.000000000000592
100
AcDbArc
 50
90.0
 51
179.9996276583
  0
ARC
  5
220
330
1F
100
AcDbEntity
  8
0
  6
Continuous
 62
     7
370
    25
100
AcDbCircle
 10
7250.1200654642
 20
5253.9994295927
 30
0.0
 40
3.000000000000181
100
AcDbArc
 50
48.6002523617
 51
90.0
  0
LINE
  5
221
330
1F
100
AcDbEntity
  8
0
  6
Continuous
 62
     7
370
    25
100
AcDbLine
 10
7252.1039911485
 20
5256.2497715399
 30
0.0
 11
7279.1005489155
 21
5232.4493156103
 31
0.0
  0
ARC
  5
222
330
1F
100
AcDbEntity
  8
0
  6
Continuous
 62
     7
370
    25
100
AcDbCircle
 10
7279.7618574769
 20
5233.1994295927
 30
0.0
 40
1.000000000000909
100
AcDbArc
 50
228.6002523617
 51
270.0
  0
LINE
  5
223
330
1F
100
AcDbEntity
  8
0
  6
Continuous
 62
     7
370
    25
100
AcDbLine
 10
7279.7618574769
 20
5232.1994295927
 30
0.0
 11
7300.7618574769
 21
5232.1994295927
 31
0.0
  0
LINE
  5
224
330
1F
100
AcDbEntity
  8
0
  6
Continuous
 62
     7
370
    25
100
AcDbLine
 10
7300.7618574769
 20
5232.1994295927
 30
0.0
 11
7300.7618574769
 21
5230.1994295927
 31
0.0
  0
LINE
  5
225
330
1F
100
AcDbEntity
  8
0
  6
Continuous
 62
     7
370
    25
100
AcDbLine
 10
7300.7618574769
 20
5230.1994295927
 30
0.0
 11
7279.7618574769
 21
5230.1994295927
 31
0.0
  0
ARC
  5
226
330
1F
100
AcDbEntity
  8
0
  6
Continuous
 62
     7
370
    25
100
AcDbCircle
 10
7279.7618574769
 20
5233.1994295927
 30
0.0
 40
3.000000000000181
100
AcDbArc
 50
228.6002523617
 51
270.0
  0
LINE
  5
227
330
1F
100
AcDbEntity
  8
0
  6
Continuous
 62
     7
370
    25
100
AcDbLine
 10
7277.7779317927
 20
5230.9490876455
 30
0.0
 11
7250.7813740256
 21
5254.7495435751
 31
0.0
  0
ARC
  5
228
330
1F
100
AcDbEntity
  8
0
  6
Continuous
 62
     7
370
    25
100
AcDbCircle
 10
7250.1200654642
 20
5253.9994295927
 30
0.0
 40
1.000000000000716
100
AcDbArc
 50
48.6002523617
 51
90.0
  0
LINE
  5
229
330
1F
100
AcDbEntity
  8
0
  6
Continuous
 62
     7
370
    25
100
AcDbLine
 10
7250.1200654642
 20
5254.9994295927
 30
0.0
 11
7160.1200654642
 21
5254.9994295927
 31
0.0
  0
ARC
  5
22A
330
1F
100
AcDbEntity
  8
0
  6
Continuous
 62
     7
370
    25
100
AcDbCircle
 10
7160.1200654642
 20
5253.9994295927
 30
0.0
 40
1.000000000000197
100
AcDbArc
 50
90.0
 51
179.9996276583
  0
LINE
  5
22B
330
1F
100
AcDbEntity
  8
0
  6
Continuous
 62
     7
370
    25
100
AcDbLine
 10
7159.1200654642
 20
5253.9994360913
 30
0.0
 11
7159.1199302934
 21
5233.199410097
 31
0.0
  0
ARC
  5
22C
330
1F
100
AcDbEntity
  8
0
  6
Continuous
 62
     7
370
    25
100
AcDbCircle
 10
7156.1199302935
 20
5233.1994295927
 30
0.0
 40
3.000000000000592
100
AcDbArc
 50
270.0
 51
359.9996276583
  0
LINE
  5
22D
330
1F
100
AcDbEntity
  8
0
  6
Continuous
 62
     7
370
    25
100
AcDbLine
 10
7135.1199302935
 20
5232.1994295927
 30
0.0
 11
7156.1199302935
 21
5232.1994295927
 31
0.0
  0
LINE
  5
22E
330
1F
100
AcDbEntity
  8
0
  6
Continuous
 62
     7
370
    25
100
AcDbLine
 10
7156.1199302935
 20
5230.1994295927
 30
0.0
 11
7135.1199302935
 21
5230.1994295927
 31
0.0
  0
LINE
  5
22F
330
1F
100
AcDbEntity
  8
0
  6
Continuous
 62
     7
370
    25
100
AcDbLine
 10
7135.1199302935
 20
5230.1994295927
 30
0.0
 11
7135.1199302935
 21
5232.1994295927
 31
0.0
  0
LINE
  5
230
330
1F
100
AcDbEntity
  8
0
  6
Continuous
 62
     7
370
    25
100
AcDbLine
 10
7140.2125881761
 20
5239.1994295927
 30
0.0
 11
7140.2125881761
 21
5232.1994295927
 31
0.0
  0
LINE
  5
231
330
1F
100
AcDbEntity
  8
0
  6
Continuous
 62
     7
370
    25
100
AcDbLine
 10
7150.0275427523
 20
5239.1994295927
 30
0.0
 11
7140.2125881761
 21
5239.1994295927
 31
0.0
  0
LINE
  5
232
330
1F
100
AcDbEntity
  8
0
  6
Continuous
 62
     7
370
    25
100
AcDbLine
 10
7150.0275427523
 20
5239.1994295927
 30
0.0
 11
7150.0275427523
 21
5232.1994295927
 31
0.0
  0
LINE
  5
233
330
1F
100
AcDbEntity
  8
0
  6
Continuous
 62
     7
370
    25
100
AcDbLine
 10
7135.305110888
 20
5239.1994295927
 30
0.0
 11
7135.305110888
 21
5232.1994295927
 31
0.0
  0
LINE
  5
234
330
1F
100
AcDbEntity
  8
0
  6
Continuous
 62
     7
370
    25
100
AcDbLine
 10
7140.2125881761
 20
5239.1994295927
 30
0.0
 11
7135.305110888
 21
5239.1994295927
 31
0.0
  0
LINE
  5
235
330
1F
100
AcDbEntity
  8
0
  6
Continuous
 62
     7
370
    25
100
AcDbLine
 10
7154.9350200404
 20
5239.1994295927
 30
0.0
 11
7154.9350200404
 21
5232.1994295927
 31
0.0
  0
LINE
  5
236
330
1F
100
AcDbEntity
  8
0
  6
Continuous
 62
     7
370
    25
100
AcDbLine
 10
7154.9350200404
 20
5239.1994295927
 30
0.0
 11
7150.0275427523
 21
5239.1994295927
 31
0.0
  0
LINE
  5
237
330
1F
100
AcDbEntity
  8
0
  6
Continuous
 62
     7
370
    25
100
AcDbLine
 10
7287.2125881761
 20
5239.1994295927
 30
0.0
 11
7287.2125881761
 21
5232.1994295927
 31
0.0
  0
LINE
  5
238
330
1F
100
AcDbEntity
  8
0
  6
Continuous
 62
     7
370
    25
100
AcDbLine
 10
7297.0275427523
 20
5239.1994295927
 30
0.0
 11
7287.2125881761
 21
5239.1994295927
 31
0.0
  0
LINE
  5
239
330
1F
100
AcDbEntity
  8
0
  6
Continuous
 62
     7
370
    25
100
AcDbLine
 10
7297.0275427523
 20
5239.1994295927
 30
0.0
 11
7297.0275427523
 21
5232.1994295927
 31
0.0
  0
LINE
  5
23A
330
1F
100
AcDbEntity
  8
0
  6
Continuous
 62
     7
370
    25
100
AcDbLine
 10
7301.9350200404
 20
5239.1994295927
 30
0.0
 11
7297.0275427523
 21
5239.1994295927
 31
0.0
  0
LINE
  5
23B
330
1F
100
AcDbEntity
  8
0
  6
Continuous
 62
     7
370
    25
100
AcDbLine
 10
7301.9350200404
 20
5239.1994295927
 30
0.0
 11
7301.9350200404
 21
5232.1994295927
 31
0.0
  0
LINE
  5
23C
330
1F
100
AcDbEntity
  8
0
  6
Continuous
 62
     7
370
    25
100
AcDbLine
 10
7301.9350200404
 20
5232.1994295927
 30
0.0
 11
7300.7618574769
 21
5232.1994295927
 31
0.0
  0
LINE
  5
23D
330
1F
100
AcDbEntity
  8
0
  6
Continuous
 62
     7
370
    25
100
AcDbLine
 10
7282.305110888
 20
5239.1994295927
 30
0.0
 11
7282.305110888
 21
5232.1994295927
 31
0.0
  0
LINE
  5
23E
330
1F
100
AcDbEntity
  8
0
  6
Continuous
 62
     7
370
    25
100
AcDbLine
 10
7287.2125881761
 20
5239.1994295927
 30
0.0
 11
7282.305110888
 21
5239.1994295927
 31
0.0
  0
LINE
  5
23F
330
1F
100
AcDbEntity
  8
0
  6
Continuous
 62
     7
370
    25
100
AcDbLine
 10
7202.2333141182
 20
5249.9994295927
 30
0.0
 11
7202.2333141182
 21
5254.9994295927
 31
0.0
  0
LINE
  5
240
330
1F
100
AcDbEntity
  8
0
  6
Continuous
 62
     7
370
    25
100
AcDbLine
 10
7199.3465627723
 20
5249.9994295927
 30
0.0
 11
7202.2333141182
 21
5249.9994295927
 31
0.0
  0
LINE
  5
241
330
1F
100
AcDbEntity
  8
0
  6
Continuous
 62
     7
370
    25
100
AcDbLine
 10
7199.3465627723
 20
5249.9994295927
 30
0.0
 11
7199.3465627723
 21
5254.9994295927
 31
0.0
  0
LINE
  5
242
330
1F
100
AcDbEntity
  8
0
  6
Continuous
 62
     7
370
    25
100
AcDbLine
 10
7210.8935681561
 20
5249.9994295927
 30
0.0
 11
7210.8935681561
 21
5254.9994295927
 31
0.0
  0
LINE
  5
243
330
1F
100
AcDbEntity
  8
0
  6
Continuous
 62
     7
370
    25
100
AcDbLine
 10
7208.0068168101
 20
5249.9994295927
 30
0.0
 11
7210.8935681561
 21
5249.9994295927
 31
0.0
  0
LINE
  5
244
330
1F
100
AcDbEntity
  8
0
  6
Continuous
 62
     7
370
    25
100
AcDbLine
 10
7208.0068168101
 20
5249.9994295927
 30
0.0
 11
7208.0068168101
 21
5254.9994295927
 31
0.0
  0
LINE
  5
245
330
1F
100
AcDbEntity
  8
0
  6
Continuous
 62
     7
370
    25
100
AcDbLine
 10
7202.2333141182
 20
5249.9994295927
 30
0.0
 11
7208.0068168101
 21
5249.9994295927
 31
0.0
  0
LINE
  5
246
330
1F
100
AcDbEntity
  8
0
  6
Continuous
 62
     7
370
    25
100
AcDbLine
 10
7202.1200654642
 20
5234.9994295927
 30
0.0
 11
7208.1200654642
 21
5234.9994295927
 31
0.0
  0
LINE
  5
247
330
1F
100
AcDbEntity
  8
0
  6
Continuous
 62
     8
370
    25
100
AcDbLine
 10
7165.8178393316
 20
5252.923103519
 30
0.0
 11
7199.3465627723
 21
5252.923103519
 31
0.0
  0
LINE
  5
248
330
1F
100
AcDbEntity
  8
0
  6
Continuous
 62
     8
370
    25
100
AcDbLine
 10
7210.8935681561
 20
5252.923103519
 30
0.0
 11
7244.4222915968
 21
5252.923103519
 31
0.0
  0
LINE
  5
249
330
1F
100
AcDbEntity
  8
0
  6
Continuous
 62
     8
370
    25
100
AcDbLine
 10
7166.0569507168
 20
5253.3372565868
 30
0.0
 11
7199.3465627723
 21
5253.3372565868
 31
0.0
  0
LINE
  5
24A
330
1F
100
AcDbEntity
  8
0
  6
Continuous
 62
     8
370
    25
100
AcDbLine
 10
7210.8935681561
 20
5253.3372565868
 30
0.0
 11
7244.1831802116
 21
5253.3372565868
 31
0.0
  0
ARC
  5
24B
330
1F
100
AcDbEntity
  8
0
  6
Continuous
 62
     8
370
    25
100
AcDbCircle
 10
7205.120398631
 20
5217.4059466657
 30
0.0
 40
17.49966683633019
100
AcDbArc
 50
269.9989091761
 51
359.9989091346
  0
ARC
  5
24C
330
1F
100
AcDbEntity
  8
0
  6
Continuous
 62
     8
370
    25
100
AcDbCircle
 10
7205.1197313923
 20
5217.4059448462
 30
0.0
 40
17.49966501687632
100
AcDbArc
 50
180.0011153103
 51
270.0010937871
  0
LINE
  5
24D
330
1F
100
AcDbEntity
  8
0
  6
Continuous
 62
     8
370
    25
100
AcDbLine
 10
7222.2533299409
 20
5247.3994295927
 30
0.0
 11
7208.1200654642
 21
5247.3994295927
 31
0.0
  0
LINE
  5
24E
330
1F
100
AcDbEntity
  8
0
  6
Continuous
 62
     8
370
    25
100
AcDbLine
 10
7202.1200654642
 20
5247.3994295927
 30
0.0
 11
7187.9868009875
 21
5247.3994295927
 31
0.0
  0
LINE
  5
24F
330
1F
100
AcDbEntity
  8
0
  6
Continuous
 62
     8
370
    25
100
AcDbLine
 10
7226.9480640314
 20
5233.141741337
 30
0.0
 11
7227.0448914641
 21
5244.3994295927
 31
0.0
  0
LINE
  5
250
330
1F
100
AcDbEntity
  8
0
  6
Continuous
 62
     8
370
    25
100
AcDbLine
 10
7221.131426166
 20
5238.9904827872
 30
0.0
 11
7221.131426166
 21
5244.3994295927
 31
0.0
  0
LINE
  5
251
330
1F
100
AcDbEntity
  8
0
  6
Continuous
 62
     8
370
    25
100
AcDbLine
 10
7183.292066897
 20
5233.141741337
 30
0.0
 11
7183.1952394643
 21
5244.3994295927
 31
0.0
  0
LINE
  5
252
330
1F
100
AcDbEntity
  8
0
  6
Continuous
 62
     8
370
    25
100
AcDbLine
 10
7189.1087047624
 20
5238.9904827872
 30
0.0
 11
7189.1087047624
 21
5244.3994295927
 31
0.0
  0
ARC
  5
253
330
1F
100
AcDbEntity
  8
0
  6
Continuous
 62
     8
370
    25
100
AcDbCircle
 10
7220.6804583695
 20
5202.2009778633
 30
0.0
 40
5.835886262677752
100
AcDbArc
 50
292.2807405458
 51
346.2292893367
  0
ARC
  5
254
330
1F
100
AcDbEntity
  8
0
  6
Continuous
 62
     8
370
    25
100
AcDbCircle
 10
7189.5612721204
 20
5202.2025756093
 30
0.0
 40
5.837971247910271
100
AcDbArc
 50
193.7452696728
 51
247.7106782336
  0
ARC
  5
255
330
1F
100
AcDbEntity
  8
0
  6
Continuous
 62
     8
370
    25
100
AcDbCircle
 10
7246.2669979649
 20
5158.2783709411
 30
0.0
 40
48.85774613776071
100
AcDbArc
 50
101.8649724379
 51
111.5369123433
  0
LWPOLYLINE
  5
256
330
1F
100
AcDbEntity
  8
0
  6
Continuous
 62
     8
370
    25
100
AcDbPolyline
 90
        8
 70
   128
 43
0.0
 10
7236.2215551897
 20
5206.0922647075
 10
7236.2573465012
 20
5204.6197544863
 10
7236.0783202007
 20
5203.2173246852
 10
7235.6926572164
 20
5201.9490618506
 10
7235.1179811104
 20
5200.8729215288
 10
7234.3805527387
 20
5200.0380798831
 10
7233.5140702141
 20
5199.4826865006
 10
7232.8368259438
 20
5199.2714681823
  0
ARC
  5
257
330
1F
100
AcDbEntity
  8
0
  6
Continuous
 62
     8
370
    25
100
AcDbCircle
 10
7164.055641325
 20
5158.5529097061
 30
0.0
 40
48.57211479939297
100
AcDbArc
 50
68.5846849951
 51
78.1636904354
  0
LWPOLYLINE
  5
258
330
1F
100
AcDbEntity
  8
0
  6
Continuous
 62
     8
370
    25
100
AcDbPolyline
 90
        8
 70
   128
 43
0.0
 10
7174.0185757387
 20
5206.0922647075
 10
7173.9827844272
 20
5204.6197544863
 10
7174.1618107277
 20
5203.2173246852
 10
7174.547473712
 20
5201.9490618506
 10
7175.122149818
 20
5200.8729215288
 10
7175.8595781897
 20
5200.0380798831
 10
7176.7260607143
 20
5199.4826865006
 10
7177.3950471949
 20
5199.2730378802
  0
LWPOLYLINE
  5
259
330
1F
100
AcDbEntity
  8
0
  6
Continuous
 62
     8
370
    25
100
AcDbPolyline
 90
        7
 70
   128
 43
0.0
 10
7236.2215551897
 20
5206.0922647075
 10
7241.5327146735
 20
5207.1353732179
 10
7245.9406849542
 20
5208.5173712913
 10
7249.0742891944
 20
5210.1610893164
 10
7251.0849145689
 20
5212.1614387324
 10
7251.8513596239
 20
5214.4404027525
 10
7251.8006459677
 20
5214.7168528623
  0
LWPOLYLINE
  5
25A
330
1F
100
AcDbEntity
  8
0
  6
Continuous
 62
     8
370
    25
100
AcDbPolyline
 90
       11
 70
   128
 43
0.0
 10
7158.405866564
 20
5214.7106257223
 10
7158.3865691214
 20
5214.4839267265
 10
7158.6589378609
 20
5213.1517066418
 10
7159.3604834621
 20
5211.8658221141
 10
7160.4884512152
 20
5210.6810998339
 10
7161.8696175573
 20
5209.7052991359
 10
7163.5890442005
 20
5208.8185440736
 10
7165.7125922944
 20
5207.9970582303
 10
7168.1728900822
 20
5207.2703342689
 10
7170.9349809969
 20
5206.6397536453
 10
7174.0185757387
 20
5206.0922647075
  0
LINE
  5
25B
330
1F
100
AcDbEntity
  8
0
  6
Continuous
 62
     8
370
    25
100
AcDbLine
 10
7171.5758588097
 20
5247.3994295927
 30
0.0
 11
7159.1200225735
 21
5247.3994295927
 31
0.0
  0
LINE
  5
25C
330
1F
100
AcDbEntity
  8
0
  6
Continuous
 62
     8
370
    25
100
AcDbLine
 10
7157.1200225734
 20
5247.3994295927
 30
0.0
 11
7156.1200654642
 21
5247.3994295927
 31
0.0
  0
LINE
  5
25D
330
1F
100
AcDbEntity
  8
0
  6
Continuous
 62
     8
370
    25
100
AcDbLine
 10
7254.1200654642
 20
5247.3994295927
 30
0.0
 11
7238.6642721187
 21
5247.3994295927
 31
0.0
  0
LINE
  5
25E
330
1F
100
AcDbEntity
  8
0
  6
Continuous
 62
     8
370
    25
100
AcDbLine
 10
7183.4195640338
 20
5177.2161909546
 30
0.0
 11
7183.0523019211
 21
5198.0535926867
 31
0.0
  0
LINE
  5
25F
330
1F
100
AcDbEntity
  8
0
  6
Continuous
 62
     8
370
    25
100
AcDbLine
 10
7226.8205668946
 20
5177.2161909546
 30
0.0
 11
7237.3608104464
 21
5177.2161909546
 31
0.0
  0
LINE
  5
260
330
1F
100
AcDbEntity
  8
0
  6
Continuous
 62
     8
370
    25
100
AcDbLine
 10
7172.8793204819
 20
5177.2161909546
 30
0.0
 11
7183.4195640338
 21
5177.2161909546
 31
0.0
  0
LINE
  5
261
330
1F
100
AcDbEntity
  8
0
  6
Continuous
 62
     8
370
    25
100
AcDbLine
 10
7226.8205668946
 20
5177.2161909546
 30
0.0
 11
7227.1879121806
 21
5198.0583117034
 31
0.0
  0
LINE
  5
262
330
1F
100
AcDbEntity
  8
0
  6
Continuous
 62
     8
370
    25
100
AcDbLine
 10
7195.2547639677
 20
5177.2161909546
 30
0.0
 11
7195.5287138857
 21
5192.0113047462
 31
0.0
  0
LINE
  5
263
330
1F
100
AcDbEntity
  8
0
  6
Continuous
 62
     8
370
    25
100
AcDbLine
 10
7214.9853669606
 20
5177.2161909546
 30
0.0
 11
7214.7114170427
 21
5192.0113047462
 31
0.0
  0
LINE
  5
264
330
1F
100
AcDbEntity
  8
0
  6
Continuous
 62
     8
370
    25
100
AcDbLine
 10
7195.4398261982
 20
5203.3421807542
 30
0.0
 11
7196.0709040066
 21
5228.8994295927
 31
0.0
  0
LINE
  5
265
330
1F
100
AcDbEntity
  8
0
  6
Continuous
 62
     8
370
    25
100
AcDbLine
 10
7214.8003047301
 20
5203.3421807542
 30
0.0
 11
7214.1692269218
 21
5228.8994295927
 31
0.0
  0
LINE
  5
266
330
1F
100
AcDbEntity
  8
0
  6
Continuous
 62
     8
370
    25
100
AcDbLine
 10
7199.5470489218
 20
5201.3322142491
 30
0.0
 11
7200.2277582561
 21
5228.8994295927
 31
0.0
  0
LINE
  5
267
330
1F
100
AcDbEntity
  8
0
  6
Continuous
 62
     8
370
    25
100
AcDbLine
 10
7210.6930820065
 20
5201.3322142491
 30
0.0
 11
7210.0123726723
 21
5228.8994295927
 31
0.0
  0
LINE
  5
268
330
1F
100
AcDbEntity
  8
0
  6
Continuous
 62
     8
370
    25
100
AcDbLine
 10
7198.9974046549
 20
5177.2161909546
 30
0.0
 11
7199.2507024776
 21
5190.8959545383
 31
0.0
  0
LINE
  5
269
330
1F
100
AcDbEntity
  8
0
  6
Continuous
 62
     8
370
    25
100
AcDbLine
 10
7211.2427262735
 20
5177.2161909546
 30
0.0
 11
7210.9894284507
 21
5190.8959545383
 31
0.0
  0
LINE
  5
26A
330
1F
100
AcDbEntity
  8
0
  6
Continuous
 62
     8
370
    25
100
AcDbLine
 10
7201.7769197137
 20
5200.743433178
 30
0.0
 11
7201.7769197137
 21
5228.8994295927
 31
0.0
  0
LINE
  5
26B
330
1F
100
AcDbEntity
  8
0
  6
Continuous
 62
     8
370
    25
100
AcDbLine
 10
7208.4632112147
 20
5200.743433178
 30
0.0
 11
7208.4632112147
 21
5228.8994295927
 31
0.0
  0
LINE
  5
26C
330
1F
100
AcDbEntity
  8
0
  6
Continuous
 62
     8
370
    25
100
AcDbLine
 10
7202.3627061513
 20
5177.2161909546
 30
0.0
 11
7202.3627061513
 21
5190.3914479336
 31
0.0
  0
LINE
  5
26D
330
1F
100
AcDbEntity
  8
0
  6
Continuous
 62
     8
370
    25
100
AcDbLine
 10
7207.8774247771
 20
5177.2161909546
 30
0.0
 11
7207.8774247771
 21
5190.3914479336
 31
0.0
  0
LINE
  5
26E
330
1F
100
AcDbEntity
  8
0
  6
Continuous
 62
     8
370
    25
100
AcDbLine
 10
7155.1200654642
 20
5274.1994295927
 30
0.0
 11
7155.1200654642
 21
5272.1478882613
 31
0.0
  0
LINE
  5
26F
330
1F
100
AcDbEntity
  8
0
  6
Continuous
 62
     8
370
    25
100
AcDbLine
 10
7255.1200654642
 20
5274.1994295927
 30
0.0
 11
7255.1200654642
 21
5272.1478882613
 31
0.0
  0
LINE
  5
270
330
1F
100
AcDbEntity
  8
0
  6
Continuous
 62
     8
370
    25
100
AcDbLine
 10
7155.1200654642
 20
5267.9408303581
 30
0.0
 11
7155.1200654642
 21
5258.1994295927
 31
0.0
  0
LINE
  5
271
330
1F
100
AcDbEntity
  8
0
  6
Continuous
 62
     8
370
    25
100
AcDbLine
 10
7255.1200654642
 20
5267.9408303581
 30
0.0
 11
7255.1200654642
 21
5258.1994295927
 31
0.0
  0
ARC
  5
272
330
1F
100
AcDbEntity
  8
0
  6
Continuous
 62
     7
370
    25
100
AcDbCircle
 10
6274.0187553361
 20
4817.2345055815
 30
0.0
 40
18.14999999999943
100
AcDbArc
 50
149.1424770248
 51
176.8328746966
  0
ARC
  5
273
330
1F
100
AcDbEntity
  8
0
  6
Continuous
 62
     7
370
    25
100
AcDbCircle
 10
6274.0187553361
 20
4817.2345055815
 30
0.0
 40
18.14999999999965
100
AcDbArc
 50
115.8951326394
 51
127.2158347163
  0
LINE
  5
274
330
1F
100
AcDbEntity
  8
0
  6
Continuous
 62
     7
370
    25
100
AcDbLine
 10
6294.0381315401
 20
4818.3422403881
 30
0.0
 11
6293.9986499743
 21
4818.9097101206
 31
0.0
  0
ARC
  5
275
330
1F
100
AcDbEntity
  8
0
  6
Continuous
 62
     7
370
    25
100
AcDbCircle
 10
6274.0187553361
 20
4817.2345055815
 30
0.0
 40
20.05000000000015
100
AcDbArc
 50
141.2541257416
 51
176.8328746966
  0
ARC
  5
276
330
1F
100
AcDbEntity
  8
0
  6
Continuous
 62
     7
370
    25
100
AcDbCircle
 10
6255.9464007579
 20
4818.2345055815
 30
0.0
 40
0.0500000000001819
100
AcDbArc
 50
176.8328746962
 51
270.0
  0
ARC
  5
277
330
1F
100
AcDbEntity
  8
0
  6
Continuous
 62
     7
370
    25
100
AcDbCircle
 10
6255.9464007579
 20
4818.2345055815
 30
0.0
 40
1.950000000000195
100
AcDbArc
 50
176.8328746966
 51
270.0
  0
LWPOLYLINE
  5
278
330
1F
100
AcDbEntity
  8
0
  6
Continuous
 62
     7
370
    25
100
AcDbPolyline
 90
        3
 70
   128
 43
0.0
 10
6293.9986499743
 20
4817.8297946728
 10
6294.019797537
 20
4817.9469920094
 10
6294.0381315401
 20
4818.3422403881
  0
LINE
  5
279
330
1F
100
AcDbEntity
  8
0
  6
Continuous
 62
     7
370
    25
100
AcDbLine
 10
6287.5911099143
 20
4816.2845055815
 30
0.0
 11
6287.7180741075
 21
4816.2845055815
 31
0.0
  0
LINE
  5
27A
330
1F
100
AcDbEntity
  8
0
  6
Continuous
 62
     7
370
    25
100
AcDbLine
 10
6287.7180741075
 20
4818.1845055815
 30
0.0
 11
6287.5911099143
 21
4818.1845055815
 31
0.0
  0
LINE
  5
27B
330
1F
100
AcDbEntity
  8
0
  6
Continuous
 62
     7
370
    25
100
AcDbLine
 10
6255.9464007579
 20
4816.2845055815
 30
0.0
 11
6256.1187553361
 21
4816.2845055815
 31
0.0
  0
LINE
  5
27C
330
1F
100
AcDbEntity
  8
0
  6
Continuous
 62
     7
370
    25
100
AcDbLine
 10
6256.1187553361
 20
4818.1845055815
 30
0.0
 11
6255.9464007579
 21
4818.1845055815
 31
0.0
  0
LINE
  5
27D
330
1F
100
AcDbEntity
  8
0
  6
Continuous
 62
     7
370
    25
100
AcDbLine
 10
6256.352086928
 20
4826.8208931887
 30
0.0
 11
6256.4089946153
 21
4826.8208931887
 31
0.0
  0
LINE
  5
27E
330
1F
100
AcDbEntity
  8
0
  6
Continuous
 62
     7
370
    25
100
AcDbLine
 10
6256.5229366172
 20
4807.6481179742
 30
0.0
 11
6256.352086928
 21
4807.6481179742
 31
0.0
  0
ARC
  5
27F
330
1F
100
AcDbEntity
  8
0
  6
Continuous
 62
     7
370
    25
100
AcDbCircle
 10
5703.4187553361
 20
4867.2345055815
 30
0.0
 40
4.400000000000546
100
AcDbArc
 50
90.0
 51
180.0
  0
LINE
  5
280
330
1F
100
AcDbEntity
  8
0
  6
Continuous
 62
     7
370
    25
100
AcDbLine
 10
6844.6187553361
 20
4871.6345055815
 30
0.0
 11
5703.4187053361
 21
4871.6345055815
 31
0.0
  0
ARC
  5
281
330
1F
100
AcDbEntity
  8
0
  6
Continuous
 62
     7
370
    25
100
AcDbCircle
 10
6844.6187553361
 20
4867.2345055815
 30
0.0
 40
4.400000000000546
100
AcDbArc
 50
0.0
 51
90.0
  0
LINE
  5
282
330
1F
100
AcDbEntity
  8
0
  6
Continuous
 62
     7
370
    25
100
AcDbLine
 10
5699.0187553361
 20
4867.2345055815
 30
0.0
 11
5699.0187553361
 21
4767.2345055815
 31
0.0
  0
LINE
  5
283
330
1F
100
AcDbEntity
  8
0
  6
Continuous
 62
     7
370
    25
100
AcDbLine
 10
6849.0187553361
 20
4767.2345055815
 30
0.0
 11
6849.0187553361
 21
4867.2345055815
 31
0.0
  0
ARC
  5
284
330
1F
100
AcDbEntity
  8
0
  6
Continuous
 62
     7
370
    25
100
AcDbCircle
 10
5703.4187553361
 20
4767.2345055815
 30
0.0
 40
4.400000000000546
100
AcDbArc
 50
180.0
 51
270.0
  0
ARC
  5
285
330
1F
100
AcDbEntity
  8
0
  6
Continuous
 62
     7
370
    25
100
AcDbCircle
 10
6844.6187553361
 20
4767.2345055815
 30
0.0
 40
4.400000000000546
100
AcDbArc
 50
270.0
 51
0.0
  0
LINE
  5
286
330
1F
100
AcDbEntity
  8
0
  6
Continuous
 62
     7
370
    25
100
AcDbLine
 10
5703.4187553361
 20
4762.8345055815
 30
0.0
 11
6844.6187553361
 21
4762.8345055815
 31
0.0
  0
LINE
  5
287
330
1F
100
AcDbEntity
  8
0
  6
Continuous
 62
     7
370
    25
100
AcDbLine
 10
6841.141978641
 20
4866.2345055817
 30
0.0
 11
6841.141978641
 21
4865.0345055817
 31
0.0
  0
LINE
  5
288
330
1F
100
AcDbEntity
  8
0
  6
Continuous
 62
     7
370
    25
100
AcDbLine
 10
6840.3187553361
 20
4864.0345055817
 30
0.0
 11
6841.141978641
 21
4865.0345055817
 31
0.0
  0
LINE
  5
289
330
1F
100
AcDbEntity
  8
0
  6
Continuous
 62
     7
370
    25
100
AcDbLine
 10
6840.3187553361
 20
4864.0345055816
 30
0.0
 11
6841.141978641
 21
4866.2345055817
 31
0.0
  0
LINE
  5
28A
330
1F
100
AcDbEntity
  8
0
  6
Continuous
 62
     7
370
    25
100
AcDbLine
 10
5706.8955320312
 20
4866.2345055816
 30
0.0
 11
5707.718755336
 21
4864.0345055816
 31
0.0
  0
LINE
  5
28B
330
1F
100
AcDbEntity
  8
0
  6
Continuous
 62
     7
370
    25
100
AcDbLine
 10
5706.8955320312
 20
4866.2345055816
 30
0.0
 11
6841.141978641
 21
4866.2345055817
 31
0.0
  0
LINE
  5
28C
330
1F
100
AcDbEntity
  8
0
  6
Continuous
 62
     7
370
    25
100
AcDbLine
 10
5707.718755336
 20
4864.0345055816
 30
0.0
 11
6840.3187553363
 21
4864.0345055815
 31
0.0
  0
LINE
  5
28D
330
1F
100
AcDbEntity
  8
0
  6
Continuous
 62
     7
370
    25
100
AcDbLine
 10
5706.8955320312
 20
4865.0345055816
 30
0.0
 11
5707.7187553361
 21
4864.0345055816
 31
0.0
  0
LINE
  5
28E
330
1F
100
AcDbEntity
  8
0
  6
Continuous
 62
     7
370
    25
100
AcDbLine
 10
5706.8955320312
 20
4866.2345055816
 30
0.0
 11
5706.8955320312
 21
4865.0345055816
 31
0.0
  0
LINE
  5
28F
330
1F
100
AcDbEntity
  8
0
  6
Continuous
 62
     7
370
    25
100
AcDbLine
 10
5705.518755336
 20
4864.8577288862
 30
0.0
 11
5706.718755336
 21
4864.8577288862
 31
0.0
  0
LINE
  5
290
330
1F
100
AcDbEntity
  8
0
  6
Continuous
 62
     7
370
    25
100
AcDbLine
 10
5707.718755336
 20
4864.0345055815
 30
0.0
 11
5706.718755336
 21
4864.8577288862
 31
0.0
  0
LINE
  5
291
330
1F
100
AcDbEntity
  8
0
  6
Continuous
 62
     7
370
    25
100
AcDbLine
 10
5707.718755336
 20
4864.0345055815
 30
0.0
 11
5705.518755336
 21
4864.8577288862
 31
0.0
  0
LINE
  5
292
330
1F
100
AcDbEntity
  8
0
  6
Continuous
 62
     7
370
    25
100
AcDbLine
 10
6842.5187553363
 20
4864.8577288864
 30
0.0
 11
6840.3187553363
 21
4864.0345055815
 31
0.0
  0
LINE
  5
293
330
1F
100
AcDbEntity
  8
0
  6
Continuous
 62
     7
370
    25
100
AcDbLine
 10
6842.5187553363
 20
4864.8577288864
 30
0.0
 11
6842.5187553363
 21
4769.6112822765
 31
0.0
  0
LINE
  5
294
330
1F
100
AcDbEntity
  8
0
  6
Continuous
 62
     7
370
    25
100
AcDbLine
 10
6840.3187553363
 20
4770.4345055814
 30
0.0
 11
6842.5187553363
 21
4769.6112822765
 31
0.0
  0
LINE
  5
295
330
1F
100
AcDbEntity
  8
0
  6
Continuous
 62
     7
370
    25
100
AcDbLine
 10
6840.3187553363
 20
4864.0345055815
 30
0.0
 11
6840.3187553363
 21
4770.4345055814
 31
0.0
  0
LINE
  5
296
330
1F
100
AcDbEntity
  8
0
  6
Continuous
 62
     7
370
    25
100
AcDbLine
 10
5705.518755336
 20
4769.6112822767
 30
0.0
 11
5707.718755336
 21
4770.4345055814
 31
0.0
  0
LINE
  5
297
330
1F
100
AcDbEntity
  8
0
  6
Continuous
 62
     7
370
    25
100
AcDbLine
 10
5705.518755336
 20
4769.6112822766
 30
0.0
 11
5705.518755336
 21
4864.8577288862
 31
0.0
  0
LINE
  5
298
330
1F
100
AcDbEntity
  8
0
  6
Continuous
 62
     7
370
    25
100
AcDbLine
 10
5707.718755336
 20
4770.4345055814
 30
0.0
 11
5707.718755336
 21
4864.0345055816
 31
0.0
  0
LINE
  5
299
330
1F
100
AcDbEntity
  8
0
  6
Continuous
 62
     7
370
    25
100
AcDbLine
 10
6841.3187553363
 20
4864.8577288864
 30
0.0
 11
6840.3187553363
 21
4864.0345055815
 31
0.0
  0
LINE
  5
29A
330
1F
100
AcDbEntity
  8
0
  6
Continuous
 62
     7
370
    25
100
AcDbLine
 10
6842.5187553363
 20
4864.8577288864
 30
0.0
 11
6841.3187553363
 21
4864.8577288864
 31
0.0
  0
LINE
  5
29B
330
1F
100
AcDbEntity
  8
0
  6
Continuous
 62
     7
370
    25
100
AcDbLine
 10
6840.3187553363
 20
4770.4345055814
 30
0.0
 11
5707.718755336
 21
4770.4345055814
 31
0.0
  0
ARC
  5
29C
330
1F
100
AcDbEntity
  8
0
  6
Continuous
 62
     7
370
    25
100
AcDbCircle
 10
5719.518755336
 20
4805.2345055815
 30
0.0
 40
3.0
100
AcDbArc
 50
180.0
 51
0.0
  0
LINE
  5
29D
330
1F
100
AcDbEntity
  8
0
  6
Continuous
 62
     7
370
    25
100
AcDbLine
 10
5722.518755336
 20
4805.2345055815
 30
0.0
 11
5722.518755336
 21
4829.2345055815
 31
0.0
  0
ARC
  5
29E
330
1F
100
AcDbEntity
  8
0
  6
Continuous
 62
     7
370
    25
100
AcDbCircle
 10
5719.518755336
 20
4829.2345055815
 30
0.0
 40
3.0
100
AcDbArc
 50
0.0
 51
180.0
  0
LINE
  5
29F
330
1F
100
AcDbEntity
  8
0
  6
Continuous
 62
     7
370
    25
100
AcDbLine
 10
5716.518755336
 20
4829.2345055815
 30
0.0
 11
5716.518755336
 21
4805.2345055815
 31
0.0
  0
ARC
  5
2A0
330
1F
100
AcDbEntity
  8
0
  6
Continuous
 62
     7
370
    25
100
AcDbCircle
 10
6822.5187553363
 20
4805.2345055815
 30
0.0
 40
3.0
100
AcDbArc
 50
180.0
 51
0.0
  0
LINE
  5
2A1
330
1F
100
AcDbEntity
  8
0
  6
Continuous
 62
     7
370
    25
100
AcDbLine
 10
6825.5187553363
 20
4805.2345055815
 30
0.0
 11
6825.5187553363
 21
4829.2345055815
 31
0.0
  0
ARC
  5
2A2
330
1F
100
AcDbEntity
  8
0
  6
Continuous
 62
     7
370
    25
100
AcDbCircle
 10
6822.5187553363
 20
4829.2345055815
 30
0.0
 40
3.0
100
AcDbArc
 50
0.0
 51
180.0
  0
LINE
  5
2A3
330
1F
100
AcDbEntity
  8
0
  6
Continuous
 62
     7
370
    25
100
AcDbLine
 10
6819.5187553363
 20
4829.2345055815
 30
0.0
 11
6819.5187553363
 21
4805.2345055815
 31
0.0
  0
ARC
  5
2A4
330
1F
100
AcDbEntity
  8
0
  6
Continuous
 62
     7
370
    25
100
AcDbCircle
 10
6812.8643917041
 20
4809.9057605292
 30
0.0
 40
3.000000000000909
100
AcDbArc
 50
180.0
 51
0.0
  0
LINE
  5
2A5
330
1F
100
AcDbEntity
  8
0
  6
Continuous
 62
     7
370
    25
100
AcDbLine
 10
6815.8643917041
 20
4809.9057605292
 30
0.0
 11
6815.8643917041
 21
4833.9057605292
 31
0.0
  0
ARC
  5
2A6
330
1F
100
AcDbEntity
  8
0
  6
Continuous
 62
     7
370
    25
100
AcDbCircle
 10
6812.8643917041
 20
4833.9057605292
 30
0.0
 40
3.000000000000909
100
AcDbArc
 50
0.0
 51
180.0
  0
LINE
  5
2A7
330
1F
100
AcDbEntity
  8
0
  6
Continuous
 62
     7
370
    25
100
AcDbLine
 10
6809.8643917041
 20
4833.9057605292
 30
0.0
 11
6809.8643917041
 21
4809.9057605292
 31
0.0
  0
ARC
  5
2A8
330
1F
100
AcDbEntity
  8
0
  6
Continuous
 62
     7
370
    25
100
AcDbCircle
 10
6803.0080627399
 20
4814.1294504813
 30
0.0
 40
3.0
100
AcDbArc
 50
180.0
 51
0.0
  0
LINE
  5
2A9
330
1F
100
AcDbEntity
  8
0
  6
Continuous
 62
     7
370
    25
100
AcDbLine
 10
6806.0080627399
 20
4814.1294504813
 30
0.0
 11
6806.0080627399
 21
4838.1294504813
 31
0.0
  0
ARC
  5
2AA
330
1F
100
AcDbEntity
  8
0
  6
Continuous
 62
     7
370
    25
100
AcDbCircle
 10
6803.0080627399
 20
4838.1294504813
 30
0.0
 40
3.0
100
AcDbArc
 50
0.0
 51
180.0
  0
LINE
  5
2AB
330
1F
100
AcDbEntity
  8
0
  6
Continuous
 62
     7
370
    25
100
AcDbLine
 10
6800.0080627399
 20
4838.1294504813
 30
0.0
 11
6800.0080627399
 21
4814.1294504813
 31
0.0
  0
ARC
  5
2AC
330
1F
100
AcDbEntity
  8
0
  6
Continuous
 62
     7
370
    25
100
AcDbCircle
 10
6792.9644950824
 20
4817.8889979843
 30
0.0
 40
3.0
100
AcDbArc
 50
180.0
 51
0.0
  0
LINE
  5
2AD
330
1F
100
AcDbEntity
  8
0
  6
Continuous
 62
     7
370
    25
100
AcDbLine
 10
6795.9644950824
 20
4817.8889979843
 30
0.0
 11
6795.9644950824
 21
4841.8889979843
 31
0.0
  0
ARC
  5
2AE
330
1F
100
AcDbEntity
  8
0
  6
Continuous
 62
     7
370
    25
100
AcDbCircle
 10
6792.9644950824
 20
4841.8889979843
 30
0.0
 40
3.0
100
AcDbArc
 50
0.0
 51
180.0
  0
LINE
  5
2AF
330
1F
100
AcDbEntity
  8
0
  6
Continuous
 62
     7
370
    25
100
AcDbLine
 10
6789.9644950824
 20
4841.8889979843
 30
0.0
 11
6789.9644950824
 21
4817.8889979843
 31
0.0
  0
ARC
  5
2B0
330
1F
100
AcDbEntity
  8
0
  6
Continuous
 62
     7
370
    25
100
AcDbCircle
 10
6782.7547267871
 20
4821.1710997284
 30
0.0
 40
3.0
100
AcDbArc
 50
180.0
 51
0.0
  0
LINE
  5
2B1
330
1F
100
AcDbEntity
  8
0
  6
Continuous
 62
     7
370
    25
100
AcDbLine
 10
6785.7547267871
 20
4821.1710997284
 30
0.0
 11
6785.7547267871
 21
4845.1710997284
 31
0.0
  0
ARC
  5
2B2
330
1F
100
AcDbEntity
  8
0
  6
Continuous
 62
     7
370
    25
100
AcDbCircle
 10
6782.7547267871
 20
4845.1710997284
 30
0.0
 40
3.0
100
AcDbArc
 50
0.0
 51
180.0
  0
LINE
  5
2B3
330
1F
100
AcDbEntity
  8
0
  6
Continuous
 62
     7
370
    25
100
AcDbLine
 10
6779.7547267871
 20
4845.1710997284
 30
0.0
 11
6779.7547267871
 21
4821.1710997284
 31
0.0
  0
ARC
  5
2B4
330
1F
100
AcDbEntity
  8
0
  6
Continuous
 62
     7
370
    25
100
AcDbCircle
 10
6772.401899715
 20
4823.9682661671
 30
0.0
 40
3.0
100
AcDbArc
 50
180.0
 51
0.0
  0
LINE
  5
2B5
330
1F
100
AcDbEntity
  8
0
  6
Continuous
 62
     7
370
    25
100
AcDbLine
 10
6775.401899715
 20
4823.9682661671
 30
0.0
 11
6775.401899715
 21
4847.9682661671
 31
0.0
  0
ARC
  5
2B6
330
1F
100
AcDbEntity
  8
0
  6
Continuous
 62
     7
370
    25
100
AcDbCircle
 10
6772.401899715
 20
4847.9682661671
 30
0.0
 40
3.0
100
AcDbArc
 50
0.0
 51
180.0
  0
LINE
  5
2B7
330
1F
100
AcDbEntity
  8
0
  6
Continuous
 62
     7
370
    25
100
AcDbLine
 10
6769.401899715
 20
4847.9682661671
 30
0.0
 11
6769.401899715
 21
4823.9682661671
 31
0.0
  0
ARC
  5
2B8
330
1F
100
AcDbEntity
  8
0
  6
Continuous
 62
     7
370
    25
100
AcDbCircle
 10
6761.929155727
 20
4826.2795007051
 30
0.0
 40
3.0
100
AcDbArc
 50
180.0
 51
0.0
  0
LINE
  5
2B9
330
1F
100
AcDbEntity
  8
0
  6
Continuous
 62
     7
370
    25
100
AcDbLine
 10
6764.929155727
 20
4826.2795007051
 30
0.0
 11
6764.929155727
 21
4850.2795007051
 31
0.0
  0
ARC
  5
2BA
330
1F
100
AcDbEntity
  8
0
  6
Continuous
 62
     7
370
    25
100
AcDbCircle
 10
6761.929155727
 20
4850.2795007051
 30
0.0
 40
3.0
100
AcDbArc
 50
0.0
 51
180.0
  0
LINE
  5
2BB
330
1F
100
AcDbEntity
  8
0
  6
Continuous
 62
     7
370
    25
100
AcDbLine
 10
6758.929155727
 20
4850.2795007051
 30
0.0
 11
6758.929155727
 21
4826.2795007051
 31
0.0
  0
ARC
  5
2BC
330
1F
100
AcDbEntity
  8
0
  6
Continuous
 62
     7
370
    25
100
AcDbCircle
 10
6751.3617404895
 20
4828.1096314283
 30
0.0
 40
3.0
100
AcDbArc
 50
180.0
 51
0.0
  0
LINE
  5
2BD
330
1F
100
AcDbEntity
  8
0
  6
Continuous
 62
     7
370
    25
100
AcDbLine
 10
6754.3617404895
 20
4828.1096314283
 30
0.0
 11
6754.3617404895
 21
4852.1096314283
 31
0.0
  0
ARC
  5
2BE
330
1F
100
AcDbEntity
  8
0
  6
Continuous
 62
     7
370
    25
100
AcDbCircle
 10
6751.3617404895
 20
4852.1096314283
 30
0.0
 40
3.0
100
AcDbArc
 50
0.0
 51
180.0
  0
LINE
  5
2BF
330
1F
100
AcDbEntity
  8
0
  6
Continuous
 62
     7
370
    25
100
AcDbLine
 10
6748.3617404895
 20
4852.1096314283
 30
0.0
 11
6748.3617404895
 21
4828.1096314283
 31
0.0
  0
ARC
  5
2C0
330
1F
100
AcDbEntity
  8
0
  6
Continuous
 62
     7
370
    25
100
AcDbCircle
 10
6740.7238477664
 20
4829.4696940661
 30
0.0
 40
3.000000000000909
100
AcDbArc
 50
180.0
 51
0.0
  0
LINE
  5
2C1
330
1F
100
AcDbEntity
  8
0
  6
Continuous
 62
     7
370
    25
100
AcDbLine
 10
6743.7238477664
 20
4829.4696940661
 30
0.0
 11
6743.7238477664
 21
4853.4696940661
 31
0.0
  0
ARC
  5
2C2
330
1F
100
AcDbEntity
  8
0
  6
Continuous
 62
     7
370
    25
100
AcDbCircle
 10
6740.7238477664
 20
4853.4696940661
 30
0.0
 40
3.000000000000909
100
AcDbArc
 50
0.0
 51
180.0
  0
LINE
  5
2C3
330
1F
100
AcDbEntity
  8
0
  6
Continuous
 62
     7
370
    25
100
AcDbLine
 10
6737.7238477664
 20
4853.4696940661
 30
0.0
 11
6737.7238477664
 21
4829.4696940661
 31
0.0
  0
ARC
  5
2C4
330
1F
100
AcDbEntity
  8
0
  6
Continuous
 62
     7
370
    25
100
AcDbCircle
 10
6730.0375675159
 20
4830.3762568676
 30
0.0
 40
3.000000000000909
100
AcDbArc
 50
180.0
 51
0.0
  0
LINE
  5
2C5
330
1F
100
AcDbEntity
  8
0
  6
Continuous
 62
     7
370
    25
100
AcDbLine
 10
6733.0375675159
 20
4830.3762568676
 30
0.0
 11
6733.0375675159
 21
4854.3762568676
 31
0.0
  0
ARC
  5
2C6
330
1F
100
AcDbEntity
  8
0
  6
Continuous
 62
     7
370
    25
100
AcDbCircle
 10
6730.0375675159
 20
4854.3762568676
 30
0.0
 40
3.000000000000909
100
AcDbArc
 50
0.0
 51
180.0
  0
LINE
  5
2C7
330
1F
100
AcDbEntity
  8
0
  6
Continuous
 62
     7
370
    25
100
AcDbLine
 10
6727.0375675159
 20
4854.3762568676
 30
0.0
 11
6727.0375675159
 21
4830.3762568676
 31
0.0
  0
ARC
  5
2C8
330
1F
100
AcDbEntity
  8
0
  6
Continuous
 62
     7
370
    25
100
AcDbCircle
 10
6719.3228858905
 20
4830.8504584404
 30
0.0
 40
3.0
100
AcDbArc
 50
180.0
 51
0.0
  0
LINE
  5
2C9
330
1F
100
AcDbEntity
  8
0
  6
Continuous
 62
     7
370
    25
100
AcDbLine
 10
6722.3228858905
 20
4830.8504584404
 30
0.0
 11
6722.3228858905
 21
4854.8504584404
 31
0.0
  0
ARC
  5
2CA
330
1F
100
AcDbEntity
  8
0
  6
Continuous
 62
     7
370
    25
100
AcDbCircle
 10
6719.3228858905
 20
4854.8504584404
 30
0.0
 40
3.0
100
AcDbArc
 50
0.0
 51
180.0
  0
LINE
  5
2CB
330
1F
100
AcDbEntity
  8
0
  6
Continuous
 62
     7
370
    25
100
AcDbLine
 10
6716.3228858905
 20
4854.8504584404
 30
0.0
 11
6716.3228858905
 21
4830.8504584404
 31
0.0
  0
ARC
  5
2CC
330
1F
100
AcDbEntity
  8
0
  6
Continuous
 62
     7
370
    25
100
AcDbCircle
 10
6708.599789043
 20
4830.9171126558
 30
0.0
 40
3.0
100
AcDbArc
 50
180.0
 51
0.0
  0
LINE
  5
2CD
330
1F
100
AcDbEntity
  8
0
  6
Continuous
 62
     7
370
    25
100
AcDbLine
 10
6711.599789043
 20
4830.9171126558
 30
0.0
 11
6711.599789043
 21
4854.9171126558
 31
0.0
  0
ARC
  5
2CE
330
1F
100
AcDbEntity
  8
0
  6
Continuous
 62
     7
370
    25
100
AcDbCircle
 10
6708.599789043
 20
4854.9171126558
 30
0.0
 40
3.0
100
AcDbArc
 50
0.0
 51
180.0
  0
LINE
  5
2CF
330
1F
100
AcDbEntity
  8
0
  6
Continuous
 62
     7
370
    25
100
AcDbLine
 10
6705.599789043
 20
4854.9171126558
 30
0.0
 11
6705.599789043
 21
4830.9171126558
 31
0.0
  0
ARC
  5
2D0
330
1F
100
AcDbEntity
  8
0
  6
Continuous
 62
     7
370
    25
100
AcDbCircle
 10
6697.878796001
 20
4830.6037677476
 30
0.0
 40
3.000000000000909
100
AcDbArc
 50
180.0
 51
0.0
  0
LINE
  5
2D1
330
1F
100
AcDbEntity
  8
0
  6
Continuous
 62
     7
370
    25
100
AcDbLine
 10
6700.878796001
 20
4830.6037677476
 30
0.0
 11
6700.878796001
 21
4854.6037677476
 31
0.0
  0
ARC
  5
2D2
330
1F
100
AcDbEntity
  8
0
  6
Continuous
 62
     7
370
    25
100
AcDbCircle
 10
6697.878796001
 20
4854.6037677476
 30
0.0
 40
3.000000000000909
100
AcDbArc
 50
0.0
 51
180.0
  0
LINE
  5
2D3
330
1F
100
AcDbEntity
  8
0
  6
Continuous
 62
     7
370
    25
100
AcDbLine
 10
6694.878796001
 20
4854.6037677476
 30
0.0
 11
6694.878796001
 21
4830.6037677476
 31
0.0
  0
ARC
  5
2D4
330
1F
100
AcDbEntity
  8
0
  6
Continuous
 62
     7
370
    25
100
AcDbCircle
 10
6687.1746334033
 20
4829.9397562908
 30
0.0
 40
3.0
100
AcDbArc
 50
180.0
 51
0.0
  0
LINE
  5
2D5
330
1F
100
AcDbEntity
  8
0
  6
Continuous
 62
     7
370
    25
100
AcDbLine
 10
6690.1746334033
 20
4829.9397562908
 30
0.0
 11
6690.1746334033
 21
4853.9397562908
 31
0.0
  0
ARC
  5
2D6
330
1F
100
AcDbEntity
  8
0
  6
Continuous
 62
     7
370
    25
100
AcDbCircle
 10
6687.1746334033
 20
4853.9397562908
 30
0.0
 40
3.0
100
AcDbArc
 50
0.0
 51
180.0
  0
LINE
  5
2D7
330
1F
100
AcDbEntity
  8
0
  6
Continuous
 62
     7
370
    25
100
AcDbLine
 10
6684.1746334033
 20
4853.9397562908
 30
0.0
 11
6684.1746334033
 21
4829.9397562908
 31
0.0
  0
ARC
  5
2D8
330
1F
100
AcDbEntity
  8
0
  6
Continuous
 62
     7
370
    25
100
AcDbCircle
 10
6676.4957164722
 20
4828.9554061105
 30
0.0
 40
3.000000000000909
100
AcDbArc
 50
180.0
 51
0.0
  0
LINE
  5
2D9
330
1F
100
AcDbEntity
  8
0
  6
Continuous
 62
     7
370
    25
100
AcDbLine
 10
6679.4957164722
 20
4828.9554061105
 30
0.0
 11
6679.4957164722
 21
4852.9554061105
 31
0.0
  0
ARC
  5
2DA
330
1F
100
AcDbEntity
  8
0
  6
Continuous
 62
     7
370
    25
100
AcDbCircle
 10
6676.4957164722
 20
4852.9554061105
 30
0.0
 40
3.000000000000909
100
AcDbArc
 50
0.0
 51
180.0
  0
LINE
  5
2DB
330
1F
100
AcDbEntity
  8
0
  6
Continuous
 62
     7
370
    25
100
AcDbLine
 10
6673.4957164722
 20
4852.9554061105
 30
0.0
 11
6673.4957164722
 21
4828.9554061105
 31
0.0
  0
ARC
  5
2DC
330
1F
100
AcDbEntity
  8
0
  6
Continuous
 62
     7
370
    25
100
AcDbCircle
 10
6665.8462528186
 20
4827.681103801
 30
0.0
 40
3.0
100
AcDbArc
 50
180.0
 51
0.0
  0
LINE
  5
2DD
330
1F
100
AcDbEntity
  8
0
  6
Continuous
 62
     7
370
    25
100
AcDbLine
 10
6668.8462528186
 20
4827.681103801
 30
0.0
 11
6668.8462528186
 21
4851.681103801
 31
0.0
  0
ARC
  5
2DE
330
1F
100
AcDbEntity
  8
0
  6
Continuous
 62
     7
370
    25
100
AcDbCircle
 10
6665.8462528186
 20
4851.681103801
 30
0.0
 40
3.0
100
AcDbArc
 50
0.0
 51
180.0
  0
LINE
  5
2DF
330
1F
100
AcDbEntity
  8
0
  6
Continuous
 62
     7
370
    25
100
AcDbLine
 10
6662.8462528186
 20
4851.681103801
 30
0.0
 11
6662.8462528186
 21
4827.681103801
 31
0.0
  0
ARC
  5
2E0
330
1F
100
AcDbEntity
  8
0
  6
Continuous
 62
     7
370
    25
100
AcDbCircle
 10
6655.2304500537
 20
4826.1472356868
 30
0.0
 40
3.0
100
AcDbArc
 50
180.0
 51
0.0
  0
LINE
  5
2E1
330
1F
100
AcDbEntity
  8
0
  6
Continuous
 62
     7
370
    25
100
AcDbLine
 10
6658.2304500537
 20
4826.1472356868
 30
0.0
 11
6658.2304500537
 21
4850.1472356868
 31
0.0
  0
ARC
  5
2E2
330
1F
100
AcDbEntity
  8
0
  6
Continuous
 62
     7
370
    25
100
AcDbCircle
 10
6655.2304500537
 20
4850.1472356868
 30
0.0
 40
3.0
100
AcDbArc
 50
0.0
 51
180.0
  0
LINE
  5
2E3
330
1F
100
AcDbEntity
  8
0
  6
Continuous
 62
     7
370
    25
100
AcDbLine
 10
6652.2304500537
 20
4850.1472356868
 30
0.0
 11
6652.2304500537
 21
4826.1472356868
 31
0.0
  0
ARC
  5
2E4
330
1F
100
AcDbEntity
  8
0
  6
Continuous
 62
     7
370
    25
100
AcDbCircle
 10
6644.6525157886
 20
4824.3840799002
 30
0.0
 40
3.0
100
AcDbArc
 50
180.0
 51
0.0
  0
LINE
  5
2E5
330
1F
100
AcDbEntity
  8
0
  6
Continuous
 62
     7
370
    25
100
AcDbLine
 10
6647.6525157886
 20
4824.3840799002
 30
0.0
 11
6647.6525157886
 21
4848.3840799002
 31
0.0
  0
ARC
  5
2E6
330
1F
100
AcDbEntity
  8
0
  6
Continuous
 62
     7
370
    25
100
AcDbCircle
 10
6644.6525157886
 20
4848.3840799002
 30
0.0
 40
3.0
100
AcDbArc
 50
0.0
 51
180.0
  0
LINE
  5
2E7
330
1F
100
AcDbEntity
  8
0
  6
Continuous
 62
     7
370
    25
100
AcDbLine
 10
6641.6525157886
 20
4848.3840799002
 30
0.0
 11
6641.6525157886
 21
4824.3840799002
 31
0.0
  0
ARC
  5
2E8
330
1F
100
AcDbEntity
  8
0
  6
Continuous
 62
     7
370
    25
100
AcDbCircle
 10
6634.1082424121
 20
4822.4200575118
 30
0.0
 40
3.0
100
AcDbArc
 50
180.0
 51
0.0
  0
LINE
  5
2E9
330
1F
100
AcDbEntity
  8
0
  6
Continuous
 62
     7
370
    25
100
AcDbLine
 10
6637.1082424121
 20
4822.4200575118
 30
0.0
 11
6637.1082424121
 21
4846.4200575118
 31
0.0
  0
ARC
  5
2EA
330
1F
100
AcDbEntity
  8
0
  6
Continuous
 62
     7
370
    25
100
AcDbCircle
 10
6634.1082424121
 20
4846.4200575118
 30
0.0
 40
3.0
100
AcDbArc
 50
0.0
 51
180.0
  0
LINE
  5
2EB
330
1F
100
AcDbEntity
  8
0
  6
Continuous
 62
     7
370
    25
100
AcDbLine
 10
6631.1082424121
 20
4846.4200575118
 30
0.0
 11
6631.1082424121
 21
4822.4200575118
 31
0.0
  0
ARC
  5
2EC
330
1F
100
AcDbEntity
  8
0
  6
Continuous
 62
     7
370
    25
100
AcDbCircle
 10
6623.5976299243
 20
4820.2836295133
 30
0.0
 40
3.0
100
AcDbArc
 50
180.0
 51
0.0
  0
LINE
  5
2ED
330
1F
100
AcDbEntity
  8
0
  6
Continuous
 62
     7
370
    25
100
AcDbLine
 10
6626.5976299243
 20
4820.2836295133
 30
0.0
 11
6626.5976299243
 21
4844.2836295133
 31
0.0
  0
ARC
  5
2EE
330
1F
100
AcDbEntity
  8
0
  6
Continuous
 62
     7
370
    25
100
AcDbCircle
 10
6623.5976299243
 20
4844.2836295133
 30
0.0
 40
3.0
100
AcDbArc
 50
0.0
 51
180.0
  0
LINE
  5
2EF
330
1F
100
AcDbEntity
  8
0
  6
Continuous
 62
     7
370
    25
100
AcDbLine
 10
6620.5976299243
 20
4844.2836295133
 30
0.0
 11
6620.5976299243
 21
4820.2836295133
 31
0.0
  0
ARC
  5
2F0
330
1F
100
AcDbEntity
  8
0
  6
Continuous
 62
     7
370
    25
100
AcDbCircle
 10
6613.1185745196
 20
4818.0022718389
 30
0.0
 40
3.0
100
AcDbArc
 50
180.0
 51
0.0
  0
LINE
  5
2F1
330
1F
100
AcDbEntity
  8
0
  6
Continuous
 62
     7
370
    25
100
AcDbLine
 10
6616.1185745196
 20
4818.0022718389
 30
0.0
 11
6616.1185745196
 21
4842.0022718389
 31
0.0
  0
ARC
  5
2F2
330
1F
100
AcDbEntity
  8
0
  6
Continuous
 62
     7
370
    25
100
AcDbCircle
 10
6613.1185745196
 20
4842.0022718389
 30
0.0
 40
3.0
100
AcDbArc
 50
0.0
 51
180.0
  0
LINE
  5
2F3
330
1F
100
AcDbEntity
  8
0
  6
Continuous
 62
     7
370
    25
100
AcDbLine
 10
6610.1185745196
 20
4842.0022718389
 30
0.0
 11
6610.1185745196
 21
4818.0022718389
 31
0.0
  0
ARC
  5
2F4
330
1F
100
AcDbEntity
  8
0
  6
Continuous
 62
     7
370
    25
100
AcDbCircle
 10
6602.6647647815
 20
4815.601873537
 30
0.0
 40
3.0
100
AcDbArc
 50
180.0
 51
0.0
  0
LINE
  5
2F5
330
1F
100
AcDbEntity
  8
0
  6
Continuous
 62
     7
370
    25
100
AcDbLine
 10
6605.6647647815
 20
4815.601873537
 30
0.0
 11
6605.6647647815
 21
4839.601873537
 31
0.0
  0
ARC
  5
2F6
330
1F
100
AcDbEntity
  8
0
  6
Continuous
 62
     7
370
    25
100
AcDbCircle
 10
6602.6647647815
 20
4839.601873537
 30
0.0
 40
3.0
100
AcDbArc
 50
0.0
 51
180.0
  0
LINE
  5
2F7
330
1F
100
AcDbEntity
  8
0
  6
Continuous
 62
     7
370
    25
100
AcDbLine
 10
6599.6647647815
 20
4839.601873537
 30
0.0
 11
6599.6647647815
 21
4815.601873537
 31
0.0
  0
ARC
  5
2F8
330
1F
100
AcDbEntity
  8
0
  6
Continuous
 62
     7
370
    25
100
AcDbCircle
 10
6592.2340969043
 20
4813.1086657665
 30
0.0
 40
3.0
100
AcDbArc
 50
180.0
 51
0.0
  0
LINE
  5
2F9
330
1F
100
AcDbEntity
  8
0
  6
Continuous
 62
     7
370
    25
100
AcDbLine
 10
6595.2340969043
 20
4813.1086657665
 30
0.0
 11
6595.2340969043
 21
4837.1086657665
 31
0.0
  0
ARC
  5
2FA
330
1F
100
AcDbEntity
  8
0
  6
Continuous
 62
     7
370
    25
100
AcDbCircle
 10
6592.2340969043
 20
4837.1086657665
 30
0.0
 40
3.0
100
AcDbArc
 50
0.0
 51
180.0
  0
LINE
  5
2FB
330
1F
100
AcDbEntity
  8
0
  6
Continuous
 62
     7
370
    25
100
AcDbLine
 10
6589.2340969043
 20
4837.1086657665
 30
0.0
 11
6589.2340969043
 21
4813.1086657665
 31
0.0
  0
ARC
  5
2FC
330
1F
100
AcDbEntity
  8
0
  6
Continuous
 62
     7
370
    25
100
AcDbCircle
 10
6581.8181556659
 20
4810.5468863676
 30
0.0
 40
3.000000000000909
100
AcDbArc
 50
180.0
 51
0.0
  0
LINE
  5
2FD
330
1F
100
AcDbEntity
  8
0
  6
Continuous
 62
     7
370
    25
100
AcDbLine
 10
6584.8181556659
 20
4810.5468863676
 30
0.0
 11
6584.8181556659
 21
4834.5468863676
 31
0.0
  0
ARC
  5
2FE
330
1F
100
AcDbEntity
  8
0
  6
Continuous
 62
     7
370
    25
100
AcDbCircle
 10
6581.8181556659
 20
4834.5468863676
 30
0.0
 40
3.000000000000909
100
AcDbArc
 50
0.0
 51
180.0
  0
LINE
  5
2FF
330
1F
100
AcDbEntity
  8
0
  6
Continuous
 62
     7
370
    25
100
AcDbLine
 10
6578.8181556659
 20
4834.5468863676
 30
0.0
 11
6578.8181556659
 21
4810.5468863676
 31
0.0
  0
ARC
  5
300
330
1F
100
AcDbEntity
  8
0
  6
Continuous
 62
     7
370
    25
100
AcDbCircle
 10
6571.4148372607
 20
4807.9419108318
 30
0.0
 40
3.0
100
AcDbArc
 50
180.0
 51
0.0
  0
LINE
  5
301
330
1F
100
AcDbEntity
  8
0
  6
Continuous
 62
     7
370
    25
100
AcDbLine
 10
6574.4148372607
 20
4807.9419108318
 30
0.0
 11
6574.4148372607
 21
4831.9419108318
 31
0.0
  0
ARC
  5
302
330
1F
100
AcDbEntity
  8
0
  6
Continuous
 62
     7
370
    25
100
AcDbCircle
 10
6571.4148372607
 20
4831.9419108318
 30
0.0
 40
3.0
100
AcDbArc
 50
0.0
 51
180.0
  0
LINE
  5
303
330
1F
100
AcDbEntity
  8
0
  6
Continuous
 62
     7
370
    25
100
AcDbLine
 10
6568.4148372607
 20
4831.9419108318
 30
0.0
 11
6568.4148372607
 21
4807.9419108318
 31
0.0
  0
ARC
  5
304
330
1F
100
AcDbEntity
  8
0
  6
Continuous
 62
     7
370
    25
100
AcDbCircle
 10
6561.0157264666
 20
4805.317296598
 30
0.0
 40
3.000000000000909
100
AcDbArc
 50
180.0
 51
0.0
  0
LINE
  5
305
330
1F
100
AcDbEntity
  8
0
  6
Continuous
 62
     7
370
    25
100
AcDbLine
 10
6564.0157264666
 20
4805.317296598
 30
0.0
 11
6564.0157264666
 21
4829.317296598
 31
0.0
  0
ARC
  5
306
330
1F
100
AcDbEntity
  8
0
  6
Continuous
 62
     7
370
    25
100
AcDbCircle
 10
6561.0157264666
 20
4829.317296598
 30
0.0
 40
3.000000000000909
100
AcDbArc
 50
0.0
 51
180.0
  0
LINE
  5
307
330
1F
100
AcDbEntity
  8
0
  6
Continuous
 62
     7
370
    25
100
AcDbLine
 10
6558.0157264666
 20
4829.317296598
 30
0.0
 11
6558.0157264666
 21
4805.317296598
 31
0.0
  0
ARC
  5
308
330
1F
100
AcDbEntity
  8
0
  6
Continuous
 62
     7
370
    25
100
AcDbCircle
 10
6550.614511867
 20
4802.6969998254
 30
0.0
 40
3.0
100
AcDbArc
 50
180.0
 51
0.0
  0
LINE
  5
309
330
1F
100
AcDbEntity
  8
0
  6
Continuous
 62
     7
370
    25
100
AcDbLine
 10
6553.614511867
 20
4802.6969998254
 30
0.0
 11
6553.614511867
 21
4826.6969998254
 31
0.0
  0
ARC
  5
30A
330
1F
100
AcDbEntity
  8
0
  6
Continuous
 62
     7
370
    25
100
AcDbCircle
 10
6550.614511867
 20
4826.6969998254
 30
0.0
 40
3.0
100
AcDbArc
 50
0.0
 51
180.0
  0
LINE
  5
30B
330
1F
100
AcDbEntity
  8
0
  6
Continuous
 62
     7
370
    25
100
AcDbLine
 10
6547.614511867
 20
4826.6969998254
 30
0.0
 11
6547.614511867
 21
4802.6969998254
 31
0.0
  0
ARC
  5
30C
330
1F
100
AcDbEntity
  8
0
  6
Continuous
 62
     7
370
    25
100
AcDbCircle
 10
6540.2069858508
 20
4800.1055385037
 30
0.0
 40
3.000000000000909
100
AcDbArc
 50
180.0
 51
0.0
  0
LINE
  5
30D
330
1F
100
AcDbEntity
  8
0
  6
Continuous
 62
     7
370
    25
100
AcDbLine
 10
6543.2069858508
 20
4800.1055385037
 30
0.0
 11
6543.2069858508
 21
4824.1055385037
 31
0.0
  0
ARC
  5
30E
330
1F
100
AcDbEntity
  8
0
  6
Continuous
 62
     7
370
    25
100
AcDbCircle
 10
6540.2069858508
 20
4824.1055385037
 30
0.0
 40
3.000000000000909
100
AcDbArc
 50
0.0
 51
180.0
  0
LINE
  5
30F
330
1F
100
AcDbEntity
  8
0
  6
Continuous
 62
     7
370
    25
100
AcDbLine
 10
6537.2069858508
 20
4824.1055385037
 30
0.0
 11
6537.2069858508
 21
4800.1055385037
 31
0.0
  0
ARC
  5
310
330
1F
100
AcDbEntity
  8
0
  6
Continuous
 62
     7
370
    25
100
AcDbCircle
 10
6529.7868370013
 20
4797.5670678513
 30
0.0
 40
3.000000000000909
100
AcDbArc
 50
180.0
 51
0.0
  0
LINE
  5
311
330
1F
100
AcDbEntity
  8
0
  6
Continuous
 62
     7
370
    25
100
AcDbLine
 10
6532.7868370013
 20
4797.5670678513
 30
0.0
 11
6532.7868370013
 21
4821.5670678513
 31
0.0
  0
ARC
  5
312
330
1F
100
AcDbEntity
  8
0
  6
Continuous
 62
     7
370
    25
100
AcDbCircle
 10
6529.7868370013
 20
4821.5670678513
 30
0.0
 40
3.000000000000909
100
AcDbArc
 50
0.0
 51
180.0
  0
LINE
  5
313
330
1F
100
AcDbEntity
  8
0
  6
Continuous
 62
     7
370
    25
100
AcDbLine
 10
6526.7868370013
 20
4821.5670678513
 30
0.0
 11
6526.7868370013
 21
4797.5670678513
 31
0.0
  0
ARC
  5
314
330
1F
100
AcDbEntity
  8
0
  6
Continuous
 62
     7
370
    25
100
AcDbCircle
 10
6519.3477539019
 20
4795.1060659412
 30
0.0
 40
3.0
100
AcDbArc
 50
180.0
 51
0.0
  0
LINE
  5
315
330
1F
100
AcDbEntity
  8
0
  6
Continuous
 62
     7
370
    25
100
AcDbLine
 10
6522.3477539019
 20
4795.1060659412
 30
0.0
 11
6522.3477539019
 21
4819.1060659412
 31
0.0
  0
ARC
  5
316
330
1F
100
AcDbEntity
  8
0
  6
Continuous
 62
     7
370
    25
100
AcDbCircle
 10
6519.3477539019
 20
4819.1060659412
 30
0.0
 40
3.0
100
AcDbArc
 50
0.0
 51
180.0
  0
LINE
  5
317
330
1F
100
AcDbEntity
  8
0
  6
Continuous
 62
     7
370
    25
100
AcDbLine
 10
6516.3477539019
 20
4819.1060659412
 30
0.0
 11
6516.3477539019
 21
4795.1060659412
 31
0.0
  0
ARC
  5
318
330
1F
100
AcDbEntity
  8
0
  6
Continuous
 62
     7
370
    25
100
AcDbCircle
 10
6508.8855289416
 20
4792.7479524556
 30
0.0
 40
3.0
100
AcDbArc
 50
180.0
 51
0.0
  0
LINE
  5
319
330
1F
100
AcDbEntity
  8
0
  6
Continuous
 62
     7
370
    25
100
AcDbLine
 10
6511.8855289416
 20
4792.7479524556
 30
0.0
 11
6511.8855289416
 21
4816.7479524556
 31
0.0
  0
ARC
  5
31A
330
1F
100
AcDbEntity
  8
0
  6
Continuous
 62
     7
370
    25
100
AcDbCircle
 10
6508.8855289416
 20
4816.7479524556
 30
0.0
 40
3.0
100
AcDbArc
 50
0.0
 51
180.0
  0
LINE
  5
31B
330
1F
100
AcDbEntity
  8
0
  6
Continuous
 62
     7
370
    25
100
AcDbLine
 10
6505.8855289416
 20
4816.7479524556
 30
0.0
 11
6505.8855289416
 21
4792.7479524556
 31
0.0
  0
ARC
  5
31C
330
1F
100
AcDbEntity
  8
0
  6
Continuous
 62
     7
370
    25
100
AcDbCircle
 10
6498.3938507037
 20
4790.5182355993
 30
0.0
 40
3.0
100
AcDbArc
 50
180.0
 51
0.0
  0
LINE
  5
31D
330
1F
100
AcDbEntity
  8
0
  6
Continuous
 62
     7
370
    25
100
AcDbLine
 10
6501.3938507037
 20
4790.5182355993
 30
0.0
 11
6501.3938507037
 21
4814.5182355993
 31
0.0
  0
ARC
  5
31E
330
1F
100
AcDbEntity
  8
0
  6
Continuous
 62
     7
370
    25
100
AcDbCircle
 10
6498.3938507037
 20
4814.5182355993
 30
0.0
 40
3.0
100
AcDbArc
 50
0.0
 51
180.0
  0
LINE
  5
31F
330
1F
100
AcDbEntity
  8
0
  6
Continuous
 62
     7
370
    25
100
AcDbLine
 10
6495.3938507037
 20
4814.5182355993
 30
0.0
 11
6495.3938507037
 21
4790.5182355993
 31
0.0
  0
ARC
  5
320
330
1F
100
AcDbEntity
  8
0
  6
Continuous
 62
     7
370
    25
100
AcDbCircle
 10
6487.8716672854
 20
4788.4441841227
 30
0.0
 40
3.000000000000909
100
AcDbArc
 50
180.0
 51
0.0
  0
LINE
  5
321
330
1F
100
AcDbEntity
  8
0
  6
Continuous
 62
     7
370
    25
100
AcDbLine
 10
6490.8716672854
 20
4788.4441841227
 30
0.0
 11
6490.8716672854
 21
4812.4441841227
 31
0.0
  0
ARC
  5
322
330
1F
100
AcDbEntity
  8
0
  6
Continuous
 62
     7
370
    25
100
AcDbCircle
 10
6487.8716672854
 20
4812.4441841227
 30
0.0
 40
3.000000000000909
100
AcDbArc
 50
0.0
 51
180.0
  0
LINE
  5
323
330
1F
100
AcDbEntity
  8
0
  6
Continuous
 62
     7
370
    25
100
AcDbLine
 10
6484.8716672854
 20
4812.4441841227
 30
0.0
 11
6484.8716672854
 21
4788.4441841227
 31
0.0
  0
ARC
  5
324
330
1F
100
AcDbEntity
  8
0
  6
Continuous
 62
     7
370
    25
100
AcDbCircle
 10
6477.3137191729
 20
4786.5528821511
 30
0.0
 40
3.0
100
AcDbArc
 50
180.0
 51
0.0
  0
LINE
  5
325
330
1F
100
AcDbEntity
  8
0
  6
Continuous
 62
     7
370
    25
100
AcDbLine
 10
6480.3137191729
 20
4786.5528821511
 30
0.0
 11
6480.3137191729
 21
4810.5528821511
 31
0.0
  0
ARC
  5
326
330
1F
100
AcDbEntity
  8
0
  6
Continuous
 62
     7
370
    25
100
AcDbCircle
 10
6477.3137191729
 20
4810.5528821511
 30
0.0
 40
3.0
100
AcDbArc
 50
0.0
 51
180.0
  0
LINE
  5
327
330
1F
100
AcDbEntity
  8
0
  6
Continuous
 62
     7
370
    25
100
AcDbLine
 10
6474.3137191729
 20
4810.5528821511
 30
0.0
 11
6474.3137191729
 21
4786.5528821511
 31
0.0
  0
ARC
  5
328
330
1F
100
AcDbEntity
  8
0
  6
Continuous
 62
     7
370
    25
100
AcDbCircle
 10
6466.721058269
 20
4784.8732704394
 30
0.0
 40
3.0
100
AcDbArc
 50
180.0
 51
0.0
  0
LINE
  5
329
330
1F
100
AcDbEntity
  8
0
  6
Continuous
 62
     7
370
    25
100
AcDbLine
 10
6469.721058269
 20
4784.8732704394
 30
0.0
 11
6469.721058269
 21
4808.8732704394
 31
0.0
  0
ARC
  5
32A
330
1F
100
AcDbEntity
  8
0
  6
Continuous
 62
     7
370
    25
100
AcDbCircle
 10
6466.721058269
 20
4808.8732704394
 30
0.0
 40
3.0
100
AcDbArc
 50
0.0
 51
180.0
  0
LINE
  5
32B
330
1F
100
AcDbEntity
  8
0
  6
Continuous
 62
     7
370
    25
100
AcDbLine
 10
6463.721058269
 20
4808.8732704394
 30
0.0
 11
6463.721058269
 21
4784.8732704394
 31
0.0
  0
ARC
  5
32C
330
1F
100
AcDbEntity
  8
0
  6
Continuous
 62
     7
370
    25
100
AcDbCircle
 10
6456.0947364764
 20
4783.4347389569
 30
0.0
 40
3.0
100
AcDbArc
 50
180.0
 51
0.0
  0
LINE
  5
32D
330
1F
100
AcDbEntity
  8
0
  6
Continuous
 62
     7
370
    25
100
AcDbLine
 10
6459.0947364764
 20
4783.4347389569
 30
0.0
 11
6459.0947364764
 21
4807.4347389569
 31
0.0
  0
ARC
  5
32E
330
1F
100
AcDbEntity
  8
0
  6
Continuous
 62
     7
370
    25
100
AcDbCircle
 10
6456.0947364764
 20
4807.4347389569
 30
0.0
 40
3.0
100
AcDbArc
 50
0.0
 51
180.0
  0
LINE
  5
32F
330
1F
100
AcDbEntity
  8
0
  6
Continuous
 62
     7
370
    25
100
AcDbLine
 10
6453.0947364764
 20
4807.4347389569
 30
0.0
 11
6453.0947364764
 21
4783.4347389569
 31
0.0
  0
ARC
  5
330
330
1F
100
AcDbEntity
  8
0
  6
Continuous
 62
     7
370
    25
100
AcDbCircle
 10
6445.4326499896
 20
4782.2668014147
 30
0.0
 40
3.000000000000909
100
AcDbArc
 50
180.0
 51
0.0
  0
LINE
  5
331
330
1F
100
AcDbEntity
  8
0
  6
Continuous
 62
     7
370
    25
100
AcDbLine
 10
6448.4326499896
 20
4782.2668014147
 30
0.0
 11
6448.4326499896
 21
4806.2668014147
 31
0.0
  0
ARC
  5
332
330
1F
100
AcDbEntity
  8
0
  6
Continuous
 62
     7
370
    25
100
AcDbCircle
 10
6445.4326499896
 20
4806.2668014147
 30
0.0
 40
3.000000000000909
100
AcDbArc
 50
0.0
 51
180.0
  0
LINE
  5
333
330
1F
100
AcDbEntity
  8
0
  6
Continuous
 62
     7
370
    25
100
AcDbLine
 10
6442.4326499896
 20
4806.2668014147
 30
0.0
 11
6442.4326499896
 21
4782.2668014147
 31
0.0
  0
ARC
  5
334
330
1F
100
AcDbEntity
  8
0
  6
Continuous
 62
     7
370
    25
100
AcDbCircle
 10
6434.7432140307
 20
4781.400443553
 30
0.0
 40
3.0
100
AcDbArc
 50
180.0
 51
0.0
  0
LINE
  5
335
330
1F
100
AcDbEntity
  8
0
  6
Continuous
 62
     7
370
    25
100
AcDbLine
 10
6437.7432140307
 20
4781.400443553
 30
0.0
 11
6437.7432140307
 21
4805.400443553
 31
0.0
  0
ARC
  5
336
330
1F
100
AcDbEntity
  8
0
  6
Continuous
 62
     7
370
    25
100
AcDbCircle
 10
6434.7432140307
 20
4805.400443553
 30
0.0
 40
3.0
100
AcDbArc
 50
0.0
 51
180.0
  0
LINE
  5
337
330
1F
100
AcDbEntity
  8
0
  6
Continuous
 62
     7
370
    25
100
AcDbLine
 10
6431.7432140307
 20
4805.400443553
 30
0.0
 11
6431.7432140307
 21
4781.400443553
 31
0.0
  0
ARC
  5
338
330
1F
100
AcDbEntity
  8
0
  6
Continuous
 62
     7
370
    25
100
AcDbCircle
 10
6424.0306362109
 20
4780.8659817128
 30
0.0
 40
3.0
100
AcDbArc
 50
180.0
 51
0.0
  0
LINE
  5
339
330
1F
100
AcDbEntity
  8
0
  6
Continuous
 62
     7
370
    25
100
AcDbLine
 10
6427.0306362109
 20
4780.8659817128
 30
0.0
 11
6427.0306362109
 21
4804.8659817128
 31
0.0
  0
ARC
  5
33A
330
1F
100
AcDbEntity
  8
0
  6
Continuous
 62
     7
370
    25
100
AcDbCircle
 10
6424.0306362109
 20
4804.8659817128
 30
0.0
 40
3.0
100
AcDbArc
 50
0.0
 51
180.0
  0
LINE
  5
33B
330
1F
100
AcDbEntity
  8
0
  6
Continuous
 62
     7
370
    25
100
AcDbLine
 10
6421.0306362109
 20
4804.8659817128
 30
0.0
 11
6421.0306362109
 21
4780.8659817128
 31
0.0
  0
ARC
  5
33C
330
1F
100
AcDbEntity
  8
0
  6
Continuous
 62
     7
370
    25
100
AcDbCircle
 10
6413.3075393633
 20
4780.6935589198
 30
0.0
 40
3.0
100
AcDbArc
 50
180.0
 51
0.0
  0
LINE
  5
33D
330
1F
100
AcDbEntity
  8
0
  6
Continuous
 62
     7
370
    25
100
AcDbLine
 10
6416.3075393633
 20
4780.6935589198
 30
0.0
 11
6416.3075393633
 21
4804.6935589198
 31
0.0
  0
ARC
  5
33E
330
1F
100
AcDbEntity
  8
0
  6
Continuous
 62
     7
370
    25
100
AcDbCircle
 10
6413.3075393633
 20
4804.6935589198
 30
0.0
 40
3.0
100
AcDbArc
 50
0.0
 51
180.0
  0
LINE
  5
33F
330
1F
100
AcDbEntity
  8
0
  6
Continuous
 62
     7
370
    25
100
AcDbLine
 10
6410.3075393633
 20
4804.6935589198
 30
0.0
 11
6410.3075393633
 21
4780.6935589198
 31
0.0
  0
ARC
  5
340
330
1F
100
AcDbEntity
  8
0
  6
Continuous
 62
     7
370
    25
100
AcDbCircle
 10
6402.5854944186
 20
4780.9098070565
 30
0.0
 40
3.0
100
AcDbArc
 50
180.0
 51
0.0
  0
LINE
  5
341
330
1F
100
AcDbEntity
  8
0
  6
Continuous
 62
     7
370
    25
100
AcDbLine
 10
6405.5854944186
 20
4780.9098070565
 30
0.0
 11
6405.5854944186
 21
4804.9098070565
 31
0.0
  0
ARC
  5
342
330
1F
100
AcDbEntity
  8
0
  6
Continuous
 62
     7
370
    25
100
AcDbCircle
 10
6402.5854944186
 20
4804.9098070565
 30
0.0
 40
3.0
100
AcDbArc
 50
0.0
 51
180.0
  0
LINE
  5
343
330
1F
100
AcDbEntity
  8
0
  6
Continuous
 62
     7
370
    25
100
AcDbLine
 10
6399.5854944186
 20
4804.9098070565
 30
0.0
 11
6399.5854944186
 21
4780.9098070565
 31
0.0
  0
ARC
  5
344
330
1F
100
AcDbEntity
  8
0
  6
Continuous
 62
     7
370
    25
100
AcDbCircle
 10
6391.8781761126
 20
4781.5080601025
 30
0.0
 40
3.0
100
AcDbArc
 50
180.0
 51
0.0
  0
LINE
  5
345
330
1F
100
AcDbEntity
  8
0
  6
Continuous
 62
     7
370
    25
100
AcDbLine
 10
6394.8781761126
 20
4781.5080601025
 30
0.0
 11
6394.8781761126
 21
4805.5080601025
 31
0.0
  0
ARC
  5
346
330
1F
100
AcDbEntity
  8
0
  6
Continuous
 62
     7
370
    25
100
AcDbCircle
 10
6391.8781761126
 20
4805.5080601025
 30
0.0
 40
3.0
100
AcDbArc
 50
0.0
 51
180.0
  0
LINE
  5
347
330
1F
100
AcDbEntity
  8
0
  6
Continuous
 62
     7
370
    25
100
AcDbLine
 10
6388.8781761126
 20
4805.5080601025
 30
0.0
 11
6388.8781761126
 21
4781.5080601025
 31
0.0
  0
ARC
  5
348
330
1F
100
AcDbEntity
  8
0
  6
Continuous
 62
     7
370
    25
100
AcDbCircle
 10
6381.1950515704
 20
4782.4553601773
 30
0.0
 40
3.000000000000909
100
AcDbArc
 50
180.0
 51
0.0
  0
LINE
  5
349
330
1F
100
AcDbEntity
  8
0
  6
Continuous
 62
     7
370
    25
100
AcDbLine
 10
6384.1950515704
 20
4782.4553601773
 30
0.0
 11
6384.1950515704
 21
4806.4553601773
 31
0.0
  0
ARC
  5
34A
330
1F
100
AcDbEntity
  8
0
  6
Continuous
 62
     7
370
    25
100
AcDbCircle
 10
6381.1950515704
 20
4806.4553601773
 30
0.0
 40
3.000000000000909
100
AcDbArc
 50
0.0
 51
180.0
  0
LINE
  5
34B
330
1F
100
AcDbEntity
  8
0
  6
Continuous
 62
     7
370
    25
100
AcDbLine
 10
6378.1950515704
 20
4806.4553601773
 30
0.0
 11
6378.1950515704
 21
4782.4553601773
 31
0.0
  0
ARC
  5
34C
330
1F
100
AcDbEntity
  8
0
  6
Continuous
 62
     7
370
    25
100
AcDbCircle
 10
6370.5434841112
 20
4783.7175235203
 30
0.0
 40
3.0
100
AcDbArc
 50
180.0
 51
0.0
  0
LINE
  5
34D
330
1F
100
AcDbEntity
  8
0
  6
Continuous
 62
     7
370
    25
100
AcDbLine
 10
6373.5434841112
 20
4783.7175235203
 30
0.0
 11
6373.5434841112
 21
4807.7175235203
 31
0.0
  0
ARC
  5
34E
330
1F
100
AcDbEntity
  8
0
  6
Continuous
 62
     7
370
    25
100
AcDbCircle
 10
6370.5434841112
 20
4807.7175235203
 30
0.0
 40
3.0
100
AcDbArc
 50
0.0
 51
180.0
  0
LINE
  5
34F
330
1F
100
AcDbEntity
  8
0
  6
Continuous
 62
     7
370
    25
100
AcDbLine
 10
6367.5434841112
 20
4807.7175235203
 30
0.0
 11
6367.5434841112
 21
4783.7175235203
 31
0.0
  0
ARC
  5
350
330
1F
100
AcDbEntity
  8
0
  6
Continuous
 62
     7
370
    25
100
AcDbCircle
 10
6359.9297851519
 20
4785.2602087286
 30
0.0
 40
3.0
100
AcDbArc
 50
180.0
 51
0.0
  0
LINE
  5
351
330
1F
100
AcDbEntity
  8
0
  6
Continuous
 62
     7
370
    25
100
AcDbLine
 10
6362.9297851519
 20
4785.2602087286
 30
0.0
 11
6362.9297851519
 21
4809.2602087286
 31
0.0
  0
ARC
  5
352
330
1F
100
AcDbEntity
  8
0
  6
Continuous
 62
     7
370
    25
100
AcDbCircle
 10
6359.9297851519
 20
4809.2602087286
 30
0.0
 40
3.0
100
AcDbArc
 50
0.0
 51
180.0
  0
LINE
  5
353
330
1F
100
AcDbEntity
  8
0
  6
Continuous
 62
     7
370
    25
100
AcDbLine
 10
6356.9297851519
 20
4809.2602087286
 30
0.0
 11
6356.9297851519
 21
4785.2602087286
 31
0.0
  0
ARC
  5
354
330
1F
100
AcDbEntity
  8
0
  6
Continuous
 62
     7
370
    25
100
AcDbCircle
 10
6349.3560584978
 20
4787.0498170858
 30
0.0
 40
3.0
100
AcDbArc
 50
180.0
 51
0.0
  0
LINE
  5
355
330
1F
100
AcDbEntity
  8
0
  6
Continuous
 62
     7
370
    25
100
AcDbLine
 10
6352.3560584978
 20
4787.0498170858
 30
0.0
 11
6352.3560584978
 21
4811.0498170858
 31
0.0
  0
ARC
  5
356
330
1F
100
AcDbEntity
  8
0
  6
Continuous
 62
     7
370
    25
100
AcDbCircle
 10
6349.3560584978
 20
4811.0498170858
 30
0.0
 40
3.0
100
AcDbArc
 50
0.0
 51
180.0
  0
LINE
  5
357
330
1F
100
AcDbEntity
  8
0
  6
Continuous
 62
     7
370
    25
100
AcDbLine
 10
6346.3560584978
 20
4811.0498170858
 30
0.0
 11
6346.3560584978
 21
4787.0498170858
 31
0.0
  0
ARC
  5
358
330
1F
100
AcDbEntity
  8
0
  6
Continuous
 62
     7
370
    25
100
AcDbCircle
 10
6338.8202003435
 20
4789.0540828516
 30
0.0
 40
3.0
100
AcDbArc
 50
180.0
 51
0.0
  0
LINE
  5
359
330
1F
100
AcDbEntity
  8
0
  6
Continuous
 62
     7
370
    25
100
AcDbLine
 10
6341.8202003435
 20
4789.0540828516
 30
0.0
 11
6341.8202003435
 21
4813.0540828516
 31
0.0
  0
ARC
  5
35A
330
1F
100
AcDbEntity
  8
0
  6
Continuous
 62
     7
370
    25
100
AcDbCircle
 10
6338.8202003435
 20
4813.0540828516
 30
0.0
 40
3.0
100
AcDbArc
 50
0.0
 51
180.0
  0
LINE
  5
35B
330
1F
100
AcDbEntity
  8
0
  6
Continuous
 62
     7
370
    25
100
AcDbLine
 10
6335.8202003435
 20
4813.0540828516
 30
0.0
 11
6335.8202003435
 21
4789.0540828516
 31
0.0
  0
ARC
  5
35C
330
1F
100
AcDbEntity
  8
0
  6
Continuous
 62
     7
370
    25
100
AcDbCircle
 10
6328.3201068834
 20
4791.2415677967
 30
0.0
 40
3.0
100
AcDbArc
 50
180.0
 51
0.0
  0
LINE
  5
35D
330
1F
100
AcDbEntity
  8
0
  6
Continuous
 62
     7
370
    25
100
AcDbLine
 10
6331.3201068834
 20
4791.2415677967
 30
0.0
 11
6331.3201068834
 21
4815.2415677967
 31
0.0
  0
ARC
  5
35E
330
1F
100
AcDbEntity
  8
0
  6
Continuous
 62
     7
370
    25
100
AcDbCircle
 10
6328.3201068834
 20
4815.2415677967
 30
0.0
 40
3.0
100
AcDbArc
 50
0.0
 51
180.0
  0
LINE
  5
35F
330
1F
100
AcDbEntity
  8
0
  6
Continuous
 62
     7
370
    25
100
AcDbLine
 10
6325.3201068834
 20
4815.2415677967
 30
0.0
 11
6325.3201068834
 21
4791.2415677967
 31
0.0
  0
ARC
  5
360
330
1F
100
AcDbEntity
  8
0
  6
Continuous
 62
     7
370
    25
100
AcDbCircle
 10
6317.853674312
 20
4793.5815950608
 30
0.0
 40
3.0
100
AcDbArc
 50
180.0
 51
0.0
  0
LINE
  5
361
330
1F
100
AcDbEntity
  8
0
  6
Continuous
 62
     7
370
    25
100
AcDbLine
 10
6320.853674312
 20
4793.5815950608
 30
0.0
 11
6320.853674312
 21
4817.5815950608
 31
0.0
  0
ARC
  5
362
330
1F
100
AcDbEntity
  8
0
  6
Continuous
 62
     7
370
    25
100
AcDbCircle
 10
6317.853674312
 20
4817.5815950608
 30
0.0
 40
3.0
100
AcDbArc
 50
0.0
 51
180.0
  0
LINE
  5
363
330
1F
100
AcDbEntity
  8
0
  6
Continuous
 62
     7
370
    25
100
AcDbLine
 10
6314.853674312
 20
4817.5815950608
 30
0.0
 11
6314.853674312
 21
4793.5815950608
 31
0.0
  0
ARC
  5
364
330
1F
100
AcDbEntity
  8
0
  6
Continuous
 62
     7
370
    25
100
AcDbCircle
 10
6307.4145912127
 20
4796.0451995095
 30
0.0
 40
3.0
100
AcDbArc
 50
180.0
 51
0.0
  0
LINE
  5
365
330
1F
100
AcDbEntity
  8
0
  6
Continuous
 62
     7
370
    25
100
AcDbLine
 10
6310.4145912127
 20
4796.0451995095
 30
0.0
 11
6310.4145912127
 21
4820.0451995095
 31
0.0
  0
ARC
  5
366
330
1F
100
AcDbEntity
  8
0
  6
Continuous
 62
     7
370
    25
100
AcDbCircle
 10
6307.4145912127
 20
4820.0451995095
 30
0.0
 40
3.0
100
AcDbArc
 50
0.0
 51
180.0
  0
LINE
  5
367
330
1F
100
AcDbEntity
  8
0
  6
Continuous
 62
     7
370
    25
100
AcDbLine
 10
6304.4145912127
 20
4820.0451995095
 30
0.0
 11
6304.4145912127
 21
4796.0451995095
 31
0.0
  0
ARC
  5
368
330
1F
100
AcDbEntity
  8
0
  6
Continuous
 62
     7
370
    25
100
AcDbCircle
 10
6296.9986499743
 20
4798.6036626385
 30
0.0
 40
3.0
100
AcDbArc
 50
180.0
 51
0.0
  0
LINE
  5
369
330
1F
100
AcDbEntity
  8
0
  6
Continuous
 62
     7
370
    25
100
AcDbLine
 10
6299.9986499743
 20
4798.6036626385
 30
0.0
 11
6299.9986499743
 21
4822.6036626385
 31
0.0
  0
ARC
  5
36A
330
1F
100
AcDbEntity
  8
0
  6
Continuous
 62
     7
370
    25
100
AcDbCircle
 10
6296.9986499743
 20
4822.6036626385
 30
0.0
 40
3.0
100
AcDbArc
 50
0.0
 51
180.0
  0
LINE
  5
36B
330
1F
100
AcDbEntity
  8
0
  6
Continuous
 62
     7
370
    25
100
AcDbLine
 10
6293.9986499743
 20
4822.6036626385
 30
0.0
 11
6293.9986499743
 21
4798.6036626385
 31
0.0
  0
ARC
  5
36C
330
1F
100
AcDbEntity
  8
0
  6
Continuous
 62
     7
370
    25
100
AcDbCircle
 10
6286.5995391802
 20
4801.229349264
 30
0.0
 40
3.0
100
AcDbArc
 50
180.0
 51
0.0
  0
LINE
  5
36D
330
1F
100
AcDbEntity
  8
0
  6
Continuous
 62
     7
370
    25
100
AcDbLine
 10
6289.5995391802
 20
4801.229349264
 30
0.0
 11
6289.5995391802
 21
4825.229349264
 31
0.0
  0
ARC
  5
36E
330
1F
100
AcDbEntity
  8
0
  6
Continuous
 62
     7
370
    25
100
AcDbCircle
 10
6286.5995391802
 20
4825.229349264
 30
0.0
 40
3.0
100
AcDbArc
 50
0.0
 51
180.0
  0
LINE
  5
36F
330
1F
100
AcDbEntity
  8
0
  6
Continuous
 62
     7
370
    25
100
AcDbLine
 10
6283.5995391802
 20
4825.229349264
 30
0.0
 11
6283.5995391802
 21
4801.229349264
 31
0.0
  0
ARC
  5
370
330
1F
100
AcDbEntity
  8
0
  6
Continuous
 62
     7
370
    25
100
AcDbCircle
 10
6276.2109474138
 20
4803.8950757365
 30
0.0
 40
3.0
100
AcDbArc
 50
180.0
 51
0.0
  0
LINE
  5
371
330
1F
100
AcDbEntity
  8
0
  6
Continuous
 62
     7
370
    25
100
AcDbLine
 10
6279.2109474138
 20
4803.8950757365
 30
0.0
 11
6279.2109474138
 21
4827.8950757365
 31
0.0
  0
ARC
  5
372
330
1F
100
AcDbEntity
  8
0
  6
Continuous
 62
     7
370
    25
100
AcDbCircle
 10
6276.2109474138
 20
4827.8950757365
 30
0.0
 40
3.0
100
AcDbArc
 50
0.0
 51
180.0
  0
LINE
  5
373
330
1F
100
AcDbEntity
  8
0
  6
Continuous
 62
     7
370
    25
100
AcDbLine
 10
6273.2109474138
 20
4827.8950757365
 30
0.0
 11
6273.2109474138
 21
4803.8950757365
 31
0.0
  0
ARC
  5
374
330
1F
100
AcDbEntity
  8
0
  6
Continuous
 62
     7
370
    25
100
AcDbCircle
 10
6265.8265632586
 20
4806.5739354266
 30
0.0
 40
3.0
100
AcDbArc
 50
180.0
 51
0.0
  0
LINE
  5
375
330
1F
100
AcDbEntity
  8
0
  6
Continuous
 62
     7
370
    25
100
AcDbLine
 10
6268.8265632586
 20
4806.5739354266
 30
0.0
 11
6268.8265632586
 21
4830.5739354266
 31
0.0
  0
ARC
  5
376
330
1F
100
AcDbEntity
  8
0
  6
Continuous
 62
     7
370
    25
100
AcDbCircle
 10
6265.8265632586
 20
4830.5739354266
 30
0.0
 40
3.0
100
AcDbArc
 50
0.0
 51
180.0
  0
LINE
  5
377
330
1F
100
AcDbEntity
  8
0
  6
Continuous
 62
     7
370
    25
100
AcDbLine
 10
6262.8265632586
 20
4830.5739354266
 30
0.0
 11
6262.8265632586
 21
4806.5739354266
 31
0.0
  0
ARC
  5
378
330
1F
100
AcDbEntity
  8
0
  6
Continuous
 62
     7
370
    25
100
AcDbCircle
 10
6255.4379714922
 20
4809.239661899
 30
0.0
 40
3.0
100
AcDbArc
 50
180.0
 51
0.0
  0
LINE
  5
379
330
1F
100
AcDbEntity
  8
0
  6
Continuous
 62
     7
370
    25
100
AcDbLine
 10
6258.4379714922
 20
4809.239661899
 30
0.0
 11
6258.4379714922
 21
4833.239661899
 31
0.0
  0
ARC
  5
37A
330
1F
100
AcDbEntity
  8
0
  6
Continuous
 62
     7
370
    25
100
AcDbCircle
 10
6255.4379714922
 20
4833.239661899
 30
0.0
 40
3.0
100
AcDbArc
 50
0.0
 51
180.0
  0
LINE
  5
37B
330
1F
100
AcDbEntity
  8
0
  6
Continuous
 62
     7
370
    25
100
AcDbLine
 10
6252.4379714922
 20
4833.239661899
 30
0.0
 11
6252.4379714922
 21
4809.239661899
 31
0.0
  0
ARC
  5
37C
330
1F
100
AcDbEntity
  8
0
  6
Continuous
 62
     7
370
    25
100
AcDbCircle
 10
6245.0388606981
 20
4811.8653485245
 30
0.0
 40
3.000000000000909
100
AcDbArc
 50
180.0
 51
0.0
  0
LINE
  5
37D
330
1F
100
AcDbEntity
  8
0
  6
Continuous
 62
     7
370
    25
100
AcDbLine
 10
6248.0388606981
 20
4811.8653485245
 30
0.0
 11
6248.0388606981
 21
4835.8653485245
 31
0.0
  0
ARC
  5
37E
330
1F
100
AcDbEntity
  8
0
  6
Continuous
 62
     7
370
    25
100
AcDbCircle
 10
6245.0388606981
 20
4835.8653485245
 30
0.0
 40
3.000000000000909
100
AcDbArc
 50
0.0
 51
180.0
  0
LINE
  5
37F
330
1F
100
AcDbEntity
  8
0
  6
Continuous
 62
     7
370
    25
100
AcDbLine
 10
6242.0388606981
 20
4835.8653485245
 30
0.0
 11
6242.0388606981
 21
4811.8653485245
 31
0.0
  0
ARC
  5
380
330
1F
100
AcDbEntity
  8
0
  6
Continuous
 62
     7
370
    25
100
AcDbCircle
 10
6234.6229194597
 20
4814.4238116535
 30
0.0
 40
3.0
100
AcDbArc
 50
180.0
 51
0.0
  0
LINE
  5
381
330
1F
100
AcDbEntity
  8
0
  6
Continuous
 62
     7
370
    25
100
AcDbLine
 10
6237.6229194597
 20
4814.4238116535
 30
0.0
 11
6237.6229194597
 21
4838.4238116535
 31
0.0
  0
ARC
  5
382
330
1F
100
AcDbEntity
  8
0
  6
Continuous
 62
     7
370
    25
100
AcDbCircle
 10
6234.6229194597
 20
4838.4238116535
 30
0.0
 40
3.0
100
AcDbArc
 50
0.0
 51
180.0
  0
LINE
  5
383
330
1F
100
AcDbEntity
  8
0
  6
Continuous
 62
     7
370
    25
100
AcDbLine
 10
6231.6229194597
 20
4838.4238116535
 30
0.0
 11
6231.6229194597
 21
4814.4238116535
 31
0.0
  0
ARC
  5
384
330
1F
100
AcDbEntity
  8
0
  6
Continuous
 62
     7
370
    25
100
AcDbCircle
 10
6224.1838363603
 20
4816.8874161022
 30
0.0
 40
3.0
100
AcDbArc
 50
180.0
 51
0.0
  0
LINE
  5
385
330
1F
100
AcDbEntity
  8
0
  6
Continuous
 62
     7
370
    25
100
AcDbLine
 10
6227.1838363603
 20
4816.8874161022
 30
0.0
 11
6227.1838363603
 21
4840.8874161022
 31
0.0
  0
ARC
  5
386
330
1F
100
AcDbEntity
  8
0
  6
Continuous
 62
     7
370
    25
100
AcDbCircle
 10
6224.1838363603
 20
4840.8874161022
 30
0.0
 40
3.0
100
AcDbArc
 50
0.0
 51
180.0
  0
LINE
  5
387
330
1F
100
AcDbEntity
  8
0
  6
Continuous
 62
     7
370
    25
100
AcDbLine
 10
6221.1838363603
 20
4840.8874161022
 30
0.0
 11
6221.1838363603
 21
4816.8874161022
 31
0.0
  0
ARC
  5
388
330
1F
100
AcDbEntity
  8
0
  6
Continuous
 62
     7
370
    25
100
AcDbCircle
 10
6213.7174037889
 20
4819.2274433663
 30
0.0
 40
3.0
100
AcDbArc
 50
180.0
 51
0.0
  0
LINE
  5
389
330
1F
100
AcDbEntity
  8
0
  6
Continuous
 62
     7
370
    25
100
AcDbLine
 10
6216.7174037889
 20
4819.2274433663
 30
0.0
 11
6216.7174037889
 21
4843.2274433663
 31
0.0
  0
ARC
  5
38A
330
1F
100
AcDbEntity
  8
0
  6
Continuous
 62
     7
370
    25
100
AcDbCircle
 10
6213.7174037889
 20
4843.2274433663
 30
0.0
 40
3.0
100
AcDbArc
 50
0.0
 51
180.0
  0
LINE
  5
38B
330
1F
100
AcDbEntity
  8
0
  6
Continuous
 62
     7
370
    25
100
AcDbLine
 10
6210.7174037889
 20
4843.2274433663
 30
0.0
 11
6210.7174037889
 21
4819.2274433663
 31
0.0
  0
ARC
  5
38C
330
1F
100
AcDbEntity
  8
0
  6
Continuous
 62
     7
370
    25
100
AcDbCircle
 10
6203.2173103288
 20
4821.4149283114
 30
0.0
 40
3.0
100
AcDbArc
 50
180.0
 51
0.0
  0
LINE
  5
38D
330
1F
100
AcDbEntity
  8
0
  6
Continuous
 62
     7
370
    25
100
AcDbLine
 10
6206.2173103288
 20
4821.4149283114
 30
0.0
 11
6206.2173103288
 21
4845.4149283114
 31
0.0
  0
ARC
  5
38E
330
1F
100
AcDbEntity
  8
0
  6
Continuous
 62
     7
370
    25
100
AcDbCircle
 10
6203.2173103288
 20
4845.4149283114
 30
0.0
 40
3.0
100
AcDbArc
 50
0.0
 51
180.0
  0
LINE
  5
38F
330
1F
100
AcDbEntity
  8
0
  6
Continuous
 62
     7
370
    25
100
AcDbLine
 10
6200.2173103288
 20
4845.4149283114
 30
0.0
 11
6200.2173103288
 21
4821.4149283114
 31
0.0
  0
ARC
  5
390
330
1F
100
AcDbEntity
  8
0
  6
Continuous
 62
     7
370
    25
100
AcDbCircle
 10
6192.6814521745
 20
4823.4191940772
 30
0.0
 40
3.0
100
AcDbArc
 50
180.0
 51
0.0
  0
LINE
  5
391
330
1F
100
AcDbEntity
  8
0
  6
Continuous
 62
     7
370
    25
100
AcDbLine
 10
6195.6814521745
 20
4823.4191940772
 30
0.0
 11
6195.6814521745
 21
4847.4191940772
 31
0.0
  0
ARC
  5
392
330
1F
100
AcDbEntity
  8
0
  6
Continuous
 62
     7
370
    25
100
AcDbCircle
 10
6192.6814521745
 20
4847.4191940772
 30
0.0
 40
3.0
100
AcDbArc
 50
0.0
 51
180.0
  0
LINE
  5
393
330
1F
100
AcDbEntity
  8
0
  6
Continuous
 62
     7
370
    25
100
AcDbLine
 10
6189.6814521745
 20
4847.4191940772
 30
0.0
 11
6189.6814521745
 21
4823.4191940772
 31
0.0
  0
ARC
  5
394
330
1F
100
AcDbEntity
  8
0
  6
Continuous
 62
     7
370
    25
100
AcDbCircle
 10
6182.1077255205
 20
4825.2088024344
 30
0.0
 40
3.0
100
AcDbArc
 50
180.0
 51
0.0
  0
LINE
  5
395
330
1F
100
AcDbEntity
  8
0
  6
Continuous
 62
     7
370
    25
100
AcDbLine
 10
6185.1077255205
 20
4825.2088024344
 30
0.0
 11
6185.1077255205
 21
4849.2088024344
 31
0.0
  0
ARC
  5
396
330
1F
100
AcDbEntity
  8
0
  6
Continuous
 62
     7
370
    25
100
AcDbCircle
 10
6182.1077255205
 20
4849.2088024344
 30
0.0
 40
3.0
100
AcDbArc
 50
0.0
 51
180.0
  0
LINE
  5
397
330
1F
100
AcDbEntity
  8
0
  6
Continuous
 62
     7
370
    25
100
AcDbLine
 10
6179.1077255205
 20
4849.2088024344
 30
0.0
 11
6179.1077255205
 21
4825.2088024344
 31
0.0
  0
ARC
  5
398
330
1F
100
AcDbEntity
  8
0
  6
Continuous
 62
     7
370
    25
100
AcDbCircle
 10
6171.4940265611
 20
4826.7514876427
 30
0.0
 40
3.000000000000909
100
AcDbArc
 50
180.0
 51
0.0
  0
LINE
  5
399
330
1F
100
AcDbEntity
  8
0
  6
Continuous
 62
     7
370
    25
100
AcDbLine
 10
6174.4940265611
 20
4826.7514876427
 30
0.0
 11
6174.4940265611
 21
4850.7514876427
 31
0.0
  0
ARC
  5
39A
330
1F
100
AcDbEntity
  8
0
  6
Continuous
 62
     7
370
    25
100
AcDbCircle
 10
6171.4940265611
 20
4850.7514876427
 30
0.0
 40
3.000000000000909
100
AcDbArc
 50
0.0
 51
180.0
  0
LINE
  5
39B
330
1F
100
AcDbEntity
  8
0
  6
Continuous
 62
     7
370
    25
100
AcDbLine
 10
6168.4940265611
 20
4850.7514876427
 30
0.0
 11
6168.4940265611
 21
4826.7514876427
 31
0.0
  0
ARC
  5
39C
330
1F
100
AcDbEntity
  8
0
  6
Continuous
 62
     7
370
    25
100
AcDbCircle
 10
6160.842459102
 20
4828.0136509857
 30
0.0
 40
3.0
100
AcDbArc
 50
180.0
 51
0.0
  0
LINE
  5
39D
330
1F
100
AcDbEntity
  8
0
  6
Continuous
 62
     7
370
    25
100
AcDbLine
 10
6163.842459102
 20
4828.0136509857
 30
0.0
 11
6163.842459102
 21
4852.0136509857
 31
0.0
  0
ARC
  5
39E
330
1F
100
AcDbEntity
  8
0
  6
Continuous
 62
     7
370
    25
100
AcDbCircle
 10
6160.842459102
 20
4852.0136509857
 30
0.0
 40
3.0
100
AcDbArc
 50
0.0
 51
180.0
  0
LINE
  5
39F
330
1F
100
AcDbEntity
  8
0
  6
Continuous
 62
     7
370
    25
100
AcDbLine
 10
6157.842459102
 20
4852.0136509857
 30
0.0
 11
6157.842459102
 21
4828.0136509857
 31
0.0
  0
ARC
  5
3A0
330
1F
100
AcDbEntity
  8
0
  6
Continuous
 62
     7
370
    25
100
AcDbCircle
 10
6150.1593345598
 20
4828.9609510606
 30
0.0
 40
3.0
100
AcDbArc
 50
180.0
 51
0.0
  0
LINE
  5
3A1
330
1F
100
AcDbEntity
  8
0
  6
Continuous
 62
     7
370
    25
100
AcDbLine
 10
6153.1593345598
 20
4828.9609510606
 30
0.0
 11
6153.1593345598
 21
4852.9609510606
 31
0.0
  0
ARC
  5
3A2
330
1F
100
AcDbEntity
  8
0
  6
Continuous
 62
     7
370
    25
100
AcDbCircle
 10
6150.1593345598
 20
4852.9609510606
 30
0.0
 40
3.0
100
AcDbArc
 50
0.0
 51
180.0
  0
LINE
  5
3A3
330
1F
100
AcDbEntity
  8
0
  6
Continuous
 62
     7
370
    25
100
AcDbLine
 10
6147.1593345598
 20
4852.9609510606
 30
0.0
 11
6147.1593345598
 21
4828.9609510606
 31
0.0
  0
ARC
  5
3A4
330
1F
100
AcDbEntity
  8
0
  6
Continuous
 62
     7
370
    25
100
AcDbCircle
 10
6139.4520162538
 20
4829.5592041066
 30
0.0
 40
3.0
100
AcDbArc
 50
180.0
 51
0.0
  0
LINE
  5
3A5
330
1F
100
AcDbEntity
  8
0
  6
Continuous
 62
     7
370
    25
100
AcDbLine
 10
6142.4520162538
 20
4829.5592041066
 30
0.0
 11
6142.4520162538
 21
4853.5592041066
 31
0.0
  0
ARC
  5
3A6
330
1F
100
AcDbEntity
  8
0
  6
Continuous
 62
     7
370
    25
100
AcDbCircle
 10
6139.4520162538
 20
4853.5592041066
 30
0.0
 40
3.0
100
AcDbArc
 50
0.0
 51
180.0
  0
LINE
  5
3A7
330
1F
100
AcDbEntity
  8
0
  6
Continuous
 62
     7
370
    25
100
AcDbLine
 10
6136.4520162538
 20
4853.5592041066
 30
0.0
 11
6136.4520162538
 21
4829.5592041066
 31
0.0
  0
ARC
  5
3A8
330
1F
100
AcDbEntity
  8
0
  6
Continuous
 62
     7
370
    25
100
AcDbCircle
 10
6128.7299713091
 20
4829.7754522433
 30
0.0
 40
3.0
100
AcDbArc
 50
180.0
 51
0.0
  0
LINE
  5
3A9
330
1F
100
AcDbEntity
  8
0
  6
Continuous
 62
     7
370
    25
100
AcDbLine
 10
6131.7299713091
 20
4829.7754522433
 30
0.0
 11
6131.7299713091
 21
4853.7754522433
 31
0.0
  0
ARC
  5
3AA
330
1F
100
AcDbEntity
  8
0
  6
Continuous
 62
     7
370
    25
100
AcDbCircle
 10
6128.7299713091
 20
4853.7754522433
 30
0.0
 40
3.0
100
AcDbArc
 50
0.0
 51
180.0
  0
LINE
  5
3AB
330
1F
100
AcDbEntity
  8
0
  6
Continuous
 62
     7
370
    25
100
AcDbLine
 10
6125.7299713091
 20
4853.7754522433
 30
0.0
 11
6125.7299713091
 21
4829.7754522433
 31
0.0
  0
ARC
  5
3AC
330
1F
100
AcDbEntity
  8
0
  6
Continuous
 62
     7
370
    25
100
AcDbCircle
 10
6118.0068744615
 20
4829.6030294503
 30
0.0
 40
3.000000000000909
100
AcDbArc
 50
180.0
 51
0.0
  0
LINE
  5
3AD
330
1F
100
AcDbEntity
  8
0
  6
Continuous
 62
     7
370
    25
100
AcDbLine
 10
6121.0068744615
 20
4829.6030294503
 30
0.0
 11
6121.0068744615
 21
4853.6030294503
 31
0.0
  0
ARC
  5
3AE
330
1F
100
AcDbEntity
  8
0
  6
Continuous
 62
     7
370
    25
100
AcDbCircle
 10
6118.0068744615
 20
4853.6030294503
 30
0.0
 40
3.000000000000909
100
AcDbArc
 50
0.0
 51
180.0
  0
LINE
  5
3AF
330
1F
100
AcDbEntity
  8
0
  6
Continuous
 62
     7
370
    25
100
AcDbLine
 10
6115.0068744615
 20
4853.6030294503
 30
0.0
 11
6115.0068744615
 21
4829.6030294503
 31
0.0
  0
ARC
  5
3B0
330
1F
100
AcDbEntity
  8
0
  6
Continuous
 62
     7
370
    25
100
AcDbCircle
 10
6107.2942966417
 20
4829.0685676101
 30
0.0
 40
3.0
100
AcDbArc
 50
180.0
 51
0.0
  0
LINE
  5
3B1
330
1F
100
AcDbEntity
  8
0
  6
Continuous
 62
     7
370
    25
100
AcDbLine
 10
6110.2942966417
 20
4829.0685676101
 30
0.0
 11
6110.2942966417
 21
4853.0685676101
 31
0.0
  0
ARC
  5
3B2
330
1F
100
AcDbEntity
  8
0
  6
Continuous
 62
     7
370
    25
100
AcDbCircle
 10
6107.2942966417
 20
4853.0685676101
 30
0.0
 40
3.0
100
AcDbArc
 50
0.0
 51
180.0
  0
LINE
  5
3B3
330
1F
100
AcDbEntity
  8
0
  6
Continuous
 62
     7
370
    25
100
AcDbLine
 10
6104.2942966417
 20
4853.0685676101
 30
0.0
 11
6104.2942966417
 21
4829.0685676101
 31
0.0
  0
ARC
  5
3B4
330
1F
100
AcDbEntity
  8
0
  6
Continuous
 62
     7
370
    25
100
AcDbCircle
 10
6096.6048606828
 20
4828.2022097485
 30
0.0
 40
3.0
100
AcDbArc
 50
180.0
 51
0.0
  0
LINE
  5
3B5
330
1F
100
AcDbEntity
  8
0
  6
Continuous
 62
     7
370
    25
100
AcDbLine
 10
6099.6048606828
 20
4828.2022097485
 30
0.0
 11
6099.6048606828
 21
4852.2022097485
 31
0.0
  0
ARC
  5
3B6
330
1F
100
AcDbEntity
  8
0
  6
Continuous
 62
     7
370
    25
100
AcDbCircle
 10
6096.6048606828
 20
4852.2022097485
 30
0.0
 40
3.0
100
AcDbArc
 50
0.0
 51
180.0
  0
LINE
  5
3B7
330
1F
100
AcDbEntity
  8
0
  6
Continuous
 62
     7
370
    25
100
AcDbLine
 10
6093.6048606828
 20
4852.2022097485
 30
0.0
 11
6093.6048606828
 21
4828.2022097485
 31
0.0
  0
ARC
  5
3B8
330
1F
100
AcDbEntity
  8
0
  6
Continuous
 62
     7
370
    25
100
AcDbCircle
 10
6085.942774196
 20
4827.0342722062
 30
0.0
 40
3.0
100
AcDbArc
 50
180.0
 51
0.0
  0
LINE
  5
3B9
330
1F
100
AcDbEntity
  8
0
  6
Continuous
 62
     7
370
    25
100
AcDbLine
 10
6088.942774196
 20
4827.0342722062
 30
0.0
 11
6088.942774196
 21
4851.0342722062
 31
0.0
  0
ARC
  5
3BA
330
1F
100
AcDbEntity
  8
0
  6
Continuous
 62
     7
370
    25
100
AcDbCircle
 10
6085.942774196
 20
4851.0342722062
 30
0.0
 40
3.0
100
AcDbArc
 50
0.0
 51
180.0
  0
LINE
  5
3BB
330
1F
100
AcDbEntity
  8
0
  6
Continuous
 62
     7
370
    25
100
AcDbLine
 10
6082.942774196
 20
4851.0342722062
 30
0.0
 11
6082.942774196
 21
4827.0342722062
 31
0.0
  0
ARC
  5
3BC
330
1F
100
AcDbEntity
  8
0
  6
Continuous
 62
     7
370
    25
100
AcDbCircle
 10
6075.3164524034
 20
4825.5957407237
 30
0.0
 40
3.0
100
AcDbArc
 50
180.0
 51
0.0
  0
LINE
  5
3BD
330
1F
100
AcDbEntity
  8
0
  6
Continuous
 62
     7
370
    25
100
AcDbLine
 10
6078.3164524034
 20
4825.5957407237
 30
0.0
 11
6078.3164524034
 21
4849.5957407237
 31
0.0
  0
ARC
  5
3BE
330
1F
100
AcDbEntity
  8
0
  6
Continuous
 62
     7
370
    25
100
AcDbCircle
 10
6075.3164524034
 20
4849.5957407237
 30
0.0
 40
3.0
100
AcDbArc
 50
0.0
 51
180.0
  0
LINE
  5
3BF
330
1F
100
AcDbEntity
  8
0
  6
Continuous
 62
     7
370
    25
100
AcDbLine
 10
6072.3164524034
 20
4849.5957407237
 30
0.0
 11
6072.3164524034
 21
4825.5957407237
 31
0.0
  0
ARC
  5
3C0
330
1F
100
AcDbEntity
  8
0
  6
Continuous
 62
     7
370
    25
100
AcDbCircle
 10
6064.7237914995
 20
4823.9161290121
 30
0.0
 40
3.0
100
AcDbArc
 50
180.0
 51
0.0
  0
LINE
  5
3C1
330
1F
100
AcDbEntity
  8
0
  6
Continuous
 62
     7
370
    25
100
AcDbLine
 10
6067.7237914995
 20
4823.9161290121
 30
0.0
 11
6067.7237914995
 21
4847.9161290121
 31
0.0
  0
ARC
  5
3C2
330
1F
100
AcDbEntity
  8
0
  6
Continuous
 62
     7
370
    25
100
AcDbCircle
 10
6064.7237914995
 20
4847.9161290121
 30
0.0
 40
3.0
100
AcDbArc
 50
0.0
 51
180.0
  0
LINE
  5
3C3
330
1F
100
AcDbEntity
  8
0
  6
Continuous
 62
     7
370
    25
100
AcDbLine
 10
6061.7237914995
 20
4847.9161290121
 30
0.0
 11
6061.7237914995
 21
4823.9161290121
 31
0.0
  0
ARC
  5
3C4
330
1F
100
AcDbEntity
  8
0
  6
Continuous
 62
     7
370
    25
100
AcDbCircle
 10
6054.1647914842
 20
4822.0246286933
 30
0.0
 40
3.000000000000909
100
AcDbArc
 50
180.0
 51
0.0
  0
LINE
  5
3C5
330
1F
100
AcDbEntity
  8
0
  6
Continuous
 62
     7
370
    25
100
AcDbLine
 10
6057.1647914842
 20
4822.0246286933
 30
0.0
 11
6057.1647914842
 21
4846.0246286933
 31
0.0
  0
ARC
  5
3C6
330
1F
100
AcDbEntity
  8
0
  6
Continuous
 62
     7
370
    25
100
AcDbCircle
 10
6054.1647914842
 20
4846.0246286933
 30
0.0
 40
3.000000000000909
100
AcDbArc
 50
0.0
 51
180.0
  0
LINE
  5
3C7
330
1F
100
AcDbEntity
  8
0
  6
Continuous
 62
     7
370
    25
100
AcDbLine
 10
6051.1647914842
 20
4846.0246286933
 30
0.0
 11
6051.1647914842
 21
4822.0246286933
 31
0.0
  0
ARC
  5
3C8
330
1F
100
AcDbEntity
  8
0
  6
Continuous
 62
     7
370
    25
100
AcDbCircle
 10
6043.6436599687
 20
4819.9507755639
 30
0.0
 40
3.0
100
AcDbArc
 50
180.0
 51
0.0
  0
LINE
  5
3C9
330
1F
100
AcDbEntity
  8
0
  6
Continuous
 62
     7
370
    25
100
AcDbLine
 10
6046.6436599687
 20
4819.9507755639
 30
0.0
 11
6046.6436599687
 21
4843.9507755639
 31
0.0
  0
ARC
  5
3CA
330
1F
100
AcDbEntity
  8
0
  6
Continuous
 62
     7
370
    25
100
AcDbCircle
 10
6043.6436599687
 20
4843.9507755639
 30
0.0
 40
3.0
100
AcDbArc
 50
0.0
 51
180.0
  0
LINE
  5
3CB
330
1F
100
AcDbEntity
  8
0
  6
Continuous
 62
     7
370
    25
100
AcDbLine
 10
6040.6436599687
 20
4843.9507755639
 30
0.0
 11
6040.6436599687
 21
4819.9507755639
 31
0.0
  0
ARC
  5
3CC
330
1F
100
AcDbEntity
  8
0
  6
Continuous
 62
     7
370
    25
100
AcDbCircle
 10
6033.1519817308
 20
4817.7210587076
 30
0.0
 40
3.000000000000909
100
AcDbArc
 50
180.0
 51
0.0
  0
LINE
  5
3CD
330
1F
100
AcDbEntity
  8
0
  6
Continuous
 62
     7
370
    25
100
AcDbLine
 10
6036.1519817308
 20
4817.7210587076
 30
0.0
 11
6036.1519817308
 21
4841.7210587076
 31
0.0
  0
ARC
  5
3CE
330
1F
100
AcDbEntity
  8
0
  6
Continuous
 62
     7
370
    25
100
AcDbCircle
 10
6033.1519817308
 20
4841.7210587076
 30
0.0
 40
3.000000000000909
100
AcDbArc
 50
0.0
 51
180.0
  0
LINE
  5
3CF
330
1F
100
AcDbEntity
  8
0
  6
Continuous
 62
     7
370
    25
100
AcDbLine
 10
6030.1519817308
 20
4841.7210587076
 30
0.0
 11
6030.1519817308
 21
4817.7210587076
 31
0.0
  0
ARC
  5
3D0
330
1F
100
AcDbEntity
  8
0
  6
Continuous
 62
     7
370
    25
100
AcDbCircle
 10
6022.6897567704
 20
4815.362945222
 30
0.0
 40
3.0
100
AcDbArc
 50
180.0
 51
0.0
  0
LINE
  5
3D1
330
1F
100
AcDbEntity
  8
0
  6
Continuous
 62
     7
370
    25
100
AcDbLine
 10
6025.6897567704
 20
4815.362945222
 30
0.0
 11
6025.6897567704
 21
4839.362945222
 31
0.0
  0
ARC
  5
3D2
330
1F
100
AcDbEntity
  8
0
  6
Continuous
 62
     7
370
    25
100
AcDbCircle
 10
6022.6897567704
 20
4839.362945222
 30
0.0
 40
3.0
100
AcDbArc
 50
0.0
 51
180.0
  0
LINE
  5
3D3
330
1F
100
AcDbEntity
  8
0
  6
Continuous
 62
     7
370
    25
100
AcDbLine
 10
6019.6897567704
 20
4839.362945222
 30
0.0
 11
6019.6897567704
 21
4815.362945222
 31
0.0
  0
ARC
  5
3D4
330
1F
100
AcDbEntity
  8
0
  6
Continuous
 62
     7
370
    25
100
AcDbCircle
 10
6012.2506736711
 20
4812.9019433118
 30
0.0
 40
3.0
100
AcDbArc
 50
180.0
 51
0.0
  0
LINE
  5
3D5
330
1F
100
AcDbEntity
  8
0
  6
Continuous
 62
     7
370
    25
100
AcDbLine
 10
6015.2506736711
 20
4812.9019433118
 30
0.0
 11
6015.2506736711
 21
4836.9019433118
 31
0.0
  0
ARC
  5
3D6
330
1F
100
AcDbEntity
  8
0
  6
Continuous
 62
     7
370
    25
100
AcDbCircle
 10
6012.2506736711
 20
4836.9019433118
 30
0.0
 40
3.0
100
AcDbArc
 50
0.0
 51
180.0
  0
LINE
  5
3D7
330
1F
100
AcDbEntity
  8
0
  6
Continuous
 62
     7
370
    25
100
AcDbLine
 10
6009.2506736711
 20
4836.9019433118
 30
0.0
 11
6009.2506736711
 21
4812.9019433118
 31
0.0
  0
ARC
  5
3D8
330
1F
100
AcDbEntity
  8
0
  6
Continuous
 62
     7
370
    25
100
AcDbCircle
 10
6001.8305248216
 20
4810.3634726594
 30
0.0
 40
3.000000000000909
100
AcDbArc
 50
180.0
 51
0.0
  0
LINE
  5
3D9
330
1F
100
AcDbEntity
  8
0
  6
Continuous
 62
     7
370
    25
100
AcDbLine
 10
6004.8305248216
 20
4810.3634726594
 30
0.0
 11
6004.8305248216
 21
4834.3634726594
 31
0.0
  0
ARC
  5
3DA
330
1F
100
AcDbEntity
  8
0
  6
Continuous
 62
     7
370
    25
100
AcDbCircle
 10
6001.8305248216
 20
4834.3634726594
 30
0.0
 40
3.000000000000909
100
AcDbArc
 50
0.0
 51
180.0
  0
LINE
  5
3DB
330
1F
100
AcDbEntity
  8
0
  6
Continuous
 62
     7
370
    25
100
AcDbLine
 10
5998.8305248216
 20
4834.3634726594
 30
0.0
 11
5998.8305248216
 21
4810.3634726594
 31
0.0
  0
ARC
  5
3DC
330
1F
100
AcDbEntity
  8
0
  6
Continuous
 62
     7
370
    25
100
AcDbCircle
 10
5991.4229988054
 20
4807.7720113378
 30
0.0
 40
3.0
100
AcDbArc
 50
180.0
 51
0.0
  0
LINE
  5
3DD
330
1F
100
AcDbEntity
  8
0
  6
Continuous
 62
     7
370
    25
100
AcDbLine
 10
5994.4229988054
 20
4807.7720113378
 30
0.0
 11
5994.4229988054
 21
4831.7720113378
 31
0.0
  0
ARC
  5
3DE
330
1F
100
AcDbEntity
  8
0
  6
Continuous
 62
     7
370
    25
100
AcDbCircle
 10
5991.4229988054
 20
4831.7720113378
 30
0.0
 40
3.0
100
AcDbArc
 50
0.0
 51
180.0
  0
LINE
  5
3DF
330
1F
100
AcDbEntity
  8
0
  6
Continuous
 62
     7
370
    25
100
AcDbLine
 10
5988.4229988054
 20
4831.7720113378
 30
0.0
 11
5988.4229988054
 21
4807.7720113378
 31
0.0
  0
ARC
  5
3E0
330
1F
100
AcDbEntity
  8
0
  6
Continuous
 62
     7
370
    25
100
AcDbCircle
 10
5981.0217842057
 20
4805.1517145651
 30
0.0
 40
3.000000000000909
100
AcDbArc
 50
180.0
 51
0.0
  0
LINE
  5
3E1
330
1F
100
AcDbEntity
  8
0
  6
Continuous
 62
     7
370
    25
100
AcDbLine
 10
5984.0217842057
 20
4805.1517145651
 30
0.0
 11
5984.0217842057
 21
4829.1517145651
 31
0.0
  0
ARC
  5
3E2
330
1F
100
AcDbEntity
  8
0
  6
Continuous
 62
     7
370
    25
100
AcDbCircle
 10
5981.0217842057
 20
4829.1517145651
 30
0.0
 40
3.000000000000909
100
AcDbArc
 50
0.0
 51
180.0
  0
LINE
  5
3E3
330
1F
100
AcDbEntity
  8
0
  6
Continuous
 62
     7
370
    25
100
AcDbLine
 10
5978.0217842057
 20
4829.1517145651
 30
0.0
 11
5978.0217842057
 21
4805.1517145651
 31
0.0
  0
ARC
  5
3E4
330
1F
100
AcDbEntity
  8
0
  6
Continuous
 62
     7
370
    25
100
AcDbCircle
 10
5970.6226734117
 20
4802.5271003313
 30
0.0
 40
3.0
100
AcDbArc
 50
180.0
 51
0.0
  0
LINE
  5
3E5
330
1F
100
AcDbEntity
  8
0
  6
Continuous
 62
     7
370
    25
100
AcDbLine
 10
5973.6226734117
 20
4802.5271003313
 30
0.0
 11
5973.6226734117
 21
4826.5271003313
 31
0.0
  0
ARC
  5
3E6
330
1F
100
AcDbEntity
  8
0
  6
Continuous
 62
     7
370
    25
100
AcDbCircle
 10
5970.6226734117
 20
4826.5271003313
 30
0.0
 40
3.0
100
AcDbArc
 50
0.0
 51
180.0
  0
LINE
  5
3E7
330
1F
100
AcDbEntity
  8
0
  6
Continuous
 62
     7
370
    25
100
AcDbLine
 10
5967.6226734117
 20
4826.5271003313
 30
0.0
 11
5967.6226734117
 21
4802.5271003313
 31
0.0
  0
ARC
  5
3E8
330
1F
100
AcDbEntity
  8
0
  6
Continuous
 62
     7
370
    25
100
AcDbCircle
 10
5960.2193550065
 20
4799.9221247956
 30
0.0
 40
3.000000000000909
100
AcDbArc
 50
180.0
 51
0.0
  0
LINE
  5
3E9
330
1F
100
AcDbEntity
  8
0
  6
Continuous
 62
     7
370
    25
100
AcDbLine
 10
5963.2193550065
 20
4799.9221247956
 30
0.0
 11
5963.2193550065
 21
4823.9221247956
 31
0.0
  0
ARC
  5
3EA
330
1F
100
AcDbEntity
  8
0
  6
Continuous
 62
     7
370
    25
100
AcDbCircle
 10
5960.2193550065
 20
4823.9221247956
 30
0.0
 40
3.000000000000909
100
AcDbArc
 50
0.0
 51
180.0
  0
LINE
  5
3EB
330
1F
100
AcDbEntity
  8
0
  6
Continuous
 62
     7
370
    25
100
AcDbLine
 10
5957.2193550065
 20
4823.9221247956
 30
0.0
 11
5957.2193550065
 21
4799.9221247956
 31
0.0
  0
ARC
  5
3EC
330
1F
100
AcDbEntity
  8
0
  6
Continuous
 62
     7
370
    25
100
AcDbCircle
 10
5949.8034137681
 20
4797.3603453967
 30
0.0
 40
3.0
100
AcDbArc
 50
180.0
 51
0.0
  0
LINE
  5
3ED
330
1F
100
AcDbEntity
  8
0
  6
Continuous
 62
     7
370
    25
100
AcDbLine
 10
5952.8034137681
 20
4797.3603453967
 30
0.0
 11
5952.8034137681
 21
4821.3603453967
 31
0.0
  0
ARC
  5
3EE
330
1F
100
AcDbEntity
  8
0
  6
Continuous
 62
     7
370
    25
100
AcDbCircle
 10
5949.8034137681
 20
4821.3603453967
 30
0.0
 40
3.0
100
AcDbArc
 50
0.0
 51
180.0
  0
LINE
  5
3EF
330
1F
100
AcDbEntity
  8
0
  6
Continuous
 62
     7
370
    25
100
AcDbLine
 10
5946.8034137681
 20
4821.3603453967
 30
0.0
 11
5946.8034137681
 21
4797.3603453967
 31
0.0
  0
ARC
  5
3F0
330
1F
100
AcDbEntity
  8
0
  6
Continuous
 62
     7
370
    25
100
AcDbCircle
 10
5939.3727458909
 20
4794.8671376261
 30
0.0
 40
3.0
100
AcDbArc
 50
180.0
 51
0.0
  0
LINE
  5
3F1
330
1F
100
AcDbEntity
  8
0
  6
Continuous
 62
     7
370
    25
100
AcDbLine
 10
5942.3727458909
 20
4794.8671376261
 30
0.0
 11
5942.3727458909
 21
4818.8671376261
 31
0.0
  0
ARC
  5
3F2
330
1F
100
AcDbEntity
  8
0
  6
Continuous
 62
     7
370
    25
100
AcDbCircle
 10
5939.3727458909
 20
4818.8671376261
 30
0.0
 40
3.0
100
AcDbArc
 50
0.0
 51
180.0
  0
LINE
  5
3F3
330
1F
100
AcDbEntity
  8
0
  6
Continuous
 62
     7
370
    25
100
AcDbLine
 10
5936.3727458909
 20
4818.8671376261
 30
0.0
 11
5936.3727458909
 21
4794.8671376261
 31
0.0
  0
ARC
  5
3F4
330
1F
100
AcDbEntity
  8
0
  6
Continuous
 62
     7
370
    25
100
AcDbCircle
 10
5928.9189361527
 20
4792.4667393242
 30
0.0
 40
3.0
100
AcDbArc
 50
180.0
 51
0.0
  0
LINE
  5
3F5
330
1F
100
AcDbEntity
  8
0
  6
Continuous
 62
     7
370
    25
100
AcDbLine
 10
5931.9189361527
 20
4792.4667393242
 30
0.0
 11
5931.9189361527
 21
4816.4667393242
 31
0.0
  0
ARC
  5
3F6
330
1F
100
AcDbEntity
  8
0
  6
Continuous
 62
     7
370
    25
100
AcDbCircle
 10
5928.9189361527
 20
4816.4667393242
 30
0.0
 40
3.0
100
AcDbArc
 50
0.0
 51
180.0
  0
LINE
  5
3F7
330
1F
100
AcDbEntity
  8
0
  6
Continuous
 62
     7
370
    25
100
AcDbLine
 10
5925.9189361527
 20
4816.4667393242
 30
0.0
 11
5925.9189361527
 21
4792.4667393242
 31
0.0
  0
ARC
  5
3F8
330
1F
100
AcDbEntity
  8
0
  6
Continuous
 62
     7
370
    25
100
AcDbCircle
 10
5918.4398807481
 20
4790.1853816498
 30
0.0
 40
3.0
100
AcDbArc
 50
180.0
 51
0.0
  0
LINE
  5
3F9
330
1F
100
AcDbEntity
  8
0
  6
Continuous
 62
     7
370
    25
100
AcDbLine
 10
5921.4398807481
 20
4790.1853816498
 30
0.0
 11
5921.4398807481
 21
4814.1853816498
 31
0.0
  0
ARC
  5
3FA
330
1F
100
AcDbEntity
  8
0
  6
Continuous
 62
     7
370
    25
100
AcDbCircle
 10
5918.4398807481
 20
4814.1853816498
 30
0.0
 40
3.0
100
AcDbArc
 50
0.0
 51
180.0
  0
LINE
  5
3FB
330
1F
100
AcDbEntity
  8
0
  6
Continuous
 62
     7
370
    25
100
AcDbLine
 10
5915.4398807481
 20
4814.1853816498
 30
0.0
 11
5915.4398807481
 21
4790.1853816498
 31
0.0
  0
ARC
  5
3FC
330
1F
100
AcDbEntity
  8
0
  6
Continuous
 62
     7
370
    25
100
AcDbCircle
 10
5907.9292682603
 20
4788.0489536514
 30
0.0
 40
3.0
100
AcDbArc
 50
180.0
 51
0.0
  0
LINE
  5
3FD
330
1F
100
AcDbEntity
  8
0
  6
Continuous
 62
     7
370
    25
100
AcDbLine
 10
5910.9292682603
 20
4788.0489536514
 30
0.0
 11
5910.9292682603
 21
4812.0489536514
 31
0.0
  0
ARC
  5
3FE
330
1F
100
AcDbEntity
  8
0
  6
Continuous
 62
     7
370
    25
100
AcDbCircle
 10
5907.9292682603
 20
4812.0489536514
 30
0.0
 40
3.0
100
AcDbArc
 50
0.0
 51
180.0
  0
LINE
  5
3FF
330
1F
100
AcDbEntity
  8
0
  6
Continuous
 62
     7
370
    25
100
AcDbLine
 10
5904.9292682603
 20
4812.0489536514
 30
0.0
 11
5904.9292682603
 21
4788.0489536514
 31
0.0
  0
ARC
  5
400
330
1F
100
AcDbEntity
  8
0
  6
Continuous
 62
     7
370
    25
100
AcDbCircle
 10
5897.3849948838
 20
4786.084931263
 30
0.0
 40
3.0
100
AcDbArc
 50
180.0
 51
0.0
  0
LINE
  5
401
330
1F
100
AcDbEntity
  8
0
  6
Continuous
 62
     7
370
    25
100
AcDbLine
 10
5900.3849948838
 20
4786.084931263
 30
0.0
 11
5900.3849948838
 21
4810.084931263
 31
0.0
  0
ARC
  5
402
330
1F
100
AcDbEntity
  8
0
  6
Continuous
 62
     7
370
    25
100
AcDbCircle
 10
5897.3849948838
 20
4810.084931263
 30
0.0
 40
3.0
100
AcDbArc
 50
0.0
 51
180.0
  0
LINE
  5
403
330
1F
100
AcDbEntity
  8
0
  6
Continuous
 62
     7
370
    25
100
AcDbLine
 10
5894.3849948838
 20
4810.084931263
 30
0.0
 11
5894.3849948838
 21
4786.084931263
 31
0.0
  0
ARC
  5
404
330
1F
100
AcDbEntity
  8
0
  6
Continuous
 62
     7
370
    25
100
AcDbCircle
 10
5886.8070606187
 20
4784.3217754763
 30
0.0
 40
3.0
100
AcDbArc
 50
180.0
 51
0.0
  0
LINE
  5
405
330
1F
100
AcDbEntity
  8
0
  6
Continuous
 62
     7
370
    25
100
AcDbLine
 10
5889.8070606187
 20
4784.3217754763
 30
0.0
 11
5889.8070606187
 21
4808.3217754763
 31
0.0
  0
ARC
  5
406
330
1F
100
AcDbEntity
  8
0
  6
Continuous
 62
     7
370
    25
100
AcDbCircle
 10
5886.8070606187
 20
4808.3217754763
 30
0.0
 40
3.0
100
AcDbArc
 50
0.0
 51
180.0
  0
LINE
  5
407
330
1F
100
AcDbEntity
  8
0
  6
Continuous
 62
     7
370
    25
100
AcDbLine
 10
5883.8070606187
 20
4808.3217754763
 30
0.0
 11
5883.8070606187
 21
4784.3217754763
 31
0.0
  0
ARC
  5
408
330
1F
100
AcDbEntity
  8
0
  6
Continuous
 62
     7
370
    25
100
AcDbCircle
 10
5876.1912578538
 20
4782.7879073622
 30
0.0
 40
3.0
100
AcDbArc
 50
180.0
 51
0.0
  0
LINE
  5
409
330
1F
100
AcDbEntity
  8
0
  6
Continuous
 62
     7
370
    25
100
AcDbLine
 10
5879.1912578538
 20
4782.7879073622
 30
0.0
 11
5879.1912578538
 21
4806.7879073622
 31
0.0
  0
ARC
  5
40A
330
1F
100
AcDbEntity
  8
0
  6
Continuous
 62
     7
370
    25
100
AcDbCircle
 10
5876.1912578538
 20
4806.7879073622
 30
0.0
 40
3.0
100
AcDbArc
 50
0.0
 51
180.0
  0
LINE
  5
40B
330
1F
100
AcDbEntity
  8
0
  6
Continuous
 62
     7
370
    25
100
AcDbLine
 10
5873.1912578538
 20
4806.7879073622
 30
0.0
 11
5873.1912578538
 21
4782.7879073622
 31
0.0
  0
ARC
  5
40C
330
1F
100
AcDbEntity
  8
0
  6
Continuous
 62
     7
370
    25
100
AcDbCircle
 10
5865.5417942002
 20
4781.5136050526
 30
0.0
 40
3.000000000000909
100
AcDbArc
 50
180.0
 51
0.0
  0
LINE
  5
40D
330
1F
100
AcDbEntity
  8
0
  6
Continuous
 62
     7
370
    25
100
AcDbLine
 10
5868.5417942002
 20
4781.5136050526
 30
0.0
 11
5868.5417942002
 21
4805.5136050526
 31
0.0
  0
ARC
  5
40E
330
1F
100
AcDbEntity
  8
0
  6
Continuous
 62
     7
370
    25
100
AcDbCircle
 10
5865.5417942002
 20
4805.5136050526
 30
0.0
 40
3.000000000000909
100
AcDbArc
 50
0.0
 51
180.0
  0
LINE
  5
40F
330
1F
100
AcDbEntity
  8
0
  6
Continuous
 62
     7
370
    25
100
AcDbLine
 10
5862.5417942002
 20
4805.5136050526
 30
0.0
 11
5862.5417942002
 21
4781.5136050526
 31
0.0
  0
ARC
  5
410
330
1F
100
AcDbEntity
  8
0
  6
Continuous
 62
     7
370
    25
100
AcDbCircle
 10
5854.8628772691
 20
4780.5292548724
 30
0.0
 40
3.0
100
AcDbArc
 50
180.0
 51
0.0
  0
LINE
  5
411
330
1F
100
AcDbEntity
  8
0
  6
Continuous
 62
     7
370
    25
100
AcDbLine
 10
5857.8628772691
 20
4780.5292548724
 30
0.0
 11
5857.8628772691
 21
4804.5292548724
 31
0.0
  0
ARC
  5
412
330
1F
100
AcDbEntity
  8
0
  6
Continuous
 62
     7
370
    25
100
AcDbCircle
 10
5854.8628772691
 20
4804.5292548724
 30
0.0
 40
3.0
100
AcDbArc
 50
0.0
 51
180.0
  0
LINE
  5
413
330
1F
100
AcDbEntity
  8
0
  6
Continuous
 62
     7
370
    25
100
AcDbLine
 10
5851.8628772691
 20
4804.5292548724
 30
0.0
 11
5851.8628772691
 21
4780.5292548724
 31
0.0
  0
ARC
  5
414
330
1F
100
AcDbEntity
  8
0
  6
Continuous
 62
     7
370
    25
100
AcDbCircle
 10
5844.1587146714
 20
4779.8652434156
 30
0.0
 40
3.000000000000909
100
AcDbArc
 50
180.0
 51
0.0
  0
LINE
  5
415
330
1F
100
AcDbEntity
  8
0
  6
Continuous
 62
     7
370
    25
100
AcDbLine
 10
5847.1587146714
 20
4779.8652434156
 30
0.0
 11
5847.1587146714
 21
4803.8652434156
 31
0.0
  0
ARC
  5
416
330
1F
100
AcDbEntity
  8
0
  6
Continuous
 62
     7
370
    25
100
AcDbCircle
 10
5844.1587146714
 20
4803.8652434156
 30
0.0
 40
3.000000000000909
100
AcDbArc
 50
0.0
 51
180.0
  0
LINE
  5
417
330
1F
100
AcDbEntity
  8
0
  6
Continuous
 62
     7
370
    25
100
AcDbLine
 10
5841.1587146714
 20
4803.8652434156
 30
0.0
 11
5841.1587146714
 21
4779.8652434156
 31
0.0
  0
ARC
  5
418
330
1F
100
AcDbEntity
  8
0
  6
Continuous
 62
     7
370
    25
100
AcDbCircle
 10
5833.4377216294
 20
4779.5518985074
 30
0.0
 40
3.0
100
AcDbArc
 50
180.0
 51
0.0
  0
LINE
  5
419
330
1F
100
AcDbEntity
  8
0
  6
Continuous
 62
     7
370
    25
100
AcDbLine
 10
5836.4377216294
 20
4779.5518985074
 30
0.0
 11
5836.4377216294
 21
4803.5518985074
 31
0.0
  0
ARC
  5
41A
330
1F
100
AcDbEntity
  8
0
  6
Continuous
 62
     7
370
    25
100
AcDbCircle
 10
5833.4377216294
 20
4803.5518985074
 30
0.0
 40
3.0
100
AcDbArc
 50
0.0
 51
180.0
  0
LINE
  5
41B
330
1F
100
AcDbEntity
  8
0
  6
Continuous
 62
     7
370
    25
100
AcDbLine
 10
5830.4377216294
 20
4803.5518985074
 30
0.0
 11
5830.4377216294
 21
4779.5518985074
 31
0.0
  0
ARC
  5
41C
330
1F
100
AcDbEntity
  8
0
  6
Continuous
 62
     7
370
    25
100
AcDbCircle
 10
5822.7146247819
 20
4779.6185527227
 30
0.0
 40
3.000000000000909
100
AcDbArc
 50
180.0
 51
0.0
  0
LINE
  5
41D
330
1F
100
AcDbEntity
  8
0
  6
Continuous
 62
     7
370
    25
100
AcDbLine
 10
5825.7146247819
 20
4779.6185527227
 30
0.0
 11
5825.7146247819
 21
4803.6185527227
 31
0.0
  0
ARC
  5
41E
330
1F
100
AcDbEntity
  8
0
  6
Continuous
 62
     7
370
    25
100
AcDbCircle
 10
5822.7146247819
 20
4803.6185527227
 30
0.0
 40
3.000000000000909
100
AcDbArc
 50
0.0
 51
180.0
  0
LINE
  5
41F
330
1F
100
AcDbEntity
  8
0
  6
Continuous
 62
     7
370
    25
100
AcDbLine
 10
5819.7146247819
 20
4803.6185527227
 30
0.0
 11
5819.7146247819
 21
4779.6185527227
 31
0.0
  0
ARC
  5
420
330
1F
100
AcDbEntity
  8
0
  6
Continuous
 62
     7
370
    25
100
AcDbCircle
 10
5811.9999431565
 20
4780.0927542955
 30
0.0
 40
3.0
100
AcDbArc
 50
180.0
 51
0.0
  0
LINE
  5
421
330
1F
100
AcDbEntity
  8
0
  6
Continuous
 62
     7
370
    25
100
AcDbLine
 10
5814.9999431565
 20
4780.0927542955
 30
0.0
 11
5814.9999431565
 21
4804.0927542955
 31
0.0
  0
ARC
  5
422
330
1F
100
AcDbEntity
  8
0
  6
Continuous
 62
     7
370
    25
100
AcDbCircle
 10
5811.9999431565
 20
4804.0927542955
 30
0.0
 40
3.0
100
AcDbArc
 50
0.0
 51
180.0
  0
LINE
  5
423
330
1F
100
AcDbEntity
  8
0
  6
Continuous
 62
     7
370
    25
100
AcDbLine
 10
5808.9999431565
 20
4804.0927542955
 30
0.0
 11
5808.9999431565
 21
4780.0927542955
 31
0.0
  0
ARC
  5
424
330
1F
100
AcDbEntity
  8
0
  6
Continuous
 62
     7
370
    25
100
AcDbCircle
 10
5801.3136629059
 20
4780.999317097
 30
0.0
 40
3.000000000000909
100
AcDbArc
 50
180.0
 51
0.0
  0
LINE
  5
425
330
1F
100
AcDbEntity
  8
0
  6
Continuous
 62
     7
370
    25
100
AcDbLine
 10
5804.3136629059
 20
4780.999317097
 30
0.0
 11
5804.3136629059
 21
4804.999317097
 31
0.0
  0
ARC
  5
426
330
1F
100
AcDbEntity
  8
0
  6
Continuous
 62
     7
370
    25
100
AcDbCircle
 10
5801.3136629059
 20
4804.999317097
 30
0.0
 40
3.000000000000909
100
AcDbArc
 50
0.0
 51
180.0
  0
LINE
  5
427
330
1F
100
AcDbEntity
  8
0
  6
Continuous
 62
     7
370
    25
100
AcDbLine
 10
5798.3136629059
 20
4804.999317097
 30
0.0
 11
5798.3136629059
 21
4780.999317097
 31
0.0
  0
ARC
  5
428
330
1F
100
AcDbEntity
  8
0
  6
Continuous
 62
     7
370
    25
100
AcDbCircle
 10
5790.6757701828
 20
4782.3593797348
 30
0.0
 40
3.0
100
AcDbArc
 50
180.0
 51
0.0
  0
LINE
  5
429
330
1F
100
AcDbEntity
  8
0
  6
Continuous
 62
     7
370
    25
100
AcDbLine
 10
5793.6757701828
 20
4782.3593797348
 30
0.0
 11
5793.6757701828
 21
4806.3593797348
 31
0.0
  0
ARC
  5
42A
330
1F
100
AcDbEntity
  8
0
  6
Continuous
 62
     7
370
    25
100
AcDbCircle
 10
5790.6757701828
 20
4806.3593797348
 30
0.0
 40
3.0
100
AcDbArc
 50
0.0
 51
180.0
  0
LINE
  5
42B
330
1F
100
AcDbEntity
  8
0
  6
Continuous
 62
     7
370
    25
100
AcDbLine
 10
5787.6757701828
 20
4806.3593797348
 30
0.0
 11
5787.6757701828
 21
4782.3593797348
 31
0.0
  0
ARC
  5
42C
330
1F
100
AcDbEntity
  8
0
  6
Continuous
 62
     7
370
    25
100
AcDbCircle
 10
5780.1083549454
 20
4784.1895104579
 30
0.0
 40
3.0
100
AcDbArc
 50
180.0
 51
0.0
  0
LINE
  5
42D
330
1F
100
AcDbEntity
  8
0
  6
Continuous
 62
     7
370
    25
100
AcDbLine
 10
5783.1083549454
 20
4784.1895104579
 30
0.0
 11
5783.1083549454
 21
4808.1895104579
 31
0.0
  0
ARC
  5
42E
330
1F
100
AcDbEntity
  8
0
  6
Continuous
 62
     7
370
    25
100
AcDbCircle
 10
5780.1083549454
 20
4808.1895104579
 30
0.0
 40
3.0
100
AcDbArc
 50
0.0
 51
180.0
  0
LINE
  5
42F
330
1F
100
AcDbEntity
  8
0
  6
Continuous
 62
     7
370
    25
100
AcDbLine
 10
5777.1083549454
 20
4808.1895104579
 30
0.0
 11
5777.1083549454
 21
4784.1895104579
 31
0.0
  0
ARC
  5
430
330
1F
100
AcDbEntity
  8
0
  6
Continuous
 62
     7
370
    25
100
AcDbCircle
 10
5769.6356109574
 20
4786.5007449959
 30
0.0
 40
3.0
100
AcDbArc
 50
180.0
 51
0.0
  0
LINE
  5
431
330
1F
100
AcDbEntity
  8
0
  6
Continuous
 62
     7
370
    25
100
AcDbLine
 10
5772.6356109574
 20
4786.5007449959
 30
0.0
 11
5772.6356109574
 21
4810.5007449959
 31
0.0
  0
ARC
  5
432
330
1F
100
AcDbEntity
  8
0
  6
Continuous
 62
     7
370
    25
100
AcDbCircle
 10
5769.6356109574
 20
4810.5007449959
 30
0.0
 40
3.0
100
AcDbArc
 50
0.0
 51
180.0
  0
LINE
  5
433
330
1F
100
AcDbEntity
  8
0
  6
Continuous
 62
     7
370
    25
100
AcDbLine
 10
5766.6356109574
 20
4810.5007449959
 30
0.0
 11
5766.6356109574
 21
4786.5007449959
 31
0.0
  0
ARC
  5
434
330
1F
100
AcDbEntity
  8
0
  6
Continuous
 62
     7
370
    25
100
AcDbCircle
 10
5759.2827838852
 20
4789.2979114346
 30
0.0
 40
3.0
100
AcDbArc
 50
180.0
 51
0.0
  0
LINE
  5
435
330
1F
100
AcDbEntity
  8
0
  6
Continuous
 62
     7
370
    25
100
AcDbLine
 10
5762.2827838852
 20
4789.2979114346
 30
0.0
 11
5762.2827838852
 21
4813.2979114346
 31
0.0
  0
ARC
  5
436
330
1F
100
AcDbEntity
  8
0
  6
Continuous
 62
     7
370
    25
100
AcDbCircle
 10
5759.2827838852
 20
4813.2979114346
 30
0.0
 40
3.0
100
AcDbArc
 50
0.0
 51
180.0
  0
LINE
  5
437
330
1F
100
AcDbEntity
  8
0
  6
Continuous
 62
     7
370
    25
100
AcDbLine
 10
5756.2827838852
 20
4813.2979114346
 30
0.0
 11
5756.2827838852
 21
4789.2979114346
 31
0.0
  0
ARC
  5
438
330
1F
100
AcDbEntity
  8
0
  6
Continuous
 62
     7
370
    25
100
AcDbCircle
 10
5749.0730155899
 20
4792.5800131787
 30
0.0
 40
3.0
100
AcDbArc
 50
180.0
 51
0.0
  0
LINE
  5
439
330
1F
100
AcDbEntity
  8
0
  6
Continuous
 62
     7
370
    25
100
AcDbLine
 10
5752.0730155899
 20
4792.5800131787
 30
0.0
 11
5752.0730155899
 21
4816.5800131787
 31
0.0
  0
ARC
  5
43A
330
1F
100
AcDbEntity
  8
0
  6
Continuous
 62
     7
370
    25
100
AcDbCircle
 10
5749.0730155899
 20
4816.5800131787
 30
0.0
 40
3.0
100
AcDbArc
 50
0.0
 51
180.0
  0
LINE
  5
43B
330
1F
100
AcDbEntity
  8
0
  6
Continuous
 62
     7
370
    25
100
AcDbLine
 10
5746.0730155899
 20
4816.5800131787
 30
0.0
 11
5746.0730155899
 21
4792.5800131787
 31
0.0
  0
ARC
  5
43C
330
1F
100
AcDbEntity
  8
0
  6
Continuous
 62
     7
370
    25
100
AcDbCircle
 10
5739.0294479325
 20
4796.3395606816
 30
0.0
 40
3.0
100
AcDbArc
 50
180.0
 51
0.0
  0
LINE
  5
43D
330
1F
100
AcDbEntity
  8
0
  6
Continuous
 62
     7
370
    25
100
AcDbLine
 10
5742.0294479325
 20
4796.3395606816
 30
0.0
 11
5742.0294479325
 21
4820.3395606816
 31
0.0
  0
ARC
  5
43E
330
1F
100
AcDbEntity
  8
0
  6
Continuous
 62
     7
370
    25
100
AcDbCircle
 10
5739.0294479325
 20
4820.3395606816
 30
0.0
 40
3.0
100
AcDbArc
 50
0.0
 51
180.0
  0
LINE
  5
43F
330
1F
100
AcDbEntity
  8
0
  6
Continuous
 62
     7
370
    25
100
AcDbLine
 10
5736.0294479325
 20
4820.3395606816
 30
0.0
 11
5736.0294479325
 21
4796.3395606816
 31
0.0
  0
ARC
  5
440
330
1F
100
AcDbEntity
  8
0
  6
Continuous
 62
     7
370
    25
100
AcDbCircle
 10
5729.1731189682
 20
4800.5632506337
 30
0.0
 40
3.0
100
AcDbArc
 50
180.0
 51
0.0
  0
LINE
  5
441
330
1F
100
AcDbEntity
  8
0
  6
Continuous
 62
     7
370
    25
100
AcDbLine
 10
5732.1731189682
 20
4800.5632506337
 30
0.0
 11
5732.1731189682
 21
4824.5632506337
 31
0.0
  0
ARC
  5
442
330
1F
100
AcDbEntity
  8
0
  6
Continuous
 62
     7
370
    25
100
AcDbCircle
 10
5729.1731189682
 20
4824.5632506337
 30
0.0
 40
3.0
100
AcDbArc
 50
0.0
 51
180.0
  0
LINE
  5
443
330
1F
100
AcDbEntity
  8
0
  6
Continuous
 62
     7
370
    25
100
AcDbLine
 10
5726.1731189682
 20
4824.5632506337
 30
0.0
 11
5726.1731189682
 21
4800.5632506337
 31
0.0
  0
LINE
  5
444
330
1F
100
AcDbEntity
  8
0
  6
Continuous
 62
     7
370
    25
100
AcDbLine
 10
6841.1419786409
 20
4768.2345055815
 30
0.0
 11
6840.3187553362
 21
4770.4345055813
 31
0.0
  0
LINE
  5
445
330
1F
100
AcDbEntity
  8
0
  6
Continuous
 62
     7
370
    25
100
AcDbLine
 10
6841.1419786409
 20
4769.4345055815
 30
0.0
 11
6840.3187553363
 21
4770.4345055813
 31
0.0
  0
LINE
  5
446
330
1F
100
AcDbEntity
  8
0
  6
Continuous
 62
     7
370
    25
100
AcDbLine
 10
6841.1419786409
 20
4768.2345055815
 30
0.0
 11
6841.1419786409
 21
4769.4345055815
 31
0.0
  0
LINE
  5
447
330
1F
100
AcDbEntity
  8
0
  6
Continuous
 62
     7
370
    25
100
AcDbLine
 10
5706.718755336
 20
4769.6112822767
 30
0.0
 11
5707.7187553361
 21
4770.4345055815
 31
0.0
  0
LINE
  5
448
330
1F
100
AcDbEntity
  8
0
  6
Continuous
 62
     7
370
    25
100
AcDbLine
 10
5705.518755336
 20
4769.6112822766
 30
0.0
 11
5706.718755336
 21
4769.6112822766
 31
0.0
  0
LINE
  5
449
330
1F
100
AcDbEntity
  8
0
  6
Continuous
 62
     7
370
    25
100
AcDbLine
 10
5706.8955320314
 20
4768.2345055815
 30
0.0
 11
5706.8955320314
 21
4769.4345055815
 31
0.0
  0
LINE
  5
44A
330
1F
100
AcDbEntity
  8
0
  6
Continuous
 62
     7
370
    25
100
AcDbLine
 10
5707.7187553361
 20
4770.4345055815
 30
0.0
 11
5706.8955320314
 21
4769.4345055815
 31
0.0
  0
LINE
  5
44B
330
1F
100
AcDbEntity
  8
0
  6
Continuous
 62
     7
370
    25
100
AcDbLine
 10
5707.7187553361
 20
4770.4345055814
 30
0.0
 11
5706.8955320314
 21
4768.2345055815
 31
0.0
  0
LINE
  5
44C
330
1F
100
AcDbEntity
  8
0
  6
Continuous
 62
     7
370
    25
100
AcDbLine
 10
6842.5187553363
 20
4769.6112822765
 30
0.0
 11
6841.3187553363
 21
4769.6112822765
 31
0.0
  0
LINE
  5
44D
330
1F
100
AcDbEntity
  8
0
  6
Continuous
 62
     7
370
    25
100
AcDbLine
 10
6840.3187553363
 20
4770.4345055814
 30
0.0
 11
6841.3187553363
 21
4769.6112822765
 31
0.0
  0
LINE
  5
44E
330
1F
100
AcDbEntity
  8
0
  6
Continuous
 62
     7
370
    25
100
AcDbLine
 10
6841.1419786409
 20
4768.2345055815
 30
0.0
 11
5706.8955320314
 21
4768.2345055815
 31
0.0
  0
LINE
  5
44F
330
1F
100
AcDbEntity
  8
0
  6
Continuous
 62
     7
370
    25
100
AcDbLine
 10
6256.8187553361
 20
4820.7345055815
 30
0.0
 11
6256.8187553361
 21
4817.2345055815
 31
0.0
  0
LINE
  5
450
330
1F
100
AcDbEntity
  8
0
  6
Continuous
 62
     7
370
    25
100
AcDbLine
 10
6256.8187553361
 20
4817.2345055815
 30
0.0
 11
6256.1187553361
 21
4817.2345055815
 31
0.0
  0
LINE
  5
451
330
1F
100
AcDbEntity
  8
0
  6
Continuous
 62
     7
370
    25
100
AcDbLine
 10
6256.1187553361
 20
4817.2345055815
 30
0.0
 11
6256.1187553361
 21
4820.0345055815
 31
0.0
  0
ARC
  5
452
330
1F
100
AcDbEntity
  8
0
  6
Continuous
 62
     7
370
    25
100
AcDbCircle
 10
6256.8187553361
 20
4820.0345055815
 30
0.0
 40
0.7000000000007276
100
AcDbArc
 50
90.0
 51
180.0
  0
LINE
  5
453
330
1F
100
AcDbEntity
  8
0
  6
Continuous
 62
     7
370
    25
100
AcDbLine
 10
6256.8187553361
 20
4820.7345055815
 30
0.0
 11
6258.4379714922
 21
4820.7345055815
 31
0.0
  0
LINE
  5
454
330
1F
100
AcDbEntity
  8
0
  6
Continuous
 62
     7
370
    25
100
AcDbLine
 10
6287.7180741075
 20
4817.2345055815
 30
0.0
 11
6287.7180741075
 21
4820.0345055815
 31
0.0
  0
ARC
  5
455
330
1F
100
AcDbEntity
  8
0
  6
Continuous
 62
     7
370
    25
100
AcDbCircle
 10
6288.4180741075
 20
4820.0345055815
 30
0.0
 40
0.7000000000007276
100
AcDbArc
 50
90.0
 51
180.0
  0
LINE
  5
456
330
1F
100
AcDbEntity
  8
0
  6
Continuous
 62
     7
370
    25
100
AcDbLine
 10
6288.4180741075
 20
4820.7345055815
 30
0.0
 11
6288.4180741075
 21
4817.2345055815
 31
0.0
  0
LINE
  5
457
330
1F
100
AcDbEntity
  8
0
  6
Continuous
 62
     7
370
    25
100
AcDbLine
 10
6288.4180741075
 20
4817.2345055815
 30
0.0
 11
6287.7180741075
 21
4817.2345055815
 31
0.0
  0
LINE
  5
458
330
1F
100
AcDbEntity
  8
0
  6
Continuous
 62
     7
370
    25
100
AcDbLine
 10
6288.4180741075
 20
4820.7345055815
 30
0.0
 11
6289.5995391802
 21
4820.7345055815
 31
0.0
  0
LINE
  5
459
330
1F
100
AcDbEntity
  8
0
  6
Continuous
 62
     7
370
    25
100
AcDbLine
 10
6289.5995391802
 20
4813.7345055815
 30
0.0
 11
6288.4180741075
 21
4813.7345055815
 31
0.0
  0
LINE
  5
45A
330
1F
100
AcDbEntity
  8
0
  6
Continuous
 62
     7
370
    25
100
AcDbLine
 10
6288.4180741075
 20
4817.2345055815
 30
0.0
 11
6288.4180741075
 21
4813.7345055815
 31
0.0
  0
LINE
  5
45B
330
1F
100
AcDbEntity
  8
0
  6
Continuous
 62
     7
370
    25
100
AcDbLine
 10
6256.8187553361
 20
4817.2345055815
 30
0.0
 11
6256.8187553361
 21
4813.7345055815
 31
0.0
  0
LINE
  5
45C
330
1F
100
AcDbEntity
  8
0
  6
Continuous
 62
     7
370
    25
100
AcDbLine
 10
6258.4379714922
 20
4813.7345055815
 30
0.0
 11
6256.8187553361
 21
4813.7345055815
 31
0.0
  0
ARC
  5
45D
330
1F
100
AcDbEntity
  8
0
  6
Continuous
 62
     7
370
    25
100
AcDbCircle
 10
6256.8187553361
 20
4814.4345055815
 30
0.0
 40
0.6999999999998181
100
AcDbArc
 50
180.0
 51
270.0
  0
LINE
  5
45E
330
1F
100
AcDbEntity
  8
0
  6
Continuous
 62
     7
370
    25
100
AcDbLine
 10
6256.1187553361
 20
4814.4345055815
 30
0.0
 11
6256.1187553361
 21
4817.2345055815
 31
0.0
  0
ARC
  5
45F
330
1F
100
AcDbEntity
  8
0
  6
Continuous
 62
     7
370
    25
100
AcDbCircle
 10
6288.4180741075
 20
4814.4345055815
 30
0.0
 40
0.7000000000007276
100
AcDbArc
 50
180.0
 51
270.0
  0
LINE
  5
460
330
1F
100
AcDbEntity
  8
0
  6
Continuous
 62
     7
370
    25
100
AcDbLine
 10
6287.7180741075
 20
4814.4345055815
 30
0.0
 11
6287.7180741075
 21
4817.2345055815
 31
0.0
  0
LINE
  5
461
330
1F
100
AcDbEntity
  8
0
  6
Continuous
 62
     7
370
    25
100
AcDbLine
 10
6287.5911099143
 20
4818.1845055815
 30
0.0
 11
6287.5911099143
 21
4816.2845055815
 31
0.0
  0
LINE
  5
462
330
1F
100
AcDbEntity
  8
0
  6
Continuous
 62
     7
370
    25
100
AcDbLine
 10
6256.1187553361
 20
4814.4345055815
 30
0.0
 11
6255.4187553361
 21
4814.4345055815
 31
0.0
  0
LINE
  5
463
330
1F
100
AcDbEntity
  8
0
  6
Continuous
 62
     7
370
    25
100
AcDbLine
 10
6256.8187553361
 20
4820.7345055815
 30
0.0
 11
6256.8187553361
 21
4821.4345055815
 31
0.0
  0
LINE
  5
464
330
1F
100
AcDbEntity
  8
0
  6
Continuous
 62
     7
370
    25
100
AcDbLine
 10
6256.8187553361
 20
4821.4345055815
 30
0.0
 11
6257.8688085829
 21
4821.4345055815
 31
0.0
  0
ARC
  5
465
330
1F
100
AcDbEntity
  8
0
  6
Continuous
 62
     7
370
    25
100
AcDbCircle
 10
6272.5442175404
 20
4818.4457211628
 30
0.0
 40
14.97666385991085
100
AcDbArc
 50
168.488608232
 51
171.2094187131
  0
LINE
  5
466
330
1F
100
AcDbEntity
  8
0
  6
Continuous
 62
     7
370
    25
100
AcDbLine
 10
6258.1319173948
 20
4813.0345055815
 30
0.0
 11
6256.8187553361
 21
4813.0345055815
 31
0.0
  0
LINE
  5
467
330
1F
100
AcDbEntity
  8
0
  6
Continuous
 62
     7
370
    25
100
AcDbLine
 10
6256.8187553361
 20
4813.7345055815
 30
0.0
 11
6256.8187553361
 21
4813.0345055815
 31
0.0
  0
ARC
  5
468
330
1F
100
AcDbEntity
  8
0
  6
Continuous
 62
     7
370
    25
100
AcDbCircle
 10
6272.4137597965
 20
4817.1610794887
 30
0.0
 40
14.86605645748762
100
AcDbArc
 50
193.3263042336
 51
196.1160409616
  0
ARC
  5
469
330
1F
100
AcDbEntity
  8
0
  6
Continuous
 62
     7
370
    25
100
AcDbCircle
 10
6256.8187553361
 20
4814.4345055815
 30
0.0
 40
1.400000000000546
100
AcDbArc
 50
180.0
 51
270.0
  0
ARC
  5
46A
330
1F
100
AcDbEntity
  8
0
  6
Continuous
 62
     7
370
    25
100
AcDbCircle
 10
6274.0187553361
 20
4817.2345055815
 30
0.0
 40
19.95000000000019
100
AcDbArc
 50
299.71129725
 51
321.3514617827
  0
ARC
  5
46B
330
1F
100
AcDbEntity
  8
0
  6
Continuous
 62
     7
370
    25
100
AcDbCircle
 10
6274.0187553361
 20
4817.2345055815
 30
0.0
 40
19.94999999999986
100
AcDbArc
 50
178.6916322147
 51
211.8086462372
  0
ARC
  5
46C
330
1F
100
AcDbEntity
  8
0
  6
Continuous
 62
     7
370
    25
100
AcDbCircle
 10
6268.27011641
 20
4830.1785738079
 30
0.0
 40
2.114962488157019
100
AcDbArc
 50
113.9466658893
 51
122.6187463668
  0
LINE
  5
46D
330
1F
100
AcDbEntity
  8
0
  6
Continuous
 62
     7
370
    25
100
AcDbLine
 10
6258.4379714922
 20
4812.2195897214
 30
0.0
 11
6258.1319173948
 21
4813.0345055815
 31
0.0
  0
LWPOLYLINE
  5
46E
330
1F
100
AcDbEntity
  8
0
  6
Continuous
 62
     7
370
    25
100
AcDbPolyline
 90
        3
 70
   128
 43
0.0
 10
6257.8688085829
 20
4821.4345055815
 10
6258.3405637447
 20
4823.1412059163
 10
6258.4379714922
 20
4823.3467072858
  0
ARC
  5
46F
330
1F
100
AcDbEntity
  8
0
  6
Continuous
 62
     7
370
    25
100
AcDbCircle
 10
6273.2893659043
 20
4817.6633810508
 30
0.0
 40
15.56692608066836
100
AcDbArc
 50
113.3075534124
 51
132.2307016314
  0
ARC
  5
470
330
1F
100
AcDbEntity
  8
0
  6
Continuous
 62
     7
370
    25
100
AcDbCircle
 10
6274.0187553361
 20
4817.2345055815
 30
0.0
 40
16.27814545502445
100
AcDbArc
 50
16.8316601385
 51
42.2602911435
  0
LINE
  5
471
330
1F
100
AcDbEntity
  8
0
  6
Continuous
 62
     7
370
    25
100
AcDbLine
 10
6268.1829866114
 20
4832.4306176779
 30
0.0
 11
6267.4116825597
 21
4832.1114880975
 31
0.0
  0
LWPOLYLINE
  5
472
330
1F
100
AcDbEntity
  8
0
  6
Continuous
 62
     7
370
    25
100
AcDbPolyline
 90
        3
 70
   128
 43
0.0
 10
6275.3775157251
 20
4801.0131681008
 10
6277.4174237644
 20
4801.3151126166
 10
6277.9228572203
 20
4801.4314676478
  0
ARC
  5
473
330
1F
100
AcDbEntity
  8
0
  6
Continuous
 62
     7
370
    25
100
AcDbCircle
 10
6274.0187553361
 20
4817.2345055815
 30
0.0
 40
16.27814545502464
100
AcDbArc
 50
306.0554040474
 51
343.1683398615
  0
ELLIPSE
  5
474
330
1F
100
AcDbEntity
  8
0
  6
Continuous
 62
     7
370
    25
100
AcDbEllipse
 10
6271.7669387685
 20
4830.1785738079
 30
0.0
 11
7.431956459165121
 21
0.0
 31
0.0
210
0.0
220
0.0
230
1.0
 40
0.9998720779
 41
3.118775151141921
 42
4.187842385738499
  0
ELLIPSE
  5
475
330
1F
100
AcDbEntity
  8
0
  6
Continuous
 62
     7
370
    25
100
AcDbEllipse
 10
6271.7669387685
 20
4804.290437355
 30
0.0
 11
7.431956459165121
 21
0.0
 31
0.0
210
0.0
220
0.0
230
1.0
 40
0.9998720779
 41
2.095342921440979
 42
3.159634691503422
  0
ARC
  5
476
330
1F
100
AcDbEntity
  8
0
  6
Continuous
 62
     7
370
    25
100
AcDbCircle
 10
6264.8399617196
 20
4825.3407624718
 30
0.0
 40
3.579462495001432
100
AcDbArc
 50
333.5544399289
 51
50.6354567782
  0
ARC
  5
477
330
1F
100
AcDbEntity
  8
0
  6
Continuous
 62
     7
370
    25
100
AcDbCircle
 10
6268.3906595839
 20
4830.1786316372
 30
0.0
 40
2.434420996737638
100
AcDbArc
 50
143.877510115
 51
238.2668902283
  0
ARC
  5
478
330
1F
100
AcDbEntity
  8
0
  6
Continuous
 62
     7
370
    25
100
AcDbCircle
 10
6264.8399617196
 20
4809.1282486912
 30
0.0
 40
3.579462495003865
100
AcDbArc
 50
309.3645432218
 51
26.445560071
  0
ARC
  5
479
330
1F
100
AcDbEntity
  8
0
  6
Continuous
 62
     7
370
    25
100
AcDbCircle
 10
6268.3570742863
 20
4804.3095547897
 30
0.0
 40
2.400518789531485
100
AcDbArc
 50
121.2920457552
 51
196.984174804
  0
LINE
  5
47A
330
1F
100
AcDbEntity
  8
0
  6
Continuous
 62
     7
370
    25
100
AcDbLine
 10
6267.1102436645
 20
4828.1081387822
 30
0.0
 11
6268.8265632586
 21
4826.9179007493
 31
0.0
  0
LWPOLYLINE
  5
47B
330
1F
100
AcDbEntity
  8
0
  6
Continuous
 62
     7
370
    25
100
AcDbPolyline
 90
        3
 70
   128
 43
0.0
 10
6268.8265632586
 20
4807.5609297675
 10
6268.753324715
 20
4807.481145457
 10
6267.1102436645
 20
4806.3608723808
  0
ARC
  5
47C
330
1F
100
AcDbEntity
  8
0
  6
Continuous
 62
     7
370
    25
100
AcDbCircle
 10
6274.0187553361
 20
4817.2345055815
 30
0.0
 40
20.10000000000036
100
AcDbArc
 50
180.0
 51
211.805673443
  0
ARC
  5
47D
330
1F
100
AcDbEntity
  8
0
  6
Continuous
 62
     7
370
    25
100
AcDbCircle
 10
6274.0187553361
 20
4817.2345055815
 30
0.0
 40
20.10000000000055
100
AcDbArc
 50
299.6953992281
 51
320.8198470922
  0
ARC
  5
47E
330
1F
100
AcDbEntity
  8
0
  6
Continuous
 62
     7
370
    25
100
AcDbCircle
 10
6274.0187553361
 20
4817.2345055815
 30
0.0
 40
20.10000000000006
100
AcDbArc
 50
353.7333232488
 51
6.2666767512
  0
ARC
  5
47F
330
1F
100
AcDbEntity
  8
0
  6
Continuous
 62
     7
370
    25
100
AcDbCircle
 10
6274.0187553361
 20
4817.2345055815
 30
0.0
 40
20.10000000000036
100
AcDbArc
 50
140.8198470914
 51
180.0
  0
ARC
  5
480
330
1F
100
AcDbEntity
  8
0
  6
Continuous
 62
     7
370
    25
100
AcDbCircle
 10
6301.0187553361
 20
4817.2345055815
 30
0.0
 40
2.45000000000218
100
AcDbArc
 50
128.2893063632
 51
231.7106936368
  0
ARC
  5
481
330
1F
100
AcDbEntity
  8
0
  6
Continuous
 62
     7
370
    25
100
AcDbCircle
 10
6274.0187553361
 20
4817.2345055815
 30
0.0
 40
34.90000000000071
100
AcDbArc
 50
330.5681577807
 51
9.2693087163
  0
ARC
  5
482
330
1F
100
AcDbEntity
  8
0
  6
Continuous
 62
     7
370
    25
100
AcDbCircle
 10
6274.0187553361
 20
4817.2345055815
 30
0.0
 40
34.90000000000009
100
AcDbArc
 50
142.3605244258
 51
156.3952246782
  0
LINE
  5
483
330
1F
100
AcDbEntity
  8
0
  6
Continuous
 62
     7
370
    25
100
AcDbLine
 10
6299.5006555862
 20
4815.3115201033
 30
0.0
 11
6299.9986499743
 21
4815.0069766702
 31
0.0
  0
LINE
  5
484
330
1F
100
AcDbEntity
  8
0
  6
Continuous
 62
     7
370
    25
100
AcDbLine
 10
6299.9986499743
 20
4819.4620344928
 30
0.0
 11
6299.5006555862
 21
4819.1574910596
 31
0.0
  0
ARC
  5
485
330
1F
100
AcDbEntity
  8
0
  6
Continuous
 62
     7
370
    25
100
AcDbCircle
 10
6247.0187553361
 20
4817.2345055815
 30
0.0
 40
2.450000000000771
100
AcDbArc
 50
65.3944076926
 51
294.6055923074
  0
LINE
  5
486
330
1F
100
AcDbEntity
  8
0
  6
Continuous
 62
     7
370
    25
100
AcDbLine
 10
6266.1242290867
 20
4828.9968335816
 30
0.0
 11
6267.5375811484
 21
4830.4101856433
 31
0.0
  0
LINE
  5
487
330
1F
100
AcDbEntity
  8
0
  6
Continuous
 62
     7
370
    25
100
AcDbLine
 10
6274.0453790552
 20
4820.577651332
 30
0.0
 11
6274.0453790552
 21
4813.891359831
 31
0.0
  0
CIRCLE
  5
488
330
1F
100
AcDbEntity
  8
0
  6
Continuous
 62
     7
370
    25
100
AcDbCircle
 10
6826.3187553361
 20
4730.2345055815
 30
0.0
 40
4.0
  0
CIRCLE
  5
489
330
1F
100
AcDbEntity
  8
0
  6
Continuous
 62
     7
370
    25
100
AcDbCircle
 10
6826.3187553361
 20
4730.2345055815
 30
0.0
 40
5.0
  0
ARC
  5
48A
330
1F
100
AcDbEntity
  8
0
  6
Continuous
 62
     7
370
    25
100
AcDbCircle
 10
5721.7187553361
 20
4877.2345055815
 30
0.0
 40
4.000000000000389
100
AcDbArc
 50
270.0
 51
25.5142085468
  0
ARC
  5
48B
330
1F
100
AcDbEntity
  8
0
  6
Continuous
 62
     7
370
    25
100
AcDbCircle
 10
5721.7187553361
 20
4877.2345055815
 30
0.0
 40
4.0
100
AcDbArc
 50
154.4857914581
 51
270.0
  0
ARC
  5
48C
330
1F
100
AcDbEntity
  8
0
  6
Continuous
 62
     7
370
    25
100
AcDbCircle
 10
6826.3187553361
 20
4877.2345055815
 30
0.0
 40
4.0
100
AcDbArc
 50
270.0
 51
25.5142085419
  0
ARC
  5
48D
330
1F
100
AcDbEntity
  8
0
  6
Continuous
 62
     7
370
    25
100
AcDbCircle
 10
6826.3187553361
 20
4877.2345055815
 30
0.0
 40
4.000000000000389
100
AcDbArc
 50
154.4857914532
 51
270.0
  0
LINE
  5
48E
330
1F
100
AcDbEntity
  8
0
  6
Continuous
 62
     7
370
    25
100
AcDbLine
 10
6790.3187553361
 20
4892.2345055815
 30
0.0
 11
6790.3187553361
 21
4888.4345055815
 31
0.0
  0
LINE
  5
48F
330
1F
100
AcDbEntity
  8
0
  6
Continuous
 62
     7
370
    25
100
AcDbLine
 10
6840.3187553361
 20
4892.2345055815
 30
0.0
 11
6790.3187553361
 21
4892.2345055815
 31
0.0
  0
LINE
  5
490
330
1F
100
AcDbEntity
  8
0
  6
Continuous
 62
     7
370
    25
100
AcDbLine
 10
6840.3187553361
 20
4888.4345055815
 30
0.0
 11
6840.3187553361
 21
4892.2345055815
 31
0.0
  0
CIRCLE
  5
491
330
1F
100
AcDbEntity
  8
0
  6
Continuous
 62
     7
370
    25
100
AcDbCircle
 10
5721.7187553361
 20
4730.2345055815
 30
0.0
 40
4.000000000000909
  0
CIRCLE
  5
492
330
1F
100
AcDbEntity
  8
0
  6
Continuous
 62
     7
370
    25
100
AcDbCircle
 10
5721.7187553361
 20
4730.2345055815
 30
0.0
 40
5.0
  0
LINE
  5
493
330
1F
100
AcDbEntity
  8
0
  6
Continuous
 62
     7
370
    25
100
AcDbLine
 10
5707.7187553361
 20
4715.2345055815
 30
0.0
 11
5757.7187553361
 21
4715.2345055815
 31
0.0
  0
LINE
  5
494
330
1F
100
AcDbEntity
  8
0
  6
Continuous
 62
     7
370
    25
100
AcDbLine
 10
5707.7187553361
 20
4745.2345055815
 30
0.0
 11
5707.7187553361
 21
4715.2345055815
 31
0.0
  0
LINE
  5
495
330
1F
100
AcDbEntity
  8
0
  6
Continuous
 62
     7
370
    25
100
AcDbLine
 10
5757.7187553361
 20
4745.2345055815
 30
0.0
 11
5731.7187553361
 21
4745.2345055815
 31
0.0
  0
LINE
  5
496
330
1F
100
AcDbEntity
  8
0
  6
Continuous
 62
     7
370
    25
100
AcDbLine
 10
5711.7187553361
 20
4745.2345055815
 30
0.0
 11
5707.7187553361
 21
4745.2345055815
 31
0.0
  0
CIRCLE
  5
497
330
1F
100
AcDbEntity
  8
0
  6
Continuous
 62
     7
370
    25
100
AcDbCircle
 10
5743.7187553361
 20
4730.2345055815
 30
0.0
 40
2.75
  0
LINE
  5
498
330
1F
100
AcDbEntity
  8
0
  6
Continuous
 62
     7
370
    25
100
AcDbLine
 10
5757.7187553361
 20
4715.2345055815
 30
0.0
 11
5757.7187553361
 21
4745.2345055815
 31
0.0
  0
ARC
  5
499
330
1F
100
AcDbEntity
  8
0
  6
Continuous
 62
     7
370
    25
100
AcDbCircle
 10
5703.4187553361
 20
4867.2345055815
 30
0.0
 40
1.000000000000909
100
AcDbArc
 50
90.0
 51
180.0
  0
LINE
  5
49A
330
1F
100
AcDbEntity
  8
0
  6
Continuous
 62
     7
370
    25
100
AcDbLine
 10
6844.6187553361
 20
4868.2345055815
 30
0.0
 11
5703.4187553361
 21
4868.2345055815
 31
0.0
  0
ARC
  5
49B
330
1F
100
AcDbEntity
  8
0
  6
Continuous
 62
     7
370
    25
100
AcDbCircle
 10
6844.6187553361
 20
4867.2345055815
 30
0.0
 40
1.000000000000909
100
AcDbArc
 50
0.0
 51
90.0
  0
LINE
  5
49C
330
1F
100
AcDbEntity
  8
0
  6
Continuous
 62
     7
370
    25
100
AcDbLine
 10
5702.4187553361
 20
4767.2345055815
 30
0.0
 11
5702.4187553361
 21
4867.2345055815
 31
0.0
  0
LINE
  5
49D
330
1F
100
AcDbEntity
  8
0
  6
Continuous
 62
     7
370
    25
100
AcDbLine
 10
6845.6187553361
 20
4867.2345055815
 30
0.0
 11
6845.6187553361
 21
4767.2345055815
 31
0.0
  0
ARC
  5
49E
330
1F
100
AcDbEntity
  8
0
  6
Continuous
 62
     7
370
    25
100
AcDbCircle
 10
5703.4187553361
 20
4767.2345055815
 30
0.0
 40
1.000000000000909
100
AcDbArc
 50
180.0
 51
270.0
  0
ARC
  5
49F
330
1F
100
AcDbEntity
  8
0
  6
Continuous
 62
     7
370
    25
100
AcDbCircle
 10
6844.6187553361
 20
4767.2345055815
 30
0.0
 40
1.000000000000909
100
AcDbArc
 50
270.0
 51
0.0
  0
LINE
  5
4A0
330
1F
100
AcDbEntity
  8
0
  6
Continuous
 62
     7
370
    25
100
AcDbLine
 10
6844.6187553361
 20
4766.2345055815
 30
0.0
 11
5703.4187553361
 21
4766.2345055815
 31
0.0
  0
LINE
  5
4A1
330
1F
100
AcDbEntity
  8
0
  6
Continuous
 62
     7
370
    25
100
AcDbLine
 10
6876.3187553361
 20
4888.4345055815
 30
0.0
 11
5671.7187553361
 21
4888.4345055815
 31
0.0
  0
LINE
  5
4A2
330
1F
100
AcDbEntity
  8
0
  6
Continuous
 62
     7
370
    25
100
AcDbLine
 10
6876.3187553361
 20
4746.0345055815
 30
0.0
 11
6876.3187553361
 21
4888.4345055815
 31
0.0
  0
LINE
  5
4A3
330
1F
100
AcDbEntity
  8
0
  6
Continuous
 62
     7
370
    25
100
AcDbLine
 10
5671.7187553361
 20
4746.0345055815
 30
0.0
 11
6876.3187553361
 21
4746.0345055815
 31
0.0
  0
LINE
  5
4A4
330
1F
100
AcDbEntity
  8
0
  6
Continuous
 62
     7
370
    25
100
AcDbLine
 10
5671.7187553361
 20
4888.4345055815
 30
0.0
 11
5671.7187553361
 21
4746.0345055815
 31
0.0
  0
CIRCLE
  5
4A5
330
1F
100
AcDbEntity
  8
0
  6
Continuous
 62
     7
370
    25
100
AcDbCircle
 10
6826.3187553361
 20
4876.714451467
 30
0.0
 40
4.25
  0
CIRCLE
  5
4A6
330
1F
100
AcDbEntity
  8
0
  6
Continuous
 62
     7
370
    25
100
AcDbCircle
 10
5721.7187553361
 20
4876.714451467
 30
0.0
 40
4.25
  0
LINE
  5
4A7
330
1F
100
AcDbEntity
  8
0
  6
Continuous
 62
     7
370
    25
100
AcDbLine
 10
5731.7187553361
 20
4743.2540221301
 30
0.0
 11
5711.7187553361
 21
4743.2540221301
 31
0.0
  0
LINE
  5
4A8
330
1F
100
AcDbEntity
  8
0
  6
Continuous
 62
     7
370
    25
100
AcDbLine
 10
5711.7187553361
 20
4746.0345055815
 30
0.0
 11
5711.7187553361
 21
4743.2540221301
 31
0.0
  0
LINE
  5
4A9
330
1F
100
AcDbEntity
  8
0
  6
Continuous
 62
     7
370
    25
100
AcDbLine
 10
5731.7187553361
 20
4746.0345055815
 30
0.0
 11
5731.7187553361
 21
4743.2540221301
 31
0.0
  0
LINE
  5
4AA
330
1F
100
AcDbEntity
  8
0
  6
Continuous
 62
     7
370
    25
100
AcDbLine
 10
6816.3187553361
 20
4743.2540221301
 30
0.0
 11
6836.3187553361
 21
4743.2540221301
 31
0.0
  0
LINE
  5
4AB
330
1F
100
AcDbEntity
  8
0
  6
Continuous
 62
     7
370
    25
100
AcDbLine
 10
6836.3187553361
 20
4746.0345055815
 30
0.0
 11
6836.3187553361
 21
4743.2540221301
 31
0.0
  0
LINE
  5
4AC
330
1F
100
AcDbEntity
  8
0
  6
Continuous
 62
     7
370
    25
100
AcDbLine
 10
6816.3187553361
 20
4746.0345055815
 30
0.0
 11
6816.3187553361
 21
4743.2540221301
 31
0.0
  0
LINE
  5
4AD
330
1F
100
AcDbEntity
  8
0
  6
Continuous
 62
     7
370
    25
100
AcDbLine
 10
5730.2187553361
 20
4725.3270282934
 30
0.0
 11
5721.7187553361
 21
4720.4195510052
 31
0.0
  0
LINE
  5
4AE
330
1F
100
AcDbEntity
  8
0
  6
Continuous
 62
     7
370
    25
100
AcDbLine
 10
5721.7187553361
 20
4720.4195510052
 30
0.0
 11
5713.2187553361
 21
4725.3270282934
 31
0.0
  0
LINE
  5
4AF
330
1F
100
AcDbEntity
  8
0
  6
Continuous
 62
     7
370
    25
100
AcDbLine
 10
5713.2187553361
 20
4725.3270282934
 30
0.0
 11
5713.2187553361
 21
4735.1419828696
 31
0.0
  0
LINE
  5
4B0
330
1F
100
AcDbEntity
  8
0
  6
Continuous
 62
     7
370
    25
100
AcDbLine
 10
5721.7187553361
 20
4740.0494601577
 30
0.0
 11
5730.2187553361
 21
4735.1419828696
 31
0.0
  0
LINE
  5
4B1
330
1F
100
AcDbEntity
  8
0
  6
Continuous
 62
     7
370
    25
100
AcDbLine
 10
5730.2187553361
 20
4735.1419828696
 30
0.0
 11
5730.2187553361
 21
4725.3270282934
 31
0.0
  0
LINE
  5
4B2
330
1F
100
AcDbEntity
  8
0
  6
Continuous
 62
     7
370
    25
100
AcDbLine
 10
5713.2187553361
 20
4735.1419828696
 30
0.0
 11
5721.7187553361
 21
4740.0494601577
 31
0.0
  0
LINE
  5
4B3
330
1F
100
AcDbEntity
  8
0
  6
Continuous
 62
     7
370
    25
100
AcDbLine
 10
6826.3187553361
 20
4740.0494601577
 30
0.0
 11
6817.8187553361
 21
4735.1419828696
 31
0.0
  0
LINE
  5
4B4
330
1F
100
AcDbEntity
  8
0
  6
Continuous
 62
     7
370
    25
100
AcDbLine
 10
6834.8187553361
 20
4735.1419828696
 30
0.0
 11
6826.3187553361
 21
4740.0494601577
 31
0.0
  0
LINE
  5
4B5
330
1F
100
AcDbEntity
  8
0
  6
Continuous
 62
     7
370
    25
100
AcDbLine
 10
6834.8187553361
 20
4725.3270282934
 30
0.0
 11
6834.8187553361
 21
4735.1419828696
 31
0.0
  0
LINE
  5
4B6
330
1F
100
AcDbEntity
  8
0
  6
Continuous
 62
     7
370
    25
100
AcDbLine
 10
6826.3187553361
 20
4720.4195510052
 30
0.0
 11
6834.8187553361
 21
4725.3270282934
 31
0.0
  0
LINE
  5
4B7
330
1F
100
AcDbEntity
  8
0
  6
Continuous
 62
     7
370
    25
100
AcDbLine
 10
6817.8187553361
 20
4725.3270282934
 30
0.0
 11
6826.3187553361
 21
4720.4195510052
 31
0.0
  0
LINE
  5
4B8
330
1F
100
AcDbEntity
  8
0
  6
Continuous
 62
     7
370
    25
100
AcDbLine
 10
6817.8187553361
 20
4735.1419828696
 30
0.0
 11
6817.8187553361
 21
4725.3270282934
 31
0.0
  0
LINE
  5
4B9
330
1F
100
AcDbEntity
  8
0
  6
Continuous
 62
     7
370
    25
100
AcDbLine
 10
6816.3187553361
 20
4742.5927135687
 30
0.0
 11
6836.3187553361
 21
4742.5927135687
 31
0.0
  0
LINE
  5
4BA
330
1F
100
AcDbEntity
  8
0
  6
Continuous
 62
     7
370
    25
100
AcDbLine
 10
6836.3187553361
 20
4743.2540221301
 30
0.0
 11
6836.3187553361
 21
4742.5927135687
 31
0.0
  0
LINE
  5
4BB
330
1F
100
AcDbEntity
  8
0
  6
Continuous
 62
     7
370
    25
100
AcDbLine
 10
6816.3187553361
 20
4743.2540221301
 30
0.0
 11
6816.3187553361
 21
4742.5927135687
 31
0.0
  0
LINE
  5
4BC
330
1F
100
AcDbEntity
  8
0
  6
Continuous
 62
     7
370
    25
100
AcDbLine
 10
5731.7187553361
 20
4742.5927135687
 30
0.0
 11
5711.7187553361
 21
4742.5927135687
 31
0.0
  0
LINE
  5
4BD
330
1F
100
AcDbEntity
  8
0
  6
Continuous
 62
     7
370
    25
100
AcDbLine
 10
5711.7187553361
 20
4743.2540221301
 30
0.0
 11
5711.7187553361
 21
4742.5927135687
 31
0.0
  0
LINE
  5
4BE
330
1F
100
AcDbEntity
  8
0
  6
Continuous
 62
     7
370
    25
100
AcDbLine
 10
5731.7187553361
 20
4743.2540221301
 30
0.0
 11
5731.7187553361
 21
4742.5927135687
 31
0.0
  0
LINE
  5
4BF
330
1F
100
AcDbEntity
  8
0
  6
Continuous
 62
     7
370
    25
100
AcDbLine
 10
5731.7187553361
 20
4721.5927135687
 30
0.0
 11
5723.7507325016
 21
4721.5927135687
 31
0.0
  0
LINE
  5
4C0
330
1F
100
AcDbEntity
  8
0
  6
Continuous
 62
     7
370
    25
100
AcDbLine
 10
5719.6867781706
 20
4721.5927135687
 30
0.0
 11
5711.7187553361
 21
4721.5927135687
 31
0.0
  0
LINE
  5
4C1
330
1F
100
AcDbEntity
  8
0
  6
Continuous
 62
     7
370
    25
100
AcDbLine
 10
5711.7187553361
 20
4742.5927135687
 30
0.0
 11
5711.7187553361
 21
4721.5927135687
 31
0.0
  0
LINE
  5
4C2
330
1F
100
AcDbEntity
  8
0
  6
Continuous
 62
     7
370
    25
100
AcDbLine
 10
5731.7187553361
 20
4742.5927135687
 30
0.0
 11
5731.7187553361
 21
4721.5927135687
 31
0.0
  0
LINE
  5
4C3
330
1F
100
AcDbEntity
  8
0
  6
Continuous
 62
     7
370
    25
100
AcDbLine
 10
6828.3507325016
 20
4721.5927135687
 30
0.0
 11
6836.3187553361
 21
4721.5927135687
 31
0.0
  0
LINE
  5
4C4
330
1F
100
AcDbEntity
  8
0
  6
Continuous
 62
     7
370
    25
100
AcDbLine
 10
6816.3187553361
 20
4721.5927135687
 30
0.0
 11
6824.2867781706
 21
4721.5927135687
 31
0.0
  0
LINE
  5
4C5
330
1F
100
AcDbEntity
  8
0
  6
Continuous
 62
     7
370
    25
100
AcDbLine
 10
6836.3187553361
 20
4742.5927135687
 30
0.0
 11
6836.3187553361
 21
4721.5927135687
 31
0.0
  0
LINE
  5
4C6
330
1F
100
AcDbEntity
  8
0
  6
Continuous
 62
     7
370
    25
100
AcDbLine
 10
6816.3187553361
 20
4742.5927135687
 30
0.0
 11
6816.3187553361
 21
4721.5927135687
 31
0.0
  0
LINE
  5
4C7
330
1F
100
AcDbEntity
  8
0
  6
Continuous
 62
     8
370
    25
100
AcDbLine
 10
6256.8187553361
 20
4817.2345055815
 30
0.0
 11
6258.4379714922
 21
4817.2345055815
 31
0.0
  0
LINE
  5
4C8
330
1F
100
AcDbEntity
  8
0
  6
Continuous
 62
     8
370
    25
100
AcDbLine
 10
6288.4180741075
 20
4817.2345055815
 30
0.0
 11
6289.5995391802
 21
4817.2345055815
 31
0.0
  0
LINE
  5
4C9
330
1F
100
AcDbEntity
  8
0
  6
Continuous
 62
     8
370
    25
100
AcDbLine
 10
6255.8964771265
 20
4818.2372680124
 30
0.0
 11
6253.9993791321
 21
4818.3422403881
 31
0.0
  0
LINE
  5
4CA
330
1F
100
AcDbEntity
  8
0
  6
Continuous
 62
     8
370
    25
100
AcDbLine
 10
6293.9986499743
 20
4818.3400557494
 30
0.0
 11
6294.0381315401
 21
4818.3422403881
 31
0.0
  0
LINE
  5
4CB
330
1F
100
AcDbEntity
  8
0
  6
Continuous
 62
     8
370
    25
100
AcDbLine
 10
6255.9464007579
 20
4818.1845055815
 30
0.0
 11
6255.9464007579
 21
4816.2845055815
 31
0.0
  0
LINE
  5
4CC
330
1F
100
AcDbEntity
  8
0
  6
Continuous
 62
     8
370
    25
100
AcDbLine
 10
6255.4187553361
 20
4814.4345055815
 30
0.0
 11
6255.4187553361
 21
4816.3572495231
 31
0.0
  0
LINE
  5
4CD
330
1F
100
AcDbEntity
  8
0
  6
Continuous
 62
     8
370
    25
100
AcDbLine
 10
6256.1187553361
 20
4820.0345055815
 30
0.0
 11
6256.0860338472
 21
4820.0345055815
 31
0.0
  0
LWPOLYLINE
  5
4CE
330
1F
100
AcDbEntity
  8
0
  6
Continuous
 62
     8
370
    25
100
AcDbPolyline
 90
        3
 70
   128
 43
0.0
 10
6256.8187553361
 20
4821.4345055815
 10
6256.5456288853
 20
4821.407604974
 10
6256.3416690966
 20
4821.3507079671
  0
LINE
  5
4CF
330
1F
100
AcDbEntity
  8
0
  6
Continuous
 62
     8
370
    25
100
AcDbLine
 10
6257.8688085827
 20
4821.4345055808
 30
0.0
 11
6258.4379714922
 21
4821.4345055811
 31
0.0
  0
ELLIPSE
  5
4D0
330
1F
100
AcDbEntity
  8
0
  6
Continuous
 62
     8
370
    25
100
AcDbEllipse
 10
6264.2763521413
 20
4817.2345055815
 30
0.0
 11
7.524669661681401
 21
0.0
 31
0.0
210
0.0
220
0.0
230
1.0
 40
0.9998720779
 41
5.236935575030781
 42
5.361785361235055
  0
ELLIPSE
  5
4D1
330
1F
100
AcDbEntity
  8
0
  6
Continuous
 62
     8
370
    25
100
AcDbEllipse
 10
6264.2763521413
 20
4817.2345055815
 30
0.0
 11
7.524669661681401
 21
0.0
 31
0.0
210
0.0
220
0.0
230
1.0
 40
0.9998720779
 41
0.9213999459444725
 42
1.04624973214888
  0
ARC
  5
4D2
330
1F
100
AcDbEntity
  8
0
  6
Continuous
 62
     8
370
    25
100
AcDbCircle
 10
6274.0187553361
 20
4817.2345055815
 30
0.0
 40
25.55435605731808
100
AcDbArc
 50
4.3156322274
 51
18.4609416796
  0
ARC
  5
4D3
330
1F
100
AcDbEntity
  8
0
  6
Continuous
 62
     8
370
    25
100
AcDbCircle
 10
6274.0187553361
 20
4817.2345055815
 30
0.0
 40
25.55435605731822
100
AcDbArc
 50
321.4310691784
 51
355.6843677726
  0
ARC
  5
4D4
330
1F
100
AcDbEntity
  8
0
  6
Continuous
 62
     8
370
    25
100
AcDbCircle
 10
6274.0187553361
 20
4817.2345055815
 30
0.0
 40
25.55435605731788
100
AcDbArc
 50
132.8072780255
 51
147.6189494208
  0
LINE
  5
4D5
330
1F
100
AcDbEntity
  8
0
  6
Continuous
 62
     8
370
    25
100
AcDbLine
 10
6257.3130379268
 20
4828.321502733
 30
0.0
 11
6257.2530613701
 21
4828.321502733
 31
0.0
  0
LINE
  5
4D6
330
1F
100
AcDbEntity
  8
0
  6
Continuous
 62
     8
370
    25
100
AcDbLine
 10
6256.8063387412
 20
4807.1481179742
 30
0.0
 11
6256.6327038857
 21
4807.1481179742
 31
0.0
  0
LINE
  5
4D7
330
1F
100
AcDbEntity
  8
0
  6
Continuous
 62
     8
370
    25
100
AcDbLine
 10
6256.6327038857
 20
4827.3208931887
 30
0.0
 11
6256.6905331239
 21
4827.3208931887
 31
0.0
  0
LINE
  5
4D8
330
1F
100
AcDbEntity
  8
0
  6
Continuous
 62
     8
370
    25
100
AcDbLine
 10
6257.5944271793
 20
4828.8211981466
 30
0.0
 11
6257.6556549147
 21
4828.8211981466
 31
0.0
  0
LINE
  5
4D9
330
1F
100
AcDbEntity
  8
0
  6
Continuous
 62
     8
370
    25
100
AcDbLine
 10
6267.2148824851
 20
4827.9061801832
 30
0.0
 11
6266.1242290867
 21
4828.9968335816
 31
0.0
  0
LINE
  5
4DA
330
1F
100
AcDbEntity
  8
0
  6
Continuous
 62
     8
370
    25
100
AcDbLine
 10
6266.1242290867
 20
4805.4721775813
 30
0.0
 11
6267.2062416031
 21
4806.5541900977
 31
0.0
  0
LWPOLYLINE
  5
4DB
330
1F
100
AcDbEntity
  8
0
  6
Continuous
 62
     8
370
    25
100
AcDbPolyline
 90
        3
 70
   128
 43
0.0
 10
6266.3284016182
 20
4831.4036180659
 10
6266.9539372685
 20
4830.9391696216
 10
6267.5375811484
 20
4830.4101856433
  0
ARC
  5
4DC
330
1F
100
AcDbEntity
  8
0
  6
Continuous
 62
     8
370
    25
100
AcDbCircle
 10
6266.0187553361
 20
4820.577651332
 30
0.0
 40
8.026623719119016
100
AcDbArc
 50
0.0
 51
26.3574116269
  0
LINE
  5
4DD
330
1F
100
AcDbEntity
  8
0
  6
Continuous
 62
     8
370
    25
100
AcDbLine
 10
6274.0453790552
 20
4820.577651332
 30
0.0
 11
6273.2109474138
 21
4820.577651332
 31
0.0
  0
LINE
  5
4DE
330
1F
100
AcDbEntity
  8
0
  6
Continuous
 62
     8
370
    25
100
AcDbLine
 10
6267.5375811484
 20
4830.4101856433
 30
0.0
 11
6268.8265632586
 21
4829.1212035332
 31
0.0
  0
LINE
  5
4DF
330
1F
100
AcDbEntity
  8
0
  6
Continuous
 62
     8
370
    25
100
AcDbLine
 10
6274.0453790552
 20
4813.891359831
 30
0.0
 11
6273.2109474138
 21
4813.891359831
 31
0.0
  0
ARC
  5
4E0
330
1F
100
AcDbEntity
  8
0
  6
Continuous
 62
     8
370
    25
100
AcDbCircle
 10
6266.0187553361
 20
4813.891359831
 30
0.0
 40
8.026623719119016
100
AcDbArc
 50
333.6425883731
 51
0.0
  0
LINE
  5
4E1
330
1F
100
AcDbEntity
  8
0
  6
Continuous
 62
     8
370
    25
100
AcDbLine
 10
6268.1266056619
 20
4804.6478500331
 30
0.0
 11
6267.752648652
 21
4804.2738930232
 31
0.0
  0
LINE
  5
4E2
330
1F
100
AcDbEntity
  8
0
  6
Continuous
 62
     8
370
    25
100
AcDbLine
 10
6267.5073900275
 20
4804.0890166406
 30
0.0
 11
6266.1242290867
 21
4805.4721775813
 31
0.0
  0
LINE
  5
4E3
330
1F
100
AcDbEntity
  8
0
  6
Continuous
 62
     8
370
    25
100
AcDbLine
 10
5703.4187553361
 20
4868.2345055815
 30
0.0
 11
5703.4187553361
 21
4871.6345045976
 31
0.0
  0
LINE
  5
4E4
330
1F
100
AcDbEntity
  8
0
  6
Continuous
 62
     8
370
    25
100
AcDbLine
 10
5702.4187553361
 20
4867.2345055815
 30
0.0
 11
5699.0187553361
 21
4867.2345055815
 31
0.0
  0
LINE
  5
4E5
330
1F
100
AcDbEntity
  8
0
  6
Continuous
 62
     8
370
    25
100
AcDbLine
 10
6844.6187553361
 20
4868.2345055815
 30
0.0
 11
6844.6187553361
 21
4871.6345055815
 31
0.0
  0
LINE
  5
4E6
330
1F
100
AcDbEntity
  8
0
  6
Continuous
 62
     8
370
    25
100
AcDbLine
 10
6845.6187553361
 20
4867.2345055815
 30
0.0
 11
6849.0187553361
 21
4867.2345055815
 31
0.0
  0
LINE
  5
4E7
330
1F
100
AcDbEntity
  8
0
  6
Continuous
 62
     8
370
    25
100
AcDbLine
 10
5702.4187553361
 20
4767.2345055815
 30
0.0
 11
5699.0187553361
 21
4767.2345055815
 31
0.0
  0
LINE
  5
4E8
330
1F
100
AcDbEntity
  8
0
  6
Continuous
 62
     8
370
    25
100
AcDbLine
 10
6845.6187553361
 20
4767.2345055815
 30
0.0
 11
6849.0187553361
 21
4767.2345055815
 31
0.0
  0
LINE
  5
4E9
330
1F
100
AcDbEntity
  8
0
  6
Continuous
 62
     8
370
    25
100
AcDbLine
 10
5703.4187553361
 20
4766.2345055815
 30
0.0
 11
5703.4187553361
 21
4762.8345055815
 31
0.0
  0
LINE
  5
4EA
330
1F
100
AcDbEntity
  8
0
  6
Continuous
 62
     8
370
    25
100
AcDbLine
 10
6844.6187553361
 20
4766.2345055815
 30
0.0
 11
6844.6187553361
 21
4762.8345055815
 31
0.0
  0
ARC
  5
4EB
330
1F
100
AcDbEntity
  8
0
  6
Continuous
 62
     8
370
    25
100
AcDbCircle
 10
6274.0187553361
 20
4817.2345055815
 30
0.0
 40
40.00000000000036
100
AcDbArc
 50
323.3315085778
 51
335.4909692174
  0
ARC
  5
4EC
330
1F
100
AcDbEntity
  8
0
  6
Continuous
 62
     8
370
    25
100
AcDbCircle
 10
6274.0187553361
 20
4817.2345055815
 30
0.0
 40
39.99999999999999
100
AcDbArc
 50
155.4909692168
 51
188.3448786046
  0
ARC
  5
4ED
330
1F
100
AcDbEntity
  8
0
  6
Continuous
 62
     8
370
    25
100
AcDbCircle
 10
6274.0187553361
 20
4817.2345055815
 30
0.0
 40
35.20108727315833
100
AcDbArc
 50
329.7108859142
 51
8.9497449943
  0
ARC
  5
4EE
330
1F
100
AcDbEntity
  8
0
  6
Continuous
 62
     8
370
    25
100
AcDbCircle
 10
6274.0187553361
 20
4817.2345055815
 30
0.0
 40
35.20108727315857
100
AcDbArc
 50
142.4826339708
 51
155.2977369638
  0
ENDSEC
  0
SECTION
  2
OBJECTS
  0
DICTIONARY
  5
C
330
0
100
AcDbDictionary
281
     1
  3
ACAD_GROUP
350
D
  3
ACAD_LAYOUT
350
1A
  3
ACAD_MLINESTYLE
350
17
  3
ACAD_PLOTSETTINGS
350
19
  3
ACAD_PLOTSTYLENAME
350
E
  3
ACAD_SCALELIST
350
47
  3
DWGPROPS
350
4EF
  0
DICTIONARY
  5
D
102
{ACAD_REACTORS
330
C
102
}
330
C
100
AcDbDictionary
281
     1
  0
DICTIONARY
  5
1A
102
{ACAD_REACTORS
330
C
102
}
330
C
100
AcDbDictionary
281
     1
  3
Layout1
350
1E
  3
Layout2
350
26
  3
Model
350
22
  0
DICTIONARY
  5
17
102
{ACAD_REACTORS
330
C
102
}
330
C
100
AcDbDictionary
281
     1
  3
Standard
350
18
  0
DICTIONARY
  5
19
102
{ACAD_REACTORS
330
C
102
}
330
C
100
AcDbDictionary
281
     1
  0
ACDBDICTIONARYWDFLT
  5
E
102
{ACAD_REACTORS
330
C
102
}
330
C
100
AcDbDictionary
281
     1
  3
Normal
350
F
100
AcDbDictionaryWithDefault
340
F
  0
DICTIONARY
  5
47
102
{ACAD_REACTORS
330
C
102
}
330
C
100
AcDbDictionary
281
     1
  3
A0
350
48
  3
A1
350
49
  3
A2
350
4A
  3
A3
350
4B
  3
A4
350
4C
  3
A5
350
4D
  3
A6
350
4E
  3
A7
350
4F
  3
A8
350
50
  3
A9
350
51
  3
B0
350
52
  3
B1
350
53
  3
B2
350
54
  3
B3
350
55
  3
B4
350
56
  3
B5
350
57
  3
B6
350
58
  3
B7
350
59
  3
B8
350
5A
  3
B9
350
5B
  3
C0
350
5C
  3
C1
350
5D
  3
C2
350
5E
  3
C3
350
5F
  3
C4
350
60
  3
C5
350
61
  3
C6
350
62
  3
C7
350
63
  3
C8
350
64
  3
C9
350
65
  3
D0
350
66
  3
D1
350
67
  3
D2
350
68
  0
XRECORD
  5
4EF
102
{ACAD_REACTORS
330
C
102
}
330
C
100
AcDbXrecord
280
     1
  1
DWGPROPS COOKIE
  2

  3

  4

  6

  7

  8
radek.stransky
  9

300
=
301
=
302
=
303
=
304
=
305
=
306
=
307
=
308
=
309
=
 40
0.0
 41
2459107.455169051
 42
2459107.455169421
  1

 90
        0
  0
LAYOUT
  5
1E
102
{ACAD_REACTORS
330
1A
102
}
330
1A
100
AcDbPlotSettings
  1

  2
none_device
  4

  6

 40
0.0
 41
0.0
 42
0.0
 43
0.0
 44
0.0
 45
0.0
 46
0.0
 47
0.0
 48
0.0
 49
0.0
140
0.0
141
0.0
142
1.0
143
1.0
 70
   688
 72
     1
 73
     0
 74
     5
  7

 75
    16
147
1.0
148
0.0
149
0.0
100
AcDbLayout
  1
Layout1
 70
     1
 71
     1
 10
0.0
 20
0.0
 11
420.0
 21
297.0
 12
0.0
 22
0.0
 32
0.0
 14
1.0000000000E+20
 24
1.0000000000E+20
 34
1.0000000000E+20
 15
-1.0000000000E+20
 25
-1.0000000000E+20
 35
-1.0000000000E+20
146
0.0
 13
0.0
 23
0.0
 33
0.0
 16
1.0
 26
0.0
 36
0.0
 17
0.0
 27
1.0
 37
0.0
 76
     0
330
1B
  0
LAYOUT
  5
26
102
{ACAD_REACTORS
330
1A
102
}
330
1A
100
AcDbPlotSettings
  1

  2
none_device
  4

  6

 40
0.0
 41
0.0
 42
0.0
 43
0.0
 44
0.0
 45
0.0
 46
0.0
 47
0.0
 48
0.0
 49
0.0
140
0.0
141
0.0
142
1.0
143
1.0
 70
   688
 72
     1
 73
     0
 74
     5
  7

 75
    16
147
1.0
148
0.0
149
0.0
100
AcDbLayout
  1
Layout2
 70
     1
 71
     2
 10
0.0
 20
0.0
 11
0.0
 21
0.0
 12
0.0
 22
0.0
 32
0.0
 14
0.0
 24
0.0
 34
0.0
 15
0.0
 25
0.0
 35
0.0
146
0.0
 13
0.0
 23
0.0
 33
0.0
 16
1.0
 26
0.0
 36
0.0
 17
0.0
 27
1.0
 37
0.0
 76
     0
330
23
  0
LAYOUT
  5
22
102
{ACAD_REACTORS
330
1A
102
}
330
1A
100
AcDbPlotSettings
  1

  2
none_device
  4
Letter_(8.50_x_11.00_Inches)
  6

 40
6.35
 41
6.35
 42
6.35000508
 43
6.35000508
 44
215.9
 45
279.4
 46
0.0
 47
0.0
 48
0.0
 49
0.0
140
0.0
141
0.0
142
1.0
143
1.0
 70
  1712
 72
     1
 73
     0
 74
     0
  7

 75
     0
147
1.0
148
0.0
149
0.0
100
AcDbLayout
  1
Model
 70
     1
 71
     0
 10
0.0
 20
0.0
 11
20000.0
 21
10000.0
 12
0.0
 22
0.0
 32
0.0
 14
0.0
 24
0.0
 34
0.0
 15
20000.0
 25
10000.0
 35
0.0
146
0.0
 13
0.0
 23
0.0
 33
0.0
 16
1.0
 26
0.0
 36
0.0
 17
0.0
 27
1.0
 37
0.0
 76
     0
330
1F
331
29
  0
MLINESTYLE
  5
18
102
{ACAD_REACTORS
330
17
102
}
330
17
100
AcDbMlineStyle
  2
Standard
 70
     0
  3

 62
   256
 51
90.0
 52
90.0
 71
     2
 49
0.5
 62
   256
  6
BYLAYER
 49
-0.5
 62
   256
  6
BYLAYER
  0
ACDBPLACEHOLDER
  5
F
102
{ACAD_REACTORS
330
E
102
}
330
E
  0
SCALE
  5
48
102
{ACAD_REACTORS
330
47
102
}
330
47
100
AcDbScale
 70
     0
300
1:1
140
1.0
141
1.0
290
     1
  0
SCALE
  5
49
102
{ACAD_REACTORS
330
47
102
}
330
47
100
AcDbScale
 70
     0
300
1:2
140
1.0
141
2.0
290
     0
  0
SCALE
  5
4A
102
{ACAD_REACTORS
330
47
102
}
330
47
100
AcDbScale
 70
     0
300
1:4
140
1.0
141
4.0
290
     0
  0
SCALE
  5
4B
102
{ACAD_REACTORS
330
47
102
}
330
47
100
AcDbScale
 70
     0
300
1:5
140
1.0
141
5.0
290
     0
  0
SCALE
  5
4C
102
{ACAD_REACTORS
330
47
102
}
330
47
100
AcDbScale
 70
     0
300
1:8
140
1.0
141
8.0
290
     0
  0
SCALE
  5
4D
102
{ACAD_REACTORS
330
47
102
}
330
47
100
AcDbScale
 70
     0
300
1:10
140
1.0
141
10.0
290
     0
  0
SCALE
  5
4E
102
{ACAD_REACTORS
330
47
102
}
330
47
100
AcDbScale
 70
     0
300
1:16
140
1.0
141
16.0
290
     0
  0
SCALE
  5
4F
102
{ACAD_REACTORS
330
47
102
}
330
47
100
AcDbScale
 70
     0
300
1:20
140
1.0
141
20.0
290
     0
  0
SCALE
  5
50
102
{ACAD_REACTORS
330
47
102
}
330
47
100
AcDbScale
 70
     0
300
1:30
140
1.0
141
30.0
290
     0
  0
SCALE
  5
51
102
{ACAD_REACTORS
330
47
102
}
330
47
100
AcDbScale
 70
     0
300
1:40
140
1.0
141
40.0
290
     0
  0
SCALE
  5
52
102
{ACAD_REACTORS
330
47
102
}
330
47
100
AcDbScale
 70
     0
300
1:50
140
1.0
141
50.0
290
     0
  0
SCALE
  5
53
102
{ACAD_REACTORS
330
47
102
}
330
47
100
AcDbScale
 70
     0
300
1:100
140
1.0
141
100.0
290
     0
  0
SCALE
  5
54
102
{ACAD_REACTORS
330
47
102
}
330
47
100
AcDbScale
 70
     0
300
2:1
140
2.0
141
1.0
290
     0
  0
SCALE
  5
55
102
{ACAD_REACTORS
330
47
102
}
330
47
100
AcDbScale
 70
     0
300
4:1
140
4.0
141
1.0
290
     0
  0
SCALE
  5
56
102
{ACAD_REACTORS
330
47
102
}
330
47
100
AcDbScale
 70
     0
300
8:1
140
8.0
141
1.0
290
     0
  0
SCALE
  5
57
102
{ACAD_REACTORS
330
47
102
}
330
47
100
AcDbScale
 70
     0
300
10:1
140
10.0
141
1.0
290
     0
  0
SCALE
  5
58
102
{ACAD_REACTORS
330
47
102
}
330
47
100
AcDbScale
 70
     0
300
100:1
140
100.0
141
1.0
290
     0
  0
SCALE
  5
59
102
{ACAD_REACTORS
330
47
102
}
330
47
100
AcDbScale
 70
     0
300
1/128" = 1'-0"
140
0.0078125
141
12.0
290
     0
  0
SCALE
  5
5A
102
{ACAD_REACTORS
330
47
102
}
330
47
100
AcDbScale
 70
     0
300
1/64" = 1'-0"
140
0.015625
141
12.0
290
     0
  0
SCALE
  5
5B
102
{ACAD_REACTORS
330
47
102
}
330
47
100
AcDbScale
 70
     0
300
1/32" = 1'-0"
140
0.03125
141
12.0
290
     0
  0
SCALE
  5
5C
102
{ACAD_REACTORS
330
47
102
}
330
47
100
AcDbScale
 70
     0
300
1/16" = 1'-0"
140
0.0625
141
12.0
290
     0
  0
SCALE
  5
5D
102
{ACAD_REACTORS
330
47
102
}
330
47
100
AcDbScale
 70
     0
300
3/32" = 1'-0"
140
0.09375
141
12.0
290
     0
  0
SCALE
  5
5E
102
{ACAD_REACTORS
330
47
102
}
330
47
100
AcDbScale
 70
     0
300
1/8" = 1'-0"
140
0.125
141
12.0
290
     0
  0
SCALE
  5
5F
102
{ACAD_REACTORS
330
47
102
}
330
47
100
AcDbScale
 70
     0
300
3/16" = 1'-0"
140
0.1875
141
12.0
290
     0
  0
SCALE
  5
60
102
{ACAD_REACTORS
330
47
102
}
330
47
100
AcDbScale
 70
     0
300
1/4" = 1'-0"
140
0.25
141
12.0
290
     0
  0
SCALE
  5
61
102
{ACAD_REACTORS
330
47
102
}
330
47
100
AcDbScale
 70
     0
300
3/8" = 1'-0"
140
0.375
141
12.0
290
     0
  0
SCALE
  5
62
102
{ACAD_REACTORS
330
47
102
}
330
47
100
AcDbScale
 70
     0
300
1/2" = 1'-0"
140
0.5
141
12.0
290
     0
  0
SCALE
  5
63
102
{ACAD_REACTORS
330
47
102
}
330
47
100
AcDbScale
 70
     0
300
3/4" = 1'-0"
140
0.75
141
12.0
290
     0
  0
SCALE
  5
64
102
{ACAD_REACTORS
330
47
102
}
330
47
100
AcDbScale
 70
     0
300
1" = 1'-0"
140
1.0
141
12.0
290
     0
  0
SCALE
  5
65
102
{ACAD_REACTORS
330
47
102
}
330
47
100
AcDbScale
 70
     0
300
1-1/2" = 1'-0"
140
1.5
141
12.0
290
     0
  0
SCALE
  5
66
102
{ACAD_REACTORS
330
47
102
}
330
47
100
AcDbScale
 70
     0
300
3" = 1'-0"
140
3.0
141
12.0
290
     0
  0
SCALE
  5
67
102
{ACAD_REACTORS
330
47
102
}
330
47
100
AcDbScale
 70
     0
300
6" = 1'-0"
140
6.0
141
12.0
290
     0
  0
SCALE
  5
68
102
{ACAD_REACTORS
330
47
102
}
330
47
100
AcDbScale
 70
     0
300
1'-0" = 1'-0"
140
12.0
141
12.0
290
     0
  0
ENDSEC
  0
EOF
