  0
SECTION
  2
HEADER
  9
$ACADVER
  1
AC1015
  9
$ACADMAINTVER
 70
     6
  9
$DWGCODEPAGE
  3
ANSI_1250
  9
$INSBASE
 10
0.0
 20
0.0
 30
0.0
  9
$EXTMIN
 10
0.0
 20
0.0
 30
0.0
  9
$EXTMAX
 10
20000.0
 20
10000.0
 30
0.0
  9
$LIMMIN
 10
0.0
 20
0.0
  9
$LIMMAX
 10
20000.0
 20
10000.0
  9
$ORTHOMODE
 70
     0
  9
$REGENMODE
 70
     1
  9
$FILLMODE
 70
     1
  9
$QTEXTMODE
 70
     0
  9
$MIRRTEXT
 70
     1
  9
$LTSCALE
 40
1.0
  9
$ATTMODE
 70
     1
  9
$TEXTSIZE
 40
2.0
  9
$TRACEWID
 40
1.0
  9
$TEXTSTYLE
  7
Standard
  9
$CLAYER
  8
0
  9
$CELTYPE
  6
ByLayer
  9
$CECOLOR
 62
   256
  9
$CELTSCALE
 40
1.0
  9
$DISPSILH
 70
     0
  9
$DIMSCALE
 40
1.0
  9
$DIMASZ
 40
2.0
  9
$DIMEXO
 40
1.0
  9
$DIMDLI
 40
3.75
  9
$DIMRND
 40
0.0
  9
$DIMDLE
 40
0.0
  9
$DIMEXE
 40
1.0
  9
$DIMTP
 40
0.0
  9
$DIMTM
 40
0.0
  9
$DIMTXT
 40
2.0
  9
$DIMCEN
 40
2.5
  9
$DIMTSZ
 40
0.0
  9
$DIMTOL
 70
     0
  9
$DIMLIM
 70
     0
  9
$DIMTIH
 70
     1
  9
$DIMTOH
 70
     1
  9
$DIMSE1
 70
     0
  9
$DIMSE2
 70
     0
  9
$DIMTAD
 70
     1
  9
$DIMZIN
 70
     0
  9
$DIMBLK
  1

  9
$DIMASO
 70
     1
  9
$DIMSHO
 70
     1
  9
$DIMPOST
  1

  9
$DIMAPOST
  1

  9
$DIMALT
 70
     0
  9
$DIMALTD
 70
     3
  9
$DIMALTF
 40
0.0393700787
  9
$DIMLFAC
 40
1.0
  9
$DIMTOFL
 70
     1
  9
$DIMTVP
 40
0.0
  9
$DIMTIX
 70
     0
  9
$DIMSOXD
 70
     0
  9
$DIMSAH
 70
     0
  9
$DIMBLK1
  1

  9
$DIMBLK2
  1

  9
$DIMSTYLE
  2
ISO-25
  9
$DIMCLRD
 70
     0
  9
$DIMCLRE
 70
     0
  9
$DIMCLRT
 70
     0
  9
$DIMTFAC
 40
1.0
  9
$DIMGAP
 40
1.524
  9
$DIMJUST
 70
     0
  9
$DIMSD1
 70
     0
  9
$DIMSD2
 70
     0
  9
$DIMTOLJ
 70
     0
  9
$DIMTZIN
 70
     0
  9
$DIMALTZ
 70
     0
  9
$DIMALTTZ
 70
     0
  9
$DIMUPT
 70
     0
  9
$DIMDEC
 70
     2
  9
$DIMTDEC
 70
     0
  9
$DIMALTU
 70
     2
  9
$DIMALTTD
 70
     3
  9
$DIMTXSTY
  7
Standard
  9
$DIMAUNIT
 70
     0
  9
$DIMADEC
 70
     2
  9
$DIMALTRND
 40
0.0
  9
$DIMAZIN
 70
     0
  9
$DIMDSEP
 70
    44
  9
$DIMATFIT
 70
     3
  9
$DIMFRAC
 70
     0
  9
$DIMLDRBLK
  1

  9
$DIMLUNIT
 70
     2
  9
$DIMLWD
 70
    -2
  9
$DIMLWE
 70
    -2
  9
$DIMTMOVE
 70
     0
  9
$LUNITS
 70
     2
  9
$LUPREC
 70
     3
  9
$SKETCHINC
 40
1.0
  9
$FILLETRAD
 40
10.0
  9
$AUNITS
 70
     0
  9
$AUPREC
 70
     2
  9
$MENU
  1
.
  9
$ELEVATION
 40
0.0
  9
$PELEVATION
 40
0.0
  9
$THICKNESS
 40
0.0
  9
$LIMCHECK
 70
     0
  9
$CHAMFERA
 40
0.0
  9
$CHAMFERB
 40
0.0
  9
$CHAMFERC
 40
0.0
  9
$CHAMFERD
 40
0.0
  9
$SKPOLY
 70
     0
  9
$TDCREATE
 40
2459157.45734184
  9
$TDUCREATE
 40
2459157.415675174
  9
$TDUPDATE
 40
2459157.457342095
  9
$TDUUPDATE
 40
2459157.415675428
  9
$TDINDWG
 40
0.0000000116
  9
$TDUSRTIMER
 40
0.0000000116
  9
$USRTIMER
 70
     1
  9
$ANGBASE
 50
0.0
  9
$ANGDIR
 70
     0
  9
$PDMODE
 70
     0
  9
$PDSIZE
 40
-1.0
  9
$PLINEWID
 40
0.0
  9
$SPLFRAME
 70
     0
  9
$SPLINETYPE
 70
     6
  9
$SPLINESEGS
 70
     8
  9
$HANDSEED
  5
354
  9
$SURFTAB1
 70
     6
  9
$SURFTAB2
 70
     6
  9
$SURFTYPE
 70
     6
  9
$SURFU
 70
     6
  9
$SURFV
 70
     6
  9
$UCSBASE
  2

  9
$UCSNAME
  2

  9
$UCSORG
 10
0.0
 20
0.0
 30
0.0
  9
$UCSXDIR
 10
1.0
 20
0.0
 30
0.0
  9
$UCSYDIR
 10
0.0
 20
1.0
 30
0.0
  9
$UCSORTHOREF
  2

  9
$UCSORTHOVIEW
 70
     0
  9
$UCSORGTOP
 10
0.0
 20
0.0
 30
0.0
  9
$UCSORGBOTTOM
 10
0.0
 20
0.0
 30
0.0
  9
$UCSORGLEFT
 10
0.0
 20
0.0
 30
0.0
  9
$UCSORGRIGHT
 10
0.0
 20
0.0
 30
0.0
  9
$UCSORGFRONT
 10
0.0
 20
0.0
 30
0.0
  9
$UCSORGBACK
 10
0.0
 20
0.0
 30
0.0
  9
$PUCSBASE
  2

  9
$PUCSNAME
  2

  9
$PUCSORG
 10
0.0
 20
0.0
 30
0.0
  9
$PUCSXDIR
 10
1.0
 20
0.0
 30
0.0
  9
$PUCSYDIR
 10
0.0
 20
1.0
 30
0.0
  9
$PUCSORTHOREF
  2

  9
$PUCSORTHOVIEW
 70
     0
  9
$PUCSORGTOP
 10
0.0
 20
0.0
 30
0.0
  9
$PUCSORGBOTTOM
 10
0.0
 20
0.0
 30
0.0
  9
$PUCSORGLEFT
 10
0.0
 20
0.0
 30
0.0
  9
$PUCSORGRIGHT
 10
0.0
 20
0.0
 30
0.0
  9
$PUCSORGFRONT
 10
0.0
 20
0.0
 30
0.0
  9
$PUCSORGBACK
 10
0.0
 20
0.0
 30
0.0
  9
$USERI1
 70
     0
  9
$USERI2
 70
     0
  9
$USERI3
 70
     0
  9
$USERI4
 70
     0
  9
$USERI5
 70
     0
  9
$USERR1
 40
0.0
  9
$USERR2
 40
0.0
  9
$USERR3
 40
0.0
  9
$USERR4
 40
0.0
  9
$USERR5
 40
0.0
  9
$WORLDVIEW
 70
     1
  9
$SHADEDGE
 70
     3
  9
$SHADEDIF
 70
    70
  9
$TILEMODE
 70
     1
  9
$MAXACTVP
 70
    64
  9
$PINSBASE
 10
0.0
 20
0.0
 30
0.0
  9
$PLIMCHECK
 70
     0
  9
$PEXTMIN
 10
1.0000000000E+20
 20
1.0000000000E+20
 30
1.0000000000E+20
  9
$PEXTMAX
 10
-1.0000000000E+20
 20
-1.0000000000E+20
 30
-1.0000000000E+20
  9
$PLIMMIN
 10
0.0
 20
0.0
  9
$PLIMMAX
 10
420.0
 20
297.0
  9
$UNITMODE
 70
     0
  9
$VISRETAIN
 70
     1
  9
$PLINEGEN
 70
     0
  9
$PSLTSCALE
 70
     1
  9
$TREEDEPTH
 70
  3020
  9
$CMLSTYLE
  2
Standard
  9
$CMLJUST
 70
     0
  9
$CMLSCALE
 40
20.0
  9
$PROXYGRAPHICS
 70
     1
  9
$MEASUREMENT
 70
     1
  9
$CELWEIGHT
370
    -1
  9
$ENDCAPS
280
     0
  9
$JOINSTYLE
280
     0
  9
$LWDISPLAY
290
     1
  9
$INSUNITS
 70
     4
  9
$HYPERLINKBASE
  1

  9
$STYLESHEET
  1

  9
$XEDIT
290
     1
  9
$CEPSNTYPE
380
     0
  9
$PSTYLEMODE
290
     1
  9
$FINGERPRINTGUID
  2
{64aa366f-f707-4cf6-b1dd-04b9e1675d66}
  9
$VERSIONGUID
  2
{FAEB1C32-E019-11D5-929B-00C0DF256EC4}
  9
$EXTNAMES
290
     1
  9
$PSVPSCALE
 40
0.0
  9
$OLESTARTUP
290
     0
  0
ENDSEC
  0
SECTION
  2
CLASSES
  0
CLASS
  1
ACDBDICTIONARYWDFLT
  2
AcDbDictionaryWithDefault
  3
ObjectDBX Classes
 90
        0
280
     0
281
     0
  0
CLASS
  1
VISUALSTYLE
  2
AcDbVisualStyle
  3
ObjectDBX Classes
 90
     4095
280
     0
281
     0
  0
CLASS
  1
MATERIAL
  2
AcDbMaterial
  3
ObjectDBX Classes
 90
     1153
280
     0
281
     0
  0
CLASS
  1
SCALE
  2
AcDbScale
  3
ObjectDBX Classes
 90
     1153
280
     0
281
     0
  0
CLASS
  1
TABLESTYLE
  2
AcDbTableStyle
  3
ObjectDBX Classes
 90
     4095
280
     0
281
     0
  0
CLASS
  1
MLEADERSTYLE
  2
AcDbMLeaderStyle
  3
ACDB_MLEADERSTYLE_CLASS
 90
     4095
280
     0
281
     0
  0
CLASS
  1
SUN
  2
AcDbSun
  3
SCENEOE
 90
     1153
280
     0
281
     0
  0
CLASS
  1
ACDBPLACEHOLDER
  2
AcDbPlaceHolder
  3
ObjectDBX Classes
 90
        0
280
     0
281
     0
  0
CLASS
  1
LAYOUT
  2
AcDbLayout
  3
ObjectDBX Classes
 90
        0
280
     0
281
     0
  0
ENDSEC
  0
SECTION
  2
TABLES
  0
TABLE
  2
VPORT
  5
8
330
0
100
AcDbSymbolTable
 70
     1
  0
VPORT
  5
29
330
8
100
AcDbSymbolTableRecord
100
AcDbViewportTableRecord
  2
*Active
 70
     0
 10
0.0
 20
0.0
 11
1.0
 21
1.0
 12
10000.0
 22
5000.0
 13
0.0
 23
0.0
 14
10.0
 24
10.0
 15
10.0
 25
10.0
 16
0.0
 26
0.0
 36
1.0
 17
0.0
 27
0.0
 37
0.0
 40
10000.0
 41
2.0
 42
50.0
 43
0.0
 44
0.0
 50
0.0
 51
0.0
 71
     0
 72
  2000
 73
     1
 74
     3
 75
     0
 76
     0
 77
     0
 78
     0
281
     0
 65
     1
110
0.0
120
0.0
130
0.0
111
1.0
121
0.0
131
0.0
112
0.0
122
1.0
132
0.0
 79
     0
146
0.0
  0
ENDTAB
  0
TABLE
  2
LTYPE
  5
5
330
0
100
AcDbSymbolTable
 70
     6
  0
LTYPE
  5
14
330
5
100
AcDbSymbolTableRecord
100
AcDbLinetypeTableRecord
  2
ByBlock
 70
     0
  3

 72
    65
 73
     0
 40
0.0
  0
LTYPE
  5
15
330
5
100
AcDbSymbolTableRecord
100
AcDbLinetypeTableRecord
  2
ByLayer
 70
     0
  3

 72
    65
 73
     0
 40
0.0
  0
LTYPE
  5
16
330
5
100
AcDbSymbolTableRecord
100
AcDbLinetypeTableRecord
  2
Continuous
 70
     0
  3
Solid line
 72
    65
 73
     0
 40
0.0
  0
LTYPE
  5
6E
330
5
100
AcDbSymbolTableRecord
100
AcDbLinetypeTableRecord
  2
HIDDEN
 70
     0
  3
Hidden __ __ __ __ __ __ __ __ __ __ __ __ __ __
 72
    65
 73
     2
 40
1.905
 49
1.27
 74
     0
 49
-0.635
 74
     0
  0
LTYPE
  5
6F
330
5
100
AcDbSymbolTableRecord
100
AcDbLinetypeTableRecord
  2
PHANTOM
 70
     0
  3
Phantom ______  __  __  ______  __  __  ______
 72
    65
 73
     6
 40
12.7
 49
6.35
 74
     0
 49
-1.27
 74
     0
 49
1.27
 74
     0
 49
-1.27
 74
     0
 49
1.27
 74
     0
 49
-1.27
 74
     0
  0
LTYPE
  5
70
330
5
100
AcDbSymbolTableRecord
100
AcDbLinetypeTableRecord
  2
CENTER
 70
     0
  3
Center ____ _ ____ _ ____ _ ____ _ ____ _ ____
 72
    65
 73
     4
 40
10.16
 49
6.35
 74
     0
 49
-1.27
 74
     0
 49
1.27
 74
     0
 49
-1.27
 74
     0
  0
LTYPE
  5
71
330
5
100
AcDbSymbolTableRecord
100
AcDbLinetypeTableRecord
  2
CENTERX2
 70
     0
  3
Center (2x) ________  __  ________  __  _____
 72
    65
 73
     4
 40
20.32
 49
12.7
 74
     0
 49
-2.54
 74
     0
 49
2.54
 74
     0
 49
-2.54
 74
     0
  0
LTYPE
  5
72
330
5
100
AcDbSymbolTableRecord
100
AcDbLinetypeTableRecord
  2
DOT2
 70
     0
  3
Dot (.5x) ........................................
 72
    65
 73
     2
 40
0.635
 49
0.0
 74
     0
 49
-0.635
 74
     0
  0
ENDTAB
  0
TABLE
  2
LAYER
  5
2
330
0
100
AcDbSymbolTable
 70
    13
  0
LAYER
  5
10
330
2
100
AcDbSymbolTableRecord
100
AcDbLayerTableRecord
  2
0
 70
     0
 62
     7
  6
Continuous
370
    -3
390
F
  0
LAYER
  5
73
330
2
100
AcDbSymbolTableRecord
100
AcDbLayerTableRecord
  2
FORMAT
 70
     0
 62
     7
  6
Continuous
370
    -3
390
F
  0
LAYER
  5
74
330
2
100
AcDbSymbolTableRecord
100
AcDbLayerTableRecord
  2
OSA
 70
     0
 62
     7
  6
CENTER
370
    -3
390
F
  0
LAYER
  5
75
330
2
100
AcDbSymbolTableRecord
100
AcDbLayerTableRecord
  2
0_35
 70
     0
 62
     7
  6
Continuous
370
    35
390
F
  0
LAYER
  5
76
330
2
100
AcDbSymbolTableRecord
100
AcDbLayerTableRecord
  2
0_5
 70
     0
 62
     7
  6
Continuous
370
    50
390
F
  0
LAYER
  5
77
330
2
100
AcDbSymbolTableRecord
100
AcDbLayerTableRecord
  2
0_25
 70
     0
 62
     7
  6
Continuous
370
    25
390
F
  0
LAYER
  5
78
330
2
100
AcDbSymbolTableRecord
100
AcDbLayerTableRecord
  2
0_18
 70
     0
 62
     7
  6
Continuous
370
    -3
390
F
  0
LAYER
  5
79
330
2
100
AcDbSymbolTableRecord
100
AcDbLayerTableRecord
  2
SLD-0
 70
     0
 62
   179
  6
Continuous
370
    -3
390
F
  0
LAYER
  5
7A
330
2
100
AcDbSymbolTableRecord
100
AcDbLayerTableRecord
  2
KOTY
 70
     0
 62
     7
  6
Continuous
370
    -3
390
F
  0
LAYER
  5
7B
330
2
100
AcDbSymbolTableRecord
100
AcDbLayerTableRecord
  2
SILNA
 70
     0
 62
   179
  6
Continuous
370
    -3
390
F
  0
LAYER
  5
7C
330
2
100
AcDbSymbolTableRecord
100
AcDbLayerTableRecord
  2
0_18_1
 70
     0
 62
   179
  6
Continuous
370
    -3
390
F
  0
LAYER
  5
7D
330
2
100
AcDbSymbolTableRecord
100
AcDbLayerTableRecord
  2
0_35_1
 70
     0
 62
   179
  6
Continuous
370
    35
390
F
  0
LAYER
  5
7E
330
2
100
AcDbSymbolTableRecord
100
AcDbLayerTableRecord
  2
0_5_1
 70
     0
 62
   179
  6
Continuous
370
    50
390
F
  0
ENDTAB
  0
TABLE
  2
STYLE
  5
3
330
0
100
AcDbSymbolTable
 70
     1
  0
STYLE
  5
11
330
3
100
AcDbSymbolTableRecord
100
AcDbTextStyleTableRecord
  2
Standard
 70
     0
 40
0.0
 41
1.0
 50
0.0
 71
     0
 42
2.0
  3
txt
  4

  0
ENDTAB
  0
TABLE
  2
VIEW
  5
6
330
0
100
AcDbSymbolTable
 70
     0
  0
ENDTAB
  0
TABLE
  2
UCS
  5
7
330
0
100
AcDbSymbolTable
 70
     0
  0
ENDTAB
  0
TABLE
  2
APPID
  5
9
330
0
100
AcDbSymbolTable
 70
     1
  0
APPID
  5
12
330
9
100
AcDbSymbolTableRecord
100
AcDbRegAppTableRecord
  2
ACAD
 70
     0
  0
ENDTAB
  0
TABLE
  2
DIMSTYLE
  5
A
330
0
100
AcDbSymbolTable
 70
     1
100
AcDbDimStyleTable
  0
DIMSTYLE
105
27
330
A
100
AcDbSymbolTableRecord
100
AcDbDimStyleTableRecord
  2
ISO-25
 70
     0
 41
2.5
 42
0.625
 43
3.75
 44
1.25
 73
     0
 74
     0
 77
     1
 78
     8
140
2.5
141
2.5
143
0.0393700787
147
0.625
171
     3
172
     1
178
     0
271
     2
272
     2
274
     3
278
    44
283
     0
284
     8
340
11
  0
ENDTAB
  0
TABLE
  2
BLOCK_RECORD
  5
1
330
0
100
AcDbSymbolTable
 70
     1
  0
BLOCK_RECORD
  5
1F
330
1
100
AcDbSymbolTableRecord
100
AcDbBlockTableRecord
  2
*Model_Space
340
22
  0
BLOCK_RECORD
  5
1B
330
1
100
AcDbSymbolTableRecord
100
AcDbBlockTableRecord
  2
*Paper_Space
340
1E
  0
BLOCK_RECORD
  5
23
330
1
100
AcDbSymbolTableRecord
100
AcDbBlockTableRecord
  2
*Paper_Space0
340
26
  0
ENDTAB
  0
ENDSEC
  0
SECTION
  2
BLOCKS
  0
BLOCK
  5
20
330
1F
100
AcDbEntity
  8
0
100
AcDbBlockBegin
  2
*Model_Space
 70
     0
 10
0.0
 20
0.0
 30
0.0
  3
*Model_Space
  1

  0
ENDBLK
  5
21
330
1F
100
AcDbEntity
  8
0
100
AcDbBlockEnd
  0
BLOCK
  5
1C
330
1B
100
AcDbEntity
 67
     1
  8
0
100
AcDbBlockBegin
  2
*Paper_Space
 70
     0
 10
0.0
 20
0.0
 30
0.0
  3
*Paper_Space
  1

  0
ENDBLK
  5
1D
330
1B
100
AcDbEntity
 67
     1
  8
0
100
AcDbBlockEnd
  0
BLOCK
  5
24
330
23
100
AcDbEntity
  8
0
100
AcDbBlockBegin
  2
*Paper_Space0
 70
     0
 10
0.0
 20
0.0
 30
0.0
  3
*Paper_Space0
  1

  0
ENDBLK
  5
25
330
23
100
AcDbEntity
  8
0
100
AcDbBlockEnd
  0
ENDSEC
  0
SECTION
  2
ENTITIES
  0
LINE
  5
7F
330
1F
100
AcDbEntity
  8
0
  6
Continuous
 62
     7
370
    25
100
AcDbLine
 10
6938.3934843884
 20
4715.7605002691
 30
0.0
 11
6935.6934843884
 21
4715.7605002691
 31
0.0
  0
LINE
  5
80
330
1F
100
AcDbEntity
  8
0
  6
Continuous
 62
     7
370
    25
100
AcDbLine
 10
6094.4934843884
 20
4715.7605002691
 30
0.0
 11
6091.7934843884
 21
4715.7605002691
 31
0.0
  0
LINE
  5
81
330
1F
100
AcDbEntity
  8
0
  6
Continuous
 62
     7
370
    25
100
AcDbLine
 10
6935.6934843884
 20
4715.7605002691
 30
0.0
 11
6094.4934843884
 21
4715.7605002691
 31
0.0
  0
LINE
  5
82
330
1F
100
AcDbEntity
  8
0
  6
Continuous
 62
     7
370
    25
100
AcDbLine
 10
6479.3080276197
 20
4698.5605002691
 30
0.0
 11
6481.8434843884
 21
4697.0103567158
 31
0.0
  0
LINE
  5
83
330
1F
100
AcDbEntity
  8
0
  6
Continuous
 62
     7
370
    25
100
AcDbLine
 10
6483.5535205253
 20
4695.9648640353
 30
0.0
 11
6485.2084242223
 21
4694.9530785737
 31
0.0
  0
LINE
  5
84
330
1F
100
AcDbEntity
  8
0
  6
Continuous
 62
     7
370
    25
100
AcDbLine
 10
6544.9785445544
 20
4694.9530785737
 30
0.0
 11
6546.6334482515
 21
4695.9648640353
 31
0.0
  0
LINE
  5
85
330
1F
100
AcDbEntity
  8
0
  6
Continuous
 62
     7
370
    25
100
AcDbLine
 10
6548.3434843884
 20
4697.0103567158
 30
0.0
 11
6550.8789411571
 21
4698.5605002691
 31
0.0
  0
LINE
  5
86
330
1F
100
AcDbEntity
  8
0
  6
Continuous
 62
     7
370
    25
100
AcDbLine
 10
6481.8434843884
 20
4697.0103567158
 30
0.0
 11
6481.8434843884
 21
4695.9648640353
 31
0.0
  0
LINE
  5
87
330
1F
100
AcDbEntity
  8
0
  6
Continuous
 62
     7
370
    25
100
AcDbLine
 10
6548.3434843884
 20
4695.9648640353
 30
0.0
 11
6548.3434843884
 21
4697.0103567158
 31
0.0
  0
LINE
  5
88
330
1F
100
AcDbEntity
  8
0
  6
Continuous
 62
     7
370
    25
100
AcDbLine
 10
6475.0934843884
 20
4694.4567894214
 30
0.0
 11
6475.0934843884
 21
4693.9605002691
 31
0.0
  0
LINE
  5
89
330
1F
100
AcDbEntity
  8
0
  6
Continuous
 62
     7
370
    25
100
AcDbLine
 10
6555.0934843884
 20
4693.9605002691
 30
0.0
 11
6555.0934843884
 21
4694.4567894214
 31
0.0
  0
ARC
  5
8A
330
1F
100
AcDbEntity
  8
0
  6
Continuous
 62
     7
370
    25
100
AcDbCircle
 10
6475.7438264359
 20
4694.5115589694
 30
0.0
 40
0.0547695479954696
100
AcDbArc
 50
270.0
 51
329.9999999995
  0
ARC
  5
8B
330
1F
100
AcDbEntity
  8
0
  6
Continuous
 62
     7
370
    25
100
AcDbCircle
 10
6554.4431423409
 20
4694.5115589694
 30
0.0
 40
0.054769547994682
100
AcDbArc
 50
210.000000001
 51
270.0
  0
LINE
  5
8C
330
1F
100
AcDbEntity
  8
0
  6
Continuous
 62
     7
370
    25
100
AcDbLine
 10
6554.395710521
 20
4694.4841741954
 30
0.0
 11
6554.1565991358
 21
4694.8983272632
 31
0.0
  0
LINE
  5
8D
330
1F
100
AcDbEntity
  8
0
  6
Continuous
 62
     7
370
    25
100
AcDbLine
 10
6476.030369641
 20
4694.8983272632
 30
0.0
 11
6475.7912582558
 21
4694.4841741954
 31
0.0
  0
ARC
  5
8E
330
1F
100
AcDbEntity
  8
0
  6
Continuous
 62
     7
370
    25
100
AcDbCircle
 10
6476.1252016925
 20
4694.8435759528
 30
0.0
 40
0.1095026209371498
100
AcDbArc
 50
90.0
 51
150.0000000001
  0
ARC
  5
8F
330
1F
100
AcDbEntity
  8
0
  6
Continuous
 62
     7
370
    25
100
AcDbCircle
 10
6554.0617670843
 20
4694.8435759528
 30
0.0
 40
0.1095026209379374
100
AcDbArc
 50
29.9999999997
 51
90.0
  0
LINE
  5
90
330
1F
100
AcDbEntity
  8
0
  6
Continuous
 62
     7
370
    25
100
AcDbLine
 10
6554.0617670843
 20
4694.9530785737
 30
0.0
 11
6476.1252016925
 21
4694.9530785737
 31
0.0
  0
ARC
  5
91
330
1F
100
AcDbEntity
  8
0
  6
Continuous
 62
     7
370
    25
100
AcDbCircle
 10
6555.1320426075
 20
4677.0224295486
 30
0.0
 40
6.853085275293384
100
AcDbArc
 50
305.7382565022
 51
359.7686518055
  0
LINE
  5
92
330
1F
100
AcDbEntity
  8
0
  6
Continuous
 62
     7
370
    25
100
AcDbLine
 10
6562.0152326113
 20
4676.9937347647
 30
0.0
 11
6562.0934843884
 21
4685.9605002691
 31
0.0
  0
LINE
  5
93
330
1F
100
AcDbEntity
  8
0
  6
Continuous
 62
     7
370
    25
100
AcDbLine
 10
6564.0934843884
 20
4685.9605002691
 30
0.0
 11
6564.0934843884
 21
4688.9605002691
 31
0.0
  0
ARC
  5
94
330
1F
100
AcDbEntity
  8
0
  6
Continuous
 62
     7
370
    25
100
AcDbCircle
 10
6562.0934843884
 20
4688.9605002691
 30
0.0
 40
2.000000000000909
100
AcDbArc
 50
0.0
 51
90.0
  0
LINE
  5
95
330
1F
100
AcDbEntity
  8
0
  6
Continuous
 62
     7
370
    25
100
AcDbLine
 10
6556.8434843884
 20
4690.9605002691
 30
0.0
 11
6556.8434843884
 21
4693.9605002691
 31
0.0
  0
LINE
  5
96
330
1F
100
AcDbEntity
  8
0
  6
Continuous
 62
     7
370
    25
100
AcDbLine
 10
6473.3434843884
 20
4693.9605002691
 30
0.0
 11
6473.3434843884
 21
4690.9605002691
 31
0.0
  0
LINE
  5
97
330
1F
100
AcDbEntity
  8
0
  6
Continuous
 62
     7
370
    25
100
AcDbLine
 10
6547.3342293706
 20
4618.7772616309
 30
0.0
 11
6548.5360927094
 21
4664.6745708247
 31
0.0
  0
ARC
  5
98
330
1F
100
AcDbEntity
  8
0
  6
Continuous
 62
     7
370
    25
100
AcDbCircle
 10
6540.3366280958
 20
4618.9605002691
 30
0.0
 40
7.0
100
AcDbArc
 50
270.0
 51
358.5
  0
ARC
  5
99
330
1F
100
AcDbEntity
  8
0
  6
Continuous
 62
     7
370
    25
100
AcDbCircle
 10
6383.5276647849
 20
4658.8113527176
 30
0.0
 40
26.99999999999994
100
AcDbArc
 50
228.2942528904
 51
287.8227912466
  0
ARC
  5
9A
330
1F
100
AcDbEntity
  8
0
  6
Continuous
 62
     7
370
    25
100
AcDbCircle
 10
6383.5276647849
 20
4658.8113527176
 30
0.0
 40
27.00000000000034
100
AcDbArc
 50
73.1772087534
 51
132.7057471096
  0
ARC
  5
9B
330
1F
100
AcDbEntity
  8
0
  6
Continuous
 62
     7
370
    25
100
AcDbCircle
 10
6448.0934843884
 20
4683.8888791719
 30
0.0
 40
1.999999999999448
100
AcDbArc
 50
0.5
 51
92.0154937467
  0
ARC
  5
9C
330
1F
100
AcDbEntity
  8
0
  6
Continuous
 62
     7
370
    25
100
AcDbCircle
 10
6448.5213138854
 20
4634.8644746177
 30
0.0
 40
2.000000000001267
100
AcDbArc
 50
268.9845062533
 51
0.5
  0
LINE
  5
9D
330
1F
100
AcDbEntity
  8
0
  6
Continuous
 62
     7
370
    25
100
AcDbLine
 10
6450.5212377316
 20
4634.8819276887
 30
0.0
 11
6450.0934082345
 21
4683.9063322429
 31
0.0
  0
LINE
  5
9E
330
1F
100
AcDbEntity
  8
0
  6
Continuous
 62
     7
370
    25
100
AcDbLine
 10
6448.0231448932
 20
4685.887641878
 30
0.0
 11
6423.0231448932
 21
4685.0078539102
 31
0.0
  0
LINE
  5
9F
330
1F
100
AcDbEntity
  8
0
  6
Continuous
 62
     7
370
    25
100
AcDbLine
 10
6423.4743215263
 20
4633.3081325503
 30
0.0
 11
6448.4858683224
 21
4632.8647887394
 31
0.0
  0
ARC
  5
A0
330
1F
100
AcDbEntity
  8
0
  6
Continuous
 62
     7
370
    25
100
AcDbCircle
 10
6423.0934843884
 20
4683.0090912041
 30
0.0
 40
2.000000000000909
100
AcDbArc
 50
92.0154937468
 51
180.0
  0
ARC
  5
A1
330
1F
100
AcDbEntity
  8
0
  6
Continuous
 62
     7
370
    25
100
AcDbCircle
 10
6423.5097670893
 20
4635.3078184286
 30
0.0
 40
2.000000000000937
100
AcDbArc
 50
181.0
 51
268.9845062532
  0
LINE
  5
A2
330
1F
100
AcDbEntity
  8
0
  6
Continuous
 62
     7
370
    25
100
AcDbLine
 10
6421.0934843884
 20
4683.0090912041
 30
0.0
 11
6421.0934843884
 21
4679.1399462264
 31
0.0
  0
LINE
  5
A3
330
1F
100
AcDbEntity
  8
0
  6
Continuous
 62
     7
370
    25
100
AcDbLine
 10
6421.4425458083
 20
4639.1414693039
 30
0.0
 11
6421.510071699
 21
4635.2729136158
 31
0.0
  0
ARC
  5
A4
330
1F
100
AcDbEntity
  8
0
  6
Continuous
 62
     7
370
    25
100
AcDbCircle
 10
6399.5135282984
 20
4681.9159226238
 30
0.0
 40
0.2499999999991427
100
AcDbArc
 50
90.0
 51
168.5
  0
ARC
  5
A5
330
1F
100
AcDbEntity
  8
0
  6
Continuous
 62
     7
370
    25
100
AcDbCircle
 10
6399.9143239186
 20
4635.9892935366
 30
0.0
 40
0.2499999999996683
100
AcDbArc
 50
192.5
 51
271.0000000001
  0
LINE
  5
A6
330
1F
100
AcDbEntity
  8
0
  6
Continuous
 62
     7
370
    25
100
AcDbLine
 10
6399.9186870202
 20
4635.7393316128
 30
0.0
 11
6400.7563780436
 21
4635.753953564
 31
0.0
  0
LINE
  5
A7
330
1F
100
AcDbEntity
  8
0
  6
Continuous
 62
     7
370
    25
100
AcDbLine
 10
6400.3513469258
 20
4682.1659226238
 30
0.0
 11
6399.5135282984
 21
4682.1659226238
 31
0.0
  0
ARC
  5
A8
330
1F
100
AcDbEntity
  8
0
  6
Continuous
 62
     7
370
    25
100
AcDbCircle
 10
6400.3513469258
 20
4681.9159226238
 30
0.0
 40
0.2499999999992811
100
AcDbArc
 50
10.4999999998
 51
90.0
  0
ARC
  5
A9
330
1F
100
AcDbEntity
  8
0
  6
Continuous
 62
     7
370
    25
100
AcDbCircle
 10
6400.752014942
 20
4636.0039154878
 30
0.0
 40
0.2500000000003811
100
AcDbArc
 50
271.0000000001
 51
350.5
  0
LINE
  5
AA
330
1F
100
AcDbEntity
  8
0
  6
Continuous
 62
     7
370
    25
100
AcDbLine
 10
6399.2685471223
 20
4681.9657646074
 30
0.0
 11
6398.8523546748
 21
4679.9201133727
 31
0.0
  0
LINE
  5
AB
330
1F
100
AcDbEntity
  8
0
  6
Continuous
 62
     7
370
    25
100
AcDbLine
 10
6399.2184193206
 20
4637.9732597455
 30
0.0
 11
6399.6702499168
 21
4635.9351836331
 31
0.0
  0
LINE
  5
AC
330
1F
100
AcDbEntity
  8
0
  6
Continuous
 62
     7
370
    25
100
AcDbLine
 10
6400.9985863424
 20
4635.9626535863
 30
0.0
 11
6401.5014160947
 21
4638.9674457013
 31
0.0
  0
LINE
  5
AD
330
1F
100
AcDbEntity
  8
0
  6
Continuous
 62
     7
370
    25
100
AcDbLine
 10
6401.1523546748
 20
4678.9659226238
 30
0.0
 11
6400.5971606526
 21
4681.9614815052
 31
0.0
  0
ARC
  5
AE
330
1F
100
AcDbEntity
  8
0
  6
Continuous
 62
     7
370
    25
100
AcDbCircle
 10
6383.5276647849
 20
4658.8113527176
 30
0.0
 40
23.99999999999967
100
AcDbArc
 50
290.0012723466
 51
303.9103151897
  0
ARC
  5
AF
330
1F
100
AcDbEntity
  8
0
  6
Continuous
 62
     7
370
    25
100
AcDbCircle
 10
6383.5276647849
 20
4658.8113527176
 30
0.0
 40
23.99999999999999
100
AcDbArc
 50
57.0896848103
 51
70.9987276534
  0
LINE
  5
B0
330
1F
100
AcDbEntity
  8
0
  6
Continuous
 62
     7
370
    25
100
AcDbLine
 10
6489.0335168188
 20
4641.3213627716
 30
0.0
 11
6489.6302802092
 21
4618.531888328
 31
0.0
  0
LWPOLYLINE
  5
B1
330
1F
100
AcDbEntity
  8
0
  6
Continuous
 62
     7
370
    25
100
AcDbPolyline
 90
        7
 70
   128
 43
0.0
 10
6489.629358282
 20
4618.5713134387
 10
6489.804581845
 20
4617.4124410664
 10
6490.7570820112
 20
4615.5130286857
 10
6492.509324169
 20
4613.774359921
 10
6494.4472350193
 20
4612.6553242451
 10
6495.6284011536
 20
4612.2381682507
 10
6497.6606560881
 20
4611.9605002691
  0
LINE
  5
B2
330
1F
100
AcDbEntity
  8
0
  6
Continuous
 62
     7
370
    25
100
AcDbLine
 10
6456.1502604433
 20
4679.4458820762
 30
0.0
 11
6450.1327922731
 21
4679.3933684271
 31
0.0
  0
LINE
  5
B3
330
1F
100
AcDbEntity
  8
0
  6
Continuous
 62
     7
370
    25
100
AcDbLine
 10
6450.481853693
 20
4639.3948915045
 30
0.0
 11
6457.7245963779
 21
4639.4580979624
 31
0.0
  0
ARC
  5
B4
330
1F
100
AcDbEntity
  8
0
  6
Continuous
 62
     7
370
    25
100
AcDbCircle
 10
6397.3824676178
 20
4680.2191652743
 30
0.0
 40
1.500000000001458
100
AcDbArc
 50
237.0896848103
 51
348.5
  0
ARC
  5
B5
330
1F
100
AcDbEntity
  8
0
  6
Continuous
 62
     7
370
    25
100
AcDbCircle
 10
6397.7539753099
 20
4637.6486003246
 30
0.0
 40
1.500000000000383
100
AcDbArc
 50
12.5
 51
123.9103151897
  0
LINE
  5
B6
330
1F
100
AcDbEntity
  8
0
  6
Continuous
 62
     7
370
    25
100
AcDbLine
 10
6421.0934843884
 20
4679.1399462264
 30
0.0
 11
6401.1523546748
 21
4678.9659226238
 31
0.0
  0
LINE
  5
B7
330
1F
100
AcDbEntity
  8
0
  6
Continuous
 62
     7
370
    25
100
AcDbLine
 10
6401.5014160947
 20
4638.9674457013
 30
0.0
 11
6421.4425458083
 21
4639.1414693039
 31
0.0
  0
LINE
  5
B8
330
1F
100
AcDbEntity
  8
0
  6
Continuous
 62
     7
370
    25
100
AcDbLine
 10
6365.2153634496
 20
4678.652210053
 30
0.0
 11
6296.6640143261
 21
4678.0539714924
 31
0.0
  0
LINE
  5
B9
330
1F
100
AcDbEntity
  8
0
  6
Continuous
 62
     7
370
    25
100
AcDbLine
 10
6297.0130740846
 20
4638.0556849545
 30
0.0
 11
6365.5644232081
 21
4638.6539235151
 31
0.0
  0
LINE
  5
BA
330
1F
100
AcDbEntity
  8
0
  6
Continuous
 62
     7
370
    25
100
AcDbLine
 10
6296.6640143261
 20
4678.0539714924
 30
0.0
 11
6293.1782841533
 21
4677.7382419209
 31
0.0
  0
LINE
  5
BB
330
1F
100
AcDbEntity
  8
0
  6
Continuous
 62
     7
370
    25
100
AcDbLine
 10
6293.5223645646
 20
4638.3105320591
 30
0.0
 11
6297.0130740846
 21
4638.0556849545
 31
0.0
  0
LINE
  5
BC
330
1F
100
AcDbEntity
  8
0
  6
Continuous
 62
     7
370
    25
100
AcDbLine
 10
6293.1782841533
 20
4677.7382419209
 30
0.0
 11
6293.1782841533
 21
4675.52345679
 31
0.0
  0
LINE
  5
BD
330
1F
100
AcDbEntity
  8
0
  6
Continuous
 62
     7
370
    25
100
AcDbLine
 10
6293.4837112343
 20
4640.5249798674
 30
0.0
 11
6293.5223645646
 21
4638.3105320591
 31
0.0
  0
ARC
  5
BE
330
1F
100
AcDbEntity
  8
0
  6
Continuous
 62
     7
370
    25
100
AcDbCircle
 10
6456.1328073723
 20
4681.4458059224
 30
0.0
 40
2.000000000000349
100
AcDbArc
 50
270.5
 51
0.5
  0
ARC
  5
BF
330
1F
100
AcDbEntity
  8
0
  6
Continuous
 62
     7
370
    25
100
AcDbCircle
 10
6464.0397804748
 20
4646.2999909352
 30
0.0
 40
8.836610070290352
100
AcDbArc
 50
235.009226554
 51
282.7578591473
  0
LWPOLYLINE
  5
C0
330
1F
100
AcDbEntity
  8
0
  6
Continuous
 62
     7
370
    25
100
AcDbPolyline
 90
        3
 70
   128
 43
0.0
 10
6466.0381008476
 20
4637.6858882112
 10
6466.0435666728
 20
4637.6863948795
 10
6466.033212482
 20
4637.6855325605
  0
ARC
  5
C1
330
1F
100
AcDbEntity
  8
0
  6
Continuous
 62
     7
370
    25
100
AcDbCircle
 10
6457.9053679499
 20
4637.8277962054
 30
0.0
 40
1.612651671840567
100
AcDbArc
 50
48.4360533131
 51
96.2068831878
  0
LINE
  5
C2
330
1F
100
AcDbEntity
  8
0
  6
Continuous
 62
     7
370
    25
100
AcDbLine
 10
6922.3934843884
 20
4601.7605002691
 30
0.0
 11
6922.3934843884
 21
4671.7605002691
 31
0.0
  0
LINE
  5
C3
330
1F
100
AcDbEntity
  8
0
  6
Continuous
 62
     7
370
    25
100
AcDbLine
 10
6912.3934843884
 20
4671.7605002691
 30
0.0
 11
6912.3934843884
 21
4601.7605002691
 31
0.0
  0
LINE
  5
C4
330
1F
100
AcDbEntity
  8
0
  6
Continuous
 62
     7
370
    25
100
AcDbLine
 10
6922.3934843884
 20
4680.7605002691
 30
0.0
 11
6921.3934843884
 21
4681.7605002691
 31
0.0
  0
LINE
  5
C5
330
1F
100
AcDbEntity
  8
0
  6
Continuous
 62
     7
370
    25
100
AcDbLine
 10
6913.3934843884
 20
4681.7605002691
 30
0.0
 11
6912.3934843884
 21
4680.7605002691
 31
0.0
  0
LINE
  5
C6
330
1F
100
AcDbEntity
  8
0
  6
Continuous
 62
     7
370
    25
100
AcDbLine
 10
6117.7934843884
 20
4596.7605002691
 30
0.0
 11
6117.7934843884
 21
4671.7605002691
 31
0.0
  0
LINE
  5
C7
330
1F
100
AcDbEntity
  8
0
  6
Continuous
 62
     7
370
    25
100
AcDbLine
 10
6107.7934843884
 20
4671.7605002691
 30
0.0
 11
6107.7934843884
 21
4596.7605002691
 31
0.0
  0
LINE
  5
C8
330
1F
100
AcDbEntity
  8
0
  6
Continuous
 62
     7
370
    25
100
AcDbLine
 10
6117.7934843884
 20
4680.7605002691
 30
0.0
 11
6116.7934843884
 21
4681.7605002691
 31
0.0
  0
LINE
  5
C9
330
1F
100
AcDbEntity
  8
0
  6
Continuous
 62
     7
370
    25
100
AcDbLine
 10
6108.7934843884
 20
4681.7605002691
 30
0.0
 11
6107.7934843884
 21
4680.7605002691
 31
0.0
  0
LINE
  5
CA
330
1F
100
AcDbEntity
  8
0
  6
Continuous
 62
     7
370
    25
100
AcDbLine
 10
6917.3934843884
 20
4680.7605002691
 30
0.0
 11
6917.3934843884
 21
4673.7605002691
 31
0.0
  0
LINE
  5
CB
330
1F
100
AcDbEntity
  8
0
  6
Continuous
 62
     7
370
    25
100
AcDbLine
 10
6917.3934843884
 20
4680.7605002691
 30
0.0
 11
6925.8934843884
 21
4680.7605002691
 31
0.0
  0
LINE
  5
CC
330
1F
100
AcDbEntity
  8
0
  6
Continuous
 62
     7
370
    25
100
AcDbLine
 10
6925.8934843884
 20
4680.7605002691
 30
0.0
 11
6925.8934843884
 21
4673.7605002691
 31
0.0
  0
LINE
  5
CD
330
1F
100
AcDbEntity
  8
0
  6
Continuous
 62
     7
370
    25
100
AcDbLine
 10
6917.3934843884
 20
4673.7605002691
 30
0.0
 11
6919.4254615539
 21
4673.7605002691
 31
0.0
  0
LINE
  5
CE
330
1F
100
AcDbEntity
  8
0
  6
Continuous
 62
     7
370
    25
100
AcDbLine
 10
6908.8934843884
 20
4680.7605002691
 30
0.0
 11
6908.8934843884
 21
4673.7605002691
 31
0.0
  0
LINE
  5
CF
330
1F
100
AcDbEntity
  8
0
  6
Continuous
 62
     7
370
    25
100
AcDbLine
 10
6908.8934843884
 20
4680.7605002691
 30
0.0
 11
6917.3934843884
 21
4680.7605002691
 31
0.0
  0
LINE
  5
D0
330
1F
100
AcDbEntity
  8
0
  6
Continuous
 62
     7
370
    25
100
AcDbLine
 10
6915.3615072229
 20
4673.7605002691
 30
0.0
 11
6917.3934843884
 21
4673.7605002691
 31
0.0
  0
LINE
  5
D1
330
1F
100
AcDbEntity
  8
0
  6
Continuous
 62
     7
370
    25
100
AcDbLine
 10
6104.2934843884
 20
4680.7605002691
 30
0.0
 11
6104.2934843884
 21
4673.7605002691
 31
0.0
  0
LINE
  5
D2
330
1F
100
AcDbEntity
  8
0
  6
Continuous
 62
     7
370
    25
100
AcDbLine
 10
6112.7934843884
 20
4680.7605002691
 30
0.0
 11
6112.7934843884
 21
4673.7605002691
 31
0.0
  0
LINE
  5
D3
330
1F
100
AcDbEntity
  8
0
  6
Continuous
 62
     7
370
    25
100
AcDbLine
 10
6112.7934843884
 20
4673.7605002691
 30
0.0
 11
6110.7615072229
 21
4673.7605002691
 31
0.0
  0
LINE
  5
D4
330
1F
100
AcDbEntity
  8
0
  6
Continuous
 62
     7
370
    25
100
AcDbLine
 10
6112.7934843884
 20
4680.7605002691
 30
0.0
 11
6104.2934843884
 21
4680.7605002691
 31
0.0
  0
LINE
  5
D5
330
1F
100
AcDbEntity
  8
0
  6
Continuous
 62
     7
370
    25
100
AcDbLine
 10
6114.8254615539
 20
4673.7605002691
 30
0.0
 11
6112.7934843884
 21
4673.7605002691
 31
0.0
  0
LINE
  5
D6
330
1F
100
AcDbEntity
  8
0
  6
Continuous
 62
     7
370
    25
100
AcDbLine
 10
6121.2934843884
 20
4680.7605002691
 30
0.0
 11
6121.2934843884
 21
4673.7605002691
 31
0.0
  0
LINE
  5
D7
330
1F
100
AcDbEntity
  8
0
  6
Continuous
 62
     7
370
    25
100
AcDbLine
 10
6121.2934843884
 20
4680.7605002691
 30
0.0
 11
6112.7934843884
 21
4680.7605002691
 31
0.0
  0
LINE
  5
D8
330
1F
100
AcDbEntity
  8
0
  6
Continuous
 62
     7
370
    25
100
AcDbLine
 10
6122.7934843884
 20
4673.7605002691
 30
0.0
 11
6122.7934843884
 21
4671.7605002691
 31
0.0
  0
LINE
  5
D9
330
1F
100
AcDbEntity
  8
0
  6
Continuous
 62
     7
370
    25
100
AcDbLine
 10
6122.7934843884
 20
4671.7605002691
 30
0.0
 11
6102.7934843884
 21
4671.7605002691
 31
0.0
  0
LINE
  5
DA
330
1F
100
AcDbEntity
  8
0
  6
Continuous
 62
     7
370
    25
100
AcDbLine
 10
6102.7934843884
 20
4673.7605002691
 30
0.0
 11
6102.7934843884
 21
4671.7605002691
 31
0.0
  0
LINE
  5
DB
330
1F
100
AcDbEntity
  8
0
  6
Continuous
 62
     7
370
    25
100
AcDbLine
 10
6122.7934843884
 20
4673.7605002691
 30
0.0
 11
6114.8254615539
 21
4673.7605002691
 31
0.0
  0
LINE
  5
DC
330
1F
100
AcDbEntity
  8
0
  6
Continuous
 62
     7
370
    25
100
AcDbLine
 10
6110.7615072229
 20
4673.7605002691
 30
0.0
 11
6102.7934843884
 21
4673.7605002691
 31
0.0
  0
LINE
  5
DD
330
1F
100
AcDbEntity
  8
0
  6
Continuous
 62
     7
370
    25
100
AcDbLine
 10
6907.3934843884
 20
4671.7605002691
 30
0.0
 11
6927.3934843884
 21
4671.7605002691
 31
0.0
  0
LINE
  5
DE
330
1F
100
AcDbEntity
  8
0
  6
Continuous
 62
     7
370
    25
100
AcDbLine
 10
6927.3934843884
 20
4673.7605002691
 30
0.0
 11
6927.3934843884
 21
4671.7605002691
 31
0.0
  0
LINE
  5
DF
330
1F
100
AcDbEntity
  8
0
  6
Continuous
 62
     7
370
    25
100
AcDbLine
 10
6907.3934843884
 20
4673.7605002691
 30
0.0
 11
6907.3934843884
 21
4671.7605002691
 31
0.0
  0
LINE
  5
E0
330
1F
100
AcDbEntity
  8
0
  6
Continuous
 62
     7
370
    25
100
AcDbLine
 10
6919.4254615539
 20
4673.7605002691
 30
0.0
 11
6927.3934843884
 21
4673.7605002691
 31
0.0
  0
LINE
  5
E1
330
1F
100
AcDbEntity
  8
0
  6
Continuous
 62
     7
370
    25
100
AcDbLine
 10
6907.3934843884
 20
4673.7605002691
 30
0.0
 11
6915.3615072229
 21
4673.7605002691
 31
0.0
  0
LINE
  5
E2
330
1F
100
AcDbEntity
  8
0
  6
Continuous
 62
     7
370
    25
100
AcDbLine
 10
6122.7934843884
 20
4674.0103862867
 30
0.0
 11
6122.7934843884
 21
4673.7605002691
 31
0.0
  0
LINE
  5
E3
330
1F
100
AcDbEntity
  8
0
  6
Continuous
 62
     7
370
    25
100
AcDbLine
 10
6102.7934843884
 20
4674.0103862867
 30
0.0
 11
6102.7934843884
 21
4673.7605002691
 31
0.0
  0
LINE
  5
E4
330
1F
100
AcDbEntity
  8
0
  6
Continuous
 62
     7
370
    25
100
AcDbLine
 10
6927.3934843884
 20
4674.0103862867
 30
0.0
 11
6927.3934843884
 21
4673.7605002691
 31
0.0
  0
LINE
  5
E5
330
1F
100
AcDbEntity
  8
0
  6
Continuous
 62
     7
370
    25
100
AcDbLine
 10
6907.3934843884
 20
4674.0103862867
 30
0.0
 11
6907.3934843884
 21
4673.7605002691
 31
0.0
  0
LINE
  5
E6
330
1F
100
AcDbEntity
  8
0
  6
Continuous
 62
     7
370
    25
100
AcDbLine
 10
6122.7934843884
 20
4697.8108422163
 30
0.0
 11
6102.7934843884
 21
4697.8108422163
 31
0.0
  0
LINE
  5
E7
330
1F
100
AcDbEntity
  8
0
  6
Continuous
 62
     7
370
    25
100
AcDbLine
 10
6122.7934843884
 20
4697.8108422163
 30
0.0
 11
6122.7934843884
 21
4674.0103862867
 31
0.0
  0
LINE
  5
E8
330
1F
100
AcDbEntity
  8
0
  6
Continuous
 62
     7
370
    25
100
AcDbLine
 10
6102.7934843884
 20
4697.8108422163
 30
0.0
 11
6102.7934843884
 21
4674.0103862867
 31
0.0
  0
LINE
  5
E9
330
1F
100
AcDbEntity
  8
0
  6
Continuous
 62
     7
370
    25
100
AcDbLine
 10
6907.3934843884
 20
4697.8108422163
 30
0.0
 11
6927.3934843884
 21
4697.8108422163
 31
0.0
  0
LINE
  5
EA
330
1F
100
AcDbEntity
  8
0
  6
Continuous
 62
     7
370
    25
100
AcDbLine
 10
6927.3934843884
 20
4697.8108422163
 30
0.0
 11
6927.3934843884
 21
4674.0103862867
 31
0.0
  0
LINE
  5
EB
330
1F
100
AcDbEntity
  8
0
  6
Continuous
 62
     7
370
    25
100
AcDbLine
 10
6907.3934843884
 20
4697.8108422163
 30
0.0
 11
6907.3934843884
 21
4674.0103862867
 31
0.0
  0
LINE
  5
EC
330
1F
100
AcDbEntity
  8
0
  6
Continuous
 62
     7
370
    25
100
AcDbLine
 10
6062.7934843884
 20
4699.7605002691
 30
0.0
 11
6967.3934843884
 21
4699.7605002691
 31
0.0
  0
LINE
  5
ED
330
1F
100
AcDbEntity
  8
0
  6
Continuous
 62
     7
370
    25
100
AcDbLine
 10
6967.3934843884
 20
4699.7605002691
 30
0.0
 11
6967.3934843884
 21
4698.5605002691
 31
0.0
  0
LINE
  5
EE
330
1F
100
AcDbEntity
  8
0
  6
Continuous
 62
     7
370
    25
100
AcDbLine
 10
6062.7934843884
 20
4698.5605002691
 30
0.0
 11
6967.3934843884
 21
4698.5605002691
 31
0.0
  0
LINE
  5
EF
330
1F
100
AcDbEntity
  8
0
  6
Continuous
 62
     7
370
    25
100
AcDbLine
 10
6062.7934843884
 20
4699.7605002691
 30
0.0
 11
6062.7934843884
 21
4698.5605002691
 31
0.0
  0
LINE
  5
F0
330
1F
100
AcDbEntity
  8
0
  6
Continuous
 62
     7
370
    25
100
AcDbLine
 10
6940.0567398385
 20
4713.7089589377
 30
0.0
 11
6935.6934843884
 21
4713.7089589377
 31
0.0
  0
ARC
  5
F1
330
1F
100
AcDbEntity
  8
0
  6
Continuous
 62
     7
370
    25
100
AcDbCircle
 10
6938.3934843884
 20
4714.0605002691
 30
0.0
 40
1.699999999999818
100
AcDbArc
 50
348.0657534268
 51
90.0
  0
LINE
  5
F2
330
1F
100
AcDbEntity
  8
0
  6
Continuous
 62
     7
370
    25
100
AcDbLine
 10
6094.4934843884
 20
4713.7089589377
 30
0.0
 11
6090.1302289383
 21
4713.7089589377
 31
0.0
  0
ARC
  5
F3
330
1F
100
AcDbEntity
  8
0
  6
Continuous
 62
     7
370
    25
100
AcDbCircle
 10
6091.7934843884
 20
4714.0605002691
 30
0.0
 40
1.700000000000129
100
AcDbArc
 50
90.0
 51
191.9342465732
  0
LINE
  5
F4
330
1F
100
AcDbEntity
  8
0
  6
Continuous
 62
     7
370
    25
100
AcDbLine
 10
6935.6934843884
 20
4713.7089589377
 30
0.0
 11
6094.4934843884
 21
4713.7089589377
 31
0.0
  0
LINE
  5
F5
330
1F
100
AcDbEntity
  8
0
  6
Continuous
 62
     7
370
    25
100
AcDbLine
 10
6939.167547059
 20
4709.5019010345
 30
0.0
 11
6935.6934843884
 21
4709.5019010345
 31
0.0
  0
LINE
  5
F6
330
1F
100
AcDbEntity
  8
0
  6
Continuous
 62
     7
370
    25
100
AcDbLine
 10
6935.6934843884
 20
4713.7089589377
 30
0.0
 11
6935.6934843884
 21
4709.5019010345
 31
0.0
  0
LINE
  5
F7
330
1F
100
AcDbEntity
  8
0
  6
Continuous
 62
     7
370
    25
100
AcDbLine
 10
6940.0567398385
 20
4713.7089589377
 30
0.0
 11
6939.167547059
 21
4709.5019010345
 31
0.0
  0
LINE
  5
F8
330
1F
100
AcDbEntity
  8
0
  6
Continuous
 62
     7
370
    25
100
AcDbLine
 10
6935.6934843884
 20
4709.5019010345
 30
0.0
 11
6094.4934843884
 21
4709.5019010345
 31
0.0
  0
LINE
  5
F9
330
1F
100
AcDbEntity
  8
0
  6
Continuous
 62
     7
370
    25
100
AcDbLine
 10
6094.4934843884
 20
4713.7089589377
 30
0.0
 11
6094.4934843884
 21
4709.5019010345
 31
0.0
  0
LINE
  5
FA
330
1F
100
AcDbEntity
  8
0
  6
Continuous
 62
     7
370
    25
100
AcDbLine
 10
6094.4934843884
 20
4709.5019010345
 30
0.0
 11
6091.0194217177
 21
4709.5019010345
 31
0.0
  0
LINE
  5
FB
330
1F
100
AcDbEntity
  8
0
  6
Continuous
 62
     7
370
    25
100
AcDbLine
 10
6090.1302289383
 20
4713.7089589377
 30
0.0
 11
6091.0194217177
 21
4709.5019010345
 31
0.0
  0
LINE
  5
FC
330
1F
100
AcDbEntity
  8
0
  6
Continuous
 62
     7
370
    25
100
AcDbLine
 10
6937.8934843884
 20
4709.5019010345
 30
0.0
 11
6937.8934843884
 21
4699.7605002691
 31
0.0
  0
LINE
  5
FD
330
1F
100
AcDbEntity
  8
0
  6
Continuous
 62
     7
370
    25
100
AcDbLine
 10
6092.2934843884
 20
4709.5019010345
 30
0.0
 11
6092.2934843884
 21
4699.7605002691
 31
0.0
  0
LINE
  5
FE
330
1F
100
AcDbEntity
  8
0
  6
Continuous
 62
     7
370
    25
100
AcDbLine
 10
6122.7934843884
 20
4698.5605002691
 30
0.0
 11
6122.7934843884
 21
4697.8108422163
 31
0.0
  0
LINE
  5
FF
330
1F
100
AcDbEntity
  8
0
  6
Continuous
 62
     7
370
    25
100
AcDbLine
 10
6102.7934843884
 20
4698.5605002691
 30
0.0
 11
6102.7934843884
 21
4697.8108422163
 31
0.0
  0
LINE
  5
100
330
1F
100
AcDbEntity
  8
0
  6
Continuous
 62
     7
370
    25
100
AcDbLine
 10
6927.3934843884
 20
4698.5605002691
 30
0.0
 11
6927.3934843884
 21
4697.8108422163
 31
0.0
  0
LINE
  5
101
330
1F
100
AcDbEntity
  8
0
  6
Continuous
 62
     7
370
    25
100
AcDbLine
 10
6907.3934843884
 20
4698.5605002691
 30
0.0
 11
6907.3934843884
 21
4697.8108422163
 31
0.0
  0
LINE
  5
102
330
1F
100
AcDbEntity
  8
0
  6
Continuous
 62
     7
370
    25
100
AcDbLine
 10
6548.3434843884
 20
4695.9648640353
 30
0.0
 11
6481.8434843884
 21
4695.9648640353
 31
0.0
  0
LINE
  5
103
330
1F
100
AcDbEntity
  8
0
  6
Continuous
 62
     7
370
    25
100
AcDbLine
 10
6475.0934843884
 20
4694.4567894214
 30
0.0
 11
6555.0934843884
 21
4694.4567894214
 31
0.0
  0
LWPOLYLINE
  5
104
330
1F
100
AcDbEntity
  8
0
  6
Continuous
 62
     7
370
    25
100
AcDbPolyline
 90
       18
 70
   128
 43
0.0
 10
6558.8475992431
 20
4671.2599731515
 10
6558.8926764634
 20
4671.2908529884
 10
6558.1493722198
 20
4670.7878398269
 10
6556.6079173831
 20
4669.7616843626
 10
6554.5260848896
 20
4668.4079431927
 10
6551.8882625813
 20
4666.7442519229
 10
6548.7893070302
 20
4664.8611893117
 10
6545.2047231098
 20
4662.7793850284
 10
6541.2413213832
 20
4660.5896908463
 10
6536.9760567583
 20
4658.3601571292
 10
6530.4943777868
 20
4655.2198734791
 10
6523.6183778036
 20
4652.1922883056
 10
6516.9525555689
 20
4649.5479493867
 10
6510.2169380358
 20
4647.1482038381
 10
6503.7862541923
 20
4645.1087461713
 10
6497.6223190919
 20
4643.3719681479
 10
6491.9606735757
 20
4641.9643150434
 10
6486.9362788026
 20
4640.8589043305
  0
LWPOLYLINE
  5
105
330
1F
100
AcDbEntity
  8
0
  6
Continuous
 62
     7
370
    25
100
AcDbPolyline
 90
        9
 70
   128
 43
0.0
 10
6480.3029002106
 20
4647.6533353839
 10
6480.5666720167
 20
4646.1808251627
 10
6481.0568588909
 20
4644.7783953615
 10
6481.7510608645
 20
4643.5101325269
 10
6482.6175551323
 20
4642.4339922052
 10
6483.6167456839
 20
4641.5991505595
 10
6484.7029727138
 20
4641.043757177
 10
6485.8265991285
 20
4640.7931917551
 10
6486.9362788026
 20
4640.8589043305
  0
LINE
  5
106
330
1F
100
AcDbEntity
  8
0
  6
Continuous
 62
     7
370
    25
100
AcDbLine
 10
6480.3029002106
 20
4647.6533353839
 30
0.0
 11
6480.0536690393
 21
4685.9605002691
 31
0.0
  0
LINE
  5
107
330
1F
100
AcDbEntity
  8
0
  6
Continuous
 62
     7
370
    25
100
AcDbLine
 10
6479.3753349413
 20
4688.9605002691
 30
0.0
 11
6479.3753349413
 21
4685.9605002691
 31
0.0
  0
LINE
  5
108
330
1F
100
AcDbEntity
  8
0
  6
Continuous
 62
     7
370
    25
100
AcDbLine
 10
6479.3753349413
 20
4685.9605002691
 30
0.0
 11
6564.0934843884
 21
4685.9605002691
 31
0.0
  0
ARC
  5
109
330
1F
100
AcDbEntity
  8
0
  6
Continuous
 62
     7
370
    25
100
AcDbCircle
 10
6481.1511762123
 20
4689.1978496855
 30
0.0
 40
1.791632486067367
100
AcDbArc
 50
100.3196220904
 51
187.6127302624
  0
LINE
  5
10A
330
1F
100
AcDbEntity
  8
0
  6
Continuous
 62
     7
370
    25
100
AcDbLine
 10
6480.8302246812
 20
4690.9605002691
 30
0.0
 11
6562.0934843884
 21
4690.9605002691
 31
0.0
  0
LINE
  5
10B
330
1F
100
AcDbEntity
  8
0
  6
Continuous
 62
     7
370
    25
100
AcDbLine
 10
6473.3434843884
 20
4693.9605002691
 30
0.0
 11
6556.8434843884
 21
4693.9605002691
 31
0.0
  0
LINE
  5
10C
330
1F
100
AcDbEntity
  8
0
  6
Continuous
 62
     7
370
    25
100
AcDbLine
 10
6491.2491166114
 20
4618.777261631
 30
0.0
 11
6490.8052361912
 21
4641.6974077729
 31
0.0
  0
LINE
  5
10D
330
1F
100
AcDbEntity
  8
0
  6
Continuous
 62
     7
370
    25
100
AcDbLine
 10
6461.837236768
 20
4688.9605002691
 30
0.0
 11
6461.837236768
 21
4685.9605002691
 31
0.0
  0
LINE
  5
10E
330
1F
100
AcDbEntity
  8
0
  6
Continuous
 62
     7
370
    25
100
AcDbLine
 10
6479.3753349413
 20
4688.9605002691
 30
0.0
 11
6461.837236768
 21
4688.9605002691
 31
0.0
  0
LINE
  5
10F
330
1F
100
AcDbEntity
  8
0
  6
Continuous
 62
     7
370
    25
100
AcDbLine
 10
6461.837236768
 20
4685.9605002691
 30
0.0
 11
6479.3753349413
 21
4685.9605002691
 31
0.0
  0
ARC
  5
110
330
1F
100
AcDbEntity
  8
0
  6
Continuous
 62
     7
370
    25
100
AcDbCircle
 10
6464.892507616
 20
4689.4443966152
 30
0.0
 40
3.093353459912889
100
AcDbArc
 50
150.6517591701
 51
188.9997984493
  0
LINE
  5
111
330
1F
100
AcDbEntity
  8
0
  6
Continuous
 62
     7
370
    25
100
AcDbLine
 10
6462.1961646596
 20
4690.9605002691
 30
0.0
 11
6480.8302246812
 21
4690.9605002691
 31
0.0
  0
ARC
  5
112
330
1F
100
AcDbEntity
  8
0
  6
Continuous
 62
     7
370
    25
100
AcDbCircle
 10
6448.4683589145
 20
4772.3771772085
 30
0.0
 40
128.7224717716481
100
AcDbArc
 50
276.5444516408
 51
284.318474563
  0
LINE
  5
113
330
1F
100
AcDbEntity
  8
0
  6
Continuous
 62
     7
370
    25
100
AcDbLine
 10
6463.1393764842
 20
4644.4934957535
 30
0.0
 11
6463.0781380591
 21
4685.9605002691
 31
0.0
  0
LWPOLYLINE
  5
114
330
1F
100
AcDbEntity
  8
0
  6
Continuous
 62
     7
370
    25
100
AcDbPolyline
 90
        6
 70
   128
 43
0.0
 10
6463.1393764842
 20
4644.4934957535
 10
6463.3125461592
 20
4643.1500311973
 10
6463.5790376102
 20
4641.809595962
 10
6464.3054858393
 20
4639.5834896098
 10
6465.2051202175
 20
4638.1414571663
 10
6466.14120522
 20
4637.6964973001
  0
ARC
  5
115
330
1F
100
AcDbEntity
  8
0
  6
Continuous
 62
     7
370
    25
100
AcDbCircle
 10
6446.5110959184
 20
4836.730812957
 30
0.0
 40
200.0000000005337
100
AcDbArc
 50
275.6326806459
 51
281.6613043232
  0
LINE
  5
116
330
1F
100
AcDbEntity
  8
0
  6
Continuous
 62
     7
370
    25
100
AcDbLine
 10
6540.3366280958
 20
4611.9605002691
 30
0.0
 11
6497.6606560881
 21
4611.9605002691
 31
0.0
  0
ARC
  5
117
330
1F
100
AcDbEntity
  8
0
  6
Continuous
 62
     7
370
    25
100
AcDbCircle
 10
6497.960206292
 20
4618.6658274023
 30
0.0
 40
6.712014771170359
100
AcDbArc
 50
179.0487201604
 51
267.4420996519
  0
LINE
  5
118
330
1F
100
AcDbEntity
  8
0
  6
Continuous
 62
     7
370
    25
100
AcDbLine
 10
6391.3418044129
 20
4684.6558728694
 30
0.0
 11
6391.7916633515
 21
4633.1071443522
 31
0.0
  0
LINE
  5
119
330
1F
100
AcDbEntity
  8
0
  6
Continuous
 62
     7
370
    25
100
AcDbLine
 10
6365.2153634496
 20
4678.652210053
 30
0.0
 11
6365.5644232081
 21
4638.6539235151
 31
0.0
  0
LINE
  5
11A
330
1F
100
AcDbEntity
  8
0
  6
Continuous
 62
     7
370
    25
100
AcDbLine
 10
6461.837236768
 20
4688.9605002691
 30
0.0
 11
6456.0934843884
 21
4688.9605002691
 31
0.0
  0
ARC
  5
11B
330
1F
100
AcDbEntity
  8
0
  6
Continuous
 62
     7
370
    25
100
AcDbCircle
 10
6458.0934843884
 20
4688.9605002691
 30
0.0
 40
2.0
100
AcDbArc
 50
90.0
 51
180.0
  0
LINE
  5
11C
330
1F
100
AcDbEntity
  8
0
  6
Continuous
 62
     7
370
    25
100
AcDbLine
 10
6458.0934843884
 20
4690.9605002691
 30
0.0
 11
6462.1961646596
 21
4690.9605002691
 31
0.0
  0
LINE
  5
11D
330
1F
100
AcDbEntity
  8
0
  6
Continuous
 62
     7
370
    25
100
AcDbLine
 10
6456.0934843884
 20
4688.9605002691
 30
0.0
 11
6456.0934843884
 21
4685.9605002691
 31
0.0
  0
LINE
  5
11E
330
1F
100
AcDbEntity
  8
0
  6
Continuous
 62
     7
370
    25
100
AcDbLine
 10
6456.0934843884
 20
4685.9605002691
 30
0.0
 11
6461.837236768
 21
4685.9605002691
 31
0.0
  0
LINE
  5
11F
330
1F
100
AcDbEntity
  8
0
  6
Continuous
 62
     7
370
    25
100
AcDbLine
 10
6421.4425458083
 20
4639.1414693039
 30
0.0
 11
6421.0934843884
 21
4679.1399462264
 31
0.0
  0
LINE
  5
120
330
1F
100
AcDbEntity
  8
0
  6
Continuous
 62
     7
370
    25
100
AcDbLine
 10
6401.1523546748
 20
4678.9659226238
 30
0.0
 11
6401.5014160947
 21
4638.9674457013
 31
0.0
  0
ARC
  5
121
330
1F
100
AcDbEntity
  8
0
  6
Continuous
 62
     7
370
    25
100
AcDbCircle
 10
6461.768976741
 20
4688.2335936036
 30
0.0
 40
43.76156024866749
100
AcDbArc
 50
265.6588877915
 51
271.794519202
  0
LWPOLYLINE
  5
122
330
1F
100
AcDbEntity
  8
0
  6
Continuous
 62
     7
370
    25
100
AcDbPolyline
 90
       11
 70
   128
 43
0.0
 10
6458.1930523331
 20
4674.5511438927
 10
6458.3503485419
 20
4672.5070266228
 10
6458.7144156374
 20
4670.314822502
 10
6459.4257896864
 20
4666.8997562246
 10
6460.0986002032
 20
4663.2841720887
 10
6460.3716862305
 20
4660.750107603
 10
6460.3976712009
 20
4658.1506708193
 10
6459.7795962166
 20
4653.1493733164
 10
6459.1289850814
 20
4649.7892035681
 10
6458.5914817298
 20
4646.5159104699
 10
6458.4564832787
 20
4644.5975778224
  0
LINE
  5
123
330
1F
100
AcDbEntity
  8
0
  6
Continuous
 62
     7
370
    25
100
AcDbLine
 10
6458.1930523331
 20
4674.5511438927
 30
0.0
 11
6458.0934843884
 21
4685.9605002691
 31
0.0
  0
ARC
  5
124
330
1F
100
AcDbEntity
  8
0
  6
Continuous
 62
     7
370
    25
100
AcDbCircle
 10
6465.4541513945
 20
4644.662698348
 30
0.0
 40
7.000000000001326
100
AcDbArc
 50
181.914945567
 51
275.6326806458
  0
LWPOLYLINE
  5
125
330
1F
100
AcDbEntity
  8
0
  6
Continuous
 62
     7
370
    25
100
AcDbPolyline
 90
        4
 70
   128
 43
0.0
 10
6458.4564919571
 20
4644.5975820045
 10
6458.4564912895
 20
4644.5975367503
 10
6458.4580638017
 20
4644.4288691147
 10
6458.458065299
 20
4644.4288244094
  0
LWPOLYLINE
  5
126
330
1F
100
AcDbEntity
  8
0
  6
Continuous
 62
     7
370
    25
100
AcDbPolyline
 90
       12
 70
   128
 43
0.0
 10
6456.4454850389
 20
4645.931628648
 10
6456.635658079
 20
4647.6757303553
 10
6457.3556346387
 20
4650.5824389037
 10
6458.2646050588
 20
4653.7074851117
 10
6458.7994561647
 20
4655.9402923274
 10
6459.1127901938
 20
4658.254823544
 10
6459.0794916818
 20
4660.6072928432
 10
6458.7246203775
 20
4662.9213672544
 10
6457.831490807
 20
4666.2206222385
 10
6456.8883138343
 20
4669.3114551425
 10
6456.4072301608
 20
4671.3075178888
 10
6456.2050978202
 20
4673.1621410756
  0
ARC
  5
127
330
1F
100
AcDbEntity
  8
0
  6
Continuous
 62
     7
370
    25
100
AcDbCircle
 10
6456.4545869453
 20
4674.9221612306
 30
0.0
 40
1.777615191626142
100
AcDbArc
 50
261.9318731471
 51
347.952862863
  0
ARC
  5
128
330
1F
100
AcDbEntity
  8
0
  6
Continuous
 62
     7
370
    25
100
AcDbCircle
 10
6456.6983684723
 20
4644.1300821271
 30
0.0
 40
1.819208590988712
100
AcDbArc
 50
14.8907936098
 51
97.990412116
  0
LINE
  5
129
330
1F
100
AcDbEntity
  8
0
  6
Continuous
 62
     7
370
    25
100
AcDbLine
 10
6456.4472182899
 20
4645.7332290863
 30
0.0
 11
6456.4455021033
 21
4645.9316285446
 31
0.0
  0
LINE
  5
12A
330
1F
100
AcDbEntity
  8
0
  6
Continuous
 62
     7
370
    25
100
AcDbLine
 10
6456.8466267092
 20
4643.576338915
 30
0.0
 11
6456.4472124081
 21
4645.7332289503
 31
0.0
  0
LINE
  5
12B
330
1F
100
AcDbEntity
  8
0
  6
Continuous
 62
     7
370
    25
100
AcDbLine
 10
6296.6640143261
 20
4678.0539714924
 30
0.0
 11
6297.0130740846
 21
4638.0556849545
 31
0.0
  0
LINE
  5
12C
330
1F
100
AcDbEntity
  8
0
  6
Continuous
 62
     7
370
    25
100
AcDbLine
 10
6293.1782841533
 20
4677.7382419209
 30
0.0
 11
6293.5223645646
 21
4638.3105320591
 31
0.0
  0
LINE
  5
12D
330
1F
100
AcDbEntity
  8
0
  6
Continuous
 62
     7
370
    25
100
AcDbLine
 10
6293.1782841533
 20
4675.52345679
 30
0.0
 11
6293.4837112343
 21
4640.5249798674
 31
0.0
  0
ARC
  5
12E
330
1F
100
AcDbEntity
  8
0
  6
Continuous
 62
     7
370
    25
100
AcDbCircle
 10
6456.7471947978
 20
4643.993581202
 30
0.0
 40
1.765353851703961
100
AcDbArc
 50
14.2723990243
 51
99.7836484596
  0
ARC
  5
12F
330
1F
100
AcDbEntity
  8
0
  6
Continuous
 62
     7
370
    25
100
AcDbCircle
 10
6457.2061410735
 20
4641.913319602
 30
0.0
 40
1.701435809413708
100
AcDbArc
 50
23.1834570491
 51
102.1985801329
  0
LINE
  5
130
330
1F
100
AcDbEntity
  8
0
  6
Continuous
 62
     7
370
    25
100
AcDbLine
 10
6459.008179971
 20
4639.098009649
 30
0.0
 11
6459.0077171514
 21
4639.0874624059
 31
0.0
  0
LINE
  5
131
330
1F
100
AcDbEntity
  8
0
  6
Continuous
 62
     7
370
    25
100
AcDbLine
 10
6908.8934843884
 20
4601.7605002691
 30
0.0
 11
6908.8934843884
 21
4594.7605002691
 31
0.0
  0
LINE
  5
132
330
1F
100
AcDbEntity
  8
0
  6
Continuous
 62
     7
370
    25
100
AcDbLine
 10
6908.8934843884
 20
4601.7605002691
 30
0.0
 11
6917.3934843884
 21
4601.7605002691
 31
0.0
  0
LINE
  5
133
330
1F
100
AcDbEntity
  8
0
  6
Continuous
 62
     7
370
    25
100
AcDbLine
 10
6917.3934843884
 20
4601.7605002691
 30
0.0
 11
6917.3934843884
 21
4594.7605002691
 31
0.0
  0
LINE
  5
134
330
1F
100
AcDbEntity
  8
0
  6
Continuous
 62
     7
370
    25
100
AcDbLine
 10
6908.8934843884
 20
4594.7605002691
 30
0.0
 11
6917.3934843884
 21
4594.7605002691
 31
0.0
  0
LINE
  5
135
330
1F
100
AcDbEntity
  8
0
  6
Continuous
 62
     7
370
    25
100
AcDbLine
 10
6925.8934843884
 20
4601.7605002691
 30
0.0
 11
6925.8934843884
 21
4594.7605002691
 31
0.0
  0
LINE
  5
136
330
1F
100
AcDbEntity
  8
0
  6
Continuous
 62
     7
370
    25
100
AcDbLine
 10
6917.3934843884
 20
4594.7605002691
 30
0.0
 11
6925.8934843884
 21
4594.7605002691
 31
0.0
  0
LINE
  5
137
330
1F
100
AcDbEntity
  8
0
  6
Continuous
 62
     7
370
    25
100
AcDbLine
 10
6917.3934843884
 20
4601.7605002691
 30
0.0
 11
6925.8934843884
 21
4601.7605002691
 31
0.0
  0
LINE
  5
138
330
1F
100
AcDbEntity
  8
0
  6
Continuous
 62
     7
370
    25
100
AcDbLine
 10
6917.3934843884
 20
4681.7605002691
 30
0.0
 11
6921.3934843884
 21
4681.7605002691
 31
0.0
  0
LINE
  5
139
330
1F
100
AcDbEntity
  8
0
  6
Continuous
 62
     7
370
    25
100
AcDbLine
 10
6913.3934843884
 20
4681.7605002691
 30
0.0
 11
6917.3934843884
 21
4681.7605002691
 31
0.0
  0
LINE
  5
13A
330
1F
100
AcDbEntity
  8
0
  6
Continuous
 62
     7
370
    25
100
AcDbLine
 10
6104.2934843884
 20
4601.7605002691
 30
0.0
 11
6104.2934843884
 21
4596.7605002691
 31
0.0
  0
LINE
  5
13B
330
1F
100
AcDbEntity
  8
0
  6
Continuous
 62
     7
370
    25
100
AcDbLine
 10
6104.2934843884
 20
4601.7605002691
 30
0.0
 11
6107.7934843884
 21
4601.7605002691
 31
0.0
  0
LINE
  5
13C
330
1F
100
AcDbEntity
  8
0
  6
Continuous
 62
     7
370
    25
100
AcDbLine
 10
6121.2934843884
 20
4601.7605002691
 30
0.0
 11
6121.2934843884
 21
4596.7605002691
 31
0.0
  0
LINE
  5
13D
330
1F
100
AcDbEntity
  8
0
  6
Continuous
 62
     7
370
    25
100
AcDbLine
 10
6117.7934843884
 20
4601.7605002691
 30
0.0
 11
6121.2934843884
 21
4601.7605002691
 31
0.0
  0
LINE
  5
13E
330
1F
100
AcDbEntity
  8
0
  6
Continuous
 62
     7
370
    25
100
AcDbLine
 10
6098.7934843884
 20
4596.7605002691
 30
0.0
 11
6098.7934843884
 21
4594.7605002691
 31
0.0
  0
LINE
  5
13F
330
1F
100
AcDbEntity
  8
0
  6
Continuous
 62
     7
370
    25
100
AcDbLine
 10
6148.7934843884
 20
4596.7605002691
 30
0.0
 11
6148.7934843884
 21
4594.7605002691
 31
0.0
  0
LINE
  5
140
330
1F
100
AcDbEntity
  8
0
  6
Continuous
 62
     7
370
    25
100
AcDbLine
 10
6098.7934843884
 20
4594.7605002691
 30
0.0
 11
6148.7934843884
 21
4594.7605002691
 31
0.0
  0
LINE
  5
141
330
1F
100
AcDbEntity
  8
0
  6
Continuous
 62
     7
370
    25
100
AcDbLine
 10
6098.7934843884
 20
4596.7605002691
 30
0.0
 11
6148.7934843884
 21
4596.7605002691
 31
0.0
  0
LINE
  5
142
330
1F
100
AcDbEntity
  8
0
  6
Continuous
 62
     7
370
    25
100
AcDbLine
 10
6108.7934843884
 20
4681.7605002691
 30
0.0
 11
6116.7934843884
 21
4681.7605002691
 31
0.0
  0
LINE
  5
143
330
1F
100
AcDbEntity
  8
0
  6
Continuous
 62
     7
370
    25
100
AcDbLine
 10
6881.3934843884
 20
4596.7605002691
 30
0.0
 11
6881.3934843884
 21
4594.7605002691
 31
0.0
  0
LINE
  5
144
330
1F
100
AcDbEntity
  8
0
  6
Continuous
 62
     7
370
    25
100
AcDbLine
 10
6881.3934843884
 20
4596.7605002691
 30
0.0
 11
6908.8934843884
 21
4596.7605002691
 31
0.0
  0
LINE
  5
145
330
1F
100
AcDbEntity
  8
0
  6
Continuous
 62
     7
370
    25
100
AcDbLine
 10
6925.8934843884
 20
4596.7605002691
 30
0.0
 11
6931.3934843884
 21
4596.7605002691
 31
0.0
  0
LINE
  5
146
330
1F
100
AcDbEntity
  8
0
  6
Continuous
 62
     7
370
    25
100
AcDbLine
 10
6931.3934843884
 20
4596.7605002691
 30
0.0
 11
6931.3934843884
 21
4594.7605002691
 31
0.0
  0
LINE
  5
147
330
1F
100
AcDbEntity
  8
0
  6
Continuous
 62
     7
370
    25
100
AcDbLine
 10
6881.3934843884
 20
4594.7605002691
 30
0.0
 11
6908.8934843884
 21
4594.7605002691
 31
0.0
  0
LINE
  5
148
330
1F
100
AcDbEntity
  8
0
  6
Continuous
 62
     7
370
    25
100
AcDbLine
 10
6925.8934843884
 20
4594.7605002691
 30
0.0
 11
6931.3934843884
 21
4594.7605002691
 31
0.0
  0
LINE
  5
149
330
1F
100
AcDbEntity
  8
0
  6
Continuous
 62
     8
370
    25
100
AcDbLine
 10
6122.7934843884
 20
4674.0103862867
 30
0.0
 11
6121.2934843884
 21
4674.0103862867
 31
0.0
  0
LINE
  5
14A
330
1F
100
AcDbEntity
  8
0
  6
Continuous
 62
     8
370
    25
100
AcDbLine
 10
6104.2934843884
 20
4674.0103862867
 30
0.0
 11
6102.7934843884
 21
4674.0103862867
 31
0.0
  0
LINE
  5
14B
330
1F
100
AcDbEntity
  8
0
  6
Continuous
 62
     8
370
    25
100
AcDbLine
 10
6907.3934843884
 20
4674.0103862867
 30
0.0
 11
6908.8934843884
 21
4674.0103862867
 31
0.0
  0
LINE
  5
14C
330
1F
100
AcDbEntity
  8
0
  6
Continuous
 62
     8
370
    25
100
AcDbLine
 10
6925.8934843884
 20
4674.0103862867
 30
0.0
 11
6927.3934843884
 21
4674.0103862867
 31
0.0
  0
LINE
  5
14D
330
1F
100
AcDbEntity
  8
0
  6
Continuous
 62
     8
370
    25
100
AcDbLine
 10
6935.6934843884
 20
4715.7605002691
 30
0.0
 11
6935.6934843884
 21
4713.7089589377
 31
0.0
  0
LINE
  5
14E
330
1F
100
AcDbEntity
  8
0
  6
Continuous
 62
     8
370
    25
100
AcDbLine
 10
6094.4934843884
 20
4715.7605002691
 30
0.0
 11
6094.4934843884
 21
4713.7089589377
 31
0.0
  0
LINE
  5
14F
330
1F
100
AcDbEntity
  8
0
  6
Continuous
 62
     8
370
    25
100
AcDbLine
 10
6094.4934843884
 20
4709.5019010345
 30
0.0
 11
6094.4934843884
 21
4699.7605002691
 31
0.0
  0
LINE
  5
150
330
1F
100
AcDbEntity
  8
0
  6
Continuous
 62
     8
370
    25
100
AcDbLine
 10
6935.6934843884
 20
4709.5019010345
 30
0.0
 11
6935.6934843884
 21
4699.7605002691
 31
0.0
  0
LINE
  5
151
330
1F
100
AcDbEntity
  8
0
  6
Continuous
 62
     8
370
    25
100
AcDbLine
 10
6475.7912582558
 20
4694.4841741954
 30
0.0
 11
6554.395710521
 21
4694.4841741954
 31
0.0
  0
LINE
  5
152
330
1F
100
AcDbEntity
  8
0
  6
Continuous
 62
     8
370
    25
100
AcDbLine
 10
6476.030369641
 20
4694.8983272632
 30
0.0
 11
6554.1565991358
 21
4694.8983272632
 31
0.0
  0
LWPOLYLINE
  5
153
330
1F
100
AcDbEntity
  8
0
  6
Continuous
 62
     8
370
    25
100
AcDbPolyline
 90
       21
 70
   128
 43
0.0
 10
6480.3029002106
 20
4647.6533353839
 10
6485.8932091629
 20
4648.6964438943
 10
6492.4364742186
 20
4650.0784419677
 10
6499.3128346005
 20
4651.7221599928
 10
6506.7348870891
 20
4653.7225094088
 10
6514.2698669909
 20
4656.0014734288
 10
6521.9452761715
 20
4658.5900509199
 10
6529.6537640464
 20
4661.4733142618
 10
6533.4473044408
 20
4663.0009982843
 10
6537.1003653308
 20
4664.5420443346
 10
6540.7294634967
 20
4666.1432437603
 10
6544.1591675957
 20
4667.7222431802
 10
6547.4599106094
 20
4669.3043803535
 10
6550.4971197812
 20
4670.8155403908
 10
6553.1601525953
 20
4672.185670743
 10
6555.5242468042
 20
4673.4380384047
 10
6557.6328989939
 20
4674.5844802512
 10
6559.3599269926
 20
4675.5445181149
 10
6561.0977029941
 20
4676.5300341595
 10
6561.9491642396
 20
4677.0201658388
 10
6561.9051851597
 20
4676.9947426703
  0
LINE
  5
154
330
1F
100
AcDbEntity
  8
0
  6
Continuous
 62
     8
370
    25
100
AcDbLine
 10
6564.0934843884
 20
4688.9605002691
 30
0.0
 11
6479.3753349413
 21
4688.9605002691
 31
0.0
  0
LINE
  5
155
330
1F
100
AcDbEntity
  8
0
  6
Continuous
 62
     8
370
    25
100
AcDbLine
 10
6491.2491166114
 20
4618.7772616309
 30
0.0
 11
6547.3342293706
 21
4618.7772616309
 31
0.0
  0
LINE
  5
156
330
1F
100
AcDbEntity
  8
0
  6
Continuous
 62
     8
370
    25
100
AcDbLine
 10
6448.4858683224
 20
4632.8647887394
 30
0.0
 11
6448.0231448932
 21
4685.887641878
 31
0.0
  0
LINE
  5
157
330
1F
100
AcDbEntity
  8
0
  6
Continuous
 62
     8
370
    25
100
AcDbLine
 10
6423.0231448932
 20
4685.0078539102
 30
0.0
 11
6423.4743215263
 21
4633.3081325503
 31
0.0
  0
LINE
  5
158
330
1F
100
AcDbEntity
  8
0
  6
Continuous
 62
     8
370
    25
100
AcDbLine
 10
6421.510071699
 20
4635.2729136158
 30
0.0
 11
6421.0934843884
 21
4683.0090912041
 31
0.0
  0
LINE
  5
159
330
1F
100
AcDbEntity
  8
0
  6
Continuous
 62
     8
370
    25
100
AcDbLine
 10
6399.5135282984
 20
4682.1659226238
 30
0.0
 11
6399.9186870202
 21
4635.7393316128
 31
0.0
  0
LINE
  5
15A
330
1F
100
AcDbEntity
  8
0
  6
Continuous
 62
     8
370
    25
100
AcDbLine
 10
6399.2685471223
 20
4681.9657646074
 30
0.0
 11
6399.6702499168
 21
4635.9351836331
 31
0.0
  0
LINE
  5
15B
330
1F
100
AcDbEntity
  8
0
  6
Continuous
 62
     8
370
    25
100
AcDbLine
 10
6400.3513469258
 20
4682.1659226238
 30
0.0
 11
6400.7563780436
 21
4635.753953564
 31
0.0
  0
LINE
  5
15C
330
1F
100
AcDbEntity
  8
0
  6
Continuous
 62
     8
370
    25
100
AcDbLine
 10
6400.5971606526
 20
4681.9614815052
 30
0.0
 11
6400.9985863424
 21
4635.9626535863
 31
0.0
  0
LINE
  5
15D
330
1F
100
AcDbEntity
  8
0
  6
Continuous
 62
     8
370
    25
100
AcDbLine
 10
6398.8523546748
 20
4679.9201133727
 30
0.0
 11
6399.2184193206
 21
4637.9732597455
 31
0.0
  0
LINE
  5
15E
330
1F
100
AcDbEntity
  8
0
  6
Continuous
 62
     8
370
    25
100
AcDbLine
 10
6396.5674792159
 20
4678.9598821827
 30
0.0
 11
6396.9171335143
 21
4638.8934681124
 31
0.0
  0
ARC
  5
15F
330
1F
100
AcDbEntity
  8
0
  6
Continuous
 62
     8
370
    25
100
AcDbCircle
 10
6491.0431450409
 20
4614.2839927163
 30
0.0
 40
4.497987308440229
100
AcDbArc
 50
87.3753972297
 51
107.4379694262
  0
LINE
  5
160
330
1F
100
AcDbEntity
  8
0
  6
Continuous
 62
     8
370
    25
100
AcDbLine
 10
6456.2050978202
 20
4673.1621410756
 30
0.0
 11
6456.1502604433
 21
4679.4458820762
 31
0.0
  0
LWPOLYLINE
  5
161
330
1F
100
AcDbEntity
  8
0
  6
Continuous
 62
     8
370
    25
100
AcDbPolyline
 90
        6
 70
   128
 43
0.0
 10
6457.7241151643
 20
4639.5132395766
 10
6457.73009407
 20
4639.47761407
 10
6457.6678889558
 20
4639.8466831891
 10
6457.5185875897
 20
4640.7016879409
 10
6457.2788699199
 20
4641.9308375852
 10
6456.8466267092
 20
4643.576338915
  0
ARC
  5
162
330
1F
100
AcDbEntity
  8
0
  6
Continuous
 62
     8
370
    25
100
AcDbCircle
 10
6444.9907927049
 20
4639.8914654148
 30
0.0
 40
14.03982613207819
100
AcDbArc
 50
356.7602233054
 51
11.052987354
  0
ARC
  5
163
330
1F
100
AcDbEntity
  8
0
  6
Continuous
 62
     7
370
    25
100
AcDbCircle
 10
6094.4934843884
 20
4358.5721153846
 30
0.0
 40
4.400000000000546
100
AcDbArc
 50
90.0
 51
180.0
  0
LINE
  5
164
330
1F
100
AcDbEntity
  8
0
  6
Continuous
 62
     7
370
    25
100
AcDbLine
 10
6935.6934843884
 20
4362.9721153846
 30
0.0
 11
6094.4934343884
 21
4362.9721153846
 31
0.0
  0
ARC
  5
165
330
1F
100
AcDbEntity
  8
0
  6
Continuous
 62
     7
370
    25
100
AcDbCircle
 10
6935.6934843884
 20
4358.5721153846
 30
0.0
 40
4.400000000000546
100
AcDbArc
 50
0.0
 51
90.0
  0
LINE
  5
166
330
1F
100
AcDbEntity
  8
0
  6
Continuous
 62
     7
370
    25
100
AcDbLine
 10
6940.0934843884
 20
4258.5721153846
 30
0.0
 11
6940.0934843884
 21
4358.5721153846
 31
0.0
  0
LINE
  5
167
330
1F
100
AcDbEntity
  8
0
  6
Continuous
 62
     7
370
    25
100
AcDbLine
 10
6090.0934843884
 20
4358.5721153846
 30
0.0
 11
6090.0934843884
 21
4258.5721153846
 31
0.0
  0
ARC
  5
168
330
1F
100
AcDbEntity
  8
0
  6
Continuous
 62
     7
370
    25
100
AcDbCircle
 10
6935.6934843884
 20
4258.5721153846
 30
0.0
 40
4.400000000000546
100
AcDbArc
 50
270.0
 51
0.0
  0
ARC
  5
169
330
1F
100
AcDbEntity
  8
0
  6
Continuous
 62
     7
370
    25
100
AcDbCircle
 10
6094.4934843884
 20
4258.5721153846
 30
0.0
 40
4.400000000000546
100
AcDbArc
 50
180.0
 51
270.0
  0
LINE
  5
16A
330
1F
100
AcDbEntity
  8
0
  6
Continuous
 62
     7
370
    25
100
AcDbLine
 10
6094.4934843884
 20
4254.1721153846
 30
0.0
 11
6935.6934843884
 21
4254.1721153846
 31
0.0
  0
ARC
  5
16B
330
1F
100
AcDbEntity
  8
0
  6
Continuous
 62
     7
370
    25
100
AcDbCircle
 10
6515.0934843884
 20
4308.5721153846
 30
0.0
 40
18.15000000000023
100
AcDbArc
 50
90.0
 51
176.8328746966
  0
ARC
  5
16C
330
1F
100
AcDbEntity
  8
0
  6
Continuous
 62
     7
370
    25
100
AcDbCircle
 10
6515.0934843884
 20
4308.5721153846
 30
0.0
 40
18.14999999999964
100
AcDbArc
 50
3.1671253034
 51
90.0
  0
ARC
  5
16D
330
1F
100
AcDbEntity
  8
0
  6
Continuous
 62
     7
370
    25
100
AcDbCircle
 10
6515.0934843884
 20
4308.5721153846
 30
0.0
 40
20.05000000000015
100
AcDbArc
 50
3.1671253034
 51
176.8328746966
  0
ARC
  5
16E
330
1F
100
AcDbEntity
  8
0
  6
Continuous
 62
     7
370
    25
100
AcDbCircle
 10
6497.0211298102
 20
4309.5721153846
 30
0.0
 40
0.0500000000001819
100
AcDbArc
 50
176.8328746962
 51
270.0
  0
ARC
  5
16F
330
1F
100
AcDbEntity
  8
0
  6
Continuous
 62
     7
370
    25
100
AcDbCircle
 10
6497.0211298102
 20
4309.5721153846
 30
0.0
 40
1.949999999999818
100
AcDbArc
 50
176.8328746966
 51
270.0
  0
ARC
  5
170
330
1F
100
AcDbEntity
  8
0
  6
Continuous
 62
     7
370
    25
100
AcDbCircle
 10
6533.1658389666
 20
4309.5721153846
 30
0.0
 40
0.0500000000002805
100
AcDbArc
 50
270.0
 51
3.1671253038
  0
ARC
  5
171
330
1F
100
AcDbEntity
  8
0
  6
Continuous
 62
     7
370
    25
100
AcDbCircle
 10
6533.1658389666
 20
4309.5721153846
 30
0.0
 40
1.950000000000195
100
AcDbArc
 50
270.0
 51
3.1671253034
  0
LINE
  5
172
330
1F
100
AcDbEntity
  8
0
  6
Continuous
 62
     7
370
    25
100
AcDbLine
 10
6497.0211298102
 20
4307.6221153846
 30
0.0
 11
6497.1934843884
 21
4307.6221153846
 31
0.0
  0
LINE
  5
173
330
1F
100
AcDbEntity
  8
0
  6
Continuous
 62
     7
370
    25
100
AcDbLine
 10
6501.3934843884
 20
4307.6221153846
 30
0.0
 11
6501.5211298102
 21
4307.6221153846
 31
0.0
  0
LINE
  5
174
330
1F
100
AcDbEntity
  8
0
  6
Continuous
 62
     7
370
    25
100
AcDbLine
 10
6501.5211298102
 20
4309.5221153846
 30
0.0
 11
6501.3934843884
 21
4309.5221153846
 31
0.0
  0
LINE
  5
175
330
1F
100
AcDbEntity
  8
0
  6
Continuous
 62
     7
370
    25
100
AcDbLine
 10
6497.1934843884
 20
4309.5221153846
 30
0.0
 11
6497.0211298102
 21
4309.5221153846
 31
0.0
  0
LINE
  5
176
330
1F
100
AcDbEntity
  8
0
  6
Continuous
 62
     7
370
    25
100
AcDbLine
 10
6528.6658389666
 20
4307.6221153846
 30
0.0
 11
6528.7928031598
 21
4307.6221153846
 31
0.0
  0
LINE
  5
177
330
1F
100
AcDbEntity
  8
0
  6
Continuous
 62
     7
370
    25
100
AcDbLine
 10
6532.9928031598
 20
4307.6221153846
 30
0.0
 11
6533.1658389666
 21
4307.6221153846
 31
0.0
  0
LINE
  5
178
330
1F
100
AcDbEntity
  8
0
  6
Continuous
 62
     7
370
    25
100
AcDbLine
 10
6533.1658389666
 20
4309.5221153846
 30
0.0
 11
6532.9928031598
 21
4309.5221153846
 31
0.0
  0
LINE
  5
179
330
1F
100
AcDbEntity
  8
0
  6
Continuous
 62
     7
370
    25
100
AcDbLine
 10
6528.7928031598
 20
4309.5221153846
 30
0.0
 11
6528.6658389666
 21
4309.5221153846
 31
0.0
  0
LINE
  5
17A
330
1F
100
AcDbEntity
  8
0
  6
Continuous
 62
     7
370
    25
100
AcDbLine
 10
6497.4268159802
 20
4318.1585029919
 30
0.0
 11
6497.4837236676
 21
4318.1585029919
 31
0.0
  0
LINE
  5
17B
330
1F
100
AcDbEntity
  8
0
  6
Continuous
 62
     7
370
    25
100
AcDbLine
 10
6497.5976656695
 20
4298.9857277773
 30
0.0
 11
6497.4268159802
 21
4298.9857277773
 31
0.0
  0
ARC
  5
17C
330
1F
100
AcDbEntity
  8
0
  6
Continuous
 62
     7
370
    25
100
AcDbCircle
 10
6094.4934843884
 20
4358.5721153846
 30
0.0
 40
1.000000000000909
100
AcDbArc
 50
90.0
 51
180.0
  0
LINE
  5
17D
330
1F
100
AcDbEntity
  8
0
  6
Continuous
 62
     7
370
    25
100
AcDbLine
 10
6935.6934843884
 20
4359.5721153846
 30
0.0
 11
6094.4934843884
 21
4359.5721153846
 31
0.0
  0
ARC
  5
17E
330
1F
100
AcDbEntity
  8
0
  6
Continuous
 62
     7
370
    25
100
AcDbCircle
 10
6935.6934843884
 20
4358.5721153846
 30
0.0
 40
1.000000000000909
100
AcDbArc
 50
0.0
 51
90.0
  0
LINE
  5
17F
330
1F
100
AcDbEntity
  8
0
  6
Continuous
 62
     7
370
    25
100
AcDbLine
 10
6936.6934843884
 20
4358.5721153846
 30
0.0
 11
6936.6934843884
 21
4258.5721153846
 31
0.0
  0
LINE
  5
180
330
1F
100
AcDbEntity
  8
0
  6
Continuous
 62
     7
370
    25
100
AcDbLine
 10
6093.4934843884
 20
4258.5721153846
 30
0.0
 11
6093.4934843884
 21
4358.5721153846
 31
0.0
  0
ARC
  5
181
330
1F
100
AcDbEntity
  8
0
  6
Continuous
 62
     7
370
    25
100
AcDbCircle
 10
6935.6934843884
 20
4258.5721153846
 30
0.0
 40
1.000000000000909
100
AcDbArc
 50
270.0
 51
0.0
  0
ARC
  5
182
330
1F
100
AcDbEntity
  8
0
  6
Continuous
 62
     7
370
    25
100
AcDbCircle
 10
6094.4934843884
 20
4258.5721153846
 30
0.0
 40
1.000000000000909
100
AcDbArc
 50
180.0
 51
270.0
  0
LINE
  5
183
330
1F
100
AcDbEntity
  8
0
  6
Continuous
 62
     7
370
    25
100
AcDbLine
 10
6935.6934843884
 20
4257.5721153846
 30
0.0
 11
6094.4934843884
 21
4257.5721153846
 31
0.0
  0
CIRCLE
  5
184
330
1F
100
AcDbEntity
  8
0
  6
Continuous
 62
     7
370
    25
100
AcDbCircle
 10
6515.0934843884
 20
4308.5721153846
 30
0.0
 40
40.0
  0
CIRCLE
  5
185
330
1F
100
AcDbEntity
  8
0
  6
Continuous
 62
     7
370
    25
100
AcDbCircle
 10
6515.0934843884
 20
4308.5721153846
 30
0.0
 40
35.20108727315801
  0
LINE
  5
186
330
1F
100
AcDbEntity
  8
0
  6
Continuous
 62
     7
370
    25
100
AcDbLine
 10
6967.3934843884
 20
4379.7721153846
 30
0.0
 11
6062.7934843884
 21
4379.7721153846
 31
0.0
  0
LINE
  5
187
330
1F
100
AcDbEntity
  8
0
  6
Continuous
 62
     7
370
    25
100
AcDbLine
 10
6967.3934843884
 20
4237.3721153846
 30
0.0
 11
6967.3934843884
 21
4379.7721153846
 31
0.0
  0
LINE
  5
188
330
1F
100
AcDbEntity
  8
0
  6
Continuous
 62
     7
370
    25
100
AcDbLine
 10
6062.7934843884
 20
4237.3721153846
 30
0.0
 11
6967.3934843884
 21
4237.3721153846
 31
0.0
  0
LINE
  5
189
330
1F
100
AcDbEntity
  8
0
  6
Continuous
 62
     7
370
    25
100
AcDbLine
 10
6062.7934843884
 20
4379.7721153846
 30
0.0
 11
6062.7934843884
 21
4237.3721153846
 31
0.0
  0
CIRCLE
  5
18A
330
1F
100
AcDbEntity
  8
0
  6
Continuous
 62
     7
370
    25
100
AcDbCircle
 10
6917.3934843884
 20
4368.0520612701
 30
0.0
 40
4.25
  0
CIRCLE
  5
18B
330
1F
100
AcDbEntity
  8
0
  6
Continuous
 62
     7
370
    25
100
AcDbCircle
 10
6112.7934843884
 20
4368.0520612701
 30
0.0
 40
4.25
  0
LINE
  5
18C
330
1F
100
AcDbEntity
  8
0
  6
Continuous
 62
     7
370
    25
100
AcDbLine
 10
6907.3934843884
 20
4234.5916319333
 30
0.0
 11
6927.3934843884
 21
4234.5916319333
 31
0.0
  0
LINE
  5
18D
330
1F
100
AcDbEntity
  8
0
  6
Continuous
 62
     7
370
    25
100
AcDbLine
 10
6907.3934843884
 20
4237.3721153846
 30
0.0
 11
6907.3934843884
 21
4234.5916319333
 31
0.0
  0
LINE
  5
18E
330
1F
100
AcDbEntity
  8
0
  6
Continuous
 62
     7
370
    25
100
AcDbLine
 10
6927.3934843884
 20
4237.3721153846
 30
0.0
 11
6927.3934843884
 21
4234.5916319333
 31
0.0
  0
LINE
  5
18F
330
1F
100
AcDbEntity
  8
0
  6
Continuous
 62
     7
370
    25
100
AcDbLine
 10
6122.7934843884
 20
4234.5916319333
 30
0.0
 11
6102.7934843884
 21
4234.5916319333
 31
0.0
  0
LINE
  5
190
330
1F
100
AcDbEntity
  8
0
  6
Continuous
 62
     7
370
    25
100
AcDbLine
 10
6102.7934843884
 20
4237.3721153846
 30
0.0
 11
6102.7934843884
 21
4234.5916319333
 31
0.0
  0
LINE
  5
191
330
1F
100
AcDbEntity
  8
0
  6
Continuous
 62
     7
370
    25
100
AcDbLine
 10
6122.7934843884
 20
4237.3721153846
 30
0.0
 11
6122.7934843884
 21
4234.5916319333
 31
0.0
  0
LINE
  5
192
330
1F
100
AcDbEntity
  8
0
  6
Continuous
 62
     7
370
    25
100
AcDbLine
 10
6121.2934843884
 20
4216.6646380965
 30
0.0
 11
6112.7934843884
 21
4211.7571608084
 31
0.0
  0
LINE
  5
193
330
1F
100
AcDbEntity
  8
0
  6
Continuous
 62
     7
370
    25
100
AcDbLine
 10
6112.7934843884
 20
4211.7571608084
 30
0.0
 11
6104.2934843884
 21
4216.6646380965
 31
0.0
  0
LINE
  5
194
330
1F
100
AcDbEntity
  8
0
  6
Continuous
 62
     7
370
    25
100
AcDbLine
 10
6104.2934843884
 20
4216.6646380965
 30
0.0
 11
6104.2934843884
 21
4226.4795926727
 31
0.0
  0
LINE
  5
195
330
1F
100
AcDbEntity
  8
0
  6
Continuous
 62
     7
370
    25
100
AcDbLine
 10
6104.2934843884
 20
4226.4795926727
 30
0.0
 11
6112.7934843884
 21
4231.3870699608
 31
0.0
  0
LINE
  5
196
330
1F
100
AcDbEntity
  8
0
  6
Continuous
 62
     7
370
    25
100
AcDbLine
 10
6112.7934843884
 20
4231.3870699608
 30
0.0
 11
6121.2934843884
 21
4226.4795926727
 31
0.0
  0
LINE
  5
197
330
1F
100
AcDbEntity
  8
0
  6
Continuous
 62
     7
370
    25
100
AcDbLine
 10
6121.2934843884
 20
4226.4795926727
 30
0.0
 11
6121.2934843884
 21
4216.6646380965
 31
0.0
  0
LINE
  5
198
330
1F
100
AcDbEntity
  8
0
  6
Continuous
 62
     7
370
    25
100
AcDbLine
 10
6917.3934843884
 20
4231.3870699608
 30
0.0
 11
6908.8934843884
 21
4226.4795926727
 31
0.0
  0
LINE
  5
199
330
1F
100
AcDbEntity
  8
0
  6
Continuous
 62
     7
370
    25
100
AcDbLine
 10
6925.8934843884
 20
4216.6646380965
 30
0.0
 11
6925.8934843884
 21
4226.4795926727
 31
0.0
  0
LINE
  5
19A
330
1F
100
AcDbEntity
  8
0
  6
Continuous
 62
     7
370
    25
100
AcDbLine
 10
6917.3934843884
 20
4211.7571608084
 30
0.0
 11
6925.8934843884
 21
4216.6646380965
 31
0.0
  0
LINE
  5
19B
330
1F
100
AcDbEntity
  8
0
  6
Continuous
 62
     7
370
    25
100
AcDbLine
 10
6908.8934843884
 20
4216.6646380965
 30
0.0
 11
6917.3934843884
 21
4211.7571608084
 31
0.0
  0
LINE
  5
19C
330
1F
100
AcDbEntity
  8
0
  6
Continuous
 62
     7
370
    25
100
AcDbLine
 10
6908.8934843884
 20
4226.4795926727
 30
0.0
 11
6908.8934843884
 21
4216.6646380965
 31
0.0
  0
LINE
  5
19D
330
1F
100
AcDbEntity
  8
0
  6
Continuous
 62
     7
370
    25
100
AcDbLine
 10
6925.8934843884
 20
4226.4795926727
 30
0.0
 11
6917.3934843884
 21
4231.3870699608
 31
0.0
  0
LINE
  5
19E
330
1F
100
AcDbEntity
  8
0
  6
Continuous
 62
     7
370
    25
100
AcDbLine
 10
6907.3934843884
 20
4233.9303233719
 30
0.0
 11
6927.3934843884
 21
4233.9303233719
 31
0.0
  0
LINE
  5
19F
330
1F
100
AcDbEntity
  8
0
  6
Continuous
 62
     7
370
    25
100
AcDbLine
 10
6907.3934843884
 20
4234.5916319333
 30
0.0
 11
6907.3934843884
 21
4233.9303233719
 31
0.0
  0
LINE
  5
1A0
330
1F
100
AcDbEntity
  8
0
  6
Continuous
 62
     7
370
    25
100
AcDbLine
 10
6927.3934843884
 20
4234.5916319333
 30
0.0
 11
6927.3934843884
 21
4233.9303233719
 31
0.0
  0
LINE
  5
1A1
330
1F
100
AcDbEntity
  8
0
  6
Continuous
 62
     7
370
    25
100
AcDbLine
 10
6122.7934843884
 20
4233.9303233719
 30
0.0
 11
6102.7934843884
 21
4233.9303233719
 31
0.0
  0
LINE
  5
1A2
330
1F
100
AcDbEntity
  8
0
  6
Continuous
 62
     7
370
    25
100
AcDbLine
 10
6102.7934843884
 20
4234.5916319333
 30
0.0
 11
6102.7934843884
 21
4233.9303233719
 31
0.0
  0
LINE
  5
1A3
330
1F
100
AcDbEntity
  8
0
  6
Continuous
 62
     7
370
    25
100
AcDbLine
 10
6122.7934843884
 20
4234.5916319333
 30
0.0
 11
6122.7934843884
 21
4233.9303233719
 31
0.0
  0
LINE
  5
1A4
330
1F
100
AcDbEntity
  8
0
  6
Continuous
 62
     7
370
    25
100
AcDbLine
 10
6919.4254615539
 20
4212.9303233719
 30
0.0
 11
6927.3934843884
 21
4212.9303233719
 31
0.0
  0
LINE
  5
1A5
330
1F
100
AcDbEntity
  8
0
  6
Continuous
 62
     7
370
    25
100
AcDbLine
 10
6907.3934843884
 20
4212.9303233719
 30
0.0
 11
6915.3615072229
 21
4212.9303233719
 31
0.0
  0
LINE
  5
1A6
330
1F
100
AcDbEntity
  8
0
  6
Continuous
 62
     7
370
    25
100
AcDbLine
 10
6907.3934843884
 20
4233.9303233719
 30
0.0
 11
6907.3934843884
 21
4212.9303233719
 31
0.0
  0
LINE
  5
1A7
330
1F
100
AcDbEntity
  8
0
  6
Continuous
 62
     7
370
    25
100
AcDbLine
 10
6927.3934843884
 20
4233.9303233719
 30
0.0
 11
6927.3934843884
 21
4212.9303233719
 31
0.0
  0
LINE
  5
1A8
330
1F
100
AcDbEntity
  8
0
  6
Continuous
 62
     7
370
    25
100
AcDbLine
 10
6122.7934843884
 20
4212.9303233719
 30
0.0
 11
6114.8254615539
 21
4212.9303233719
 31
0.0
  0
LINE
  5
1A9
330
1F
100
AcDbEntity
  8
0
  6
Continuous
 62
     7
370
    25
100
AcDbLine
 10
6110.7615072229
 20
4212.9303233719
 30
0.0
 11
6102.7934843884
 21
4212.9303233719
 31
0.0
  0
LINE
  5
1AA
330
1F
100
AcDbEntity
  8
0
  6
Continuous
 62
     7
370
    25
100
AcDbLine
 10
6102.7934843884
 20
4233.9303233719
 30
0.0
 11
6102.7934843884
 21
4212.9303233719
 31
0.0
  0
LINE
  5
1AB
330
1F
100
AcDbEntity
  8
0
  6
Continuous
 62
     7
370
    25
100
AcDbLine
 10
6122.7934843884
 20
4233.9303233719
 30
0.0
 11
6122.7934843884
 21
4212.9303233719
 31
0.0
  0
LINE
  5
1AC
330
1F
100
AcDbEntity
  8
0
  6
Continuous
 62
     7
370
    25
100
AcDbLine
 10
6532.2928031598
 20
4308.5721153846
 30
0.0
 11
6532.2928031598
 21
4312.0721153846
 31
0.0
  0
ARC
  5
1AD
330
1F
100
AcDbEntity
  8
0
  6
Continuous
 62
     7
370
    25
100
AcDbCircle
 10
6532.2928031598
 20
4311.3721153846
 30
0.0
 40
0.6999999999998181
100
AcDbArc
 50
0.0
 51
90.0
  0
LINE
  5
1AE
330
1F
100
AcDbEntity
  8
0
  6
Continuous
 62
     7
370
    25
100
AcDbLine
 10
6532.9928031598
 20
4311.3721153846
 30
0.0
 11
6532.9928031598
 21
4308.5721153846
 31
0.0
  0
LINE
  5
1AF
330
1F
100
AcDbEntity
  8
0
  6
Continuous
 62
     7
370
    25
100
AcDbLine
 10
6532.2928031598
 20
4308.5721153846
 30
0.0
 11
6532.9928031598
 21
4308.5721153846
 31
0.0
  0
LINE
  5
1B0
330
1F
100
AcDbEntity
  8
0
  6
Continuous
 62
     7
370
    25
100
AcDbLine
 10
6497.8934843884
 20
4312.0721153846
 30
0.0
 11
6497.8934843884
 21
4308.5721153846
 31
0.0
  0
LINE
  5
1B1
330
1F
100
AcDbEntity
  8
0
  6
Continuous
 62
     7
370
    25
100
AcDbLine
 10
6497.8934843884
 20
4308.5721153846
 30
0.0
 11
6497.1934843884
 21
4308.5721153846
 31
0.0
  0
LINE
  5
1B2
330
1F
100
AcDbEntity
  8
0
  6
Continuous
 62
     7
370
    25
100
AcDbLine
 10
6497.1934843884
 20
4308.5721153846
 30
0.0
 11
6497.1934843884
 21
4311.3721153846
 31
0.0
  0
ARC
  5
1B3
330
1F
100
AcDbEntity
  8
0
  6
Continuous
 62
     7
370
    25
100
AcDbCircle
 10
6497.8934843884
 20
4311.3721153846
 30
0.0
 40
0.7000000000007276
100
AcDbArc
 50
90.0
 51
180.0
  0
LINE
  5
1B4
330
1F
100
AcDbEntity
  8
0
  6
Continuous
 62
     7
370
    25
100
AcDbLine
 10
6500.6934843884
 20
4308.5721153846
 30
0.0
 11
6500.6934843884
 21
4312.0721153846
 31
0.0
  0
ARC
  5
1B5
330
1F
100
AcDbEntity
  8
0
  6
Continuous
 62
     7
370
    25
100
AcDbCircle
 10
6500.6934843884
 20
4311.3721153846
 30
0.0
 40
0.7000000000007276
100
AcDbArc
 50
0.0
 51
90.0
  0
LINE
  5
1B6
330
1F
100
AcDbEntity
  8
0
  6
Continuous
 62
     7
370
    25
100
AcDbLine
 10
6501.3934843884
 20
4311.3721153846
 30
0.0
 11
6501.3934843884
 21
4308.5721153846
 31
0.0
  0
LINE
  5
1B7
330
1F
100
AcDbEntity
  8
0
  6
Continuous
 62
     7
370
    25
100
AcDbLine
 10
6501.3934843884
 20
4308.5721153846
 30
0.0
 11
6500.6934843884
 21
4308.5721153846
 31
0.0
  0
LINE
  5
1B8
330
1F
100
AcDbEntity
  8
0
  6
Continuous
 62
     7
370
    25
100
AcDbLine
 10
6497.8934843884
 20
4312.0721153846
 30
0.0
 11
6500.6934843884
 21
4312.0721153846
 31
0.0
  0
LINE
  5
1B9
330
1F
100
AcDbEntity
  8
0
  6
Continuous
 62
     7
370
    25
100
AcDbLine
 10
6497.8934843884
 20
4308.5721153846
 30
0.0
 11
6500.6934843884
 21
4308.5721153846
 31
0.0
  0
LINE
  5
1BA
330
1F
100
AcDbEntity
  8
0
  6
Continuous
 62
     7
370
    25
100
AcDbLine
 10
6529.4928031598
 20
4308.5721153846
 30
0.0
 11
6532.2928031598
 21
4308.5721153846
 31
0.0
  0
LINE
  5
1BB
330
1F
100
AcDbEntity
  8
0
  6
Continuous
 62
     7
370
    25
100
AcDbLine
 10
6529.4928031598
 20
4312.0721153846
 30
0.0
 11
6529.4928031598
 21
4308.5721153846
 31
0.0
  0
LINE
  5
1BC
330
1F
100
AcDbEntity
  8
0
  6
Continuous
 62
     7
370
    25
100
AcDbLine
 10
6529.4928031598
 20
4312.0721153846
 30
0.0
 11
6532.2928031598
 21
4312.0721153846
 31
0.0
  0
LINE
  5
1BD
330
1F
100
AcDbEntity
  8
0
  6
Continuous
 62
     7
370
    25
100
AcDbLine
 10
6528.7928031598
 20
4308.5721153846
 30
0.0
 11
6528.7928031598
 21
4311.3721153846
 31
0.0
  0
ARC
  5
1BE
330
1F
100
AcDbEntity
  8
0
  6
Continuous
 62
     7
370
    25
100
AcDbCircle
 10
6529.4928031598
 20
4311.3721153846
 30
0.0
 40
0.6999999999998181
100
AcDbArc
 50
90.0
 51
180.0
  0
LINE
  5
1BF
330
1F
100
AcDbEntity
  8
0
  6
Continuous
 62
     7
370
    25
100
AcDbLine
 10
6529.4928031598
 20
4308.5721153846
 30
0.0
 11
6528.7928031598
 21
4308.5721153846
 31
0.0
  0
LINE
  5
1C0
330
1F
100
AcDbEntity
  8
0
  6
Continuous
 62
     7
370
    25
100
AcDbLine
 10
6497.8934843884
 20
4308.5721153846
 30
0.0
 11
6497.8934843884
 21
4305.0721153846
 31
0.0
  0
LINE
  5
1C1
330
1F
100
AcDbEntity
  8
0
  6
Continuous
 62
     7
370
    25
100
AcDbLine
 10
6500.6934843884
 20
4305.0721153846
 30
0.0
 11
6500.6934843884
 21
4308.5721153846
 31
0.0
  0
LINE
  5
1C2
330
1F
100
AcDbEntity
  8
0
  6
Continuous
 62
     7
370
    25
100
AcDbLine
 10
6500.6934843884
 20
4305.0721153846
 30
0.0
 11
6497.8934843884
 21
4305.0721153846
 31
0.0
  0
LINE
  5
1C3
330
1F
100
AcDbEntity
  8
0
  6
Continuous
 62
     7
370
    25
100
AcDbLine
 10
6532.2928031598
 20
4305.0721153846
 30
0.0
 11
6532.2928031598
 21
4308.5721153846
 31
0.0
  0
LINE
  5
1C4
330
1F
100
AcDbEntity
  8
0
  6
Continuous
 62
     7
370
    25
100
AcDbLine
 10
6532.2928031598
 20
4305.0721153846
 30
0.0
 11
6529.4928031598
 21
4305.0721153846
 31
0.0
  0
LINE
  5
1C5
330
1F
100
AcDbEntity
  8
0
  6
Continuous
 62
     7
370
    25
100
AcDbLine
 10
6529.4928031598
 20
4308.5721153846
 30
0.0
 11
6529.4928031598
 21
4305.0721153846
 31
0.0
  0
LINE
  5
1C6
330
1F
100
AcDbEntity
  8
0
  6
Continuous
 62
     7
370
    25
100
AcDbLine
 10
6532.9928031598
 20
4308.5721153846
 30
0.0
 11
6532.9928031598
 21
4305.7721153846
 31
0.0
  0
ARC
  5
1C7
330
1F
100
AcDbEntity
  8
0
  6
Continuous
 62
     7
370
    25
100
AcDbCircle
 10
6532.2928031598
 20
4305.7721153846
 30
0.0
 40
0.6999999999998181
100
AcDbArc
 50
270.0
 51
0.0
  0
ARC
  5
1C8
330
1F
100
AcDbEntity
  8
0
  6
Continuous
 62
     7
370
    25
100
AcDbCircle
 10
6529.4928031598
 20
4305.7721153846
 30
0.0
 40
0.6999999999998181
100
AcDbArc
 50
180.0
 51
270.0
  0
LINE
  5
1C9
330
1F
100
AcDbEntity
  8
0
  6
Continuous
 62
     7
370
    25
100
AcDbLine
 10
6528.7928031598
 20
4305.7721153846
 30
0.0
 11
6528.7928031598
 21
4308.5721153846
 31
0.0
  0
LINE
  5
1CA
330
1F
100
AcDbEntity
  8
0
  6
Continuous
 62
     7
370
    25
100
AcDbLine
 10
6501.3934843884
 20
4308.5721153846
 30
0.0
 11
6501.3934843884
 21
4305.7721153846
 31
0.0
  0
ARC
  5
1CB
330
1F
100
AcDbEntity
  8
0
  6
Continuous
 62
     7
370
    25
100
AcDbCircle
 10
6500.6934843884
 20
4305.7721153846
 30
0.0
 40
0.7000000000007276
100
AcDbArc
 50
270.0
 51
0.0
  0
ARC
  5
1CC
330
1F
100
AcDbEntity
  8
0
  6
Continuous
 62
     7
370
    25
100
AcDbCircle
 10
6497.8934843884
 20
4305.7721153846
 30
0.0
 40
0.7000000000007276
100
AcDbArc
 50
180.0
 51
270.0
  0
LINE
  5
1CD
330
1F
100
AcDbEntity
  8
0
  6
Continuous
 62
     7
370
    25
100
AcDbLine
 10
6497.1934843884
 20
4305.7721153846
 30
0.0
 11
6497.1934843884
 21
4308.5721153846
 31
0.0
  0
LINE
  5
1CE
330
1F
100
AcDbEntity
  8
0
  6
Continuous
 62
     7
370
    25
100
AcDbLine
 10
6501.5211298102
 20
4309.5221153846
 30
0.0
 11
6501.5211298102
 21
4307.6221153846
 31
0.0
  0
LINE
  5
1CF
330
1F
100
AcDbEntity
  8
0
  6
Continuous
 62
     7
370
    25
100
AcDbLine
 10
6528.6658389666
 20
4309.5221153846
 30
0.0
 11
6528.6658389666
 21
4307.6221153846
 31
0.0
  0
LINE
  5
1D0
330
1F
100
AcDbEntity
  8
0
  6
Continuous
 62
     7
370
    25
100
AcDbLine
 10
6497.1934843884
 20
4305.7721153846
 30
0.0
 11
6496.4934843884
 21
4305.7721153846
 31
0.0
  0
LINE
  5
1D1
330
1F
100
AcDbEntity
  8
0
  6
Continuous
 62
     7
370
    25
100
AcDbLine
 10
6532.9928031598
 20
4305.7721153846
 30
0.0
 11
6533.6928031598
 21
4305.7721153846
 31
0.0
  0
LINE
  5
1D2
330
1F
100
AcDbEntity
  8
0
  6
Continuous
 62
     7
370
    25
100
AcDbLine
 10
6532.2928031598
 20
4305.0721153846
 30
0.0
 11
6532.2928031598
 21
4304.3721153846
 31
0.0
  0
LINE
  5
1D3
330
1F
100
AcDbEntity
  8
0
  6
Continuous
 62
     7
370
    25
100
AcDbLine
 10
6532.2928031598
 20
4304.3721153846
 30
0.0
 11
6530.8204681887
 21
4304.3721153846
 31
0.0
  0
ARC
  5
1D4
330
1F
100
AcDbEntity
  8
0
  6
Continuous
 62
     7
370
    25
100
AcDbCircle
 10
6526.0328598384
 20
4305.8200597897
 30
0.0
 40
5.001773357127567
100
AcDbArc
 50
343.1728014177
 51
351.3999709403
  0
LINE
  5
1D5
330
1F
100
AcDbEntity
  8
0
  6
Continuous
 62
     7
370
    25
100
AcDbLine
 10
6497.8934843884
 20
4312.0721153846
 30
0.0
 11
6497.8934843884
 21
4312.7721153846
 31
0.0
  0
LINE
  5
1D6
330
1F
100
AcDbEntity
  8
0
  6
Continuous
 62
     7
370
    25
100
AcDbLine
 10
6497.8934843884
 20
4312.7721153846
 30
0.0
 11
6498.9435376352
 21
4312.7721153846
 31
0.0
  0
ARC
  5
1D7
330
1F
100
AcDbEntity
  8
0
  6
Continuous
 62
     7
370
    25
100
AcDbCircle
 10
6513.6189465905
 20
4309.7833309663
 30
0.0
 40
14.9766638577079
100
AcDbArc
 50
168.4886082318
 51
171.2094187133
  0
LINE
  5
1D8
330
1F
100
AcDbEntity
  8
0
  6
Continuous
 62
     7
370
    25
100
AcDbLine
 10
6499.2066464471
 20
4304.3721153846
 30
0.0
 11
6497.8934843884
 21
4304.3721153846
 31
0.0
  0
LINE
  5
1D9
330
1F
100
AcDbEntity
  8
0
  6
Continuous
 62
     7
370
    25
100
AcDbLine
 10
6497.8934843884
 20
4305.0721153846
 30
0.0
 11
6497.8934843884
 21
4304.3721153846
 31
0.0
  0
ARC
  5
1DA
330
1F
100
AcDbEntity
  8
0
  6
Continuous
 62
     7
370
    25
100
AcDbCircle
 10
6513.4884888454
 20
4308.498689291
 30
0.0
 40
14.86605645400632
100
AcDbArc
 50
193.3263042332
 51
196.1160409619
  0
LINE
  5
1DB
330
1F
100
AcDbEntity
  8
0
  6
Continuous
 62
     7
370
    25
100
AcDbLine
 10
6530.8204681887
 20
4312.7721153846
 30
0.0
 11
6532.2928031598
 21
4312.7721153846
 31
0.0
  0
LINE
  5
1DC
330
1F
100
AcDbEntity
  8
0
  6
Continuous
 62
     7
370
    25
100
AcDbLine
 10
6532.2928031598
 20
4312.0721153846
 30
0.0
 11
6532.2928031598
 21
4312.7721153846
 31
0.0
  0
ARC
  5
1DD
330
1F
100
AcDbEntity
  8
0
  6
Continuous
 62
     7
370
    25
100
AcDbCircle
 10
6524.7118414039
 20
4311.0261367771
 30
0.0
 40
6.353248184496417
100
AcDbArc
 50
9.476137532
 51
15.95109011
  0
ARC
  5
1DE
330
1F
100
AcDbEntity
  8
0
  6
Continuous
 62
     7
370
    25
100
AcDbCircle
 10
6497.8934843884
 20
4305.7721153846
 30
0.0
 40
1.400000000000546
100
AcDbArc
 50
180.0
 51
270.0
  0
ARC
  5
1DF
330
1F
100
AcDbEntity
  8
0
  6
Continuous
 62
     7
370
    25
100
AcDbCircle
 10
6532.2928031598
 20
4305.7721153846
 30
0.0
 40
1.400000000000546
100
AcDbArc
 50
270.0
 51
0.0
  0
ARC
  5
1E0
330
1F
100
AcDbEntity
  8
0
  6
Continuous
 62
     7
370
    25
100
AcDbCircle
 10
6515.0934843884
 20
4308.5721153846
 30
0.0
 40
19.94999999999982
100
AcDbArc
 50
270.0
 51
1.3083677853
  0
ARC
  5
1E1
330
1F
100
AcDbEntity
  8
0
  6
Continuous
 62
     7
370
    25
100
AcDbCircle
 10
6515.0934843884
 20
4308.5721153846
 30
0.0
 40
19.94999999999982
100
AcDbArc
 50
178.6916322147
 51
270.0
  0
ARC
  5
1E2
330
1F
100
AcDbEntity
  8
0
  6
Continuous
 62
     7
370
    25
100
AcDbCircle
 10
6509.3448454623
 20
4321.516183611
 30
0.0
 40
2.114962488157388
100
AcDbArc
 50
113.9466658893
 51
122.6187463668
  0
ARC
  5
1E3
330
1F
100
AcDbEntity
  8
0
  6
Continuous
 62
     7
370
    25
100
AcDbCircle
 10
6509.3448454623
 20
4295.6280471582
 30
0.0
 40
2.114962488158216
100
AcDbArc
 50
236.8243605215
 51
246.0533341107
  0
ARC
  5
1E4
330
1F
100
AcDbEntity
  8
0
  6
Continuous
 62
     7
370
    25
100
AcDbCircle
 10
6515.4837882646
 20
4309.1826965233
 30
0.0
 40
16.97312689633971
100
AcDbArc
 50
196.4646299597
 51
244.5405854637
  0
ARC
  5
1E5
330
1F
100
AcDbEntity
  8
0
  6
Continuous
 62
     7
370
    25
100
AcDbCircle
 10
6514.1688614102
 20
4308.7126626094
 30
0.0
 40
15.75720917196116
100
AcDbArc
 50
112.2407026115
 51
165.0708087807
  0
ARC
  5
1E6
330
1F
100
AcDbEntity
  8
0
  6
Continuous
 62
     7
370
    25
100
AcDbCircle
 10
6515.0934843884
 20
4308.5721153846
 30
0.0
 40
16.2781454550256
100
AcDbArc
 50
14.95229104
 51
113.9466658893
  0
ARC
  5
1E7
330
1F
100
AcDbEntity
  8
0
  6
Continuous
 62
     7
370
    25
100
AcDbCircle
 10
6515.0934843884
 20
4308.5721153846
 30
0.0
 40
16.27814545502477
100
AcDbArc
 50
246.0533341107
 51
345.04770896
  0
LINE
  5
1E8
330
1F
100
AcDbEntity
  8
0
  6
Continuous
 62
     7
370
    25
100
AcDbLine
 10
6498.943537635
 20
4312.7721153839
 30
0.0
 11
6500.220571243
 21
4312.7721153846
 31
0.0
  0
ARC
  5
1E9
330
1F
100
AcDbEntity
  8
0
  6
Continuous
 62
     7
370
    25
100
AcDbCircle
 10
6500.8342888678
 20
4312.6769892571
 30
0.0
 40
0.621046136027717
100
AcDbArc
 50
171.1892765272
 51
256.8958738099
  0
ARC
  5
1EA
330
1F
100
AcDbEntity
  8
0
  6
Continuous
 62
     7
370
    25
100
AcDbCircle
 10
6500.8342888678
 20
4304.4672415121
 30
0.0
 40
0.621046136028224
100
AcDbArc
 50
103.1041261901
 51
188.8107234727
  0
LINE
  5
1EB
330
1F
100
AcDbEntity
  8
0
  6
Continuous
 62
     7
370
    25
100
AcDbLine
 10
6500.220571243
 20
4304.3721153846
 30
0.0
 11
6499.2066464471
 21
4304.3721153846
 31
0.0
  0
LINE
  5
1EC
330
1F
100
AcDbEntity
  8
0
  6
Continuous
 62
     7
370
    25
100
AcDbLine
 10
6501.620571243
 20
4311.3721153846
 30
0.0
 11
6501.620571243
 21
4305.7721153846
 31
0.0
  0
ARC
  5
1ED
330
1F
100
AcDbEntity
  8
0
  6
Continuous
 62
     7
370
    25
100
AcDbCircle
 10
6500.220571243
 20
4311.3721153846
 30
0.0
 40
1.400000000000546
100
AcDbArc
 50
0.0
 51
90.0
  0
ELLIPSE
  5
1EE
330
1F
100
AcDbEntity
  8
0
  6
Continuous
 62
     7
370
    25
100
AcDbEllipse
 10
6512.8416678208
 20
4321.516183611
 30
0.0
 11
7.431956459165121
 21
0.0
 31
0.0
210
0.0
220
0.0
230
1.0
 40
0.9998720779
 41
3.118775151141921
 42
4.18784238573856
  0
ELLIPSE
  5
1EF
330
1F
100
AcDbEntity
  8
0
  6
Continuous
 62
     7
370
    25
100
AcDbEllipse
 10
6505.3510811935
 20
4308.5721153846
 30
0.0
 11
7.524669661682309
 21
0.0
 31
0.0
210
0.0
220
0.0
230
1.0
 40
0.9998720779
 41
5.236935575030772
 42
7.329435039328414
  0
ELLIPSE
  5
1F0
330
1F
100
AcDbEntity
  8
0
  6
Continuous
 62
     7
370
    25
100
AcDbEllipse
 10
6512.8416678208
 20
4295.6280471582
 30
0.0
 11
7.431956459165121
 21
0.0
 31
0.0
210
0.0
220
0.0
230
1.0
 40
0.9998720779
 41
2.095342921441101
 42
3.159634691503422
  0
ARC
  5
1F1
330
1F
100
AcDbEntity
  8
0
  6
Continuous
 62
     7
370
    25
100
AcDbCircle
 10
6500.220571243
 20
4305.7721153846
 30
0.0
 40
1.400000000000546
100
AcDbArc
 50
270.0
 51
0.0
  0
LINE
  5
1F2
330
1F
100
AcDbEntity
  8
0
  6
Continuous
 62
     7
370
    25
100
AcDbLine
 10
6501.620571243
 20
4311.3721153846
 30
0.0
 11
6501.3934843884
 21
4311.3721153846
 31
0.0
  0
LINE
  5
1F3
330
1F
100
AcDbEntity
  8
0
  6
Continuous
 62
     7
370
    25
100
AcDbLine
 10
6501.620571243
 20
4305.7721153846
 30
0.0
 11
6501.3934843884
 21
4305.7721153846
 31
0.0
  0
ARC
  5
1F4
330
1F
100
AcDbEntity
  8
0
  6
Continuous
 62
     7
370
    25
100
AcDbCircle
 10
6505.9146907718
 20
4316.6783722749
 30
0.0
 40
3.5794624950016
100
AcDbArc
 50
333.554439929
 51
50.6354567783
  0
ARC
  5
1F5
330
1F
100
AcDbEntity
  8
0
  6
Continuous
 62
     7
370
    25
100
AcDbCircle
 10
6509.4653886362
 20
4321.5162414404
 30
0.0
 40
2.434420996737086
100
AcDbArc
 50
143.877510115
 51
238.2668902283
  0
ARC
  5
1F6
330
1F
100
AcDbEntity
  8
0
  6
Continuous
 62
     7
370
    25
100
AcDbCircle
 10
6505.9146907718
 20
4300.4658584943
 30
0.0
 40
3.579462495000376
100
AcDbArc
 50
309.3645432217
 51
26.4455600711
  0
ARC
  5
1F7
330
1F
100
AcDbEntity
  8
0
  6
Continuous
 62
     7
370
    25
100
AcDbCircle
 10
6509.465439685
 20
4295.6279793241
 30
0.0
 40
2.434456355961517
100
AcDbArc
 50
121.73400777
 51
216.0920467522
  0
ARC
  5
1F8
330
1F
100
AcDbEntity
  8
0
  6
Continuous
 62
     7
370
    25
100
AcDbCircle
 10
6501.9749566342
 20
4308.5721153846
 30
0.0
 40
12.52198860922611
100
AcDbArc
 50
299.7310219646
 51
60.2689780354
  0
CIRCLE
  5
1F9
330
1F
100
AcDbEntity
  8
0
  6
Continuous
 62
     7
370
    25
100
AcDbCircle
 10
6515.0934843884
 20
4308.5721153846
 30
0.0
 40
20.10000000000036
  0
ARC
  5
1FA
330
1F
100
AcDbEntity
  8
0
  6
Continuous
 62
     7
370
    25
100
AcDbCircle
 10
6515.0934843884
 20
4308.5721153846
 30
0.0
 40
25.55435605731859
100
AcDbArc
 50
4.3156322274
 51
85.6843677726
  0
ARC
  5
1FB
330
1F
100
AcDbEntity
  8
0
  6
Continuous
 62
     7
370
    25
100
AcDbCircle
 10
6542.0934843884
 20
4308.5721153846
 30
0.0
 40
2.45000000000049
100
AcDbArc
 50
128.2893063631
 51
231.7106936369
  0
ARC
  5
1FC
330
1F
100
AcDbEntity
  8
0
  6
Continuous
 62
     7
370
    25
100
AcDbCircle
 10
6515.0934843884
 20
4308.5721153846
 30
0.0
 40
25.55435605731768
100
AcDbArc
 50
274.3156322274
 51
355.6843677726
  0
ARC
  5
1FD
330
1F
100
AcDbEntity
  8
0
  6
Continuous
 62
     7
370
    25
100
AcDbCircle
 10
6515.0934843884
 20
4281.5721153846
 30
0.0
 40
2.450000000002331
100
AcDbArc
 50
38.2893063631
 51
141.7106936368
  0
ARC
  5
1FE
330
1F
100
AcDbEntity
  8
0
  6
Continuous
 62
     7
370
    25
100
AcDbCircle
 10
6515.0934843884
 20
4308.5721153846
 30
0.0
 40
25.55435605731768
100
AcDbArc
 50
184.3156322274
 51
265.6843677726
  0
ARC
  5
1FF
330
1F
100
AcDbEntity
  8
0
  6
Continuous
 62
     7
370
    25
100
AcDbCircle
 10
6488.0934843884
 20
4308.5721153846
 30
0.0
 40
2.449999999999212
100
AcDbArc
 50
308.2893063631
 51
51.7106936369
  0
ARC
  5
200
330
1F
100
AcDbEntity
  8
0
  6
Continuous
 62
     7
370
    25
100
AcDbCircle
 10
6515.0934843884
 20
4308.5721153846
 30
0.0
 40
25.55435605731859
100
AcDbArc
 50
94.3156322274
 51
175.6843677726
  0
ARC
  5
201
330
1F
100
AcDbEntity
  8
0
  6
Continuous
 62
     7
370
    25
100
AcDbCircle
 10
6515.0934843884
 20
4335.5721153846
 30
0.0
 40
2.450000000002894
100
AcDbArc
 50
218.2893063632
 51
321.7106936368
  0
CIRCLE
  5
202
330
1F
100
AcDbEntity
  8
0
  6
Continuous
 62
     7
370
    25
100
AcDbCircle
 10
6515.0934843884
 20
4308.5721153846
 30
0.0
 40
34.90000000000055
  0
ARC
  5
203
330
1F
100
AcDbEntity
  8
0
  6
Continuous
 62
     7
370
    25
100
AcDbCircle
 10
6515.0934843884
 20
4281.5721153846
 30
0.0
 40
2.45000000000049
100
AcDbArc
 50
141.7106936369
 51
38.2893063631
  0
ARC
  5
204
330
1F
100
AcDbEntity
  8
0
  6
Continuous
 62
     7
370
    25
100
AcDbCircle
 10
6542.0934843884
 20
4308.5721153846
 30
0.0
 40
2.45000000000049
100
AcDbArc
 50
231.7106936369
 51
128.2893063631
  0
ARC
  5
205
330
1F
100
AcDbEntity
  8
0
  6
Continuous
 62
     7
370
    25
100
AcDbCircle
 10
6488.0934843884
 20
4308.5721153846
 30
0.0
 40
2.449999999999776
100
AcDbArc
 50
51.7106936369
 51
308.2893063631
  0
ARC
  5
206
330
1F
100
AcDbEntity
  8
0
  6
Continuous
 62
     7
370
    25
100
AcDbCircle
 10
6515.0934843884
 20
4335.5721153846
 30
0.0
 40
2.45000000000049
100
AcDbArc
 50
321.7106936369
 51
218.2893063631
  0
ELLIPSE
  5
207
330
1F
100
AcDbEntity
  8
0
  6
Continuous
 62
     7
370
    25
100
AcDbEllipse
 10
6446.5110959185
 20
4301.0194893826
 30
0.0
 11
198.0
 21
0.0
 31
0.0
210
0.0
220
0.0
230
1.0
 40
0.0261859216
 41
4.982746857090145
 42
4.983749892019237
  0
LINE
  5
208
330
1F
100
AcDbEntity
  8
0
  6
Continuous
 62
     7
370
    25
100
AcDbLine
 10
6507.198958139
 20
4320.3344433847
 30
0.0
 11
6508.6123102007
 21
4321.7477954464
 31
0.0
  0
ARC
  5
209
330
1F
100
AcDbEntity
  8
0
  6
Continuous
 62
     7
370
    25
100
AcDbCircle
 10
6507.0934843884
 20
4311.9152611351
 30
0.0
 40
8.026623719119016
100
AcDbArc
 50
0.0
 51
45.0
  0
LINE
  5
20A
330
1F
100
AcDbEntity
  8
0
  6
Continuous
 62
     7
370
    25
100
AcDbLine
 10
6508.6123102007
 20
4321.7477954464
 30
0.0
 11
6512.7691644502
 21
4317.5909411969
 31
0.0
  0
LINE
  5
20B
330
1F
100
AcDbEntity
  8
0
  6
Continuous
 62
     7
370
    25
100
AcDbLine
 10
6515.1201081075
 20
4311.9152611351
 30
0.0
 11
6515.1201081075
 21
4305.2289696341
 31
0.0
  0
ARC
  5
20C
330
1F
100
AcDbEntity
  8
0
  6
Continuous
 62
     7
370
    25
100
AcDbCircle
 10
6507.0934843884
 20
4305.2289696341
 30
0.0
 40
8.02662371911963
100
AcDbArc
 50
315.0
 51
0.0
  0
LINE
  5
20D
330
1F
100
AcDbEntity
  8
0
  6
Continuous
 62
     7
370
    25
100
AcDbLine
 10
6512.7691644502
 20
4299.5532895723
 30
0.0
 11
6508.6123102007
 21
4295.3964353228
 31
0.0
  0
LINE
  5
20E
330
1F
100
AcDbEntity
  8
0
  6
Continuous
 62
     7
370
    25
100
AcDbLine
 10
6508.6123102007
 20
4295.3964353228
 30
0.0
 11
6507.198958139
 21
4296.8097873845
 31
0.0
  0
CIRCLE
  5
20F
330
1F
100
AcDbEntity
  8
0
  6
Continuous
 62
     7
370
    25
100
AcDbCircle
 10
6917.3934843884
 20
4221.5721153846
 30
0.0
 40
4.000000000000909
  0
CIRCLE
  5
210
330
1F
100
AcDbEntity
  8
0
  6
Continuous
 62
     7
370
    25
100
AcDbCircle
 10
6917.3934843884
 20
4221.5721153846
 30
0.0
 40
5.000000000000909
  0
ARC
  5
211
330
1F
100
AcDbEntity
  8
0
  6
Continuous
 62
     7
370
    25
100
AcDbCircle
 10
6112.7934843884
 20
4368.5721153846
 30
0.0
 40
4.0
100
AcDbArc
 50
270.0
 51
25.5142086023
  0
ARC
  5
212
330
1F
100
AcDbEntity
  8
0
  6
Continuous
 62
     7
370
    25
100
AcDbCircle
 10
6112.7934843884
 20
4368.5721153846
 30
0.0
 40
4.000000000000093
100
AcDbArc
 50
154.4857914025
 51
270.0
  0
CIRCLE
  5
213
330
1F
100
AcDbEntity
  8
0
  6
Continuous
 62
     7
370
    25
100
AcDbCircle
 10
6112.7934843884
 20
4221.5721153846
 30
0.0
 40
4.0
  0
CIRCLE
  5
214
330
1F
100
AcDbEntity
  8
0
  6
Continuous
 62
     7
370
    25
100
AcDbCircle
 10
6112.7934843884
 20
4221.5721153846
 30
0.0
 40
5.0
  0
LINE
  5
215
330
1F
100
AcDbEntity
  8
0
  6
Continuous
 62
     7
370
    25
100
AcDbLine
 10
6098.7934843884
 20
4206.5721153846
 30
0.0
 11
6148.7934843884
 21
4206.5721153846
 31
0.0
  0
LINE
  5
216
330
1F
100
AcDbEntity
  8
0
  6
Continuous
 62
     7
370
    25
100
AcDbLine
 10
6098.7934843884
 20
4236.5721153846
 30
0.0
 11
6098.7934843884
 21
4206.5721153846
 31
0.0
  0
LINE
  5
217
330
1F
100
AcDbEntity
  8
0
  6
Continuous
 62
     7
370
    25
100
AcDbLine
 10
6148.7934843884
 20
4206.5721153846
 30
0.0
 11
6148.7934843884
 21
4236.5721153846
 31
0.0
  0
CIRCLE
  5
218
330
1F
100
AcDbEntity
  8
0
  6
Continuous
 62
     7
370
    25
100
AcDbCircle
 10
6134.7934843884
 20
4221.5721153846
 30
0.0
 40
2.75
  0
LINE
  5
219
330
1F
100
AcDbEntity
  8
0
  6
Continuous
 62
     7
370
    25
100
AcDbLine
 10
6148.7934843884
 20
4236.5721153846
 30
0.0
 11
6122.7934843884
 21
4236.5721153846
 31
0.0
  0
LINE
  5
21A
330
1F
100
AcDbEntity
  8
0
  6
Continuous
 62
     7
370
    25
100
AcDbLine
 10
6102.7934843884
 20
4236.5721153846
 30
0.0
 11
6098.7934843884
 21
4236.5721153846
 31
0.0
  0
ARC
  5
21B
330
1F
100
AcDbEntity
  8
0
  6
Continuous
 62
     7
370
    25
100
AcDbCircle
 10
6917.3934843884
 20
4368.5721153846
 30
0.0
 40
4.000000000000093
100
AcDbArc
 50
270.0
 51
25.5142085975
  0
ARC
  5
21C
330
1F
100
AcDbEntity
  8
0
  6
Continuous
 62
     7
370
    25
100
AcDbCircle
 10
6917.3934843884
 20
4368.5721153846
 30
0.0
 40
4.000000000000897
100
AcDbArc
 50
154.4857913977
 51
270.0
  0
LINE
  5
21D
330
1F
100
AcDbEntity
  8
0
  6
Continuous
 62
     7
370
    25
100
AcDbLine
 10
6931.3934843884
 20
4383.5721153846
 30
0.0
 11
6881.3934843884
 21
4383.5721153846
 31
0.0
  0
LINE
  5
21E
330
1F
100
AcDbEntity
  8
0
  6
Continuous
 62
     7
370
    25
100
AcDbLine
 10
6931.3934843884
 20
4379.7721153846
 30
0.0
 11
6931.3934843884
 21
4383.5721153846
 31
0.0
  0
LINE
  5
21F
330
1F
100
AcDbEntity
  8
0
  6
Continuous
 62
     7
370
    25
100
AcDbLine
 10
6881.3934843884
 20
4383.5721153846
 30
0.0
 11
6881.3934843884
 21
4379.7721153846
 31
0.0
  0
LINE
  5
220
330
1F
100
AcDbEntity
  8
0
  6
Continuous
 62
     8
370
    25
100
AcDbLine
 10
6094.4934843884
 20
4359.5721153846
 30
0.0
 11
6094.4934843884
 21
4362.9721144007
 31
0.0
  0
LINE
  5
221
330
1F
100
AcDbEntity
  8
0
  6
Continuous
 62
     8
370
    25
100
AcDbLine
 10
6093.4934843884
 20
4358.5721153846
 30
0.0
 11
6090.0934843884
 21
4358.5721153846
 31
0.0
  0
LINE
  5
222
330
1F
100
AcDbEntity
  8
0
  6
Continuous
 62
     8
370
    25
100
AcDbLine
 10
6935.6934843884
 20
4359.5721153846
 30
0.0
 11
6935.6934843884
 21
4362.9721153846
 31
0.0
  0
LINE
  5
223
330
1F
100
AcDbEntity
  8
0
  6
Continuous
 62
     8
370
    25
100
AcDbLine
 10
6936.6934843884
 20
4358.5721153846
 30
0.0
 11
6940.0934843884
 21
4358.5721153846
 31
0.0
  0
LINE
  5
224
330
1F
100
AcDbEntity
  8
0
  6
Continuous
 62
     8
370
    25
100
AcDbLine
 10
6936.6934843884
 20
4258.5721153846
 30
0.0
 11
6940.0934843884
 21
4258.5721153846
 31
0.0
  0
LINE
  5
225
330
1F
100
AcDbEntity
  8
0
  6
Continuous
 62
     8
370
    25
100
AcDbLine
 10
6093.4934843884
 20
4258.5721153846
 30
0.0
 11
6090.0934843884
 21
4258.5721153846
 31
0.0
  0
LINE
  5
226
330
1F
100
AcDbEntity
  8
0
  6
Continuous
 62
     8
370
    25
100
AcDbLine
 10
6935.6934843884
 20
4257.5721153846
 30
0.0
 11
6935.6934843884
 21
4254.1721153846
 31
0.0
  0
LINE
  5
227
330
1F
100
AcDbEntity
  8
0
  6
Continuous
 62
     8
370
    25
100
AcDbLine
 10
6094.4934843884
 20
4257.5721153846
 30
0.0
 11
6094.4934843884
 21
4254.1721153846
 31
0.0
  0
LINE
  5
228
330
1F
100
AcDbEntity
  8
0
  6
Continuous
 62
     8
370
    25
100
AcDbLine
 10
6496.9712061787
 20
4309.5748778155
 30
0.0
 11
6495.0741081844
 21
4309.6798501912
 31
0.0
  0
LINE
  5
229
330
1F
100
AcDbEntity
  8
0
  6
Continuous
 62
     8
370
    25
100
AcDbLine
 10
6533.215762598
 20
4309.5748778155
 30
0.0
 11
6535.1128605924
 21
4309.6798501912
 31
0.0
  0
LINE
  5
22A
330
1F
100
AcDbEntity
  8
0
  6
Continuous
 62
     8
370
    25
100
AcDbLine
 10
6497.0211298102
 20
4309.5221153846
 30
0.0
 11
6497.0211298102
 21
4307.6221153846
 31
0.0
  0
LINE
  5
22B
330
1F
100
AcDbEntity
  8
0
  6
Continuous
 62
     8
370
    25
100
AcDbLine
 10
6533.1658389666
 20
4309.5221153846
 30
0.0
 11
6533.1658389666
 21
4307.6221153846
 31
0.0
  0
LINE
  5
22C
330
1F
100
AcDbEntity
  8
0
  6
Continuous
 62
     8
370
    25
100
AcDbLine
 10
6496.4934843884
 20
4305.7721153846
 30
0.0
 11
6496.4934843884
 21
4307.6948593262
 31
0.0
  0
LINE
  5
22D
330
1F
100
AcDbEntity
  8
0
  6
Continuous
 62
     8
370
    25
100
AcDbLine
 10
6497.1934843884
 20
4311.3721153846
 30
0.0
 11
6497.1607628994
 21
4311.3721153846
 31
0.0
  0
LINE
  5
22E
330
1F
100
AcDbEntity
  8
0
  6
Continuous
 62
     8
370
    25
100
AcDbLine
 10
6532.9928031598
 20
4311.3721153846
 30
0.0
 11
6533.0262058773
 21
4311.3721153846
 31
0.0
  0
LINE
  5
22F
330
1F
100
AcDbEntity
  8
0
  6
Continuous
 62
     8
370
    25
100
AcDbLine
 10
6533.6928031598
 20
4307.6946679848
 30
0.0
 11
6533.6928031598
 21
4305.7721153846
 31
0.0
  0
LWPOLYLINE
  5
230
330
1F
100
AcDbEntity
  8
0
  6
Continuous
 62
     8
370
    25
100
AcDbPolyline
 90
        3
 70
   128
 43
0.0
 10
6497.8934843884
 20
4312.7721153846
 10
6497.6203579376
 20
4312.7452147772
 10
6497.4163981488
 20
4312.6883177703
  0
LWPOLYLINE
  5
231
330
1F
100
AcDbEntity
  8
0
  6
Continuous
 62
     8
370
    25
100
AcDbPolyline
 90
        3
 70
   128
 43
0.0
 10
6532.7706334845
 20
4312.6880478224
 10
6532.5659296106
 20
4312.7452147772
 10
6532.2928031598
 20
4312.7721153846
  0
LINE
  5
232
330
1F
100
AcDbEntity
  8
0
  6
Continuous
 62
     8
370
    25
100
AcDbLine
 10
6498.387766979
 20
4319.6591125362
 30
0.0
 11
6498.3277904224
 21
4319.6591125362
 31
0.0
  0
LINE
  5
233
330
1F
100
AcDbEntity
  8
0
  6
Continuous
 62
     8
370
    25
100
AcDbLine
 10
6498.3277904224
 20
4297.485118233
 30
0.0
 11
6498.5079185505
 21
4297.485118233
 31
0.0
  0
LINE
  5
234
330
1F
100
AcDbEntity
  8
0
  6
Continuous
 62
     8
370
    25
100
AcDbLine
 10
6497.8810677935
 20
4298.4857277773
 30
0.0
 11
6497.707432938
 21
4298.4857277773
 31
0.0
  0
LINE
  5
235
330
1F
100
AcDbEntity
  8
0
  6
Continuous
 62
     8
370
    25
100
AcDbLine
 10
6497.707432938
 20
4318.6585029919
 30
0.0
 11
6497.7652621762
 21
4318.6585029919
 31
0.0
  0
LINE
  5
236
330
1F
100
AcDbEntity
  8
0
  6
Continuous
 62
     8
370
    25
100
AcDbLine
 10
6498.6691562316
 20
4320.1588079497
 30
0.0
 11
6498.7303839669
 21
4320.1588079497
 31
0.0
  0
LINE
  5
237
330
1F
100
AcDbEntity
  8
0
  6
Continuous
 62
     8
370
    25
100
AcDbLine
 10
6498.8530701264
 20
4296.9854228195
 30
0.0
 11
6498.6691562316
 21
4296.9854228195
 31
0.0
  0
LINE
  5
238
330
1F
100
AcDbEntity
  8
0
  6
Continuous
 62
     8
370
    25
100
AcDbLine
 10
6500.294836171
 20
4322.0999574497
 30
0.0
 11
6500.2271637588
 21
4322.0999574497
 31
0.0
  0
LINE
  5
239
330
1F
100
AcDbEntity
  8
0
  6
Continuous
 62
     8
370
    25
100
AcDbLine
 10
6508.2896115374
 20
4319.2437899864
 30
0.0
 11
6507.198958139
 21
4320.3344433847
 31
0.0
  0
LINE
  5
23A
330
1F
100
AcDbEntity
  8
0
  6
Continuous
 62
     8
370
    25
100
AcDbLine
 10
6507.198958139
 20
4296.8097873845
 30
0.0
 11
6508.2809706554
 21
4297.8917999009
 31
0.0
  0
LINE
  5
23B
330
1F
100
AcDbEntity
  8
0
  6
Continuous
 62
     8
370
    25
100
AcDbLine
 10
6500.2271637588
 20
4295.0442733195
 30
0.0
 11
6500.4306064627
 21
4295.0442733195
 31
0.0
  0
LINE
  5
23C
330
1F
100
AcDbEntity
  8
0
  6
Continuous
 62
     8
370
    25
100
AcDbLine
 10
6502.3289258028
 20
4324.0987391037
 30
0.0
 11
6502.4078052231
 21
4324.0987391037
 31
0.0
  0
LWPOLYLINE
  5
23D
330
1F
100
AcDbEntity
  8
0
  6
Continuous
 62
     8
370
    25
100
AcDbPolyline
 90
        3
 70
   128
 43
0.0
 10
6507.4031306704
 20
4322.741227869
 10
6508.0286663208
 20
4322.2767794247
 10
6508.6123102007
 20
4321.7477954464
  0
LINE
  5
23E
330
1F
100
AcDbEntity
  8
0
  6
Continuous
 62
     8
370
    25
100
AcDbLine
 10
6515.1201081075
 20
4311.9152611351
 30
0.0
 11
6513.9816599038
 21
4311.9152611351
 31
0.0
  0
LINE
  5
23F
330
1F
100
AcDbEntity
  8
0
  6
Continuous
 62
     8
370
    25
100
AcDbLine
 10
6511.6438851034
 20
4316.4656618501
 30
0.0
 11
6512.7691644502
 21
4317.5909411969
 31
0.0
  0
LINE
  5
240
330
1F
100
AcDbEntity
  8
0
  6
Continuous
 62
     8
370
    25
100
AcDbLine
 10
6515.1201081075
 20
4305.2289696341
 30
0.0
 11
6513.9677117701
 21
4305.2289696341
 31
0.0
  0
LINE
  5
241
330
1F
100
AcDbEntity
  8
0
  6
Continuous
 62
     8
370
    25
100
AcDbLine
 10
6512.7691644502
 20
4299.5532895723
 30
0.0
 11
6511.5635552609
 21
4300.7588987616
 31
0.0
  0
ARC
  5
242
330
1F
100
AcDbEntity
  8
0
  6
Continuous
 62
     8
370
    25
100
AcDbCircle
 10
6502.9366301389
 20
4301.0721153846
 30
0.0
 40
8.026623719118987
100
AcDbArc
 50
303.715507283
 51
315.0
  0
LINE
  5
243
330
1F
100
AcDbEntity
  8
0
  6
Continuous
 62
     8
370
    25
100
AcDbLine
 10
6502.5664553757
 20
4293.0454916655
 30
0.0
 11
6502.3289258028
 21
4293.0454916655
 31
0.0
  0
LINE
  5
244
330
1F
100
AcDbEntity
  8
0
  6
Continuous
 62
     7
370
    25
100
AcDbLine
 10
7190.3461538462
 20
4715.7605002691
 30
0.0
 11
7187.6461538462
 21
4715.7605002691
 31
0.0
  0
LINE
  5
245
330
1F
100
AcDbEntity
  8
0
  6
Continuous
 62
     7
370
    25
100
AcDbLine
 10
7290.3461538462
 20
4715.7605002691
 30
0.0
 11
7190.3461538462
 21
4715.7605002691
 31
0.0
  0
LINE
  5
246
330
1F
100
AcDbEntity
  8
0
  6
Continuous
 62
     7
370
    25
100
AcDbLine
 10
7293.0461538462
 20
4715.7605002691
 30
0.0
 11
7290.3461538462
 21
4715.7605002691
 31
0.0
  0
LINE
  5
247
330
1F
100
AcDbEntity
  8
0
  6
Continuous
 62
     7
370
    25
100
AcDbLine
 10
7237.3461538462
 20
4691.5605002691
 30
0.0
 11
7237.3461538462
 21
4676.5605002691
 31
0.0
  0
LINE
  5
248
330
1F
100
AcDbEntity
  8
0
  6
Continuous
 62
     7
370
    25
100
AcDbLine
 10
7243.3461538462
 20
4676.5605002691
 30
0.0
 11
7243.3461538462
 21
4691.5605002691
 31
0.0
  0
LINE
  5
249
330
1F
100
AcDbEntity
  8
0
  6
Continuous
 62
     7
370
    25
100
AcDbLine
 10
7208.8061899831
 20
4695.9648640353
 30
0.0
 11
7210.4610936801
 21
4694.9530785737
 31
0.0
  0
LINE
  5
24A
330
1F
100
AcDbEntity
  8
0
  6
Continuous
 62
     7
370
    25
100
AcDbLine
 10
7270.2312140122
 20
4694.9530785737
 30
0.0
 11
7271.8861177092
 21
4695.9648640353
 31
0.0
  0
LINE
  5
24B
330
1F
100
AcDbEntity
  8
0
  6
Continuous
 62
     7
370
    25
100
AcDbLine
 10
7207.0961538462
 20
4696.5605002691
 30
0.0
 11
7207.0961538462
 21
4695.9648640353
 31
0.0
  0
LINE
  5
24C
330
1F
100
AcDbEntity
  8
0
  6
Continuous
 62
     7
370
    25
100
AcDbLine
 10
7273.5961538462
 20
4695.9648640353
 30
0.0
 11
7273.5961538462
 21
4696.5605002691
 31
0.0
  0
LINE
  5
24D
330
1F
100
AcDbEntity
  8
0
  6
Continuous
 62
     7
370
    25
100
AcDbLine
 10
7200.3461538462
 20
4694.4567894214
 30
0.0
 11
7200.3461538462
 21
4693.9605002691
 31
0.0
  0
LINE
  5
24E
330
1F
100
AcDbEntity
  8
0
  6
Continuous
 62
     7
370
    25
100
AcDbLine
 10
7280.3461538462
 20
4693.9605002691
 30
0.0
 11
7280.3461538462
 21
4694.4567894214
 31
0.0
  0
ARC
  5
24F
330
1F
100
AcDbEntity
  8
0
  6
Continuous
 62
     7
370
    25
100
AcDbCircle
 10
7200.9964958936
 20
4694.5115589694
 30
0.0
 40
0.0547695479954696
100
AcDbArc
 50
270.0
 51
329.9999999995
  0
ARC
  5
250
330
1F
100
AcDbEntity
  8
0
  6
Continuous
 62
     7
370
    25
100
AcDbCircle
 10
7279.6958117987
 20
4694.5115589694
 30
0.0
 40
0.054769547994682
100
AcDbArc
 50
210.000000001
 51
270.0
  0
LINE
  5
251
330
1F
100
AcDbEntity
  8
0
  6
Continuous
 62
     7
370
    25
100
AcDbLine
 10
7279.6483799788
 20
4694.4841741954
 30
0.0
 11
7279.4092685936
 21
4694.8983272632
 31
0.0
  0
LINE
  5
252
330
1F
100
AcDbEntity
  8
0
  6
Continuous
 62
     7
370
    25
100
AcDbLine
 10
7201.2830390988
 20
4694.8983272632
 30
0.0
 11
7201.0439277136
 21
4694.4841741954
 31
0.0
  0
ARC
  5
253
330
1F
100
AcDbEntity
  8
0
  6
Continuous
 62
     7
370
    25
100
AcDbCircle
 10
7201.3778711503
 20
4694.8435759528
 30
0.0
 40
0.1095026209371498
100
AcDbArc
 50
90.0
 51
150.0000000001
  0
ARC
  5
254
330
1F
100
AcDbEntity
  8
0
  6
Continuous
 62
     7
370
    25
100
AcDbCircle
 10
7279.3144365421
 20
4694.8435759528
 30
0.0
 40
0.1095026209379374
100
AcDbArc
 50
29.9999999997
 51
90.0
  0
LINE
  5
255
330
1F
100
AcDbEntity
  8
0
  6
Continuous
 62
     7
370
    25
100
AcDbLine
 10
7279.3144365421
 20
4694.9530785737
 30
0.0
 11
7246.1196565381
 21
4694.9530785737
 31
0.0
  0
LINE
  5
256
330
1F
100
AcDbEntity
  8
0
  6
Continuous
 62
     7
370
    25
100
AcDbLine
 10
7234.5726511543
 20
4694.9530785737
 30
0.0
 11
7201.3778711503
 21
4694.9530785737
 31
0.0
  0
LINE
  5
257
330
1F
100
AcDbEntity
  8
0
  6
Continuous
 62
     7
370
    25
100
AcDbLine
 10
7220.3462490421
 20
4658.6530667841
 30
0.0
 11
7220.3462490421
 21
4658.0548282234
 31
0.0
  0
LINE
  5
258
330
1F
100
AcDbEntity
  8
0
  6
Continuous
 62
     7
370
    25
100
AcDbLine
 10
7260.3460586502
 20
4658.0548282234
 30
0.0
 11
7260.3460586502
 21
4658.6530667841
 31
0.0
  0
ARC
  5
259
330
1F
100
AcDbEntity
  8
0
  6
Continuous
 62
     7
370
    25
100
AcDbCircle
 10
7240.3461538462
 20
4658.8113527176
 30
0.0
 40
27.00000000000012
100
AcDbArc
 50
0.0
 51
83.6206297916
  0
ARC
  5
25A
330
1F
100
AcDbEntity
  8
0
  6
Continuous
 62
     7
370
    25
100
AcDbCircle
 10
7240.3461538462
 20
4658.8113527176
 30
0.0
 40
27.0
100
AcDbArc
 50
96.3793702084
 51
0.0
  0
ARC
  5
25B
330
1F
100
AcDbEntity
  8
0
  6
Continuous
 62
     7
370
    25
100
AcDbCircle
 10
7275.9704564371
 20
4588.629551821
 30
0.0
 40
52.79442234707143
100
AcDbArc
 50
98.6113344955
 51
109.5792512049
  0
ARC
  5
25C
330
1F
100
AcDbEntity
  8
0
  6
Continuous
 62
     7
370
    25
100
AcDbCircle
 10
7204.9946598171
 20
4589.6702078282
 30
0.0
 40
51.72268379436371
100
AcDbArc
 50
70.3260562123
 51
81.523490746
  0
LINE
  5
25D
330
1F
100
AcDbEntity
  8
0
  6
Continuous
 62
     7
370
    25
100
AcDbLine
 10
7282.0961538462
 20
4690.9605002691
 30
0.0
 11
7282.0961538462
 21
4693.9605002691
 31
0.0
  0
LINE
  5
25E
330
1F
100
AcDbEntity
  8
0
  6
Continuous
 62
     7
370
    25
100
AcDbLine
 10
7198.5961538462
 20
4693.9605002691
 30
0.0
 11
7198.5961538462
 21
4690.9605002691
 31
0.0
  0
LWPOLYLINE
  5
25F
330
1F
100
AcDbEntity
  8
0
  6
Continuous
 62
     7
370
    25
100
AcDbPolyline
 90
       14
 70
   128
 43
0.0
 10
7193.6416073411
 20
4656.2945864504
 10
7193.656317998
 20
4655.2843452468
 10
7193.9992632094
 20
4653.3037695166
 10
7194.6417298974
 20
4651.4537110586
 10
7195.5509476907
 20
4649.7533488018
 10
7196.7018561648
 20
4648.2053419409
 10
7198.0890793864
 20
4646.7967814646
 10
7199.7296044091
 20
4645.5105137478
 10
7201.6615272301
 20
4644.3322922673
 10
7203.9254192745
 20
4643.2611804613
 10
7206.5203170505
 20
4642.3162072224
 10
7209.3533233993
 20
4641.5275072457
 10
7212.3878370817
 20
4640.8762901176
 10
7212.6572224368
 20
4640.8313693526
  0
LWPOLYLINE
  5
260
330
1F
100
AcDbEntity
  8
0
  6
Continuous
 62
     7
370
    25
100
AcDbPolyline
 90
       13
 70
   128
 43
0.0
 10
7268.014677429
 20
4640.8412098227
 10
7269.5763194314
 20
4641.130076293
 10
7272.4537916324
 20
4641.8129656091
 10
7275.2191055988
 20
4642.6712227286
 10
7277.7240002842
 20
4643.6922720132
 10
7280.0884432898
 20
4644.9621755766
 10
7281.9145776864
 20
4646.2470459856
 10
7283.4420841695
 20
4647.6398756448
 10
7284.696811107
 20
4649.1408688676
 10
7285.6917547817
 20
4650.7503498545
 10
7286.4879122915
 20
4652.6465443572
 10
7286.945520251
 20
4654.5828726739
 10
7287.0674237266
 20
4656.3038489098
  0
LINE
  5
261
330
1F
100
AcDbEntity
  8
0
  6
Continuous
 62
     7
370
    25
100
AcDbLine
 10
7193.4624498169
 20
4672.6343019662
 30
0.0
 11
7193.6052461465
 21
4656.2714633145
 31
0.0
  0
LINE
  5
262
330
1F
100
AcDbEntity
  8
0
  6
Continuous
 62
     7
370
    25
100
AcDbLine
 10
7287.087113325
 20
4656.2773966194
 30
0.0
 11
7287.3461538462
 21
4685.9605002691
 31
0.0
  0
ARC
  5
263
330
1F
100
AcDbEntity
  8
0
  6
Continuous
 62
     7
370
    25
100
AcDbCircle
 10
7193.3461538462
 20
4688.9605002691
 30
0.0
 40
2.000000000000909
100
AcDbArc
 50
120.0010464823
 51
180.0
  0
ARC
  5
264
330
1F
100
AcDbEntity
  8
0
  6
Continuous
 62
     7
370
    25
100
AcDbCircle
 10
7287.3461538462
 20
4688.9605002691
 30
0.0
 40
2.000000000000909
100
AcDbArc
 50
0.0
 51
90.0
  0
LINE
  5
265
330
1F
100
AcDbEntity
  8
0
  6
Continuous
 62
     7
370
    25
100
AcDbLine
 10
7289.3461538462
 20
4685.9605002691
 30
0.0
 11
7289.3461538462
 21
4688.9605002691
 31
0.0
  0
LINE
  5
266
330
1F
100
AcDbEntity
  8
0
  6
Continuous
 62
     7
370
    25
100
AcDbLine
 10
7191.3461538462
 20
4688.9605002691
 30
0.0
 11
7191.3461538462
 21
4685.9605002691
 31
0.0
  0
LINE
  5
267
330
1F
100
AcDbEntity
  8
0
  6
Continuous
 62
     7
370
    25
100
AcDbLine
 10
7207.4961336595
 20
4642.0445429753
 30
0.0
 11
7208.1054088639
 21
4618.7772616309
 31
0.0
  0
LINE
  5
268
330
1F
100
AcDbEntity
  8
0
  6
Continuous
 62
     7
370
    25
100
AcDbLine
 10
7272.5868988284
 20
4618.7772616309
 30
0.0
 11
7273.1961432042
 21
4642.0433656756
 31
0.0
  0
ARC
  5
269
330
1F
100
AcDbEntity
  8
0
  6
Continuous
 62
     7
370
    25
100
AcDbCircle
 10
7265.5892975536
 20
4618.9605002691
 30
0.0
 40
7.0
100
AcDbArc
 50
270.0
 51
358.5
  0
ARC
  5
26A
330
1F
100
AcDbEntity
  8
0
  6
Continuous
 62
     7
370
    25
100
AcDbCircle
 10
7215.1030101387
 20
4618.9605002691
 30
0.0
 40
7.0
100
AcDbArc
 50
181.5
 51
270.0
  0
LINE
  5
26B
330
1F
100
AcDbEntity
  8
0
  6
Continuous
 62
     7
370
    25
100
AcDbLine
 10
7185.3461538462
 20
4601.7605002691
 30
0.0
 11
7185.3461538462
 21
4671.7605002691
 31
0.0
  0
LINE
  5
26C
330
1F
100
AcDbEntity
  8
0
  6
Continuous
 62
     7
370
    25
100
AcDbLine
 10
7175.3461538462
 20
4671.7605002691
 30
0.0
 11
7175.3461538462
 21
4601.7605002691
 31
0.0
  0
LINE
  5
26D
330
1F
100
AcDbEntity
  8
0
  6
Continuous
 62
     7
370
    25
100
AcDbLine
 10
7185.3461538462
 20
4680.7605002691
 30
0.0
 11
7184.3461538462
 21
4681.7605002691
 31
0.0
  0
LINE
  5
26E
330
1F
100
AcDbEntity
  8
0
  6
Continuous
 62
     7
370
    25
100
AcDbLine
 10
7176.3461538462
 20
4681.7605002691
 30
0.0
 11
7175.3461538462
 21
4680.7605002691
 31
0.0
  0
LINE
  5
26F
330
1F
100
AcDbEntity
  8
0
  6
Continuous
 62
     7
370
    25
100
AcDbLine
 10
7332.3461538461
 20
4680.7605002691
 30
0.0
 11
7331.3461538461
 21
4681.7605002691
 31
0.0
  0
LINE
  5
270
330
1F
100
AcDbEntity
  8
0
  6
Continuous
 62
     7
370
    25
100
AcDbLine
 10
7323.3461538461
 20
4681.7605002691
 30
0.0
 11
7322.3461538461
 21
4680.7605002691
 31
0.0
  0
LINE
  5
271
330
1F
100
AcDbEntity
  8
0
  6
Continuous
 62
     7
370
    25
100
AcDbLine
 10
7332.3461538461
 20
4596.7605002691
 30
0.0
 11
7332.3461538461
 21
4671.7605002691
 31
0.0
  0
LINE
  5
272
330
1F
100
AcDbEntity
  8
0
  6
Continuous
 62
     7
370
    25
100
AcDbLine
 10
7322.3461538461
 20
4671.7605002691
 30
0.0
 11
7322.3461538461
 21
4596.7605002691
 31
0.0
  0
LINE
  5
273
330
1F
100
AcDbEntity
  8
0
  6
Continuous
 62
     7
370
    25
100
AcDbLine
 10
7169.1461538462
 20
4699.7605002691
 30
0.0
 11
7169.1461538462
 21
4698.5605002691
 31
0.0
  0
LINE
  5
274
330
1F
100
AcDbEntity
  8
0
  6
Continuous
 62
     7
370
    25
100
AcDbLine
 10
7169.1461538462
 20
4699.7605002691
 30
0.0
 11
7311.5461538462
 21
4699.7605002691
 31
0.0
  0
LINE
  5
275
330
1F
100
AcDbEntity
  8
0
  6
Continuous
 62
     7
370
    25
100
AcDbLine
 10
7311.5461538462
 20
4699.7605002691
 30
0.0
 11
7311.5461538462
 21
4698.5605002691
 31
0.0
  0
LINE
  5
276
330
1F
100
AcDbEntity
  8
0
  6
Continuous
 62
     7
370
    25
100
AcDbLine
 10
7169.1461538462
 20
4698.5605002691
 30
0.0
 11
7311.5461538462
 21
4698.5605002691
 31
0.0
  0
LINE
  5
277
330
1F
100
AcDbEntity
  8
0
  6
Continuous
 62
     7
370
    25
100
AcDbLine
 10
7190.3461538462
 20
4713.7089589377
 30
0.0
 11
7185.9828983961
 21
4713.7089589377
 31
0.0
  0
ARC
  5
278
330
1F
100
AcDbEntity
  8
0
  6
Continuous
 62
     7
370
    25
100
AcDbCircle
 10
7187.6277845133
 20
4714.0677352994
 30
0.0
 40
1.683558973217455
100
AcDbArc
 50
89.3750030156
 51
192.3044287047
  0
LINE
  5
279
330
1F
100
AcDbEntity
  8
0
  6
Continuous
 62
     7
370
    25
100
AcDbLine
 10
7290.3461538462
 20
4713.7089589377
 30
0.0
 11
7190.3461538462
 21
4713.7089589377
 31
0.0
  0
LINE
  5
27A
330
1F
100
AcDbEntity
  8
0
  6
Continuous
 62
     7
370
    25
100
AcDbLine
 10
7294.7094092963
 20
4713.7089589377
 30
0.0
 11
7290.3461538462
 21
4713.7089589377
 31
0.0
  0
ARC
  5
27B
330
1F
100
AcDbEntity
  8
0
  6
Continuous
 62
     7
370
    25
100
AcDbCircle
 10
7293.0461538462
 20
4714.0605002691
 30
0.0
 40
1.700000000000129
100
AcDbArc
 50
348.0657534268
 51
90.0
  0
LINE
  5
27C
330
1F
100
AcDbEntity
  8
0
  6
Continuous
 62
     7
370
    25
100
AcDbLine
 10
7190.3461538462
 20
4709.5019010345
 30
0.0
 11
7186.8720911755
 21
4709.5019010345
 31
0.0
  0
LINE
  5
27D
330
1F
100
AcDbEntity
  8
0
  6
Continuous
 62
     7
370
    25
100
AcDbLine
 10
7185.9828983961
 20
4713.7089589377
 30
0.0
 11
7186.8720911755
 21
4709.5019010345
 31
0.0
  0
LINE
  5
27E
330
1F
100
AcDbEntity
  8
0
  6
Continuous
 62
     7
370
    25
100
AcDbLine
 10
7190.3461538462
 20
4713.7089589377
 30
0.0
 11
7190.3461538462
 21
4709.5019010345
 31
0.0
  0
LINE
  5
27F
330
1F
100
AcDbEntity
  8
0
  6
Continuous
 62
     7
370
    25
100
AcDbLine
 10
7290.3461538462
 20
4709.5019010345
 30
0.0
 11
7190.3461538462
 21
4709.5019010345
 31
0.0
  0
LINE
  5
280
330
1F
100
AcDbEntity
  8
0
  6
Continuous
 62
     7
370
    25
100
AcDbLine
 10
7290.3461538462
 20
4713.7089589377
 30
0.0
 11
7290.3461538462
 21
4709.5019010345
 31
0.0
  0
LINE
  5
281
330
1F
100
AcDbEntity
  8
0
  6
Continuous
 62
     7
370
    25
100
AcDbLine
 10
7293.8202165168
 20
4709.5019010345
 30
0.0
 11
7290.3461538462
 21
4709.5019010345
 31
0.0
  0
LINE
  5
282
330
1F
100
AcDbEntity
  8
0
  6
Continuous
 62
     7
370
    25
100
AcDbLine
 10
7294.7094092963
 20
4713.7089589377
 30
0.0
 11
7293.8202165168
 21
4709.5019010345
 31
0.0
  0
LINE
  5
283
330
1F
100
AcDbEntity
  8
0
  6
Continuous
 62
     7
370
    25
100
AcDbLine
 10
7188.1461538462
 20
4709.5019010345
 30
0.0
 11
7188.1461538462
 21
4699.7605002691
 31
0.0
  0
LINE
  5
284
330
1F
100
AcDbEntity
  8
0
  6
Continuous
 62
     7
370
    25
100
AcDbLine
 10
7292.5461538462
 20
4709.5019010345
 30
0.0
 11
7292.5461538462
 21
4699.7605002691
 31
0.0
  0
ARC
  5
285
330
1F
100
AcDbEntity
  8
0
  6
Continuous
 62
     7
370
    25
100
AcDbCircle
 10
7191.3460186754
 20
4674.7605002691
 30
0.0
 40
1.000000000000197
100
AcDbArc
 50
270.0
 51
359.9996276583
  0
LINE
  5
286
330
1F
100
AcDbEntity
  8
0
  6
Continuous
 62
     7
370
    25
100
AcDbLine
 10
7192.3460186754
 20
4674.7604937705
 30
0.0
 11
7192.3461538462
 21
4695.5605197649
 31
0.0
  0
ARC
  5
287
330
1F
100
AcDbEntity
  8
0
  6
Continuous
 62
     7
370
    25
100
AcDbCircle
 10
7195.3461538462
 20
4695.5605002691
 30
0.0
 40
3.000000000000592
100
AcDbArc
 50
90.0
 51
179.9996276583
  0
ARC
  5
288
330
1F
100
AcDbEntity
  8
0
  6
Continuous
 62
     7
370
    25
100
AcDbCircle
 10
7285.3461538462
 20
4695.5605002691
 30
0.0
 40
3.000000000000181
100
AcDbArc
 50
48.6002523617
 51
90.0
  0
LINE
  5
289
330
1F
100
AcDbEntity
  8
0
  6
Continuous
 62
     7
370
    25
100
AcDbLine
 10
7287.3300795304
 20
4697.8108422163
 30
0.0
 11
7314.3266372975
 21
4674.0103862867
 31
0.0
  0
ARC
  5
28A
330
1F
100
AcDbEntity
  8
0
  6
Continuous
 62
     7
370
    25
100
AcDbCircle
 10
7314.9879458589
 20
4674.7605002691
 30
0.0
 40
1.000000000000033
100
AcDbArc
 50
228.6002523617
 51
270.0
  0
LINE
  5
28B
330
1F
100
AcDbEntity
  8
0
  6
Continuous
 62
     7
370
    25
100
AcDbLine
 10
7314.9879458589
 20
4673.7605002691
 30
0.0
 11
7335.9879458589
 21
4673.7605002691
 31
0.0
  0
LINE
  5
28C
330
1F
100
AcDbEntity
  8
0
  6
Continuous
 62
     7
370
    25
100
AcDbLine
 10
7335.9879458589
 20
4673.7605002691
 30
0.0
 11
7335.9879458589
 21
4671.7605002691
 31
0.0
  0
LINE
  5
28D
330
1F
100
AcDbEntity
  8
0
  6
Continuous
 62
     7
370
    25
100
AcDbLine
 10
7335.9879458589
 20
4671.7605002691
 30
0.0
 11
7314.9879458589
 21
4671.7605002691
 31
0.0
  0
ARC
  5
28E
330
1F
100
AcDbEntity
  8
0
  6
Continuous
 62
     7
370
    25
100
AcDbCircle
 10
7314.9879458589
 20
4674.7605002691
 30
0.0
 40
3.000000000000782
100
AcDbArc
 50
228.6002523617
 51
270.0
  0
LINE
  5
28F
330
1F
100
AcDbEntity
  8
0
  6
Continuous
 62
     7
370
    25
100
AcDbLine
 10
7313.0040201746
 20
4672.5101583219
 30
0.0
 11
7286.0074624076
 21
4696.3106142515
 31
0.0
  0
ARC
  5
290
330
1F
100
AcDbEntity
  8
0
  6
Continuous
 62
     7
370
    25
100
AcDbCircle
 10
7285.3461538462
 20
4695.5605002691
 30
0.0
 40
1.000000000000033
100
AcDbArc
 50
48.6002523617
 51
90.0
  0
LINE
  5
291
330
1F
100
AcDbEntity
  8
0
  6
Continuous
 62
     7
370
    25
100
AcDbLine
 10
7285.3461538462
 20
4696.5605002691
 30
0.0
 11
7195.3461538462
 21
4696.5605002691
 31
0.0
  0
ARC
  5
292
330
1F
100
AcDbEntity
  8
0
  6
Continuous
 62
     7
370
    25
100
AcDbCircle
 10
7195.3461538462
 20
4695.5605002691
 30
0.0
 40
1.000000000000197
100
AcDbArc
 50
90.0
 51
179.9996276583
  0
LINE
  5
293
330
1F
100
AcDbEntity
  8
0
  6
Continuous
 62
     7
370
    25
100
AcDbLine
 10
7194.3461538462
 20
4695.5605067677
 30
0.0
 11
7194.3460186754
 21
4674.7604807733
 31
0.0
  0
ARC
  5
294
330
1F
100
AcDbEntity
  8
0
  6
Continuous
 62
     7
370
    25
100
AcDbCircle
 10
7191.3460186754
 20
4674.7605002691
 30
0.0
 40
3.000000000000592
100
AcDbArc
 50
270.0
 51
359.9996276583
  0
LINE
  5
295
330
1F
100
AcDbEntity
  8
0
  6
Continuous
 62
     7
370
    25
100
AcDbLine
 10
7170.3460186754
 20
4671.7605002691
 30
0.0
 11
7170.3460186754
 21
4673.7605002691
 31
0.0
  0
LINE
  5
296
330
1F
100
AcDbEntity
  8
0
  6
Continuous
 62
     7
370
    25
100
AcDbLine
 10
7191.3460186754
 20
4671.7605002691
 30
0.0
 11
7170.3460186754
 21
4671.7605002691
 31
0.0
  0
LINE
  5
297
330
1F
100
AcDbEntity
  8
0
  6
Continuous
 62
     7
370
    25
100
AcDbLine
 10
7170.3460186754
 20
4673.7605002691
 30
0.0
 11
7191.3460186754
 21
4673.7605002691
 31
0.0
  0
LINE
  5
298
330
1F
100
AcDbEntity
  8
0
  6
Continuous
 62
     7
370
    25
100
AcDbLine
 10
7175.438676558
 20
4680.7605002691
 30
0.0
 11
7175.438676558
 21
4673.7605002691
 31
0.0
  0
LINE
  5
299
330
1F
100
AcDbEntity
  8
0
  6
Continuous
 62
     7
370
    25
100
AcDbLine
 10
7185.2536311343
 20
4680.7605002691
 30
0.0
 11
7185.2536311343
 21
4673.7605002691
 31
0.0
  0
LINE
  5
29A
330
1F
100
AcDbEntity
  8
0
  6
Continuous
 62
     7
370
    25
100
AcDbLine
 10
7185.2536311343
 20
4680.7605002691
 30
0.0
 11
7175.438676558
 21
4680.7605002691
 31
0.0
  0
LINE
  5
29B
330
1F
100
AcDbEntity
  8
0
  6
Continuous
 62
     7
370
    25
100
AcDbLine
 10
7170.5311992699
 20
4680.7605002691
 30
0.0
 11
7170.5311992699
 21
4673.7605002691
 31
0.0
  0
LINE
  5
29C
330
1F
100
AcDbEntity
  8
0
  6
Continuous
 62
     7
370
    25
100
AcDbLine
 10
7175.438676558
 20
4680.7605002691
 30
0.0
 11
7170.5311992699
 21
4680.7605002691
 31
0.0
  0
LINE
  5
29D
330
1F
100
AcDbEntity
  8
0
  6
Continuous
 62
     7
370
    25
100
AcDbLine
 10
7190.1611084224
 20
4680.7605002691
 30
0.0
 11
7190.1611084224
 21
4673.7605002691
 31
0.0
  0
LINE
  5
29E
330
1F
100
AcDbEntity
  8
0
  6
Continuous
 62
     7
370
    25
100
AcDbLine
 10
7190.1611084224
 20
4680.7605002691
 30
0.0
 11
7185.2536311343
 21
4680.7605002691
 31
0.0
  0
LINE
  5
29F
330
1F
100
AcDbEntity
  8
0
  6
Continuous
 62
     7
370
    25
100
AcDbLine
 10
7317.5311992699
 20
4680.7605002691
 30
0.0
 11
7317.5311992699
 21
4673.7605002691
 31
0.0
  0
LINE
  5
2A0
330
1F
100
AcDbEntity
  8
0
  6
Continuous
 62
     7
370
    25
100
AcDbLine
 10
7322.438676558
 20
4680.7605002691
 30
0.0
 11
7317.5311992699
 21
4680.7605002691
 31
0.0
  0
LINE
  5
2A1
330
1F
100
AcDbEntity
  8
0
  6
Continuous
 62
     7
370
    25
100
AcDbLine
 10
7322.438676558
 20
4680.7605002691
 30
0.0
 11
7322.438676558
 21
4673.7605002691
 31
0.0
  0
LINE
  5
2A2
330
1F
100
AcDbEntity
  8
0
  6
Continuous
 62
     7
370
    25
100
AcDbLine
 10
7332.2536311343
 20
4680.7605002691
 30
0.0
 11
7332.2536311343
 21
4673.7605002691
 31
0.0
  0
LINE
  5
2A3
330
1F
100
AcDbEntity
  8
0
  6
Continuous
 62
     7
370
    25
100
AcDbLine
 10
7337.1611084224
 20
4680.7605002691
 30
0.0
 11
7337.1611084224
 21
4673.7605002691
 31
0.0
  0
LINE
  5
2A4
330
1F
100
AcDbEntity
  8
0
  6
Continuous
 62
     7
370
    25
100
AcDbLine
 10
7337.1611084224
 20
4673.7605002691
 30
0.0
 11
7335.9879458589
 21
4673.7605002691
 31
0.0
  0
LINE
  5
2A5
330
1F
100
AcDbEntity
  8
0
  6
Continuous
 62
     7
370
    25
100
AcDbLine
 10
7337.1611084224
 20
4680.7605002691
 30
0.0
 11
7332.2536311343
 21
4680.7605002691
 31
0.0
  0
LINE
  5
2A6
330
1F
100
AcDbEntity
  8
0
  6
Continuous
 62
     7
370
    25
100
AcDbLine
 10
7332.2536311343
 20
4680.7605002691
 30
0.0
 11
7322.438676558
 21
4680.7605002691
 31
0.0
  0
LINE
  5
2A7
330
1F
100
AcDbEntity
  8
0
  6
Continuous
 62
     7
370
    25
100
AcDbLine
 10
7243.2329051921
 20
4691.5605002691
 30
0.0
 11
7243.2329051921
 21
4696.5605002691
 31
0.0
  0
LINE
  5
2A8
330
1F
100
AcDbEntity
  8
0
  6
Continuous
 62
     7
370
    25
100
AcDbLine
 10
7237.4594025002
 20
4691.5605002691
 30
0.0
 11
7237.4594025002
 21
4696.5605002691
 31
0.0
  0
LINE
  5
2A9
330
1F
100
AcDbEntity
  8
0
  6
Continuous
 62
     7
370
    25
100
AcDbLine
 10
7237.4594025002
 20
4691.5605002691
 30
0.0
 11
7243.2329051921
 21
4691.5605002691
 31
0.0
  0
LINE
  5
2AA
330
1F
100
AcDbEntity
  8
0
  6
Continuous
 62
     7
370
    25
100
AcDbLine
 10
7234.5726511543
 20
4691.5605002691
 30
0.0
 11
7234.5726511543
 21
4696.5605002691
 31
0.0
  0
LINE
  5
2AB
330
1F
100
AcDbEntity
  8
0
  6
Continuous
 62
     7
370
    25
100
AcDbLine
 10
7234.5726511543
 20
4691.5605002691
 30
0.0
 11
7237.4594025002
 21
4691.5605002691
 31
0.0
  0
LINE
  5
2AC
330
1F
100
AcDbEntity
  8
0
  6
Continuous
 62
     7
370
    25
100
AcDbLine
 10
7246.1196565381
 20
4691.5605002691
 30
0.0
 11
7246.1196565381
 21
4696.5605002691
 31
0.0
  0
LINE
  5
2AD
330
1F
100
AcDbEntity
  8
0
  6
Continuous
 62
     7
370
    25
100
AcDbLine
 10
7243.2329051921
 20
4691.5605002691
 30
0.0
 11
7246.1196565381
 21
4691.5605002691
 31
0.0
  0
LINE
  5
2AE
330
1F
100
AcDbEntity
  8
0
  6
Continuous
 62
     7
370
    25
100
AcDbLine
 10
7237.3461538462
 20
4676.5605002691
 30
0.0
 11
7243.3461538462
 21
4676.5605002691
 31
0.0
  0
LINE
  5
2AF
330
1F
100
AcDbEntity
  8
0
  6
Continuous
 62
     7
370
    25
100
AcDbLine
 10
7273.5961538462
 20
4695.9648640353
 30
0.0
 11
7246.1196565381
 21
4695.9648640353
 31
0.0
  0
LINE
  5
2B0
330
1F
100
AcDbEntity
  8
0
  6
Continuous
 62
     7
370
    25
100
AcDbLine
 10
7234.5726511543
 20
4695.9648640353
 30
0.0
 11
7207.0961538462
 21
4695.9648640353
 31
0.0
  0
LINE
  5
2B1
330
1F
100
AcDbEntity
  8
0
  6
Continuous
 62
     7
370
    25
100
AcDbLine
 10
7200.3461538462
 20
4694.4567894214
 30
0.0
 11
7234.5726511543
 21
4694.4567894214
 31
0.0
  0
LINE
  5
2B2
330
1F
100
AcDbEntity
  8
0
  6
Continuous
 62
     7
370
    25
100
AcDbLine
 10
7246.1196565381
 20
4694.4567894214
 30
0.0
 11
7280.3461538462
 21
4694.4567894214
 31
0.0
  0
LWPOLYLINE
  5
2B3
330
1F
100
AcDbEntity
  8
0
  6
Continuous
 62
     7
370
    25
100
AcDbPolyline
 90
        8
 70
   128
 43
0.0
 10
7250.4311926561
 20
4671.8902640113
 10
7249.9904409105
 20
4671.8868579167
 10
7246.4197093986
 20
4671.8610788559
 10
7242.6854187731
 20
4671.8357997696
 10
7238.898153793
 20
4671.8115296336
 10
7235.1669330066
 20
4671.7865552094
 10
7231.5825199552
 20
4671.7608587697
 10
7230.3212521498
 20
4671.7511350122
  0
LINE
  5
2B4
330
1F
100
AcDbEntity
  8
0
  6
Continuous
 62
     7
370
    25
100
AcDbLine
 10
7240.3461538462
 20
4670.4605002691
 30
0.0
 11
7250.0369989898
 21
4670.4605002691
 31
0.0
  0
LINE
  5
2B5
330
1F
100
AcDbEntity
  8
0
  6
Continuous
 62
     7
370
    25
100
AcDbLine
 10
7230.6553087026
 20
4670.4605002691
 30
0.0
 11
7240.3461538462
 21
4670.4605002691
 31
0.0
  0
LWPOLYLINE
  5
2B6
330
1F
100
AcDbEntity
  8
0
  6
Continuous
 62
     7
370
    25
100
AcDbPolyline
 90
        7
 70
   128
 43
0.0
 10
7231.2136158133
 20
4672.8012190636
 10
7231.4678982153
 20
4672.804250265
 10
7235.8635463346
 20
4672.8525026374
 10
7240.3461538462
 20
4672.898000265
 10
7244.8287613577
 20
4672.9434978926
 10
7249.224409477
 20
4672.991750265
 10
7249.2916349067
 20
4672.9925516332
  0
LWPOLYLINE
  5
2B7
330
1F
100
AcDbEntity
  8
0
  6
Continuous
 62
     7
370
    25
100
AcDbPolyline
 90
        5
 70
   128
 43
0.0
 10
7231.5819652997
 20
4672.9930024183
 10
7235.8635463346
 20
4673.0400026415
 10
7240.3461538462
 20
4673.0855002691
 10
7244.8287613577
 20
4673.1309978967
 10
7248.8868785446
 20
4673.1755450889
  0
LWPOLYLINE
  5
2B8
330
1F
100
AcDbEntity
  8
0
  6
Continuous
 62
     7
370
    25
100
AcDbPolyline
 90
        7
 70
   128
 43
0.0
 10
7230.4543215317
 20
4672.3191415959
 10
7231.7785984396
 20
4672.335500267
 10
7236.0204180465
 20
4672.3837526395
 10
7240.3461538462
 20
4672.429250267
 10
7244.6718896458
 20
4672.4747478946
 10
7248.9137092527
 20
4672.523000267
 10
7250.0324622709
 20
4672.5368201205
  0
LWPOLYLINE
  5
2B9
330
1F
100
AcDbEntity
  8
0
  6
Continuous
 62
     7
370
    25
100
AcDbPolyline
 90
        4
 70
   128
 43
0.0
 10
7233.2318634688
 20
4673.8520317304
 10
7236.0204180465
 20
4673.8837526395
 10
7240.3461538462
 20
4673.929250267
 10
7243.3172813493
 20
4673.9605002691
  0
LWPOLYLINE
  5
2BA
330
1F
100
AcDbEntity
  8
0
  6
Continuous
 62
     7
370
    25
100
AcDbPolyline
 90
        7
 70
   128
 43
0.0
 10
7230.4426357915
 20
4671.943997243
 10
7231.7785984396
 20
4671.960500267
 10
7236.0204180465
 20
4672.0087526395
 10
7240.3461538462
 20
4672.054250267
 10
7244.6718896458
 20
4672.0997478946
 10
7248.9137092527
 20
4672.148000267
 10
7250.2427965973
 20
4672.1644183611
  0
LWPOLYLINE
  5
2BB
330
1F
100
AcDbEntity
  8
0
  6
Continuous
 62
     7
370
    25
100
AcDbPolyline
 90
        5
 70
   128
 43
0.0
 10
7232.4955306359
 20
4673.4686556538
 10
7236.0204180465
 20
4673.5087526395
 10
7240.3461538462
 20
4673.554250267
 10
7244.6718896458
 20
4673.5997478946
 10
7247.8681790403
 20
4673.6361069482
  0
ARC
  5
2BC
330
1F
100
AcDbEntity
  8
0
  6
Continuous
 62
     7
370
    25
100
AcDbCircle
 10
7240.3461538462
 20
4658.023911439
 30
0.0
 40
19.71434232641849
100
AcDbArc
 50
98.7529037444
 51
81.2470962556
  0
CIRCLE
  5
2BD
330
1F
100
AcDbEntity
  8
0
  6
Continuous
 62
     7
370
    25
100
AcDbCircle
 10
7240.3460906271
 20
4658.0237763526
 30
0.0
 40
17.49968043751283
  0
ARC
  5
2BE
330
1F
100
AcDbEntity
  8
0
  6
Continuous
 62
     7
370
    25
100
AcDbCircle
 10
7240.3461538462
 20
4658.0543455378
 30
0.0
 40
19.99963762810171
100
AcDbArc
 50
98.6270840614
 51
81.3729159386
  0
ARC
  5
2BF
330
1F
100
AcDbEntity
  8
0
  6
Continuous
 62
     7
370
    25
100
AcDbCircle
 10
7240.3467141011
 20
4658.652795535
 30
0.0
 40
19.99934455094885
100
AcDbArc
 50
0.0007770969
 51
81.3744119802
  0
ARC
  5
2C0
330
1F
100
AcDbEntity
  8
0
  6
Continuous
 62
     7
370
    25
100
AcDbCircle
 10
7240.34566573
 20
4658.6527335131
 30
0.0
 40
19.99941669060129
100
AcDbArc
 50
98.6257657018
 51
179.9990452211
  0
ARC
  5
2C1
330
1F
100
AcDbEntity
  8
0
  6
Continuous
 62
     7
370
    25
100
AcDbCircle
 10
7237.906537102
 20
4658.9015717529
 30
0.0
 40
15.04056685108517
100
AcDbArc
 50
177.7865545129
 51
205.5322813903
  0
ARC
  5
2C2
330
1F
100
AcDbEntity
  8
0
  6
Continuous
 62
     7
370
    25
100
AcDbCircle
 10
7240.3461538462
 20
4659.4824129752
 30
0.0
 40
17.50023986067682
100
AcDbArc
 50
203.8052968746
 51
336.1947031254
  0
ARC
  5
2C3
330
1F
100
AcDbEntity
  8
0
  6
Continuous
 62
     7
370
    25
100
AcDbCircle
 10
7241.9998461204
 20
4659.0078048462
 30
0.0
 40
15.79739587787628
100
AcDbArc
 50
335.348694842
 51
1.7302785812
  0
ARC
  5
2C4
330
1F
100
AcDbEntity
  8
0
  6
Continuous
 62
     7
370
    25
100
AcDbCircle
 10
7240.3462044812
 20
4659.3744936821
 30
0.0
 40
26.51314433504549
100
AcDbArc
 50
59.5202020561
 51
83.5030967341
  0
ARC
  5
2C5
330
1F
100
AcDbEntity
  8
0
  6
Continuous
 62
     7
370
    25
100
AcDbCircle
 10
7240.3460969877
 20
4659.3745130424
 30
0.0
 40
26.51312449346048
100
AcDbArc
 50
96.248458015
 51
120.4798075851
  0
LINE
  5
2C6
330
1F
100
AcDbEntity
  8
0
  6
Continuous
 62
     7
370
    25
100
AcDbLine
 10
7218.2940666136
 20
4690.9605002691
 30
0.0
 11
7223.2128893695
 21
4690.9605002691
 31
0.0
  0
LINE
  5
2C7
330
1F
100
AcDbEntity
  8
0
  6
Continuous
 62
     7
370
    25
100
AcDbLine
 10
7223.2128893695
 20
4690.9605002691
 30
0.0
 11
7223.2128893695
 21
4688.9605002691
 31
0.0
  0
LINE
  5
2C8
330
1F
100
AcDbEntity
  8
0
  6
Continuous
 62
     7
370
    25
100
AcDbLine
 10
7223.2128893695
 20
4688.9605002691
 30
0.0
 11
7216.3265375112
 21
4688.9605002691
 31
0.0
  0
ARC
  5
2C9
330
1F
100
AcDbEntity
  8
0
  6
Continuous
 62
     7
370
    25
100
AcDbCircle
 10
7218.3104360323
 20
4688.976603923
 30
0.0
 40
1.983963878169464
100
AcDbArc
 50
90.4727451245
 51
180.4650697254
  0
LINE
  5
2CA
330
1F
100
AcDbEntity
  8
0
  6
Continuous
 62
     7
370
    25
100
AcDbLine
 10
7216.3265375112
 20
4688.9605002691
 30
0.0
 11
7216.3265375112
 21
4685.9605002691
 31
0.0
  0
LINE
  5
2CB
330
1F
100
AcDbEntity
  8
0
  6
Continuous
 62
     7
370
    25
100
AcDbLine
 10
7223.2128893695
 20
4688.9605002691
 30
0.0
 11
7223.2128893695
 21
4685.9605002691
 31
0.0
  0
LINE
  5
2CC
330
1F
100
AcDbEntity
  8
0
  6
Continuous
 62
     7
370
    25
100
AcDbLine
 10
7216.3265375112
 20
4685.9605002691
 30
0.0
 11
7223.2128893695
 21
4685.9605002691
 31
0.0
  0
LINE
  5
2CD
330
1F
100
AcDbEntity
  8
0
  6
Continuous
 62
     7
370
    25
100
AcDbLine
 10
7257.4794183228
 20
4688.9605002691
 30
0.0
 11
7257.4794183228
 21
4685.9605002691
 31
0.0
  0
LINE
  5
2CE
330
1F
100
AcDbEntity
  8
0
  6
Continuous
 62
     7
370
    25
100
AcDbLine
 10
7223.2128893695
 20
4685.9605002691
 30
0.0
 11
7237.3461538462
 21
4685.9605002691
 31
0.0
  0
LINE
  5
2CF
330
1F
100
AcDbEntity
  8
0
  6
Continuous
 62
     7
370
    25
100
AcDbLine
 10
7243.3461538462
 20
4685.9605002691
 30
0.0
 11
7257.4794183228
 21
4685.9605002691
 31
0.0
  0
LINE
  5
2D0
330
1F
100
AcDbEntity
  8
0
  6
Continuous
 62
     7
370
    25
100
AcDbLine
 10
7223.2128893695
 20
4690.9605002691
 30
0.0
 11
7237.3461538462
 21
4690.9605002691
 31
0.0
  0
LINE
  5
2D1
330
1F
100
AcDbEntity
  8
0
  6
Continuous
 62
     7
370
    25
100
AcDbLine
 10
7243.3461538462
 20
4690.9605002691
 30
0.0
 11
7257.4794183228
 21
4690.9605002691
 31
0.0
  0
LINE
  5
2D2
330
1F
100
AcDbEntity
  8
0
  6
Continuous
 62
     7
370
    25
100
AcDbLine
 10
7257.4794183228
 20
4690.9605002691
 30
0.0
 11
7257.4794183228
 21
4688.9605002691
 31
0.0
  0
LINE
  5
2D3
330
1F
100
AcDbEntity
  8
0
  6
Continuous
 62
     7
370
    25
100
AcDbLine
 10
7257.4794183228
 20
4690.9605002691
 30
0.0
 11
7262.3982410788
 21
4690.9605002691
 31
0.0
  0
ARC
  5
2D4
330
1F
100
AcDbEntity
  8
0
  6
Continuous
 62
     7
370
    25
100
AcDbCircle
 10
7262.38187166
 20
4688.976603923
 30
0.0
 40
1.983963878169066
100
AcDbArc
 50
359.5349302746
 51
89.5272548755
  0
LINE
  5
2D5
330
1F
100
AcDbEntity
  8
0
  6
Continuous
 62
     7
370
    25
100
AcDbLine
 10
7264.3657701811
 20
4688.9605002691
 30
0.0
 11
7257.4794183228
 21
4688.9605002691
 31
0.0
  0
LINE
  5
2D6
330
1F
100
AcDbEntity
  8
0
  6
Continuous
 62
     7
370
    25
100
AcDbLine
 10
7264.3657701811
 20
4688.9605002691
 30
0.0
 11
7264.3657701811
 21
4685.9605002691
 31
0.0
  0
LINE
  5
2D7
330
1F
100
AcDbEntity
  8
0
  6
Continuous
 62
     7
370
    25
100
AcDbLine
 10
7257.4794183228
 20
4685.9605002691
 30
0.0
 11
7264.3657701811
 21
4685.9605002691
 31
0.0
  0
LWPOLYLINE
  5
2D8
330
1F
100
AcDbEntity
  8
0
  6
Continuous
 62
     7
370
    25
100
AcDbPolyline
 90
        3
 70
   128
 43
0.0
 10
7258.1191946497
 20
4638.3618857876
 10
7257.7871992407
 20
4638.1414571663
 10
7257.411148687
 20
4638.0760541863
  0
LWPOLYLINE
  5
2D9
330
1F
100
AcDbEntity
  8
0
  6
Continuous
 62
     7
370
    25
100
AcDbPolyline
 90
        3
 70
   128
 43
0.0
 10
7222.5731130427
 20
4638.3618857876
 10
7222.9051084516
 20
4638.1414571663
 10
7223.3026499521
 20
4638.0723164655
  0
LINE
  5
2DA
330
1F
100
AcDbEntity
  8
0
  6
Continuous
 62
     7
370
    25
100
AcDbLine
 10
7216.3265375112
 20
4688.9605002691
 30
0.0
 11
7206.8019471917
 21
4688.9605002691
 31
0.0
  0
ARC
  5
2DB
330
1F
100
AcDbEntity
  8
0
  6
Continuous
 62
     7
370
    25
100
AcDbCircle
 10
7208.5598814902
 20
4689.2250878509
 30
0.0
 40
1.777734397020043
100
AcDbArc
 50
102.5271579555
 51
188.5593696972
  0
LINE
  5
2DC
330
1F
100
AcDbEntity
  8
0
  6
Continuous
 62
     7
370
    25
100
AcDbLine
 10
7208.1742867222
 20
4690.9605002691
 30
0.0
 11
7218.2940666136
 21
4690.9605002691
 31
0.0
  0
LINE
  5
2DD
330
1F
100
AcDbEntity
  8
0
  6
Continuous
 62
     7
370
    25
100
AcDbLine
 10
7206.8019471917
 20
4688.9605002691
 30
0.0
 11
7206.8019471917
 21
4685.9605002691
 31
0.0
  0
LINE
  5
2DE
330
1F
100
AcDbEntity
  8
0
  6
Continuous
 62
     7
370
    25
100
AcDbLine
 10
7206.8019471917
 20
4685.9605002691
 30
0.0
 11
7216.3265375112
 21
4685.9605002691
 31
0.0
  0
ARC
  5
2DF
330
1F
100
AcDbEntity
  8
0
  6
Continuous
 62
     7
370
    25
100
AcDbCircle
 10
7272.1293735456
 20
4689.2229932103
 30
0.0
 40
1.780443090939213
100
AcDbArc
 50
351.5219073503
 51
77.3915649969
  0
LINE
  5
2E0
330
1F
100
AcDbEntity
  8
0
  6
Continuous
 62
     7
370
    25
100
AcDbLine
 10
7273.8903605007
 20
4688.9605002691
 30
0.0
 11
7264.3657701811
 21
4688.9605002691
 31
0.0
  0
LINE
  5
2E1
330
1F
100
AcDbEntity
  8
0
  6
Continuous
 62
     7
370
    25
100
AcDbLine
 10
7262.3982410788
 20
4690.9605002691
 30
0.0
 11
7272.5180209701
 21
4690.9605002691
 31
0.0
  0
LINE
  5
2E2
330
1F
100
AcDbEntity
  8
0
  6
Continuous
 62
     7
370
    25
100
AcDbLine
 10
7273.8903605007
 20
4688.9605002691
 30
0.0
 11
7273.8903605007
 21
4685.9605002691
 31
0.0
  0
LINE
  5
2E3
330
1F
100
AcDbEntity
  8
0
  6
Continuous
 62
     7
370
    25
100
AcDbLine
 10
7264.3657701811
 20
4685.9605002691
 30
0.0
 11
7273.8903605007
 21
4685.9605002691
 31
0.0
  0
LINE
  5
2E4
330
1F
100
AcDbEntity
  8
0
  6
Continuous
 62
     7
370
    25
100
AcDbLine
 10
7209.2446641207
 20
4647.6533353839
 30
0.0
 11
7209.0218607129
 21
4685.9605002691
 31
0.0
  0
LINE
  5
2E5
330
1F
100
AcDbEntity
  8
0
  6
Continuous
 62
     7
370
    25
100
AcDbLine
 10
7271.4476435717
 20
4647.6533353839
 30
0.0
 11
7271.6704469795
 21
4685.9605002691
 31
0.0
  0
LINE
  5
2E6
330
1F
100
AcDbEntity
  8
0
  6
Continuous
 62
     7
370
    25
100
AcDbLine
 10
7233.1168907759
 20
4673.9605002691
 30
0.0
 11
7247.5754169164
 21
4673.9605002691
 31
0.0
  0
LINE
  5
2E7
330
1F
100
AcDbEntity
  8
0
  6
Continuous
 62
     7
370
    25
100
AcDbLine
 10
7246.1196565381
 20
4693.9605002691
 30
0.0
 11
7282.0961538462
 21
4693.9605002691
 31
0.0
  0
LINE
  5
2E8
330
1F
100
AcDbEntity
  8
0
  6
Continuous
 62
     7
370
    25
100
AcDbLine
 10
7198.5961538462
 20
4693.9605002691
 30
0.0
 11
7234.5726511543
 21
4693.9605002691
 31
0.0
  0
LINE
  5
2E9
330
1F
100
AcDbEntity
  8
0
  6
Continuous
 62
     7
370
    25
100
AcDbLine
 10
7272.5180209701
 20
4690.9605002691
 30
0.0
 11
7287.3461538462
 21
4690.9605002691
 31
0.0
  0
LINE
  5
2EA
330
1F
100
AcDbEntity
  8
0
  6
Continuous
 62
     7
370
    25
100
AcDbLine
 10
7194.3461239526
 20
4690.9605002691
 30
0.0
 11
7208.1742867222
 21
4690.9605002691
 31
0.0
  0
LINE
  5
2EB
330
1F
100
AcDbEntity
  8
0
  6
Continuous
 62
     7
370
    25
100
AcDbLine
 10
7273.8903605007
 20
4685.9605002691
 30
0.0
 11
7289.3461538462
 21
4685.9605002691
 31
0.0
  0
LINE
  5
2EC
330
1F
100
AcDbEntity
  8
0
  6
Continuous
 62
     7
370
    25
100
AcDbLine
 10
7191.3461538462
 20
4685.9605002691
 30
0.0
 11
7192.3460914596
 21
4685.9605002691
 31
0.0
  0
LINE
  5
2ED
330
1F
100
AcDbEntity
  8
0
  6
Continuous
 62
     7
370
    25
100
AcDbLine
 10
7194.3461538462
 20
4685.9605002691
 30
0.0
 11
7206.8019471917
 21
4685.9605002691
 31
0.0
  0
LINE
  5
2EE
330
1F
100
AcDbEntity
  8
0
  6
Continuous
 62
     7
370
    25
100
AcDbLine
 10
7229.0868988284
 20
4618.7772616309
 30
0.0
 11
7229.487901843
 21
4634.0909489297
 31
0.0
  0
ARC
  5
2EF
330
1F
100
AcDbEntity
  8
0
  6
Continuous
 62
     7
370
    25
100
AcDbCircle
 10
7223.8662756221
 20
4667.1886333629
 30
0.0
 40
48.69205088749422
100
AcDbArc
 50
263.8450785085
 51
276.1549214915
  0
ARC
  5
2F0
330
1F
100
AcDbEntity
  8
0
  6
Continuous
 62
     7
370
    25
100
AcDbCircle
 10
7256.8260320702
 20
4667.1886332799
 30
0.0
 40
48.69205080495691
100
AcDbArc
 50
263.845078498
 51
276.154921502
  0
LINE
  5
2F1
330
1F
100
AcDbEntity
  8
0
  6
Continuous
 62
     7
370
    25
100
AcDbLine
 10
7251.6054088639
 20
4618.7772616309
 30
0.0
 11
7251.2044058494
 21
4634.0909489297
 31
0.0
  0
LINE
  5
2F2
330
1F
100
AcDbEntity
  8
0
  6
Continuous
 62
     7
370
    25
100
AcDbLine
 10
7229.7846610095
 20
4645.5284124103
 30
0.0
 11
7230.6553087026
 21
4670.4605002691
 31
0.0
  0
LINE
  5
2F3
330
1F
100
AcDbEntity
  8
0
  6
Continuous
 62
     7
370
    25
100
AcDbLine
 10
7250.9076466828
 20
4645.5284124103
 30
0.0
 11
7250.0369989898
 21
4670.4605002691
 31
0.0
  0
LWPOLYLINE
  5
2F4
330
1F
100
AcDbEntity
  8
0
  6
Continuous
 62
     7
370
    25
100
AcDbPolyline
 90
        6
 70
   128
 43
0.0
 10
7222.0892975536
 20
4611.9605002691
 10
7220.8116799312
 20
4612.4530628608
 10
7219.7071602711
 20
4613.8904075918
 10
7218.9431421378
 20
4616.0993948603
 10
7218.7302313415
 20
4617.4031138127
 10
7218.6456524158
 20
4618.7772616309
  0
ARC
  5
2F5
330
1F
100
AcDbEntity
  8
0
  6
Continuous
 62
     7
370
    25
100
AcDbCircle
 10
7222.0892975536
 20
4618.9605002691
 30
0.0
 40
6.999999999999091
100
AcDbArc
 50
270.0
 51
358.5
  0
LWPOLYLINE
  5
2F6
330
1F
100
AcDbEntity
  8
0
  6
Continuous
 62
     7
370
    25
100
AcDbPolyline
 90
        6
 70
   128
 43
0.0
 10
7262.0466552765
 20
4618.7772616309
 10
7261.9620790766
 20
4617.4031321214
 10
7261.7491723607
 20
4616.0994177126
 10
7260.9851474212
 20
4613.8904075918
 10
7259.8806277612
 20
4612.4530628608
 10
7258.6030101387
 20
4611.9605002691
  0
ARC
  5
2F7
330
1F
100
AcDbEntity
  8
0
  6
Continuous
 62
     7
370
    25
100
AcDbCircle
 10
7258.6030101387
 20
4618.9605002691
 30
0.0
 40
7.0
100
AcDbArc
 50
181.5
 51
270.0
  0
LINE
  5
2F8
330
1F
100
AcDbEntity
  8
0
  6
Continuous
 62
     7
370
    25
100
AcDbLine
 10
7222.0892975536
 20
4611.9605002691
 30
0.0
 11
7215.1030101387
 21
4611.9605002691
 31
0.0
  0
LINE
  5
2F9
330
1F
100
AcDbEntity
  8
0
  6
Continuous
 62
     7
370
    25
100
AcDbLine
 10
7265.5892975536
 20
4611.9605002691
 30
0.0
 11
7258.6030101387
 21
4611.9605002691
 31
0.0
  0
LINE
  5
2FA
330
1F
100
AcDbEntity
  8
0
  6
Continuous
 62
     7
370
    25
100
AcDbLine
 10
7229.0868988284
 20
4618.7772616309
 30
0.0
 11
7230.4808523497
 21
4618.7772616309
 31
0.0
  0
LWPOLYLINE
  5
2FB
330
1F
100
AcDbEntity
  8
0
  6
Continuous
 62
     7
370
    25
100
AcDbPolyline
 90
        9
 70
   128
 43
0.0
 10
7225.5328010362
 20
4611.9605002691
 10
7226.482556951
 20
4612.0905710551
 10
7227.397017009
 20
4612.475949582
 10
7228.2421970565
 20
4613.1023139959
 10
7228.9866875983
 20
4613.9463866651
 10
7229.6028210715
 20
4614.9767992479
 10
7230.0677000575
 20
4616.1552584374
 10
7230.3640482206
 20
4617.4379690582
 10
7230.4808523497
 20
4618.7772616309
  0
LINE
  5
2FC
330
1F
100
AcDbEntity
  8
0
  6
Continuous
 62
     7
370
    25
100
AcDbLine
 10
7225.5328010362
 20
4611.9605002691
 30
0.0
 11
7222.0892975536
 21
4611.9605002691
 31
0.0
  0
LINE
  5
2FD
330
1F
100
AcDbEntity
  8
0
  6
Continuous
 62
     7
370
    25
100
AcDbLine
 10
7250.2114553426
 20
4618.7772616309
 30
0.0
 11
7251.6054088639
 21
4618.7772616309
 31
0.0
  0
LWPOLYLINE
  5
2FE
330
1F
100
AcDbEntity
  8
0
  6
Continuous
 62
     7
370
    25
100
AcDbPolyline
 90
        9
 70
   128
 43
0.0
 10
7250.2114553426
 20
4618.7772616309
 10
7250.3282594718
 20
4617.4379690582
 10
7250.6246076348
 20
4616.1552584374
 10
7251.0894866209
 20
4614.9767992479
 10
7251.7056200941
 20
4613.9463866651
 10
7252.4501106358
 20
4613.1023139959
 10
7253.2952906833
 20
4612.475949582
 10
7254.2097507414
 20
4612.0905710551
 10
7255.1595066561
 20
4611.9605002691
  0
LINE
  5
2FF
330
1F
100
AcDbEntity
  8
0
  6
Continuous
 62
     7
370
    25
100
AcDbLine
 10
7258.6030101387
 20
4611.9605002691
 30
0.0
 11
7255.1595066561
 21
4611.9605002691
 31
0.0
  0
LINE
  5
300
330
1F
100
AcDbEntity
  8
0
  6
Continuous
 62
     7
370
    25
100
AcDbLine
 10
7230.4808523497
 20
4618.7772616309
 30
0.0
 11
7234.2234930368
 21
4618.7772616309
 31
0.0
  0
LINE
  5
301
330
1F
100
AcDbEntity
  8
0
  6
Continuous
 62
     7
370
    25
100
AcDbLine
 10
7246.4688146555
 20
4618.7772616309
 30
0.0
 11
7250.2114553426
 21
4618.7772616309
 31
0.0
  0
LWPOLYLINE
  5
302
330
1F
100
AcDbEntity
  8
0
  6
Continuous
 62
     7
370
    25
100
AcDbPolyline
 90
        9
 70
   128
 43
0.0
 10
7229.2754417234
 20
4611.9605002691
 10
7230.2251976381
 20
4612.0905710551
 10
7231.1396576961
 20
4612.475949582
 10
7231.9848377436
 20
4613.1023139959
 10
7232.7293282854
 20
4613.9463866651
 10
7233.3454617586
 20
4614.9767992479
 10
7233.8103407446
 20
4616.1552584374
 10
7234.1066889077
 20
4617.4379690582
 10
7234.2234930368
 20
4618.7772616309
  0
LINE
  5
303
330
1F
100
AcDbEntity
  8
0
  6
Continuous
 62
     7
370
    25
100
AcDbLine
 10
7229.2754417234
 20
4611.9605002691
 30
0.0
 11
7225.5328010362
 21
4611.9605002691
 31
0.0
  0
LWPOLYLINE
  5
304
330
1F
100
AcDbEntity
  8
0
  6
Continuous
 62
     7
370
    25
100
AcDbPolyline
 90
        9
 70
   128
 43
0.0
 10
7246.4688146555
 20
4618.7772616309
 10
7246.5856187846
 20
4617.4379690582
 10
7246.8819669477
 20
4616.1552584374
 10
7247.3468459337
 20
4614.9767992479
 10
7247.9629794069
 20
4613.9463866651
 10
7248.7074699487
 20
4613.1023139959
 10
7249.5526499962
 20
4612.475949582
 10
7250.4671100542
 20
4612.0905710551
 10
7251.416865969
 20
4611.9605002691
  0
LINE
  5
305
330
1F
100
AcDbEntity
  8
0
  6
Continuous
 62
     7
370
    25
100
AcDbLine
 10
7255.1595066561
 20
4611.9605002691
 30
0.0
 11
7251.416865969
 21
4611.9605002691
 31
0.0
  0
LINE
  5
306
330
1F
100
AcDbEntity
  8
0
  6
Continuous
 62
     7
370
    25
100
AcDbLine
 10
7234.2234930368
 20
4618.7772616309
 30
0.0
 11
7237.5887945333
 21
4618.7772616309
 31
0.0
  0
LINE
  5
307
330
1F
100
AcDbEntity
  8
0
  6
Continuous
 62
     7
370
    25
100
AcDbLine
 10
7243.103513159
 20
4618.7772616309
 30
0.0
 11
7246.4688146555
 21
4618.7772616309
 31
0.0
  0
LINE
  5
308
330
1F
100
AcDbEntity
  8
0
  6
Continuous
 62
     7
370
    25
100
AcDbLine
 10
7237.5887945333
 20
4611.9605002691
 30
0.0
 11
7237.5887945333
 21
4618.7772616309
 31
0.0
  0
LINE
  5
309
330
1F
100
AcDbEntity
  8
0
  6
Continuous
 62
     7
370
    25
100
AcDbLine
 10
7237.5887945333
 20
4611.9605002691
 30
0.0
 11
7229.2754417234
 21
4611.9605002691
 31
0.0
  0
LINE
  5
30A
330
1F
100
AcDbEntity
  8
0
  6
Continuous
 62
     7
370
    25
100
AcDbLine
 10
7243.103513159
 20
4618.7772616309
 30
0.0
 11
7243.103513159
 21
4611.9605002691
 31
0.0
  0
LINE
  5
30B
330
1F
100
AcDbEntity
  8
0
  6
Continuous
 62
     7
370
    25
100
AcDbLine
 10
7251.416865969
 20
4611.9605002691
 30
0.0
 11
7243.103513159
 21
4611.9605002691
 31
0.0
  0
LINE
  5
30C
330
1F
100
AcDbEntity
  8
0
  6
Continuous
 62
     7
370
    25
100
AcDbLine
 10
7237.5887945333
 20
4618.7772616309
 30
0.0
 11
7243.103513159
 21
4618.7772616309
 31
0.0
  0
LINE
  5
30D
330
1F
100
AcDbEntity
  8
0
  6
Continuous
 62
     7
370
    25
100
AcDbLine
 10
7243.103513159
 20
4611.9605002691
 30
0.0
 11
7237.5887945333
 21
4611.9605002691
 31
0.0
  0
LINE
  5
30E
330
1F
100
AcDbEntity
  8
0
  6
Continuous
 62
     7
370
    25
100
AcDbLine
 10
7317.5311992699
 20
4601.7605002691
 30
0.0
 11
7317.5311992699
 21
4596.7605002691
 31
0.0
  0
LINE
  5
30F
330
1F
100
AcDbEntity
  8
0
  6
Continuous
 62
     7
370
    25
100
AcDbLine
 10
7317.5311992699
 20
4601.7605002691
 30
0.0
 11
7322.3461538461
 21
4601.7605002691
 31
0.0
  0
LINE
  5
310
330
1F
100
AcDbEntity
  8
0
  6
Continuous
 62
     7
370
    25
100
AcDbLine
 10
7337.1611084224
 20
4601.7605002691
 30
0.0
 11
7337.1611084224
 21
4596.7605002691
 31
0.0
  0
LINE
  5
311
330
1F
100
AcDbEntity
  8
0
  6
Continuous
 62
     7
370
    25
100
AcDbLine
 10
7332.3461538461
 20
4601.7605002691
 30
0.0
 11
7337.1611084224
 21
4601.7605002691
 31
0.0
  0
LINE
  5
312
330
1F
100
AcDbEntity
  8
0
  6
Continuous
 62
     7
370
    25
100
AcDbLine
 10
7175.438676558
 20
4601.7605002691
 30
0.0
 11
7175.438676558
 21
4594.7605002691
 31
0.0
  0
LINE
  5
313
330
1F
100
AcDbEntity
  8
0
  6
Continuous
 62
     7
370
    25
100
AcDbLine
 10
7185.2536311343
 20
4601.7605002691
 30
0.0
 11
7185.2536311343
 21
4594.7605002691
 31
0.0
  0
LINE
  5
314
330
1F
100
AcDbEntity
  8
0
  6
Continuous
 62
     7
370
    25
100
AcDbLine
 10
7175.438676558
 20
4601.7605002691
 30
0.0
 11
7185.2536311343
 21
4601.7605002691
 31
0.0
  0
LINE
  5
315
330
1F
100
AcDbEntity
  8
0
  6
Continuous
 62
     7
370
    25
100
AcDbLine
 10
7175.438676558
 20
4594.7605002691
 30
0.0
 11
7185.2536311343
 21
4594.7605002691
 31
0.0
  0
LINE
  5
316
330
1F
100
AcDbEntity
  8
0
  6
Continuous
 62
     7
370
    25
100
AcDbLine
 10
7170.5311992699
 20
4601.7605002691
 30
0.0
 11
7170.5311992699
 21
4594.7605002691
 31
0.0
  0
LINE
  5
317
330
1F
100
AcDbEntity
  8
0
  6
Continuous
 62
     7
370
    25
100
AcDbLine
 10
7170.5311992699
 20
4601.7605002691
 30
0.0
 11
7175.438676558
 21
4601.7605002691
 31
0.0
  0
LINE
  5
318
330
1F
100
AcDbEntity
  8
0
  6
Continuous
 62
     7
370
    25
100
AcDbLine
 10
7170.5311992699
 20
4594.7605002691
 30
0.0
 11
7175.438676558
 21
4594.7605002691
 31
0.0
  0
LINE
  5
319
330
1F
100
AcDbEntity
  8
0
  6
Continuous
 62
     7
370
    25
100
AcDbLine
 10
7190.1611084224
 20
4601.7605002691
 30
0.0
 11
7190.1611084224
 21
4594.7605002691
 31
0.0
  0
LINE
  5
31A
330
1F
100
AcDbEntity
  8
0
  6
Continuous
 62
     7
370
    25
100
AcDbLine
 10
7185.2536311343
 20
4601.7605002691
 30
0.0
 11
7190.1611084224
 21
4601.7605002691
 31
0.0
  0
LINE
  5
31B
330
1F
100
AcDbEntity
  8
0
  6
Continuous
 62
     7
370
    25
100
AcDbLine
 10
7185.2536311343
 20
4594.7605002691
 30
0.0
 11
7190.1611084224
 21
4594.7605002691
 31
0.0
  0
LINE
  5
31C
330
1F
100
AcDbEntity
  8
0
  6
Continuous
 62
     7
370
    25
100
AcDbLine
 10
7176.3461538462
 20
4681.7605002691
 30
0.0
 11
7184.3461538462
 21
4681.7605002691
 31
0.0
  0
LINE
  5
31D
330
1F
100
AcDbEntity
  8
0
  6
Continuous
 62
     7
370
    25
100
AcDbLine
 10
7312.3461538461
 20
4596.7605002691
 30
0.0
 11
7312.3461538461
 21
4594.7605002691
 31
0.0
  0
LINE
  5
31E
330
1F
100
AcDbEntity
  8
0
  6
Continuous
 62
     7
370
    25
100
AcDbLine
 10
7312.3461538461
 20
4594.7605002691
 30
0.0
 11
7342.3461538461
 21
4594.7605002691
 31
0.0
  0
LINE
  5
31F
330
1F
100
AcDbEntity
  8
0
  6
Continuous
 62
     7
370
    25
100
AcDbLine
 10
7342.3461538461
 20
4596.7605002691
 30
0.0
 11
7342.3461538461
 21
4594.7605002691
 31
0.0
  0
LINE
  5
320
330
1F
100
AcDbEntity
  8
0
  6
Continuous
 62
     7
370
    25
100
AcDbLine
 10
7312.3461538461
 20
4596.7605002691
 30
0.0
 11
7342.3461538461
 21
4596.7605002691
 31
0.0
  0
LINE
  5
321
330
1F
100
AcDbEntity
  8
0
  6
Continuous
 62
     7
370
    25
100
AcDbLine
 10
7323.3461538461
 20
4681.7605002691
 30
0.0
 11
7331.3461538461
 21
4681.7605002691
 31
0.0
  0
LINE
  5
322
330
1F
100
AcDbEntity
  8
0
  6
Continuous
 62
     7
370
    25
100
AcDbLine
 10
7165.3461538462
 20
4596.7605002691
 30
0.0
 11
7165.3461538462
 21
4594.7605002691
 31
0.0
  0
LINE
  5
323
330
1F
100
AcDbEntity
  8
0
  6
Continuous
 62
     7
370
    25
100
AcDbLine
 10
7165.3461538462
 20
4596.7605002691
 30
0.0
 11
7170.5311992699
 21
4596.7605002691
 31
0.0
  0
LINE
  5
324
330
1F
100
AcDbEntity
  8
0
  6
Continuous
 62
     7
370
    25
100
AcDbLine
 10
7190.1611084224
 20
4596.7605002691
 30
0.0
 11
7195.3461538462
 21
4596.7605002691
 31
0.0
  0
LINE
  5
325
330
1F
100
AcDbEntity
  8
0
  6
Continuous
 62
     7
370
    25
100
AcDbLine
 10
7195.3461538462
 20
4596.7605002691
 30
0.0
 11
7195.3461538462
 21
4594.7605002691
 31
0.0
  0
LINE
  5
326
330
1F
100
AcDbEntity
  8
0
  6
Continuous
 62
     7
370
    25
100
AcDbLine
 10
7165.3461538462
 20
4594.7605002691
 30
0.0
 11
7170.5311992699
 21
4594.7605002691
 31
0.0
  0
LINE
  5
327
330
1F
100
AcDbEntity
  8
0
  6
Continuous
 62
     7
370
    25
100
AcDbLine
 10
7190.1611084224
 20
4594.7605002691
 30
0.0
 11
7195.3461538462
 21
4594.7605002691
 31
0.0
  0
LINE
  5
328
330
1F
100
AcDbEntity
  8
0
  6
Continuous
 62
     8
370
    25
100
AcDbLine
 10
7190.3461538462
 20
4715.7605002691
 30
0.0
 11
7190.3461538462
 21
4713.7089589377
 31
0.0
  0
LINE
  5
329
330
1F
100
AcDbEntity
  8
0
  6
Continuous
 62
     8
370
    25
100
AcDbLine
 10
7290.3461538462
 20
4715.7605002691
 30
0.0
 11
7290.3461538462
 21
4713.7089589377
 31
0.0
  0
LINE
  5
32A
330
1F
100
AcDbEntity
  8
0
  6
Continuous
 62
     8
370
    25
100
AcDbLine
 10
7190.3461538462
 20
4709.5019010345
 30
0.0
 11
7190.3461538462
 21
4699.7605002691
 31
0.0
  0
LINE
  5
32B
330
1F
100
AcDbEntity
  8
0
  6
Continuous
 62
     8
370
    25
100
AcDbLine
 10
7290.3461538462
 20
4709.5019010345
 30
0.0
 11
7290.3461538462
 21
4699.7605002691
 31
0.0
  0
LINE
  5
32C
330
1F
100
AcDbEntity
  8
0
  6
Continuous
 62
     8
370
    25
100
AcDbLine
 10
7201.0439277136
 20
4694.4841741954
 30
0.0
 11
7234.5726511543
 21
4694.4841741954
 31
0.0
  0
LINE
  5
32D
330
1F
100
AcDbEntity
  8
0
  6
Continuous
 62
     8
370
    25
100
AcDbLine
 10
7246.1196565381
 20
4694.4841741954
 30
0.0
 11
7279.6483799788
 21
4694.4841741954
 31
0.0
  0
LINE
  5
32E
330
1F
100
AcDbEntity
  8
0
  6
Continuous
 62
     8
370
    25
100
AcDbLine
 10
7201.2830390988
 20
4694.8983272632
 30
0.0
 11
7234.5726511543
 21
4694.8983272632
 31
0.0
  0
LINE
  5
32F
330
1F
100
AcDbEntity
  8
0
  6
Continuous
 62
     8
370
    25
100
AcDbLine
 10
7246.1196565381
 20
4694.8983272632
 30
0.0
 11
7279.4092685936
 21
4694.8983272632
 31
0.0
  0
ARC
  5
330
330
1F
100
AcDbEntity
  8
0
  6
Continuous
 62
     8
370
    25
100
AcDbCircle
 10
7240.346487013
 20
4658.9670173421
 30
0.0
 40
17.49966683632861
100
AcDbArc
 50
269.9989091761
 51
359.9989091346
  0
ARC
  5
331
330
1F
100
AcDbEntity
  8
0
  6
Continuous
 62
     8
370
    25
100
AcDbCircle
 10
7240.3458197743
 20
4658.9670155226
 30
0.0
 40
17.49966501687814
100
AcDbArc
 50
180.0011153103
 51
270.0010937871
  0
LINE
  5
332
330
1F
100
AcDbEntity
  8
0
  6
Continuous
 62
     8
370
    25
100
AcDbLine
 10
7257.4794183228
 20
4688.9605002691
 30
0.0
 11
7243.3461538462
 21
4688.9605002691
 31
0.0
  0
LINE
  5
333
330
1F
100
AcDbEntity
  8
0
  6
Continuous
 62
     8
370
    25
100
AcDbLine
 10
7237.3461538462
 20
4688.9605002691
 30
0.0
 11
7223.2128893695
 21
4688.9605002691
 31
0.0
  0
LINE
  5
334
330
1F
100
AcDbEntity
  8
0
  6
Continuous
 62
     8
370
    25
100
AcDbLine
 10
7262.1741524134
 20
4674.7028120134
 30
0.0
 11
7262.2709798461
 21
4685.9605002691
 31
0.0
  0
LINE
  5
335
330
1F
100
AcDbEntity
  8
0
  6
Continuous
 62
     8
370
    25
100
AcDbLine
 10
7256.357514548
 20
4680.5515534636
 30
0.0
 11
7256.357514548
 21
4685.9605002691
 31
0.0
  0
LINE
  5
336
330
1F
100
AcDbEntity
  8
0
  6
Continuous
 62
     8
370
    25
100
AcDbLine
 10
7218.5181552789
 20
4674.7028120134
 30
0.0
 11
7218.4213278463
 21
4685.9605002691
 31
0.0
  0
LINE
  5
337
330
1F
100
AcDbEntity
  8
0
  6
Continuous
 62
     8
370
    25
100
AcDbLine
 10
7224.3347931443
 20
4680.5515534636
 30
0.0
 11
7224.3347931443
 21
4685.9605002691
 31
0.0
  0
ARC
  5
338
330
1F
100
AcDbEntity
  8
0
  6
Continuous
 62
     8
370
    25
100
AcDbCircle
 10
7255.9065467514
 20
4643.7620485397
 30
0.0
 40
5.835886262694057
100
AcDbArc
 50
292.2807405459
 51
346.2292893366
  0
ARC
  5
339
330
1F
100
AcDbEntity
  8
0
  6
Continuous
 62
     8
370
    25
100
AcDbCircle
 10
7224.7873605024
 20
4643.7636462857
 30
0.0
 40
5.837971247900382
100
AcDbArc
 50
193.7452696728
 51
247.7106782337
  0
ARC
  5
33A
330
1F
100
AcDbEntity
  8
0
  6
Continuous
 62
     8
370
    25
100
AcDbCircle
 10
7281.493086347
 20
4599.8394416173
 30
0.0
 40
48.85774613790174
100
AcDbArc
 50
101.8649724379
 51
111.5369123433
  0
LWPOLYLINE
  5
33B
330
1F
100
AcDbEntity
  8
0
  6
Continuous
 62
     8
370
    25
100
AcDbPolyline
 90
        8
 70
   128
 43
0.0
 10
7271.4476435717
 20
4647.6533353839
 10
7271.4834348831
 20
4646.1808251627
 10
7271.3044085827
 20
4644.7783953615
 10
7270.9187455984
 20
4643.5101325269
 10
7270.3440694924
 20
4642.4339922052
 10
7269.6066411206
 20
4641.5991505595
 10
7268.740158596
 20
4641.043757177
 10
7268.0629143258
 20
4640.8325388587
  0
ARC
  5
33C
330
1F
100
AcDbEntity
  8
0
  6
Continuous
 62
     8
370
    25
100
AcDbCircle
 10
7199.281729707
 20
4600.1139803827
 30
0.0
 40
48.57211479919007
100
AcDbArc
 50
68.5846849951
 51
78.1636904354
  0
LWPOLYLINE
  5
33D
330
1F
100
AcDbEntity
  8
0
  6
Continuous
 62
     8
370
    25
100
AcDbPolyline
 90
        8
 70
   128
 43
0.0
 10
7209.2446641207
 20
4647.6533353839
 10
7209.2088728092
 20
4646.1808251627
 10
7209.3878991096
 20
4644.7783953615
 10
7209.7735620939
 20
4643.5101325269
 10
7210.3482382
 20
4642.4339922052
 10
7211.0856665717
 20
4641.5991505595
 10
7211.9521490963
 20
4641.043757177
 10
7212.6211355769
 20
4640.8341085565
  0
LWPOLYLINE
  5
33E
330
1F
100
AcDbEntity
  8
0
  6
Continuous
 62
     8
370
    25
100
AcDbPolyline
 90
        7
 70
   128
 43
0.0
 10
7271.4476435717
 20
4647.6533353839
 10
7276.7588030555
 20
4648.6964438943
 10
7281.1667733362
 20
4650.0784419677
 10
7284.3003775764
 20
4651.7221599928
 10
7286.3110029508
 20
4653.7225094088
 10
7287.0774480059
 20
4656.0014734288
 10
7287.0199387054
 20
4656.3149679318
  0
LWPOLYLINE
  5
33F
330
1F
100
AcDbEntity
  8
0
  6
Continuous
 62
     8
370
    25
100
AcDbPolyline
 90
       11
 70
   128
 43
0.0
 10
7193.6338520987
 20
4656.2939834261
 10
7193.6126575033
 20
4656.0449974029
 10
7193.8850262429
 20
4654.7127773181
 10
7194.5865718441
 20
4653.4268927905
 10
7195.7145395972
 20
4652.2421705102
 10
7197.0957059393
 20
4651.2663698122
 10
7198.8151325825
 20
4650.37961475
 10
7200.9386806764
 20
4649.5581289067
 10
7203.3989784642
 20
4648.8314049453
 10
7206.1610693789
 20
4648.2008243216
 10
7209.2446641207
 20
4647.6533353839
  0
LINE
  5
340
330
1F
100
AcDbEntity
  8
0
  6
Continuous
 62
     8
370
    25
100
AcDbLine
 10
7206.8019471917
 20
4688.9605002691
 30
0.0
 11
7194.3461109555
 21
4688.9605002691
 31
0.0
  0
LINE
  5
341
330
1F
100
AcDbEntity
  8
0
  6
Continuous
 62
     8
370
    25
100
AcDbLine
 10
7192.3461109554
 20
4688.9605002691
 30
0.0
 11
7191.3461538462
 21
4688.9605002691
 31
0.0
  0
LINE
  5
342
330
1F
100
AcDbEntity
  8
0
  6
Continuous
 62
     8
370
    25
100
AcDbLine
 10
7289.3461538462
 20
4688.9605002691
 30
0.0
 11
7273.8903605007
 21
4688.9605002691
 31
0.0
  0
LINE
  5
343
330
1F
100
AcDbEntity
  8
0
  6
Continuous
 62
     8
370
    25
100
AcDbLine
 10
7218.6456524158
 20
4618.7772616309
 30
0.0
 11
7218.2783903031
 21
4639.6146633631
 31
0.0
  0
LINE
  5
344
330
1F
100
AcDbEntity
  8
0
  6
Continuous
 62
     8
370
    25
100
AcDbLine
 10
7262.0466552765
 20
4618.7772616309
 30
0.0
 11
7272.5868988284
 21
4618.7772616309
 31
0.0
  0
LINE
  5
345
330
1F
100
AcDbEntity
  8
0
  6
Continuous
 62
     8
370
    25
100
AcDbLine
 10
7208.1054088639
 20
4618.7772616309
 30
0.0
 11
7218.6456524158
 21
4618.7772616309
 31
0.0
  0
LINE
  5
346
330
1F
100
AcDbEntity
  8
0
  6
Continuous
 62
     8
370
    25
100
AcDbLine
 10
7262.0466552765
 20
4618.777261631
 30
0.0
 11
7262.4140005626
 21
4639.6193823798
 31
0.0
  0
LINE
  5
347
330
1F
100
AcDbEntity
  8
0
  6
Continuous
 62
     8
370
    25
100
AcDbLine
 10
7230.4808523497
 20
4618.7772616309
 30
0.0
 11
7230.7548022677
 21
4633.5723754226
 31
0.0
  0
LINE
  5
348
330
1F
100
AcDbEntity
  8
0
  6
Continuous
 62
     8
370
    25
100
AcDbLine
 10
7250.2114553426
 20
4618.7772616309
 30
0.0
 11
7249.9375054247
 21
4633.5723754226
 31
0.0
  0
LINE
  5
349
330
1F
100
AcDbEntity
  8
0
  6
Continuous
 62
     8
370
    25
100
AcDbLine
 10
7230.6659145802
 20
4644.9032514306
 30
0.0
 11
7231.2969923886
 21
4670.4605002691
 31
0.0
  0
LINE
  5
34A
330
1F
100
AcDbEntity
  8
0
  6
Continuous
 62
     8
370
    25
100
AcDbLine
 10
7250.0263931121
 20
4644.9032514306
 30
0.0
 11
7249.3953153037
 21
4670.4605002691
 31
0.0
  0
LINE
  5
34B
330
1F
100
AcDbEntity
  8
0
  6
Continuous
 62
     8
370
    25
100
AcDbLine
 10
7234.7731373038
 20
4642.8932849254
 30
0.0
 11
7235.4538466381
 21
4670.4605002691
 31
0.0
  0
LINE
  5
34C
330
1F
100
AcDbEntity
  8
0
  6
Continuous
 62
     8
370
    25
100
AcDbLine
 10
7245.9191703885
 20
4642.8932849254
 30
0.0
 11
7245.2384610542
 21
4670.4605002691
 31
0.0
  0
LINE
  5
34D
330
1F
100
AcDbEntity
  8
0
  6
Continuous
 62
     8
370
    25
100
AcDbLine
 10
7234.2234930368
 20
4618.7772616309
 30
0.0
 11
7234.4767908596
 21
4632.4570252147
 31
0.0
  0
LINE
  5
34E
330
1F
100
AcDbEntity
  8
0
  6
Continuous
 62
     8
370
    25
100
AcDbLine
 10
7246.4688146555
 20
4618.7772616309
 30
0.0
 11
7246.2155168327
 21
4632.4570252147
 31
0.0
  0
LINE
  5
34F
330
1F
100
AcDbEntity
  8
0
  6
Continuous
 62
     8
370
    25
100
AcDbLine
 10
7237.0030080957
 20
4642.3045038544
 30
0.0
 11
7237.0030080957
 21
4670.4605002691
 31
0.0
  0
LINE
  5
350
330
1F
100
AcDbEntity
  8
0
  6
Continuous
 62
     8
370
    25
100
AcDbLine
 10
7243.6892995967
 20
4642.3045038544
 30
0.0
 11
7243.6892995967
 21
4670.4605002691
 31
0.0
  0
LINE
  5
351
330
1F
100
AcDbEntity
  8
0
  6
Continuous
 62
     8
370
    25
100
AcDbLine
 10
7237.5887945333
 20
4618.7772616309
 30
0.0
 11
7237.5887945333
 21
4631.95251861
 31
0.0
  0
LINE
  5
352
330
1F
100
AcDbEntity
  8
0
  6
Continuous
 62
     8
370
    25
100
AcDbLine
 10
7243.103513159
 20
4618.7772616309
 30
0.0
 11
7243.103513159
 21
4631.95251861
 31
0.0
  0
ENDSEC
  0
SECTION
  2
OBJECTS
  0
DICTIONARY
  5
C
330
0
100
AcDbDictionary
281
     1
  3
ACAD_GROUP
350
D
  3
ACAD_LAYOUT
350
1A
  3
ACAD_MLINESTYLE
350
17
  3
ACAD_PLOTSETTINGS
350
19
  3
ACAD_PLOTSTYLENAME
350
E
  3
ACAD_SCALELIST
350
47
  3
DWGPROPS
350
353
  0
DICTIONARY
  5
D
102
{ACAD_REACTORS
330
C
102
}
330
C
100
AcDbDictionary
281
     1
  0
DICTIONARY
  5
1A
102
{ACAD_REACTORS
330
C
102
}
330
C
100
AcDbDictionary
281
     1
  3
Layout1
350
1E
  3
Layout2
350
26
  3
Model
350
22
  0
DICTIONARY
  5
17
102
{ACAD_REACTORS
330
C
102
}
330
C
100
AcDbDictionary
281
     1
  3
Standard
350
18
  0
DICTIONARY
  5
19
102
{ACAD_REACTORS
330
C
102
}
330
C
100
AcDbDictionary
281
     1
  0
ACDBDICTIONARYWDFLT
  5
E
102
{ACAD_REACTORS
330
C
102
}
330
C
100
AcDbDictionary
281
     1
  3
Normal
350
F
100
AcDbDictionaryWithDefault
340
F
  0
DICTIONARY
  5
47
102
{ACAD_REACTORS
330
C
102
}
330
C
100
AcDbDictionary
281
     1
  3
A0
350
48
  3
A1
350
49
  3
A2
350
4A
  3
A3
350
4B
  3
A4
350
4C
  3
A5
350
4D
  3
A6
350
4E
  3
A7
350
4F
  3
A8
350
50
  3
A9
350
51
  3
B0
350
52
  3
B1
350
53
  3
B2
350
54
  3
B3
350
55
  3
B4
350
56
  3
B5
350
57
  3
B6
350
58
  3
B7
350
59
  3
B8
350
5A
  3
B9
350
5B
  3
C0
350
5C
  3
C1
350
5D
  3
C2
350
5E
  3
C3
350
5F
  3
C4
350
60
  3
C5
350
61
  3
C6
350
62
  3
C7
350
63
  3
C8
350
64
  3
C9
350
65
  3
D0
350
66
  3
D1
350
67
  3
D2
350
68
  0
XRECORD
  5
353
102
{ACAD_REACTORS
330
C
102
}
330
C
100
AcDbXrecord
280
     1
  1
DWGPROPS COOKIE
  2

  3

  4

  6

  7

  8
radek.stransky
  9

300
=
301
=
302
=
303
=
304
=
305
=
306
=
307
=
308
=
309
=
 40
0.0
 41
2459157.415675174
 42
2459157.415675428
  1

 90
        0
  0
LAYOUT
  5
1E
102
{ACAD_REACTORS
330
1A
102
}
330
1A
100
AcDbPlotSettings
  1

  2
none_device
  4

  6

 40
0.0
 41
0.0
 42
0.0
 43
0.0
 44
0.0
 45
0.0
 46
0.0
 47
0.0
 48
0.0
 49
0.0
140
0.0
141
0.0
142
1.0
143
1.0
 70
   688
 72
     1
 73
     0
 74
     5
  7

 75
    16
147
1.0
148
0.0
149
0.0
100
AcDbLayout
  1
Layout1
 70
     1
 71
     1
 10
0.0
 20
0.0
 11
420.0
 21
297.0
 12
0.0
 22
0.0
 32
0.0
 14
1.0000000000E+20
 24
1.0000000000E+20
 34
1.0000000000E+20
 15
-1.0000000000E+20
 25
-1.0000000000E+20
 35
-1.0000000000E+20
146
0.0
 13
0.0
 23
0.0
 33
0.0
 16
1.0
 26
0.0
 36
0.0
 17
0.0
 27
1.0
 37
0.0
 76
     0
330
1B
  0
LAYOUT
  5
26
102
{ACAD_REACTORS
330
1A
102
}
330
1A
100
AcDbPlotSettings
  1

  2
none_device
  4

  6

 40
0.0
 41
0.0
 42
0.0
 43
0.0
 44
0.0
 45
0.0
 46
0.0
 47
0.0
 48
0.0
 49
0.0
140
0.0
141
0.0
142
1.0
143
1.0
 70
   688
 72
     1
 73
     0
 74
     5
  7

 75
    16
147
1.0
148
0.0
149
0.0
100
AcDbLayout
  1
Layout2
 70
     1
 71
     2
 10
0.0
 20
0.0
 11
0.0
 21
0.0
 12
0.0
 22
0.0
 32
0.0
 14
0.0
 24
0.0
 34
0.0
 15
0.0
 25
0.0
 35
0.0
146
0.0
 13
0.0
 23
0.0
 33
0.0
 16
1.0
 26
0.0
 36
0.0
 17
0.0
 27
1.0
 37
0.0
 76
     0
330
23
  0
LAYOUT
  5
22
102
{ACAD_REACTORS
330
1A
102
}
330
1A
100
AcDbPlotSettings
  1

  2
none_device
  4
Letter_(8.50_x_11.00_Inches)
  6

 40
6.35
 41
6.35
 42
6.35000508
 43
6.35000508
 44
215.9
 45
279.4
 46
0.0
 47
0.0
 48
0.0
 49
0.0
140
0.0
141
0.0
142
1.0
143
1.0
 70
  1712
 72
     1
 73
     0
 74
     0
  7

 75
     0
147
1.0
148
0.0
149
0.0
100
AcDbLayout
  1
Model
 70
     1
 71
     0
 10
0.0
 20
0.0
 11
20000.0
 21
10000.0
 12
0.0
 22
0.0
 32
0.0
 14
0.0
 24
0.0
 34
0.0
 15
20000.0
 25
10000.0
 35
0.0
146
0.0
 13
0.0
 23
0.0
 33
0.0
 16
1.0
 26
0.0
 36
0.0
 17
0.0
 27
1.0
 37
0.0
 76
     0
330
1F
331
29
  0
MLINESTYLE
  5
18
102
{ACAD_REACTORS
330
17
102
}
330
17
100
AcDbMlineStyle
  2
Standard
 70
     0
  3

 62
   256
 51
90.0
 52
90.0
 71
     2
 49
0.5
 62
   256
  6
BYLAYER
 49
-0.5
 62
   256
  6
BYLAYER
  0
ACDBPLACEHOLDER
  5
F
102
{ACAD_REACTORS
330
E
102
}
330
E
  0
SCALE
  5
48
102
{ACAD_REACTORS
330
47
102
}
330
47
100
AcDbScale
 70
     0
300
1:1
140
1.0
141
1.0
290
     1
  0
SCALE
  5
49
102
{ACAD_REACTORS
330
47
102
}
330
47
100
AcDbScale
 70
     0
300
1:2
140
1.0
141
2.0
290
     0
  0
SCALE
  5
4A
102
{ACAD_REACTORS
330
47
102
}
330
47
100
AcDbScale
 70
     0
300
1:4
140
1.0
141
4.0
290
     0
  0
SCALE
  5
4B
102
{ACAD_REACTORS
330
47
102
}
330
47
100
AcDbScale
 70
     0
300
1:5
140
1.0
141
5.0
290
     0
  0
SCALE
  5
4C
102
{ACAD_REACTORS
330
47
102
}
330
47
100
AcDbScale
 70
     0
300
1:8
140
1.0
141
8.0
290
     0
  0
SCALE
  5
4D
102
{ACAD_REACTORS
330
47
102
}
330
47
100
AcDbScale
 70
     0
300
1:10
140
1.0
141
10.0
290
     0
  0
SCALE
  5
4E
102
{ACAD_REACTORS
330
47
102
}
330
47
100
AcDbScale
 70
     0
300
1:16
140
1.0
141
16.0
290
     0
  0
SCALE
  5
4F
102
{ACAD_REACTORS
330
47
102
}
330
47
100
AcDbScale
 70
     0
300
1:20
140
1.0
141
20.0
290
     0
  0
SCALE
  5
50
102
{ACAD_REACTORS
330
47
102
}
330
47
100
AcDbScale
 70
     0
300
1:30
140
1.0
141
30.0
290
     0
  0
SCALE
  5
51
102
{ACAD_REACTORS
330
47
102
}
330
47
100
AcDbScale
 70
     0
300
1:40
140
1.0
141
40.0
290
     0
  0
SCALE
  5
52
102
{ACAD_REACTORS
330
47
102
}
330
47
100
AcDbScale
 70
     0
300
1:50
140
1.0
141
50.0
290
     0
  0
SCALE
  5
53
102
{ACAD_REACTORS
330
47
102
}
330
47
100
AcDbScale
 70
     0
300
1:100
140
1.0
141
100.0
290
     0
  0
SCALE
  5
54
102
{ACAD_REACTORS
330
47
102
}
330
47
100
AcDbScale
 70
     0
300
2:1
140
2.0
141
1.0
290
     0
  0
SCALE
  5
55
102
{ACAD_REACTORS
330
47
102
}
330
47
100
AcDbScale
 70
     0
300
4:1
140
4.0
141
1.0
290
     0
  0
SCALE
  5
56
102
{ACAD_REACTORS
330
47
102
}
330
47
100
AcDbScale
 70
     0
300
8:1
140
8.0
141
1.0
290
     0
  0
SCALE
  5
57
102
{ACAD_REACTORS
330
47
102
}
330
47
100
AcDbScale
 70
     0
300
10:1
140
10.0
141
1.0
290
     0
  0
SCALE
  5
58
102
{ACAD_REACTORS
330
47
102
}
330
47
100
AcDbScale
 70
     0
300
100:1
140
100.0
141
1.0
290
     0
  0
SCALE
  5
59
102
{ACAD_REACTORS
330
47
102
}
330
47
100
AcDbScale
 70
     0
300
1/128" = 1'-0"
140
0.0078125
141
12.0
290
     0
  0
SCALE
  5
5A
102
{ACAD_REACTORS
330
47
102
}
330
47
100
AcDbScale
 70
     0
300
1/64" = 1'-0"
140
0.015625
141
12.0
290
     0
  0
SCALE
  5
5B
102
{ACAD_REACTORS
330
47
102
}
330
47
100
AcDbScale
 70
     0
300
1/32" = 1'-0"
140
0.03125
141
12.0
290
     0
  0
SCALE
  5
5C
102
{ACAD_REACTORS
330
47
102
}
330
47
100
AcDbScale
 70
     0
300
1/16" = 1'-0"
140
0.0625
141
12.0
290
     0
  0
SCALE
  5
5D
102
{ACAD_REACTORS
330
47
102
}
330
47
100
AcDbScale
 70
     0
300
3/32" = 1'-0"
140
0.09375
141
12.0
290
     0
  0
SCALE
  5
5E
102
{ACAD_REACTORS
330
47
102
}
330
47
100
AcDbScale
 70
     0
300
1/8" = 1'-0"
140
0.125
141
12.0
290
     0
  0
SCALE
  5
5F
102
{ACAD_REACTORS
330
47
102
}
330
47
100
AcDbScale
 70
     0
300
3/16" = 1'-0"
140
0.1875
141
12.0
290
     0
  0
SCALE
  5
60
102
{ACAD_REACTORS
330
47
102
}
330
47
100
AcDbScale
 70
     0
300
1/4" = 1'-0"
140
0.25
141
12.0
290
     0
  0
SCALE
  5
61
102
{ACAD_REACTORS
330
47
102
}
330
47
100
AcDbScale
 70
     0
300
3/8" = 1'-0"
140
0.375
141
12.0
290
     0
  0
SCALE
  5
62
102
{ACAD_REACTORS
330
47
102
}
330
47
100
AcDbScale
 70
     0
300
1/2" = 1'-0"
140
0.5
141
12.0
290
     0
  0
SCALE
  5
63
102
{ACAD_REACTORS
330
47
102
}
330
47
100
AcDbScale
 70
     0
300
3/4" = 1'-0"
140
0.75
141
12.0
290
     0
  0
SCALE
  5
64
102
{ACAD_REACTORS
330
47
102
}
330
47
100
AcDbScale
 70
     0
300
1" = 1'-0"
140
1.0
141
12.0
290
     0
  0
SCALE
  5
65
102
{ACAD_REACTORS
330
47
102
}
330
47
100
AcDbScale
 70
     0
300
1-1/2" = 1'-0"
140
1.5
141
12.0
290
     0
  0
SCALE
  5
66
102
{ACAD_REACTORS
330
47
102
}
330
47
100
AcDbScale
 70
     0
300
3" = 1'-0"
140
3.0
141
12.0
290
     0
  0
SCALE
  5
67
102
{ACAD_REACTORS
330
47
102
}
330
47
100
AcDbScale
 70
     0
300
6" = 1'-0"
140
6.0
141
12.0
290
     0
  0
SCALE
  5
68
102
{ACAD_REACTORS
330
47
102
}
330
47
100
AcDbScale
 70
     0
300
1'-0" = 1'-0"
140
12.0
141
12.0
290
     0
  0
ENDSEC
  0
EOF
