  0
SECTION
  2
HEADER
  9
$ACADVER
  1
AC1015
  9
$ACADMAINTVER
 70
     6
  9
$DWGCODEPAGE
  3
ANSI_1250
  9
$INSBASE
 10
0.0
 20
0.0
 30
0.0
  9
$EXTMIN
 10
0.0
 20
0.0
 30
0.0
  9
$EXTMAX
 10
20000.0
 20
10000.0
 30
0.0
  9
$LIMMIN
 10
0.0
 20
0.0
  9
$LIMMAX
 10
20000.0
 20
10000.0
  9
$ORTHOMODE
 70
     0
  9
$REGENMODE
 70
     1
  9
$FILLMODE
 70
     1
  9
$QTEXTMODE
 70
     0
  9
$MIRRTEXT
 70
     1
  9
$LTSCALE
 40
1.0
  9
$ATTMODE
 70
     1
  9
$TEXTSIZE
 40
2.0
  9
$TRACEWID
 40
1.0
  9
$TEXTSTYLE
  7
Standard
  9
$CLAYER
  8
0
  9
$CELTYPE
  6
ByLayer
  9
$CECOLOR
 62
   256
  9
$CELTSCALE
 40
1.0
  9
$DISPSILH
 70
     0
  9
$DIMSCALE
 40
1.0
  9
$DIMASZ
 40
2.0
  9
$DIMEXO
 40
1.0
  9
$DIMDLI
 40
3.75
  9
$DIMRND
 40
0.0
  9
$DIMDLE
 40
0.0
  9
$DIMEXE
 40
1.0
  9
$DIMTP
 40
0.0
  9
$DIMTM
 40
0.0
  9
$DIMTXT
 40
2.0
  9
$DIMCEN
 40
2.5
  9
$DIMTSZ
 40
0.0
  9
$DIMTOL
 70
     0
  9
$DIMLIM
 70
     0
  9
$DIMTIH
 70
     1
  9
$DIMTOH
 70
     1
  9
$DIMSE1
 70
     0
  9
$DIMSE2
 70
     0
  9
$DIMTAD
 70
     1
  9
$DIMZIN
 70
     0
  9
$DIMBLK
  1

  9
$DIMASO
 70
     1
  9
$DIMSHO
 70
     1
  9
$DIMPOST
  1

  9
$DIMAPOST
  1

  9
$DIMALT
 70
     0
  9
$DIMALTD
 70
     3
  9
$DIMALTF
 40
0.0393700787
  9
$DIMLFAC
 40
1.0
  9
$DIMTOFL
 70
     1
  9
$DIMTVP
 40
0.0
  9
$DIMTIX
 70
     0
  9
$DIMSOXD
 70
     0
  9
$DIMSAH
 70
     0
  9
$DIMBLK1
  1

  9
$DIMBLK2
  1

  9
$DIMSTYLE
  2
ISO-25
  9
$DIMCLRD
 70
     0
  9
$DIMCLRE
 70
     0
  9
$DIMCLRT
 70
     0
  9
$DIMTFAC
 40
1.0
  9
$DIMGAP
 40
1.524
  9
$DIMJUST
 70
     0
  9
$DIMSD1
 70
     0
  9
$DIMSD2
 70
     0
  9
$DIMTOLJ
 70
     0
  9
$DIMTZIN
 70
     0
  9
$DIMALTZ
 70
     0
  9
$DIMALTTZ
 70
     0
  9
$DIMUPT
 70
     0
  9
$DIMDEC
 70
     2
  9
$DIMTDEC
 70
     0
  9
$DIMALTU
 70
     2
  9
$DIMALTTD
 70
     3
  9
$DIMTXSTY
  7
Standard
  9
$DIMAUNIT
 70
     0
  9
$DIMADEC
 70
     2
  9
$DIMALTRND
 40
0.0
  9
$DIMAZIN
 70
     0
  9
$DIMDSEP
 70
    44
  9
$DIMATFIT
 70
     3
  9
$DIMFRAC
 70
     0
  9
$DIMLDRBLK
  1

  9
$DIMLUNIT
 70
     2
  9
$DIMLWD
 70
    -2
  9
$DIMLWE
 70
    -2
  9
$DIMTMOVE
 70
     0
  9
$LUNITS
 70
     2
  9
$LUPREC
 70
     3
  9
$SKETCHINC
 40
1.0
  9
$FILLETRAD
 40
10.0
  9
$AUNITS
 70
     0
  9
$AUPREC
 70
     2
  9
$MENU
  1
.
  9
$ELEVATION
 40
0.0
  9
$PELEVATION
 40
0.0
  9
$THICKNESS
 40
0.0
  9
$LIMCHECK
 70
     0
  9
$CHAMFERA
 40
0.0
  9
$CHAMFERB
 40
0.0
  9
$CHAMFERC
 40
0.0
  9
$CHAMFERD
 40
0.0
  9
$SKPOLY
 70
     0
  9
$TDCREATE
 40
2459136.412364097
  9
$TDUCREATE
 40
2459136.329030764
  9
$TDUPDATE
 40
2459136.412364386
  9
$TDUUPDATE
 40
2459136.329031053
  9
$TDINDWG
 40
0.0000000116
  9
$TDUSRTIMER
 40
0.0000000116
  9
$USRTIMER
 70
     1
  9
$ANGBASE
 50
0.0
  9
$ANGDIR
 70
     0
  9
$PDMODE
 70
     0
  9
$PDSIZE
 40
-1.0
  9
$PLINEWID
 40
0.0
  9
$SPLFRAME
 70
     0
  9
$SPLINETYPE
 70
     6
  9
$SPLINESEGS
 70
     8
  9
$HANDSEED
  5
159
  9
$SURFTAB1
 70
     6
  9
$SURFTAB2
 70
     6
  9
$SURFTYPE
 70
     6
  9
$SURFU
 70
     6
  9
$SURFV
 70
     6
  9
$UCSBASE
  2

  9
$UCSNAME
  2

  9
$UCSORG
 10
0.0
 20
0.0
 30
0.0
  9
$UCSXDIR
 10
1.0
 20
0.0
 30
0.0
  9
$UCSYDIR
 10
0.0
 20
1.0
 30
0.0
  9
$UCSORTHOREF
  2

  9
$UCSORTHOVIEW
 70
     0
  9
$UCSORGTOP
 10
0.0
 20
0.0
 30
0.0
  9
$UCSORGBOTTOM
 10
0.0
 20
0.0
 30
0.0
  9
$UCSORGLEFT
 10
0.0
 20
0.0
 30
0.0
  9
$UCSORGRIGHT
 10
0.0
 20
0.0
 30
0.0
  9
$UCSORGFRONT
 10
0.0
 20
0.0
 30
0.0
  9
$UCSORGBACK
 10
0.0
 20
0.0
 30
0.0
  9
$PUCSBASE
  2

  9
$PUCSNAME
  2

  9
$PUCSORG
 10
0.0
 20
0.0
 30
0.0
  9
$PUCSXDIR
 10
1.0
 20
0.0
 30
0.0
  9
$PUCSYDIR
 10
0.0
 20
1.0
 30
0.0
  9
$PUCSORTHOREF
  2

  9
$PUCSORTHOVIEW
 70
     0
  9
$PUCSORGTOP
 10
0.0
 20
0.0
 30
0.0
  9
$PUCSORGBOTTOM
 10
0.0
 20
0.0
 30
0.0
  9
$PUCSORGLEFT
 10
0.0
 20
0.0
 30
0.0
  9
$PUCSORGRIGHT
 10
0.0
 20
0.0
 30
0.0
  9
$PUCSORGFRONT
 10
0.0
 20
0.0
 30
0.0
  9
$PUCSORGBACK
 10
0.0
 20
0.0
 30
0.0
  9
$USERI1
 70
     0
  9
$USERI2
 70
     0
  9
$USERI3
 70
     0
  9
$USERI4
 70
     0
  9
$USERI5
 70
     0
  9
$USERR1
 40
0.0
  9
$USERR2
 40
0.0
  9
$USERR3
 40
0.0
  9
$USERR4
 40
0.0
  9
$USERR5
 40
0.0
  9
$WORLDVIEW
 70
     1
  9
$SHADEDGE
 70
     3
  9
$SHADEDIF
 70
    70
  9
$TILEMODE
 70
     1
  9
$MAXACTVP
 70
    64
  9
$PINSBASE
 10
0.0
 20
0.0
 30
0.0
  9
$PLIMCHECK
 70
     0
  9
$PEXTMIN
 10
1.0000000000E+20
 20
1.0000000000E+20
 30
1.0000000000E+20
  9
$PEXTMAX
 10
-1.0000000000E+20
 20
-1.0000000000E+20
 30
-1.0000000000E+20
  9
$PLIMMIN
 10
0.0
 20
0.0
  9
$PLIMMAX
 10
420.0
 20
297.0
  9
$UNITMODE
 70
     0
  9
$VISRETAIN
 70
     1
  9
$PLINEGEN
 70
     0
  9
$PSLTSCALE
 70
     1
  9
$TREEDEPTH
 70
  3020
  9
$CMLSTYLE
  2
Standard
  9
$CMLJUST
 70
     0
  9
$CMLSCALE
 40
20.0
  9
$PROXYGRAPHICS
 70
     1
  9
$MEASUREMENT
 70
     1
  9
$CELWEIGHT
370
    -1
  9
$ENDCAPS
280
     0
  9
$JOINSTYLE
280
     0
  9
$LWDISPLAY
290
     1
  9
$INSUNITS
 70
     4
  9
$HYPERLINKBASE
  1

  9
$STYLESHEET
  1

  9
$XEDIT
290
     1
  9
$CEPSNTYPE
380
     0
  9
$PSTYLEMODE
290
     1
  9
$FINGERPRINTGUID
  2
{7acb8a95-f5fb-4258-bffb-ab4cf07267bc}
  9
$VERSIONGUID
  2
{FAEB1C32-E019-11D5-929B-00C0DF256EC4}
  9
$EXTNAMES
290
     1
  9
$PSVPSCALE
 40
0.0
  9
$OLESTARTUP
290
     0
  0
ENDSEC
  0
SECTION
  2
CLASSES
  0
CLASS
  1
ACDBDICTIONARYWDFLT
  2
AcDbDictionaryWithDefault
  3
ObjectDBX Classes
 90
        0
280
     0
281
     0
  0
CLASS
  1
VISUALSTYLE
  2
AcDbVisualStyle
  3
ObjectDBX Classes
 90
     4095
280
     0
281
     0
  0
CLASS
  1
MATERIAL
  2
AcDbMaterial
  3
ObjectDBX Classes
 90
     1153
280
     0
281
     0
  0
CLASS
  1
SCALE
  2
AcDbScale
  3
ObjectDBX Classes
 90
     1153
280
     0
281
     0
  0
CLASS
  1
TABLESTYLE
  2
AcDbTableStyle
  3
ObjectDBX Classes
 90
     4095
280
     0
281
     0
  0
CLASS
  1
MLEADERSTYLE
  2
AcDbMLeaderStyle
  3
ACDB_MLEADERSTYLE_CLASS
 90
     4095
280
     0
281
     0
  0
CLASS
  1
SUN
  2
AcDbSun
  3
SCENEOE
 90
     1153
280
     0
281
     0
  0
CLASS
  1
ACDBPLACEHOLDER
  2
AcDbPlaceHolder
  3
ObjectDBX Classes
 90
        0
280
     0
281
     0
  0
CLASS
  1
LAYOUT
  2
AcDbLayout
  3
ObjectDBX Classes
 90
        0
280
     0
281
     0
  0
ENDSEC
  0
SECTION
  2
TABLES
  0
TABLE
  2
VPORT
  5
8
330
0
100
AcDbSymbolTable
 70
     1
  0
VPORT
  5
29
330
8
100
AcDbSymbolTableRecord
100
AcDbViewportTableRecord
  2
*Active
 70
     0
 10
0.0
 20
0.0
 11
1.0
 21
1.0
 12
10000.0
 22
5000.0
 13
0.0
 23
0.0
 14
10.0
 24
10.0
 15
10.0
 25
10.0
 16
0.0
 26
0.0
 36
1.0
 17
0.0
 27
0.0
 37
0.0
 40
10000.0
 41
2.0
 42
50.0
 43
0.0
 44
0.0
 50
0.0
 51
0.0
 71
     0
 72
  2000
 73
     1
 74
     3
 75
     0
 76
     0
 77
     0
 78
     0
281
     0
 65
     1
110
0.0
120
0.0
130
0.0
111
1.0
121
0.0
131
0.0
112
0.0
122
1.0
132
0.0
 79
     0
146
0.0
  0
ENDTAB
  0
TABLE
  2
LTYPE
  5
5
330
0
100
AcDbSymbolTable
 70
     6
  0
LTYPE
  5
14
330
5
100
AcDbSymbolTableRecord
100
AcDbLinetypeTableRecord
  2
ByBlock
 70
     0
  3

 72
    65
 73
     0
 40
0.0
  0
LTYPE
  5
15
330
5
100
AcDbSymbolTableRecord
100
AcDbLinetypeTableRecord
  2
ByLayer
 70
     0
  3

 72
    65
 73
     0
 40
0.0
  0
LTYPE
  5
16
330
5
100
AcDbSymbolTableRecord
100
AcDbLinetypeTableRecord
  2
Continuous
 70
     0
  3
Solid line
 72
    65
 73
     0
 40
0.0
  0
LTYPE
  5
6E
330
5
100
AcDbSymbolTableRecord
100
AcDbLinetypeTableRecord
  2
HIDDEN
 70
     0
  3
Hidden __ __ __ __ __ __ __ __ __ __ __ __ __ __
 72
    65
 73
     2
 40
1.905
 49
1.27
 74
     0
 49
-0.635
 74
     0
  0
LTYPE
  5
6F
330
5
100
AcDbSymbolTableRecord
100
AcDbLinetypeTableRecord
  2
PHANTOM
 70
     0
  3
Phantom ______  __  __  ______  __  __  ______
 72
    65
 73
     6
 40
12.7
 49
6.35
 74
     0
 49
-1.27
 74
     0
 49
1.27
 74
     0
 49
-1.27
 74
     0
 49
1.27
 74
     0
 49
-1.27
 74
     0
  0
LTYPE
  5
70
330
5
100
AcDbSymbolTableRecord
100
AcDbLinetypeTableRecord
  2
CENTER
 70
     0
  3
Center ____ _ ____ _ ____ _ ____ _ ____ _ ____
 72
    65
 73
     4
 40
10.16
 49
6.35
 74
     0
 49
-1.27
 74
     0
 49
1.27
 74
     0
 49
-1.27
 74
     0
  0
LTYPE
  5
71
330
5
100
AcDbSymbolTableRecord
100
AcDbLinetypeTableRecord
  2
CENTERX2
 70
     0
  3
Center (2x) ________  __  ________  __  _____
 72
    65
 73
     4
 40
20.32
 49
12.7
 74
     0
 49
-2.54
 74
     0
 49
2.54
 74
     0
 49
-2.54
 74
     0
  0
LTYPE
  5
72
330
5
100
AcDbSymbolTableRecord
100
AcDbLinetypeTableRecord
  2
DOT2
 70
     0
  3
Dot (.5x) ........................................
 72
    65
 73
     2
 40
0.635
 49
0.0
 74
     0
 49
-0.635
 74
     0
  0
ENDTAB
  0
TABLE
  2
LAYER
  5
2
330
0
100
AcDbSymbolTable
 70
    13
  0
LAYER
  5
10
330
2
100
AcDbSymbolTableRecord
100
AcDbLayerTableRecord
  2
0
 70
     0
 62
     7
  6
Continuous
370
    -3
390
F
  0
LAYER
  5
73
330
2
100
AcDbSymbolTableRecord
100
AcDbLayerTableRecord
  2
FORMAT
 70
     0
 62
     7
  6
Continuous
370
    -3
390
F
  0
LAYER
  5
74
330
2
100
AcDbSymbolTableRecord
100
AcDbLayerTableRecord
  2
OSA
 70
     0
 62
     7
  6
CENTER
370
    -3
390
F
  0
LAYER
  5
75
330
2
100
AcDbSymbolTableRecord
100
AcDbLayerTableRecord
  2
0_35
 70
     0
 62
     7
  6
Continuous
370
    35
390
F
  0
LAYER
  5
76
330
2
100
AcDbSymbolTableRecord
100
AcDbLayerTableRecord
  2
0_5
 70
     0
 62
     7
  6
Continuous
370
    50
390
F
  0
LAYER
  5
77
330
2
100
AcDbSymbolTableRecord
100
AcDbLayerTableRecord
  2
0_25
 70
     0
 62
     7
  6
Continuous
370
    25
390
F
  0
LAYER
  5
78
330
2
100
AcDbSymbolTableRecord
100
AcDbLayerTableRecord
  2
0_18
 70
     0
 62
     7
  6
Continuous
370
    -3
390
F
  0
LAYER
  5
79
330
2
100
AcDbSymbolTableRecord
100
AcDbLayerTableRecord
  2
SLD-0
 70
     0
 62
   179
  6
Continuous
370
    -3
390
F
  0
LAYER
  5
7A
330
2
100
AcDbSymbolTableRecord
100
AcDbLayerTableRecord
  2
KOTY
 70
     0
 62
     7
  6
Continuous
370
    -3
390
F
  0
LAYER
  5
7B
330
2
100
AcDbSymbolTableRecord
100
AcDbLayerTableRecord
  2
SILNA
 70
     0
 62
   179
  6
Continuous
370
    -3
390
F
  0
LAYER
  5
7C
330
2
100
AcDbSymbolTableRecord
100
AcDbLayerTableRecord
  2
0_18_1
 70
     0
 62
   179
  6
Continuous
370
    -3
390
F
  0
LAYER
  5
7D
330
2
100
AcDbSymbolTableRecord
100
AcDbLayerTableRecord
  2
0_35_1
 70
     0
 62
   179
  6
Continuous
370
    35
390
F
  0
LAYER
  5
7E
330
2
100
AcDbSymbolTableRecord
100
AcDbLayerTableRecord
  2
0_5_1
 70
     0
 62
   179
  6
Continuous
370
    50
390
F
  0
ENDTAB
  0
TABLE
  2
STYLE
  5
3
330
0
100
AcDbSymbolTable
 70
     1
  0
STYLE
  5
11
330
3
100
AcDbSymbolTableRecord
100
AcDbTextStyleTableRecord
  2
Standard
 70
     0
 40
0.0
 41
1.0
 50
0.0
 71
     0
 42
2.0
  3
txt
  4

  0
ENDTAB
  0
TABLE
  2
VIEW
  5
6
330
0
100
AcDbSymbolTable
 70
     0
  0
ENDTAB
  0
TABLE
  2
UCS
  5
7
330
0
100
AcDbSymbolTable
 70
     0
  0
ENDTAB
  0
TABLE
  2
APPID
  5
9
330
0
100
AcDbSymbolTable
 70
     1
  0
APPID
  5
12
330
9
100
AcDbSymbolTableRecord
100
AcDbRegAppTableRecord
  2
ACAD
 70
     0
  0
ENDTAB
  0
TABLE
  2
DIMSTYLE
  5
A
330
0
100
AcDbSymbolTable
 70
     1
100
AcDbDimStyleTable
  0
DIMSTYLE
105
27
330
A
100
AcDbSymbolTableRecord
100
AcDbDimStyleTableRecord
  2
ISO-25
 70
     0
 41
2.5
 42
0.625
 43
3.75
 44
1.25
 73
     0
 74
     0
 77
     1
 78
     8
140
2.5
141
2.5
143
0.0393700787
147
0.625
171
     3
172
     1
178
     0
271
     2
272
     2
274
     3
278
    44
283
     0
284
     8
340
11
  0
ENDTAB
  0
TABLE
  2
BLOCK_RECORD
  5
1
330
0
100
AcDbSymbolTable
 70
     1
  0
BLOCK_RECORD
  5
1F
330
1
100
AcDbSymbolTableRecord
100
AcDbBlockTableRecord
  2
*Model_Space
340
22
  0
BLOCK_RECORD
  5
1B
330
1
100
AcDbSymbolTableRecord
100
AcDbBlockTableRecord
  2
*Paper_Space
340
1E
  0
BLOCK_RECORD
  5
23
330
1
100
AcDbSymbolTableRecord
100
AcDbBlockTableRecord
  2
*Paper_Space0
340
26
  0
ENDTAB
  0
ENDSEC
  0
SECTION
  2
BLOCKS
  0
BLOCK
  5
20
330
1F
100
AcDbEntity
  8
0
100
AcDbBlockBegin
  2
*Model_Space
 70
     0
 10
0.0
 20
0.0
 30
0.0
  3
*Model_Space
  1

  0
ENDBLK
  5
21
330
1F
100
AcDbEntity
  8
0
100
AcDbBlockEnd
  0
BLOCK
  5
1C
330
1B
100
AcDbEntity
 67
     1
  8
0
100
AcDbBlockBegin
  2
*Paper_Space
 70
     0
 10
0.0
 20
0.0
 30
0.0
  3
*Paper_Space
  1

  0
ENDBLK
  5
1D
330
1B
100
AcDbEntity
 67
     1
  8
0
100
AcDbBlockEnd
  0
BLOCK
  5
24
330
23
100
AcDbEntity
  8
0
100
AcDbBlockBegin
  2
*Paper_Space0
 70
     0
 10
0.0
 20
0.0
 30
0.0
  3
*Paper_Space0
  1

  0
ENDBLK
  5
25
330
23
100
AcDbEntity
  8
0
100
AcDbBlockEnd
  0
ENDSEC
  0
SECTION
  2
ENTITIES
  0
LWPOLYLINE
  5
7F
330
1F
100
AcDbEntity
  8
0
  6
Continuous
 62
     7
370
    25
100
AcDbPolyline
 90
        7
 70
   128
 43
0.0
 10
6492.0552784065
 20
4988.2431993873
 10
6491.9261534007
 20
4984.5005188646
 10
6491.802820249
 20
4981.0283494104
 10
6491.697978887
 20
4978.1626834838
 10
6491.6149098443
 20
4975.9538870772
 10
6491.5361681534
 20
4973.9147992825
 10
6491.4421556703
 20
4971.5574783407
  0
LWPOLYLINE
  5
80
330
1F
100
AcDbEntity
  8
0
  6
Continuous
 62
     7
370
    25
100
AcDbPolyline
 90
        7
 70
   128
 43
0.0
 10
6766.2686594087
 20
4971.5616891517
 10
6766.1747644647
 20
4973.9159986288
 10
6766.0960278033
 20
4975.9548923433
 10
6766.0129481184
 20
4978.1639024345
 10
6765.9080666572
 20
4981.0305912237
 10
6765.7844292449
 20
4984.5113760708
 10
6765.6560069338
 20
4988.2339935014
  0
LWPOLYLINE
  5
81
330
1F
100
AcDbEntity
  8
0
  6
Continuous
 62
     7
370
    25
100
AcDbPolyline
 90
       22
 70
   128
 43
0.0
 10
6688.994293852
 20
4932.3484734744
 10
6683.5403804561
 20
4931.0947339696
 10
6677.6877320556
 20
4929.9238924919
 10
6671.6883371161
 20
4928.8951941758
 10
6665.6499832585
 20
4928.0205095768
 10
6659.5170455137
 20
4927.2846113447
 10
6653.3306468055
 20
4926.6880140266
 10
6647.1246653947
 20
4926.2288371502
 10
6640.9313184303
 20
4925.903964444
 10
6634.7804834899
 20
4925.709237046
 10
6628.6991916444
 20
4925.6396744977
 10
6622.7010685271
 20
4925.691521737
 10
6616.7223116442
 20
4925.8647633036
 10
6610.6851462567
 20
4926.1649157261
 10
6604.6145713346
 20
4926.5971903614
 10
6598.5389588951
 20
4927.1660968622
 10
6592.4893946317
 20
4927.8752054904
 10
6586.4991861805
 20
4928.7269076209
 10
6580.6031846175
 20
4929.7221998573
 10
6574.8314906904
 20
4930.8609608004
 10
6569.1356087511
 20
4932.1552523623
 10
6568.0402932659
 20
4932.4384557344
  0
ARC
  5
82
330
1F
100
AcDbEntity
  8
0
  6
Continuous
 62
     7
370
    25
100
AcDbCircle
 10
6659.0521699049
 20
4978.6478214749
 30
0.0
 40
167.3377112102401
100
AcDbArc
 50
161.2606718797
 51
174.3569982046
  0
ARC
  5
83
330
1F
100
AcDbEntity
  8
0
  6
Continuous
 62
     7
370
    25
100
AcDbCircle
 10
6609.7267024891
 20
4980.4555569239
 30
0.0
 40
156.1416710474332
100
AcDbArc
 50
5.2446030301
 51
16.825196926
  0
LWPOLYLINE
  5
84
330
1F
100
AcDbEntity
  8
0
  6
Continuous
 62
     7
370
    25
100
AcDbPolyline
 90
       14
 70
   128
 43
0.0
 10
6734.2787191646
 20
4950.5651219299
 10
6733.4977513274
 20
4949.95222814
 10
6730.327306465
 20
4947.7938244944
 10
6727.0072664221
 20
4945.8159797826
 10
6723.5419795624
 20
4943.9945142083
 10
6719.9329403135
 20
4942.3083681577
 10
6716.1711350839
 20
4940.7327863846
 10
6712.3273489439
 20
4939.2704439306
 10
6708.2011763947
 20
4937.8340002001
 10
6703.8212083993
 20
4936.4328050159
 10
6699.201418454
 20
4935.0690548518
 10
6694.3581340253
 20
4933.7445617854
 10
6689.3097464953
 20
4932.4607018033
 10
6688.9884723399
 20
4932.3844368207
  0
LWPOLYLINE
  5
85
330
1F
100
AcDbEntity
  8
0
  6
Continuous
 62
     7
370
    25
100
AcDbPolyline
 90
       15
 70
   128
 43
0.0
 10
6568.031831769
 20
4932.4390049738
 10
6567.778600295
 20
4932.500196033
 10
6562.7155307383
 20
4933.8109360589
 10
6557.8514529833
 20
4935.1652055314
 10
6553.204883928
 20
4936.5620621788
 10
6548.7928463534
 20
4938.0000470822
 10
6544.630664085
 20
4939.4771516601
 10
6540.7320459862
 20
4940.9906902088
 10
6537.1336005806
 20
4942.5271580114
 10
6533.7564296494
 20
4944.1214827174
 10
6530.5232082531
 20
4945.8201723286
 10
6527.4358161075
 20
4947.6398231869
 10
6524.493961004
 20
4949.6014732683
 10
6521.6966213757
 20
4951.7312114256
 10
6520.40239259
 20
4952.8674877992
  0
ARC
  5
86
330
1F
100
AcDbEntity
  8
0
  6
Continuous
 62
     7
370
    25
100
AcDbCircle
 10
6716.5164274414
 20
4975.8950409226
 30
0.0
 40
30.97189404118677
100
AcDbArc
 50
304.9068300035
 51
315.4397209658
  0
ARC
  5
87
330
1F
100
AcDbEntity
  8
0
  6
Continuous
 62
     7
370
    25
100
AcDbCircle
 10
6629.8969987877
 20
4990.36685966
 30
0.0
 40
133.9842396011852
100
AcDbArc
 50
15.0594014148
 51
19.8495714696
  0
LWPOLYLINE
  5
88
330
1F
100
AcDbEntity
  8
0
  6
Continuous
 62
     7
370
    25
100
AcDbPolyline
 90
       13
 70
   128
 43
0.0
 10
6763.1130919342
 20
4901.9290837096
 10
6763.2689827064
 20
4904.4996018336
 10
6763.50743732
 20
4908.2271214353
 10
6763.812594026
 20
4912.7835607075
 10
6764.1239115062
 20
4917.2766662982
 10
6764.4492269123
 20
4921.8967835919
 10
6764.7798859038
 20
4926.5964860172
 10
6765.1042736536
 20
4931.3105941477
 10
6765.4150326148
 20
4936.0428526247
 10
6765.7030024163
 20
4940.7796974697
 10
6765.956614277
 20
4945.5125111188
 10
6766.1589324249
 20
4950.2344527829
 10
6766.2027767974
 20
4951.6607137594
  0
LWPOLYLINE
  5
89
330
1F
100
AcDbEntity
  8
0
  6
Continuous
 62
     7
370
    25
100
AcDbPolyline
 90
       13
 70
   128
 43
0.0
 10
6491.449993485
 20
4953.4723431859
 10
6491.4898640837
 20
4951.8872169082
 10
6491.6797916759
 20
4947.0358688624
 10
6491.9271141285
 20
4942.204873168
 10
6492.2165103282
 20
4937.3042598124
 10
6492.5288786934
 20
4932.4691282388
 10
6492.8578710788
 20
4927.648347488
 10
6493.1945402906
 20
4922.8499445907
 10
6493.5308426421
 20
4918.0787816709
 10
6493.8595909907
 20
4913.3495798572
 10
6494.1698477493
 20
4908.7405562562
 10
6494.4552469347
 20
4904.297338241
 10
6494.598876862
 20
4901.9288111922
  0
LWPOLYLINE
  5
8A
330
1F
100
AcDbEntity
  8
0
  6
Continuous
 62
     7
370
    25
100
AcDbPolyline
 90
       11
 70
   128
 43
0.0
 10
6754.7990355015
 20
4802.9206151221
 10
6755.1335214585
 20
4805.7968273805
 10
6756.1821665589
 20
4815.4558292426
 10
6757.2086536028
 20
4825.5824984219
 10
6758.2174711284
 20
4836.23794365
 10
6759.2141963494
 20
4847.4975453235
 10
6760.2073076914
 20
4859.5220800059
 10
6761.1360203226
 20
4871.6699669244
 10
6761.9838934649
 20
4883.734978974
 10
6762.7518424629
 20
4895.7134087388
 10
6763.1125597777
 20
4901.9377812968
  0
LWPOLYLINE
  5
8B
330
1F
100
AcDbEntity
  8
0
  6
Continuous
 62
     7
370
    25
100
AcDbPolyline
 90
       10
 70
   128
 43
0.0
 10
6494.5939276509
 20
4901.9335010583
 10
6495.1751197165
 20
4892.2230993471
 10
6495.9411280272
 20
4880.5874518673
 10
6496.7824132665
 20
4868.8721846857
 10
6497.6998482195
 20
4857.0786375535
 10
6498.6942856976
 20
4845.2087680828
 10
6499.7679709081
 20
4833.2661557452
 10
6500.7654707563
 20
4822.9187500713
 10
6501.8854671372
 20
4812.0951876761
 10
6502.9089411377
 20
4802.9120384851
  0
LWPOLYLINE
  5
8C
330
1F
100
AcDbEntity
  8
0
  6
Continuous
 62
     7
370
    25
100
AcDbPolyline
 90
       18
 70
   128
 43
0.0
 10
6752.7757739544
 20
4765.4392976555
 10
6752.7801876124
 20
4765.4250791245
 10
6752.73967586
 20
4765.6143283297
 10
6752.6634043227
 20
4766.0809609117
 10
6752.5715683369
 20
4766.8604049267
 10
6752.4840073112
 20
4767.9789310282
 10
6752.4192475699
 20
4769.4477474445
 10
6752.3924617459
 20
4771.2839972667
 10
6752.4127423364
 20
4773.4056027717
 10
6752.4853562477
 20
4775.8683734116
 10
6752.6145211872
 20
4778.6549866798
 10
6752.8022787774
 20
4781.7475519069
 10
6753.0489819155
 20
4785.1258322812
 10
6753.3536356066
 20
4788.768052679
 10
6753.7097129122
 20
4792.6169803117
 10
6754.1218831406
 20
4796.7164751751
 10
6754.574797022
 20
4800.9121379144
 10
6754.8057483395
 20
4802.9299245681
  0
LWPOLYLINE
  5
8D
330
1F
100
AcDbEntity
  8
0
  6
Continuous
 62
     7
370
    25
100
AcDbPolyline
 90
       17
 70
   128
 43
0.0
 10
6502.9081917038
 20
4802.920594099
 10
6503.2611717792
 20
4799.7802499431
 10
6503.6816776883
 20
4795.8221950084
 10
6504.0738778065
 20
4791.8629674259
 10
6504.4208476468
 20
4788.0455136011
 10
6504.7207990849
 20
4784.3703706293
 10
6504.9583008516
 20
4780.9920435923
 10
6505.1360739011
 20
4777.8757467184
 10
6505.2527877451
 20
4775.0567722318
 10
6505.3095063596
 20
4772.5607817333
 10
6505.3097549786
 20
4770.4124162735
 10
6505.2606648538
 20
4768.6355338983
 10
6505.1857087643
 20
4767.3878123935
 10
6505.0824691786
 20
4766.3509476329
 10
6504.9937609161
 20
4765.7450747528
 10
6504.9354544366
 20
4765.4502845229
 10
6504.9333519795
 20
4765.4391612363
  0
ARC
  5
8E
330
1F
100
AcDbEntity
  8
0
  6
Continuous
 62
     7
370
    25
100
AcDbCircle
 10
6572.1809958778
 20
4972.9074844429
 30
0.0
 40
194.227314365771
100
AcDbArc
 50
18.9072045902
 51
30.3856223434
  0
LWPOLYLINE
  5
8F
330
1F
100
AcDbEntity
  8
0
  6
Continuous
 62
     7
370
    25
100
AcDbPolyline
 90
       13
 70
   128
 43
0.0
 10
6692.144796884
 20
4928.3243577591
 10
6683.2759718895
 20
4926.4793788401
 10
6674.1296996961
 20
4924.9342443186
 10
6664.5535512045
 20
4923.6705091524
 10
6654.7780931779
 20
4922.719357485
 10
6643.4050065895
 20
4922.0071026148
 10
6631.9156981715
 20
4921.6880957946
 10
6620.0038783439
 20
4921.7681769997
 10
6608.1680059835
 20
4922.2739875249
 10
6597.0643224133
 20
4923.1639560558
 10
6586.1898940157
 20
4924.4588983943
 10
6575.3187140443
 20
4926.2184190363
 10
6564.8314734012
 20
4928.404475776
  0
ARC
  5
90
330
1F
100
AcDbEntity
  8
0
  6
Continuous
 62
     7
370
    25
100
AcDbCircle
 10
6705.7897339022
 20
4986.3931893994
 30
0.0
 40
59.94853049794893
100
AcDbArc
 50
357.5032853824
 51
7.7451690913
  0
ARC
  5
91
330
1F
100
AcDbEntity
  8
0
  6
Continuous
 62
     7
370
    25
100
AcDbCircle
 10
6633.1656829039
 20
5010.2586870719
 30
0.0
 40
122.6592201667162
100
AcDbArc
 50
29.6790578099
 51
39.6611544086
  0
LWPOLYLINE
  5
92
330
1F
100
AcDbEntity
  8
0
  6
Continuous
 62
     7
370
    25
100
AcDbPolyline
 90
        3
 70
   128
 43
0.0
 10
6492.0346573291
 20
4983.7696213901
 10
6492.2211528605
 20
4991.5402660698
 10
6492.5634962706
 20
4994.8450840636
  0
ARC
  5
93
330
1F
100
AcDbEntity
  8
0
  6
Continuous
 62
     7
370
    25
100
AcDbCircle
 10
6590.4812152625
 20
5043.0038685984
 30
0.0
 40
75.47351557616064
100
AcDbArc
 50
130.1988252834
 51
140.4096080111
  0
ARC
  5
94
330
1F
100
AcDbEntity
  8
0
  6
Continuous
 62
     7
370
    25
100
AcDbCircle
 10
6642.9517054723
 20
5019.3134256133
 30
0.0
 40
109.3488732277983
100
AcDbArc
 50
39.2814071565
 51
48.8706182593
  0
LWPOLYLINE
  5
95
330
1F
100
AcDbEntity
  8
0
  6
Continuous
 62
     7
370
    25
100
AcDbPolyline
 90
       51
 70
   128
 43
0.0
 10
6628.8554368819
 20
4621.1811736907
 10
6639.5086443194
 20
4621.6587930039
 10
6649.6602946448
 20
4623.0479409448
 10
6659.3163277194
 20
4625.2830525155
 10
6668.4826834042
 20
4628.298562718
 10
6677.1653015602
 20
4632.0289065543
 10
6687.8138034992
 20
4637.8854675882
 10
6697.6562916536
 20
4644.7081932324
 10
6706.7061048148
 20
4652.349848084
 10
6716.0447275972
 20
4661.8407539186
 10
6724.3965496516
 20
4671.9829779949
 10
6731.7821855734
 20
4682.5652395908
 10
6738.2458248982
 20
4693.4843673532
 10
6743.8550282087
 20
4704.7443642912
 10
6748.6783564043
 20
4716.3538206415
 10
6753.2321443668
 20
4729.7818962308
 10
6756.9824565049
 20
4743.6711779646
 10
6760.025615946
 20
4758.0337345073
 10
6762.4579458174
 20
4772.8816345232
 10
6764.3757692467
 20
4788.2269466767
 10
6765.875409361
 20
4804.0817396321
 10
6767.236998614
 20
4823.4382336001
 10
6768.3092020885
 20
4843.5389330127
 10
6769.2460577288
 20
4864.4003794801
 10
6770.0790099678
 20
4885.9311073574
 10
6770.6988762383
 20
4908.3107446447
 10
6770.9557856325
 20
4930.9100205746
 10
6770.7162735277
 20
4953.4855624163
 10
6769.8468753014
 20
4975.7939974389
 10
6768.2141263307
 20
4997.5919529114
 10
6766.3087965288
 20
5014.2022627178
 10
6763.7850823813
 20
5030.2291341609
 10
6760.578245764
 20
5045.5545172755
 10
6756.6235485526
 20
5060.0603620962
 10
6751.8562526231
 20
5073.6286186579
 10
6747.9413580891
 20
5082.6309740555
 10
6743.5607221224
 20
5091.0585495179
 10
6738.6911519782
 20
5098.8690530768
 10
6733.3094549119
 20
5106.0201927637
 10
6727.3924381788
 20
5112.4696766101
 10
6720.9169090342
 20
5118.1752126476
 10
6713.8596747335
 20
5123.0945089079
 10
6706.1975425319
 20
5127.1852734224
 10
6698.7994497972
 20
5130.1121591334
 10
6690.880432765
 20
5132.3095120421
 10
6682.4273151678
 20
5133.7521169568
 10
6673.5247121156
 20
5134.5599450322
 10
6664.3656180904
 20
5135.0138732775
 10
6652.3024337495
 20
5135.5149745471
 10
6640.406854745
 20
5135.9770999954
 10
6628.8554368819
 20
5136.1811736907
  0
LWPOLYLINE
  5
96
330
1F
100
AcDbEntity
  8
0
  6
Continuous
 62
     7
370
    25
100
AcDbPolyline
 90
       51
 70
   128
 43
0.0
 10
6628.8554368819
 20
5136.1811736907
 10
6619.0363509094
 20
5136.0289144415
 10
6608.9485337896
 20
5135.6650555478
 10
6598.7001195497
 20
5135.2289752901
 10
6588.4187570825
 20
5134.7971522998
 10
6578.3420549083
 20
5134.0916470882
 10
6568.7450603162
 20
5132.7120393405
 10
6559.803554079
 20
5130.4052142227
 10
6551.5133312319
 20
5127.1852734224
 10
6543.8511990303
 20
5123.0945089079
 10
6536.7939647296
 20
5118.1752126476
 10
6530.318435585
 20
5112.4696766101
 10
6524.4014188519
 20
5106.0201927637
 10
6519.0197217856
 20
5098.8690530768
 10
6514.1501516414
 20
5091.0585495179
 10
6509.7695156747
 20
5082.6309740555
 10
6505.8546211407
 20
5073.6286186579
 10
6501.4861645166
 20
5061.3343571357
 10
6497.7941409521
 20
5048.256360015
 10
6494.7299117365
 20
5034.4833199821
 10
6492.2448381587
 20
5020.103929723
 10
6490.290281508
 20
5005.206881924
 10
6488.8176030734
 20
4989.8808692712
 10
6487.778164144
 20
4974.2145844509
 10
6486.9669893638
 20
4952.2807630168
 10
6486.7565088116
 20
4930.1018654642
 10
6487.0202808386
 20
4907.9084581315
 10
6487.631863796
 20
4885.9311073574
 10
6488.48122232
 20
4864.0144814435
 10
6489.4373990378
 20
4842.7947329394
 10
6490.5392525453
 20
4822.3634144857
 10
6491.9500273846
 20
4802.7024922976
 10
6493.8361699199
 20
4783.7911117229
 10
6496.3123919084
 20
4765.926839944
 10
6499.5653985613
 20
4748.7457056842
 10
6503.7528777534
 20
4732.2279516733
 10
6509.0325173596
 20
4716.3538206415
 10
6513.8558455551
 20
4704.7443642912
 10
6519.4650488656
 20
4693.4843673532
 10
6525.9286881904
 20
4682.5652395908
 10
6533.3143241122
 20
4671.9829779949
 10
6541.6661461666
 20
4661.8407539186
 10
6551.004768949
 20
4652.349848084
 10
6559.6261313476
 20
4645.0388882691
 10
6568.9691926921
 20
4638.4680036193
 10
6579.0455542737
 20
4632.7652507711
 10
6589.8668173836
 20
4628.0586863612
 10
6598.8993669517
 20
4625.1429469713
 10
6608.4045685223
 20
4622.9833717725
 10
6618.3880493982
 20
4621.6420757004
 10
6628.8554368819
 20
4621.1811736907
  0
LWPOLYLINE
  5
97
330
1F
100
AcDbEntity
  8
0
  6
Continuous
 62
     7
370
    25
100
AcDbPolyline
 90
       15
 70
   128
 43
0.0
 10
6500.6129105664
 20
4762.4148203989
 10
6501.4839444216
 20
4760.5715704698
 10
6502.2932538067
 20
4759.3306396792
 10
6503.0257377836
 20
4758.666777698
 10
6503.847928433
 20
4758.6088529006
 10
6504.5270188411
 20
4759.383273064
 10
6505.0536062049
 20
4760.9243189059
 10
6505.4266355112
 20
4763.2232834535
 10
6505.6387314789
 20
4766.2294709293
 10
6505.6884671766
 20
4769.8884400469
 10
6505.5567544518
 20
4774.6660854658
 10
6505.2449110034
 20
4780.1349483917
 10
6504.7717659909
 20
4786.1872492048
 10
6504.0412176433
 20
4793.8747507749
 10
6503.1290026376
 20
4802.1887906979
  0
LWPOLYLINE
  5
98
330
1F
100
AcDbEntity
  8
0
  6
Continuous
 62
     7
370
    25
100
AcDbPolyline
 90
        7
 70
   128
 43
0.0
 10
6494.6736014938
 20
4901.65772782
 10
6496.1301736762
 20
4879.1031746939
 10
6497.8146494907
 20
4856.8199552351
 10
6498.9938254724
 20
4842.9174043999
 10
6500.2659490935
 20
4829.1776643249
 10
6501.6429948313
 20
4815.5713423306
 10
6503.1290026376
 20
4802.1887906979
  0
ARC
  5
99
330
1F
100
AcDbEntity
  8
0
  6
Continuous
 62
     7
370
    25
100
AcDbCircle
 10
6679.6480716942
 20
4962.6169156342
 30
0.0
 40
188.3868937477923
100
AcDbArc
 50
177.2802038983
 51
181.701852679
  0
LWPOLYLINE
  5
9A
330
1F
100
AcDbEntity
  8
0
  6
Continuous
 62
     7
370
    25
100
AcDbPolyline
 90
       10
 70
   128
 43
0.0
 10
6492.0530881833
 20
4811.6188718213
 10
6492.0284362281
 20
4811.871216681
 10
6491.1312550795
 20
4823.1437133572
 10
6490.3855562437
 20
4834.5426264939
 10
6489.7567976358
 20
4846.0098950343
 10
6489.2104371708
 20
4857.4874579218
 10
6488.7119327637
 20
4868.9172540996
 10
6487.767836868
 20
4895.6617756559
 10
6487.3763046021
 20
4922.4222609845
 10
6487.5874685168
 20
4936.5783032009
  0
LWPOLYLINE
  5
9B
330
1F
100
AcDbEntity
  8
0
  6
Continuous
 62
     7
370
    25
100
AcDbPolyline
 90
       14
 70
   128
 43
0.0
 10
6754.5822113324
 20
4802.1903065104
 10
6753.725906424
 20
4794.4300687101
 10
6753.0257781405
 20
4787.1894946032
 10
6752.495998296
 20
4780.575702923
 10
6752.153367811
 20
4774.6193355178
 10
6752.0224575452
 20
4769.4471280396
 10
6752.1207121484
 20
4765.1909643829
 10
6752.443290078
 20
4762.0327574159
 10
6752.9837782132
 20
4759.8357812519
 10
6753.7321617324
 20
4758.6849564168
 10
6754.4072470248
 20
4758.555300546
 10
6755.1867604633
 20
4759.0693489089
 10
6756.0581643021
 20
4760.2711193161
 10
6757.0980953089
 20
4762.4144350904
  0
LWPOLYLINE
  5
9C
330
1F
100
AcDbEntity
  8
0
  6
Continuous
 62
     7
370
    25
100
AcDbPolyline
 90
        9
 70
   128
 43
0.0
 10
6770.1804842857
 20
4935.2168335884
 10
6770.3280128989
 20
4926.8044401953
 10
6770.1397956612
 20
4904.4270265709
 10
6769.5151992813
 20
4882.0585484054
 10
6769.0126330687
 20
4868.6886574628
 10
6768.4349476914
 20
4855.3056159366
 10
6767.7531174047
 20
4841.9362017801
 10
6766.9381164637
 20
4828.6071929463
 10
6766.8068966346
 20
4826.8263709842
  0
ARC
  5
9D
330
1F
100
AcDbEntity
  8
0
  6
Continuous
 62
     7
370
    25
100
AcDbCircle
 10
6574.0955540993
 20
4962.7676553586
 30
0.0
 40
192.3456100926195
100
AcDbArc
 50
358.4307288185
 51
2.620183211
  0
LWPOLYLINE
  5
9E
330
1F
100
AcDbEntity
  8
0
  6
Continuous
 62
     7
370
    25
100
AcDbPolyline
 90
        7
 70
   128
 43
0.0
 10
6754.5822113324
 20
4802.1903065104
 10
6756.0486663946
 20
4815.3886264817
 10
6757.4089946751
 20
4828.8051072496
 10
6758.6770084652
 20
4842.4645443344
 10
6759.8529183343
 20
4856.2857154563
 10
6761.5583675292
 20
4878.7833389883
 10
6763.0372959134
 20
4901.6564168794
  0
LWPOLYLINE
  5
9F
330
1F
100
AcDbEntity
  8
0
  6
Continuous
 62
     7
370
    25
100
AcDbPolyline
 90
       47
 70
   128
 43
0.0
 10
6628.8554368819
 20
4647.5273058606
 10
6620.8990905636
 20
4647.5935636361
 10
6613.1675574428
 20
4647.7743202084
 10
6605.8853823906
 20
4648.0318487747
 10
6599.2467474255
 20
4648.2706948304
 10
6595.2690087047
 20
4648.3609560936
 10
6591.7014786045
 20
4648.3481777973
 10
6588.6140494234
 20
4648.1914358298
 10
6586.0921698498
 20
4647.8561714793
 10
6584.0825585489
 20
4647.3152662944
 10
6582.6198837531
 20
4646.5537924949
 10
6581.492713853
 20
4645.034977175
 10
6581.5044724465
 20
4643.0716312429
 10
6582.6745429583
 20
4640.6504720535
 10
6584.9377704181
 20
4637.9575198433
 10
6587.269600998
 20
4635.87787918
 10
6590.1402451087
 20
4633.7806208739
 10
6593.5106694307
 20
4631.7371177691
 10
6597.6197606876
 20
4629.6908748218
 10
6602.2552526427
 20
4627.8261854715
 10
6607.3368763804
 20
4626.2245302651
 10
6612.3557341955
 20
4625.0435231798
 10
6617.6681483368
 20
4624.1650834535
 10
6623.1500560051
 20
4623.6239471819
 10
6630.4913743373
 20
4623.4561311482
 10
6637.7831152732
 20
4623.8956594434
 10
6644.5304139445
 20
4624.8810714331
 10
6650.8652850251
 20
4626.3606629658
 10
6656.8945119312
 20
4628.3584480808
 10
6662.2267557645
 20
4630.7000014178
 10
6667.266664866
 20
4633.5803955235
 10
6671.274239121
 20
4636.5702180241
 10
6673.5150380627
 20
4638.734126297
 10
6675.1357539181
 20
4640.8013482572
 10
6676.0914459532
 20
4642.6935544784
 10
6676.3448068328
 20
4644.3107990558
 10
6675.9143042536
 20
4645.6790719774
 10
6674.7878506041
 20
4646.7603631804
 10
6673.1855236922
 20
4647.468288602
 10
6671.0362094513
 20
4647.957387871
 10
6668.3784187252
 20
4648.2460594543
 10
6663.6827784271
 20
4648.3702825006
 10
6658.1057276736
 20
4648.2593951561
 10
6651.5460788506
 20
4648.021103758
 10
6644.3721619522
 20
4647.7690848277
 10
6636.7224678603
 20
4647.5920291034
 10
6628.8554368819
 20
4647.5273058606
  0
LWPOLYLINE
  5
A0
330
1F
100
AcDbEntity
  8
0
  6
Continuous
 62
     7
370
    25
100
AcDbPolyline
 90
       20
 70
   128
 43
0.0
 10
6628.8555058231
 20
5008.2934822208
 10
6618.6122193607
 20
5008.0287518711
 10
6608.4785229731
 20
5007.4083624713
 10
6598.4779090766
 20
5006.3851022342
 10
6588.6639280888
 20
5004.8907461412
 10
6581.1329197323
 20
5003.3349636806
 10
6573.831947289
 20
5001.3909072011
 10
6566.8509062019
 20
4999.0093068706
 10
6560.3147099373
 20
4996.144674386
 10
6554.5247151989
 20
4992.8626323484
 10
6549.460812233
 20
4989.0984292145
 10
6545.2636915628
 20
4984.8943906693
 10
6542.0173466254
 20
4980.329339625
 10
6539.736035592
 20
4975.4977074476
 10
6538.3674544197
 20
4970.4895675533
 10
6537.7920749169
 20
4965.3769924775
 10
6538.0522253405
 20
4958.1232641745
 10
6539.3278614349
 20
4950.8021084986
 10
6541.4651630045
 20
4943.4296580909
 10
6542.7281924373
 20
4940.2157375138
  0
LWPOLYLINE
  5
A1
330
1F
100
AcDbEntity
  8
0
  6
Continuous
 62
     7
370
    25
100
AcDbPolyline
 90
       20
 70
   128
 43
0.0
 10
6713.3122565432
 20
4939.6451453691
 10
6715.1130589201
 20
4943.969347352
 10
6717.4437862138
 20
4951.2994442424
 10
6718.9568080408
 20
4958.6039233835
 10
6719.4943943231
 20
4965.8685637491
 10
6719.1365353657
 20
4971.0087985114
 10
6717.9929041939
 20
4976.0646482232
 10
6715.9313224554
 20
4980.9659084612
 10
6712.8736167735
 20
4985.6176344432
 10
6708.8076292634
 20
4989.912399716
 10
6703.8024256127
 20
4993.7528396066
 10
6698.0034427689
 20
4997.079601883
 10
6691.2817767424
 20
4999.9959678103
 10
6684.0717292202
 20
5002.3694686773
 10
6676.5236618212
 20
5004.2544385264
 10
6668.7447221771
 20
5005.7109976922
 10
6660.8133460447
 20
5006.7980470356
 10
6650.2671419113
 20
5007.7391882725
 10
6639.6034478575
 20
5008.2164745813
 10
6628.8555058231
 20
5008.2934822208
  0
LINE
  5
A2
330
1F
100
AcDbEntity
  8
0
  6
Continuous
 62
     7
370
    25
100
AcDbLine
 10
6517.52684669
 20
4955.5612483191
 30
0.0
 11
6520.5570356232
 21
4952.6631535449
 31
0.0
  0
LINE
  5
A3
330
1F
100
AcDbEntity
  8
0
  6
Continuous
 62
     7
370
    25
100
AcDbLine
 10
6517.2604452995
 20
4955.8688723047
 30
0.0
 11
6517.52684669
 21
4955.5612483191
 31
0.0
  0
LWPOLYLINE
  5
A4
330
1F
100
AcDbEntity
  8
0
  6
Continuous
 62
     7
370
    25
100
AcDbPolyline
 90
        7
 70
   128
 43
0.0
 10
6747.8603901487
 20
5035.694970778
 10
6744.1300339183
 20
5045.987965116
 10
6739.6270536349
 20
5056.6053732469
 10
6736.0023692528
 20
5064.0307541893
 10
6731.9230819159
 20
5071.4152520553
 10
6727.2442897859
 20
5078.825492815
 10
6721.9687670806
 20
5086.0145716216
  0
LWPOLYLINE
  5
A5
330
1F
100
AcDbEntity
  8
0
  6
Continuous
 62
     7
370
    25
100
AcDbPolyline
 90
       13
 70
   128
 43
0.0
 10
6743.0490535968
 20
4958.9806316021
 10
6746.1654925918
 20
4963.2667620217
 10
6748.8091497184
 20
4967.8277545472
 10
6751.0095346681
 20
4972.7132156181
 10
6752.7358354633
 20
4977.858337232
 10
6754.3095842812
 20
4985.0370998038
 10
6755.1155796053
 20
4992.6157913418
 10
6755.1590691358
 20
5000.7108675914
 10
6754.4010055331
 20
5009.1628406532
 10
6753.4398702706
 20
5015.0315151625
 10
6752.1158005854
 20
5021.1098801392
 10
6750.6069408547
 20
5026.8366641816
 10
6747.8603901487
 20
5035.694970778
  0
LWPOLYLINE
  5
A6
330
1F
100
AcDbEntity
  8
0
  6
Continuous
 62
     7
370
    25
100
AcDbPolyline
 90
       10
 70
   128
 43
0.0
 10
6564.8314734012
 20
4928.404475776
 10
6559.7214206465
 20
4930.2689900218
 10
6554.7880390136
 20
4932.1770355279
 10
6550.0183355046
 20
4934.1384652446
 10
6545.4701107854
 20
4936.1332000576
 10
6539.0132664613
 20
4939.2161189801
 10
6533.1313154771
 20
4942.3476069977
 10
6527.7538280501
 20
4945.5770292167
 10
6522.8927742414
 20
4948.912740671
 10
6517.0725207652
 20
4953.6218098728
  0
LWPOLYLINE
  5
A7
330
1F
100
AcDbEntity
  8
0
  6
Continuous
 62
     7
370
    25
100
AcDbPolyline
 90
        9
 70
   128
 43
0.0
 10
6499.9215188363
 20
5030.0406047423
 10
6501.4021079984
 20
5034.8856218846
 10
6505.2342536452
 20
5045.2369264296
 10
6509.8753151826
 20
5055.8938182531
 10
6514.8580890293
 20
5065.7331225087
 10
6520.6526077707
 20
5075.5264156762
 10
6527.3482915629
 20
5085.0662435706
 10
6532.0006214536
 20
5090.7599126942
 10
6534.0713567301
 20
5092.9840719663
  0
ARC
  5
A8
330
1F
100
AcDbEntity
  8
0
  6
Continuous
 62
     7
370
    25
100
AcDbCircle
 10
6648.276226516
 20
5024.0077132543
 30
0.0
 40
102.2556944294154
100
AcDbArc
 50
39.1343341727
 51
46.8579193803
  0
LINE
  5
A9
330
1F
100
AcDbEntity
  8
0
  6
Continuous
 62
     7
370
    25
100
AcDbLine
 10
6513.9778813729
 20
4956.5336862343
 30
0.0
 11
6517.0725207652
 21
4953.6218098728
 31
0.0
  0
LWPOLYLINE
  5
AA
330
1F
100
AcDbEntity
  8
0
  6
Continuous
 62
     7
370
    25
100
AcDbPolyline
 90
        8
 70
   128
 43
0.0
 10
6737.2900330968
 20
4951.0632789764
 10
6732.6804162013
 20
4947.5990221833
 10
6727.6338099557
 20
4944.3034147679
 10
6721.9535870731
 20
4941.0526089289
 10
6715.4543633317
 20
4937.7611253315
 10
6708.177708479
 20
4934.4793324536
 10
6700.4736748031
 20
4931.3639615172
 10
6692.144796884
 20
4928.3243577591
  0
LWPOLYLINE
  5
AB
330
1F
100
AcDbEntity
  8
0
  6
Continuous
 62
     7
370
    25
100
AcDbPolyline
 90
        3
 70
   128
 43
0.0
 10
6737.2900330968
 20
4951.0632789764
 10
6742.4136893333
 20
4955.2146786766
 10
6746.5931893586
 20
4959.9092378188
  0
LINE
  5
AC
330
1F
100
AcDbEntity
  8
0
  6
Continuous
 62
     7
370
    25
100
AcDbLine
 10
6759.1757160783
 20
5025.6480652525
 30
0.0
 11
6759.293404411
 21
5025.1847546963
 31
0.0
  0
ARC
  5
AD
330
1F
100
AcDbEntity
  8
0
  6
Continuous
 62
     7
370
    25
100
AcDbCircle
 10
6745.762011225
 20
4955.8539173971
 30
0.0
 40
4.139623269366042
100
AcDbArc
 50
78.4170778046
 51
130.9472114871
  0
LWPOLYLINE
  5
AE
330
1F
100
AcDbEntity
  8
0
  6
Continuous
 62
     7
370
    25
100
AcDbPolyline
 90
        3
 70
   128
 43
0.0
 10
6746.5931893586
 20
4959.9092378188
 10
6742.2929188365
 20
4955.2800688161
 10
6737.2900330968
 20
4951.0632789764
  0
LWPOLYLINE
  5
AF
330
1F
100
AcDbEntity
  8
0
  6
Continuous
 62
     7
370
    25
100
AcDbPolyline
 90
        9
 70
   128
 43
0.0
 10
6727.5927311502
 20
5088.5454474558
 10
6727.2923188569
 20
5088.7610881187
 10
6726.8133259286
 20
5088.8094053646
 10
6726.1796092674
 20
5088.6879926866
 10
6725.4227320037
 20
5088.4028972101
 10
6724.5803914516
 20
5087.9683185078
 10
6723.6945415414
 20
5087.40590137
 10
6722.8093032472
 20
5086.7436577564
 10
6721.9687670806
 20
5086.0145716216
  0
ARC
  5
B0
330
1F
100
AcDbEntity
  8
0
  6
Continuous
 62
     7
370
    25
100
AcDbCircle
 10
6514.8307694723
 20
4952.6840575664
 30
0.0
 40
3.942975905436471
100
AcDbArc
 50
46.8612761256
 51
102.4921401764
  0
LWPOLYLINE
  5
B1
330
1F
100
AcDbEntity
  8
0
  6
Continuous
 62
     7
370
    25
100
AcDbPolyline
 90
       18
 70
   128
 43
0.0
 10
6587.4012149002
 20
4648.0301988766
 10
6590.2405148125
 20
4645.8743688964
 10
6593.6465215647
 20
4643.6777244307
 10
6597.5229856668
 20
4641.56922075
 10
6602.1273703986
 20
4639.514029889
 10
6607.2242538531
 20
4637.7091064728
 10
6612.7155766641
 20
4636.2502208021
 10
6617.8005978983
 20
4635.3199050863
 10
6623.092475756
 20
4634.7339779706
 10
6628.4608769703
 20
4634.5155019492
 10
6635.4199546289
 20
4634.7970537069
 10
6642.1906631389
 20
4635.6878665466
 10
6648.5109772903
 20
4637.1285508676
 10
6654.3439453702
 20
4639.0274428463
 10
6660.0671242063
 20
4641.511378877
 10
6665.0251123225
 20
4644.2600742002
 10
6668.2839902295
 20
4646.4571213883
 10
6670.2781258351
 20
4648.0397258804
  0
LWPOLYLINE
  5
B2
330
1F
100
AcDbEntity
  8
0
  6
Continuous
 62
     8
370
    25
100
AcDbPolyline
 90
       16
 70
   128
 43
0.0
 10
6765.6813565255
 20
4983.7817054513
 10
6765.4044115629
 20
4977.2932094582
 10
6764.4695982655
 20
4970.3199925617
 10
6762.8799912213
 20
4963.832229541
 10
6760.8730941463
 20
4958.4891822986
 10
6758.2330148411
 20
4953.5581337587
 10
6755.2163697935
 20
4949.4656137538
 10
6751.5581976427
 20
4945.7751011573
 10
6747.0676549923
 20
4942.4105745598
 10
6741.804847363
 20
4939.4708996683
 10
6735.8468102909
 20
4936.9682829888
 10
6729.1702799842
 20
4934.8165927963
 10
6721.5669811263
 20
4932.9092936043
 10
6713.3660703108
 20
4931.280388528
 10
6703.0743969657
 20
4929.664819769
 10
6692.144796884
 20
4928.3243577591
  0
LWPOLYLINE
  5
B3
330
1F
100
AcDbEntity
  8
0
  6
Continuous
 62
     8
370
    25
100
AcDbPolyline
 90
       17
 70
   128
 43
0.0
 10
6564.8314734012
 20
4928.404475776
 10
6557.4755534185
 20
4929.284036731
 10
6550.329147013
 20
4930.2926997142
 10
6542.5160940283
 20
4931.6128606765
 10
6535.1332200792
 20
4933.137496172
 10
6528.0789831638
 20
4934.9490676606
 10
6521.6393966516
 20
4937.0497438682
 10
6516.0487128544
 20
4939.4022824932
 10
6511.0909127645
 20
4942.1226579731
 10
6506.7197488525
 20
4945.2910499476
 10
6503.0039534041
 20
4948.8813527596
 10
6499.0409963073
 20
4954.2659326025
 10
6496.0456022144
 20
4960.3691297469
 10
6493.8906553921
 20
4967.2667063483
 10
6492.5581383882
 20
4974.8294192456
 10
6492.0137314039
 20
4982.8977081174
 10
6492.0346573291
 20
4983.7696213901
  0
LWPOLYLINE
  5
B4
330
1F
100
AcDbEntity
  8
0
  6
Continuous
 62
     8
370
    25
100
AcDbPolyline
 90
       23
 70
   128
 43
0.0
 10
6541.7674363292
 20
5100.6512388373
 10
6543.6788200274
 20
5102.4034529371
 10
6549.9375130334
 20
5107.2839377468
 10
6556.6945973697
 20
5111.6727958572
 10
6563.6034550688
 20
5115.3432505016
 10
6570.8796511236
 20
5118.4500695824
 10
6578.5531514739
 20
5121.0280003979
 10
6586.4412409907
 20
5123.0753557126
 10
6596.8331131615
 20
5125.0519200246
 10
6607.3700733131
 20
5126.4398317316
 10
6618.0777094566
 20
5127.3137404071
 10
6628.8554260078
 20
5127.6180101018
 10
6636.8431260156
 20
5127.4496923959
 10
6644.8308260445
 20
5126.9578074878
 10
6654.4714101287
 20
5125.9597503507
 10
6664.0709510769
 20
5124.5180777306
 10
6673.6579574195
 20
5122.5119493134
 10
6683.107853619
 20
5119.7817656273
 10
6690.1909290206
 20
5117.103879541
 10
6697.0677241945
 20
5113.8638517966
 10
6703.7676209087
 20
5109.9882472393
 10
6710.1297960535
 20
5105.5448465412
 10
6714.8771944936
 20
5101.6778603242
  0
LWPOLYLINE
  5
B5
330
1F
100
AcDbEntity
  8
0
  6
Continuous
 62
     8
370
    25
100
AcDbPolyline
 90
       11
 70
   128
 43
0.0
 10
6491.3442753433
 20
4957.0220951901
 10
6491.3511365844
 20
4956.4770639808
 10
6491.5674934716
 20
4949.9009723322
 10
6491.901347983
 20
4943.0609031848
 10
6492.3123082628
 20
4936.2384314027
 10
6492.7834317259
 20
4929.2474241687
 10
6493.3071613354
 20
4921.8602470074
 10
6493.8354109724
 20
4914.4227163995
 10
6494.2516597148
 20
4908.3392531901
 10
6494.6367813253
 20
4902.2773126542
 10
6494.6736014938
 20
4901.65772782
  0
LWPOLYLINE
  5
B6
330
1F
100
AcDbEntity
  8
0
  6
Continuous
 62
     8
370
    25
100
AcDbPolyline
 90
       10
 70
   128
 43
0.0
 10
6500.6129105664
 20
4762.4148203989
 10
6499.5423673657
 20
4765.3034944552
 10
6498.4496063735
 20
4768.9410851122
 10
6497.5302514422
 20
4772.6123436021
 10
6496.6306121186
 20
4776.7880648875
 10
6495.7759460836
 20
4781.3561852478
 10
6494.7905413272
 20
4787.5104623368
 10
6493.900485472
 20
4794.0372657219
 10
6493.1116417745
 20
4800.7831975219
 10
6492.0530881833
 20
4811.6188718213
  0
LWPOLYLINE
  5
B7
330
1F
100
AcDbEntity
  8
0
  6
Continuous
 62
     8
370
    25
100
AcDbPolyline
 90
       12
 70
   128
 43
0.0
 10
6487.5874685168
 20
4936.5783032009
 10
6487.7753650015
 20
4949.1745395117
 10
6488.2216729003
 20
4959.9850031525
 10
6488.8812791133
 20
4970.7696753025
 10
6489.7940038432
 20
4981.4635939747
 10
6490.5640921269
 20
4988.489757249
 10
6491.4820932262
 20
4995.3913645838
 10
6492.5541455859
 20
5002.050042616
 10
6493.7333891507
 20
5008.1051999053
 10
6495.0267277797
 20
5013.6217589129
 10
6496.1482493499
 20
5017.6158026807
 10
6497.0794206502
 20
5020.4114797317
  0
LWPOLYLINE
  5
B8
330
1F
100
AcDbEntity
  8
0
  6
Continuous
 62
     8
370
    25
100
AcDbPolyline
 90
       12
 70
   128
 43
0.0
 10
6760.5895435067
 20
5020.5481861385
 10
6761.7558672345
 20
5016.9792672162
 10
6762.8615460621
 20
5012.9234532667
 10
6763.9250999051
 20
5008.3576641851
 10
6764.9882528379
 20
5002.9807432576
 10
6765.9425292261
 20
4997.2924844916
 10
6766.7788867641
 20
4991.4234465892
 10
6767.960115863
 20
4981.0628441559
 10
6768.8529842165
 20
4970.5030825759
 10
6769.4980085499
 20
4959.8412994457
 10
6769.9357055883
 20
4949.1746323615
 10
6770.1804842857
 20
4935.2168335884
  0
LWPOLYLINE
  5
B9
330
1F
100
AcDbEntity
  8
0
  6
Continuous
 62
     8
370
    25
100
AcDbPolyline
 90
       12
 70
   128
 43
0.0
 10
6766.8068966346
 20
4826.8263709842
 10
6765.9609191239
 20
4815.3453673883
 10
6765.1534594683
 20
4806.2099485669
 10
6764.1993338791
 20
4797.2351211321
 10
6763.0833056962
 20
4788.6184403694
 10
6762.3208627547
 20
4783.6480624835
 10
6761.4982452955
 20
4778.9429061034
 10
6760.6296867741
 20
4774.6095559582
 10
6759.722570663
 20
4770.714664603
 10
6758.799082227
 20
4767.319913985
 10
6757.8843756904
 20
4764.4721199506
 10
6757.0980953089
 20
4762.4144350904
  0
LWPOLYLINE
  5
BA
330
1F
100
AcDbEntity
  8
0
  6
Continuous
 62
     8
370
    25
100
AcDbPolyline
 90
       12
 70
   128
 43
0.0
 10
6763.0372959134
 20
4901.6564168794
 10
6763.3455977524
 20
4906.613250727
 10
6763.6824111035
 20
4911.6382315979
 10
6764.044859037
 20
4916.8258950526
 10
6764.4147513211
 20
4922.0152742298
 10
6764.8004699186
 20
4927.4354813222
 10
6765.1715183303
 20
4932.7984055147
 10
6765.5225413477
 20
4938.1924319104
 10
6765.8324195742
 20
4943.4756297574
 10
6766.119379473
 20
4949.3274484083
 10
6766.321690957
 20
4954.9876584778
 10
6766.3690242367
 20
4957.5001698875
  0
LWPOLYLINE
  5
BB
330
1F
100
AcDbEntity
  8
0
  6
Continuous
 62
     8
370
    25
100
AcDbPolyline
 90
        7
 70
   128
 43
0.0
 10
6688.9950442328
 20
4932.3399317253
 10
6689.4102164384
 20
4932.3457593257
 10
6690.0166258257
 20
4932.066955381
 10
6690.6339257193
 20
4931.4764372835
 10
6691.2201518464
 20
4930.6143486697
 10
6691.73545234
 20
4929.5392946393
 10
6692.144796884
 20
4928.3243577591
  0
LWPOLYLINE
  5
BC
330
1F
100
AcDbEntity
  8
0
  6
Continuous
 62
     8
370
    25
100
AcDbPolyline
 90
        7
 70
   128
 43
0.0
 10
6568.0344974431
 20
4932.4201063032
 10
6567.6357905484
 20
4932.4352673569
 10
6567.0162490247
 20
4932.1702104067
 10
6566.3832915351
 20
4931.5844407274
 10
6565.7810356405
 20
4930.7187868579
 10
6565.2514589799
 20
4929.6335854526
 10
6564.8314734012
 20
4928.404475776
  0
LWPOLYLINE
  5
BD
330
1F
100
AcDbEntity
  8
0
  6
Continuous
 62
     8
370
    25
100
AcDbPolyline
 90
       44
 70
   128
 43
0.0
 10
6721.9687670806
 20
5086.0145716216
 10
6718.2832938476
 20
5090.3959219634
 10
6714.3028144524
 20
5094.6083022825
 10
6709.4484132575
 20
5099.1004458657
 10
6704.1927393486
 20
5103.2646021922
 10
6698.4580663333
 20
5107.0892440479
 10
6692.3395506327
 20
5110.4575586425
 10
6687.3073765456
 20
5112.7534660482
 10
6679.680225057
 20
5115.548078633
 10
6671.7690698533
 20
5117.7351860286
 10
6663.5699606186
 20
5119.4033597679
 10
6655.2530658076
 20
5120.6271430906
 10
6639.6657276833
 20
5121.9851358924
 10
6623.9282450838
 20
5122.2077731968
 10
6607.9356440266
 20
5121.2448426315
 10
6599.9359257184
 20
5120.3126811373
 10
6591.9734546259
 20
5119.0303239984
 10
6584.9462718735
 20
5117.5118549111
 10
6578.0098165728
 20
5115.5587593336
 10
6571.1419235139
 20
5113.0742368095
 10
6564.477744334
 20
5110.0218686686
 10
6558.3893880643
 20
5106.5711987915
 10
6552.6053906767
 20
5102.6045657432
 10
6547.0852421929
 20
5098.0917604532
 10
6541.9517543066
 20
5093.1568150332
 10
6538.0794905123
 20
5088.8947345107
 10
6534.4704113716
 20
5084.4485843345
 10
6527.9635363771
 20
5075.096569919
 10
6522.2247972493
 20
5065.1738616517
 10
6517.2976776787
 20
5055.0812757974
 10
6513.453421237
 20
5045.8977955403
 10
6510.1707022949
 20
5036.8278951397
 10
6509.5048622142
 20
5034.8065809731
 10
6506.6688054454
 20
5025.1692593567
 10
6504.5331821756
 20
5015.8938813604
 10
6503.0891474774
 20
5006.3367617168
 10
6502.573293702
 20
4997.1852352799
 10
6503.0524598981
 20
4987.9529719214
 10
6504.6021902031
 20
4979.2215707622
 10
6506.1841185587
 20
4973.9629724087
 10
6508.2554587097
 20
4968.9571421132
 10
6510.8477714493
 20
4964.179058941
 10
6513.9628013626
 20
4959.6767892559
 10
6517.2604452995
 20
4955.8688723047
  0
LWPOLYLINE
  5
BE
330
1F
100
AcDbEntity
  8
0
  6
Continuous
 62
     8
370
    25
100
AcDbPolyline
 90
        3
 70
   128
 43
0.0
 10
6738.5337014601
 20
4954.1172792072
 10
6738.817791947
 20
4954.3606940107
 10
6743.0490535968
 20
4958.9806316021
  0
LWPOLYLINE
  5
BF
330
1F
100
AcDbEntity
  8
0
  6
Continuous
 62
     8
370
    25
100
AcDbPolyline
 90
       12
 70
   128
 43
0.0
 10
6513.9778813729
 20
4956.5336862343
 10
6510.1464884843
 20
4960.6383794795
 10
6505.5454345466
 20
4966.6060437437
 10
6501.7138350436
 20
4973.031637052
 10
6498.7493739762
 20
4979.8914575021
 10
6496.4026265907
 20
4988.4314017091
 10
6495.2043597878
 20
4997.4628117197
 10
6495.0603225699
 20
5003.3663249729
 10
6495.4218618218
 20
5009.4728050129
 10
6496.3086283202
 20
5015.813016009
 10
6498.4006400924
 20
5025.0637456821
 10
6499.9215188363
 20
5030.0406047423
  0
LWPOLYLINE
  5
C0
330
1F
100
AcDbEntity
  8
0
  6
Continuous
 62
     8
370
    25
100
AcDbPolyline
 90
       22
 70
   128
 43
0.0
 10
6534.0713567301
 20
5092.9840719663
 10
6537.0666805735
 20
5096.2013240096
 10
6544.5791666404
 20
5102.9860447509
 10
6552.8598193126
 20
5109.0135646019
 10
6561.7810725493
 20
5114.0964874871
 10
6571.164874043
 20
5118.0985568502
 10
6580.9624197204
 20
5121.1547302947
 10
6590.9866826966
 20
5123.3591807049
 10
6603.8446325276
 20
5125.2304082569
 10
6616.8333768116
 20
5126.2839008622
 10
6629.8827419941
 20
5126.5611454048
 10
6642.9225545205
 20
5126.1036287689
 10
6655.8826408367
 20
5124.9528378386
 10
6664.4825880303
 20
5123.7579966361
 10
6673.0191265238
 20
5122.0937071783
 10
6681.4043431798
 20
5119.8715835711
 10
6689.5503248608
 20
5117.0032399202
 10
6697.1469843006
 20
5113.5178218067
 10
6704.4019440124
 20
5109.3458012696
 10
6711.2269607504
 20
5104.5636861683
 10
6717.5337912684
 20
5099.2479843625
 10
6718.1996779587
 20
5098.6196290693
  0
LWPOLYLINE
  5
C1
330
1F
100
AcDbEntity
  8
0
  6
Continuous
 62
     8
370
    25
100
AcDbPolyline
 90
       11
 70
   128
 43
0.0
 10
6759.293404411
 20
5025.1847546963
 10
6761.2447080951
 20
5017.5029431345
 10
6762.5453190682
 20
5008.9969711748
 10
6762.8290366727
 20
5001.0085398692
 10
6762.2000720811
 20
4993.309216105
 10
6760.6999562088
 20
4985.7354816565
 10
6758.3427635246
 20
4978.518845761
 10
6756.0791557058
 20
4973.549794157
 10
6753.3552062778
 20
4968.8032479049
 10
6750.166166282
 20
4964.2341970383
 10
6746.5931893586
 20
4959.9092378188
  0
ARC
  5
C2
330
1F
100
AcDbEntity
  8
0
  6
Continuous
 62
     8
370
    25
100
AcDbCircle
 10
6736.4322187213
 20
4947.4471286096
 30
0.0
 40
3.716502250474134
100
AcDbArc
 50
76.655100952
 51
124.6863112264
  0
ARC
  5
C3
330
1F
100
AcDbEntity
  8
0
  6
Continuous
 62
     8
370
    25
100
AcDbCircle
 10
6517.9378653908
 20
4949.9273717476
 30
0.0
 40
3.794429388216742
100
AcDbArc
 50
50.0552437827
 51
103.1826820032
  0
LWPOLYLINE
  5
C4
330
1F
100
AcDbEntity
  8
0
  6
Continuous
 62
     8
370
    25
100
AcDbPolyline
 90
        9
 70
   128
 43
0.0
 10
6755.9332895606
 20
5035.864960752
 10
6755.7330847156
 20
5036.251544991
 10
6755.0735629978
 20
5036.8816407123
 10
6754.1089802764
 20
5037.2968190272
 10
6752.9158675482
 20
5037.4641392563
 10
6751.5888876183
 20
5037.3703260385
 10
6750.2333244552
 20
5037.0228226121
 10
6748.9567298506
 20
5036.4492002605
 10
6747.8603901487
 20
5035.694970778
  0
ARC
  5
C5
330
1F
100
AcDbEntity
  8
0
  6
Continuous
 62
     8
370
    25
100
AcDbCircle
 10
6762.4313898762
 20
4901.9778381192
 30
0.0
 40
0.6858817239723698
100
AcDbArc
 50
332.0549285827
 51
355.89981995
  0
ARC
  5
C6
330
1F
100
AcDbEntity
  8
0
  6
Continuous
 62
     8
370
    25
100
AcDbCircle
 10
6495.2797542259
 20
4901.9792412558
 30
0.0
 40
0.6861428597887667
100
AcDbArc
 50
184.2444853299
 51
207.9422187685
  0
ARC
  5
C7
330
1F
100
AcDbEntity
  8
0
  6
Continuous
 62
     8
370
    25
100
AcDbCircle
 10
6752.6571679089
 20
4803.1673929196
 30
0.0
 40
2.158816813349889
100
AcDbArc
 50
333.0892038013
 51
353.418300894
  0
ARC
  5
C8
330
1F
100
AcDbEntity
  8
0
  6
Continuous
 62
     8
370
    25
100
AcDbCircle
 10
6505.0548461601
 20
4803.1661831381
 30
0.0
 40
2.159668783717521
100
AcDbArc
 50
186.8010925947
 51
206.9084287934
  0
ARC
  5
C9
330
1F
100
AcDbEntity
  8
0
  6
Continuous
 62
     8
370
    25
100
AcDbCircle
 10
6747.3865709658
 20
4763.6592707455
 30
0.0
 40
9.790981609356487
100
AcDbArc
 50
352.6955845793
 51
58.9458552062
  0
ARC
  5
CA
330
1F
100
AcDbEntity
  8
0
  6
Continuous
 62
     8
370
    25
100
AcDbCircle
 10
6510.1868260683
 20
4763.7244951967
 30
0.0
 40
9.66307953568238
100
AcDbArc
 50
120.9413514555
 51
187.7894935169
  0
LINE
  5
CB
330
1F
100
AcDbEntity
  8
0
  6
Continuous
 62
     7
370
    25
100
AcDbLine
 10
7270.9970568667
 20
4956.689873416
 30
0.0
 11
7270.8863774937
 21
4956.7452573539
 31
0.0
  0
ARC
  5
CC
330
1F
100
AcDbEntity
  8
0
  6
Continuous
 62
     7
370
    25
100
AcDbCircle
 10
7115.7631671781
 20
5120.1134227844
 30
0.0
 40
7.607566433180184
100
AcDbArc
 50
56.1218394863
 51
81.14529398
  0
LWPOLYLINE
  5
CD
330
1F
100
AcDbEntity
  8
0
  6
Continuous
 62
     7
370
    25
100
AcDbPolyline
 90
       46
 70
   128
 43
0.0
 10
7259.1441410261
 20
4962.8095778522
 10
7255.8913963261
 20
4964.5533277325
 10
7249.830431032
 20
4967.990529336
 10
7243.8639927691
 20
4971.5374601639
 10
7237.7938628126
 20
4975.3135282603
 10
7231.7041329655
 20
4979.275424441
 10
7225.6107355562
 20
4983.4191672997
 10
7219.5312015908
 20
4987.7394140339
 10
7213.4841388856
 20
4992.2296543372
 10
7207.489075663
 20
4996.8821826193
 10
7201.5686116352
 20
5001.6866890087
 10
7195.8573577399
 20
5006.5529078065
 10
7190.4442827134
 20
5011.4071922143
 10
7185.1977470346
 20
5016.3659395869
 10
7180.1389145691
 20
5021.4169924311
 10
7175.2872080645
 20
5026.5481113424
 10
7170.6599932215
 20
5031.7473231516
 10
7166.2724465017
 20
5037.0031697854
 10
7162.1375173726
 20
5042.3049257622
 10
7158.2534782913
 20
5047.652758233
 10
7154.4910830255
 20
5053.1707975237
 10
7150.7995764848
 20
5058.9264758505
 10
7147.4316601849
 20
5064.5037675786
 10
7144.3766866267
 20
5069.8635510049
 10
7141.6146977995
 20
5074.9871068832
 10
7139.123132754
 20
5079.8670869056
 10
7136.8795483016
 20
5084.503051314
 10
7134.8630255213
 20
5088.8983920297
 10
7133.0547790538
 20
5093.0583193893
 10
7131.6018484864
 20
5096.5646434044
 10
7130.1992158995
 20
5100.0844684114
 10
7128.9530079355
 20
5103.3300927302
 10
7127.8480764584
 20
5106.3051892041
 10
7126.8730010889
 20
5109.0075442421
 10
7126.0167342576
 20
5111.4370865248
 10
7125.2736714347
 20
5113.5818528365
 10
7124.6398084005
 20
5115.4405907028
 10
7124.0902028915
 20
5117.0821702637
 10
7123.6168164814
 20
5118.5277694226
 10
7123.2184833991
 20
5119.7779131465
 10
7122.893898835
 20
5120.8324359714
 10
7122.6144522075
 20
5121.7651643261
 10
7122.3501680171
 20
5122.6566757494
 10
7122.1814031743
 20
5123.2342408052
 10
7122.1175795778
 20
5123.457083471
 10
7122.118007923
 20
5123.4550377704
  0
ARC
  5
CE
330
1F
100
AcDbEntity
  8
0
  6
Continuous
 62
     7
370
    25
100
AcDbCircle
 10
7116.2268397808
 20
5121.2413588283
 30
0.0
 40
6.338378714067109
100
AcDbArc
 50
8.2794084103
 51
53.9377206041
  0
LWPOLYLINE
  5
CF
330
1F
100
AcDbEntity
  8
0
  6
Continuous
 62
     7
370
    25
100
AcDbPolyline
 90
        9
 70
   128
 43
0.0
 10
7116.9137047286
 20
5127.5925766848
 10
7112.8156165505
 20
5128.4503303891
 10
7103.3939518642
 20
5130.1704052544
 10
7092.808939335
 20
5131.8018498701
 10
7081.0572300562
 20
5133.2666147047
 10
7068.1351097805
 20
5134.4920653246
 10
7054.0384989173
 20
5135.4153053768
 10
7038.7629525287
 20
5135.9879247813
 10
7022.3036603247
 20
5136.18117314
  0
LWPOLYLINE
  5
D0
330
1F
100
AcDbEntity
  8
0
  6
Continuous
 62
     7
370
    25
100
AcDbPolyline
 90
       30
 70
   128
 43
0.0
 10
7152.2835393639
 20
4647.5802526395
 10
7156.2542617773
 20
4649.076710849
 10
7169.0244362649
 20
4654.4401210708
 10
7180.9513975806
 20
4659.9668081368
 10
7193.3299469048
 20
4666.2714775643
 10
7204.6987540066
 20
4672.6112203175
 10
7215.0854310542
 20
4678.8981809261
 10
7224.5182888291
 20
4685.0470266235
 10
7233.0569656289
 20
4690.9981834401
 10
7249.0492340925
 20
4703.2107247608
 10
7264.4117763515
 20
4716.4110338794
 10
7276.836002962
 20
4728.3263417599
 10
7288.5982617809
 20
4740.8463986617
 10
7299.6030449815
 20
4753.9225033331
 10
7305.6947574373
 20
4761.8687914018
 10
7311.4708281994
 20
4769.9813475985
 10
7317.021658474
 20
4778.4244523016
 10
7322.6676371106
 20
4787.8316025737
 10
7327.7876148714
 20
4797.296567281
 10
7332.7570108636
 20
4807.6551557411
 10
7337.4198298306
 20
4818.9267410855
 10
7341.5960815408
 20
4831.1255832777
 10
7345.0791234431
 20
4844.2594951095
 10
7347.2827237041
 20
4855.9189414255
 10
7348.6983687777
 20
4868.2310799546
 10
7349.2088605746
 20
4881.2269759134
 10
7348.9302943861
 20
4891.4482997074
 10
7348.0314373987
 20
4902.0991552629
 10
7346.4637070172
 20
4913.2027568789
 10
7344.7841043508
 20
4921.7139585478
  0
ARC
  5
D1
330
1F
100
AcDbEntity
  8
0
  6
Continuous
 62
     7
370
    25
100
AcDbCircle
 10
7023.6757088187
 20
4867.2995476822
 30
0.0
 40
246.1221983756836
100
AcDbArc
 50
269.6805936413
 51
277.8741661224
  0
LWPOLYLINE
  5
D2
330
1F
100
AcDbEntity
  8
0
  6
Continuous
 62
     7
370
    25
100
AcDbPolyline
 90
       14
 70
   128
 43
0.0
 10
7327.5112849393
 20
4932.0421504086
 10
7326.9490836518
 20
4932.3356515624
 10
7323.9482179526
 20
4933.8011579067
 10
7320.7372380975
 20
4935.2893931457
 10
7317.3203451759
 20
4936.8092041409
 10
7313.7047043185
 20
4938.3662995885
 10
7309.8994161729
 20
4939.9644803085
 10
7305.9157441808
 20
4941.6059367197
 10
7301.7704838156
 20
4943.2945783402
 10
7297.3624742641
 20
4945.0894976853
 10
7292.6796112116
 20
4947.0156419895
 10
7287.7272444695
 20
4949.0940940239
 10
7282.5191916596
 20
4951.3462455842
 10
7278.0497642497
 20
4953.3567746343
  0
LWPOLYLINE
  5
D3
330
1F
100
AcDbEntity
  8
0
  6
Continuous
 62
     7
370
    25
100
AcDbPolyline
 90
       13
 70
   128
 43
0.0
 10
7341.6143393396
 20
4925.3560273567
 10
7341.6203620444
 20
4925.3538377685
 10
7341.512483705
 20
4925.3964478781
 10
7341.1737941743
 20
4925.5353494681
 10
7340.5266448142
 20
4925.8094799438
 10
7339.5664128387
 20
4926.2279702948
 10
7338.308097577
 20
4926.7909632708
 10
7336.763234622
 20
4927.4997868409
 10
7334.9419947667
 20
4928.356333317
 10
7332.8557265982
 20
4929.3619527272
 10
7330.518704591
 20
4930.5172557049
 10
7327.9469770283
 20
4931.8170493013
 10
7327.518411293
 20
4932.0372346101
  0
LWPOLYLINE
  5
D4
330
1F
100
AcDbEntity
  8
0
  6
Continuous
 62
     7
370
    25
100
AcDbPolyline
 90
       22
 70
   128
 43
0.0
 10
7344.8375923923
 20
4921.7190370663
 10
7344.8274160612
 20
4921.7971770743
 10
7344.5227648452
 20
4922.6918417702
 10
7344.1061160924
 20
4923.43933342
 10
7343.6346625512
 20
4924.0342802338
 10
7343.1751875633
 20
4924.4721371224
 10
7342.806031837
 20
4924.7537003892
 10
7342.5560311247
 20
4924.9159902658
 10
7342.3807994269
 20
4925.0178276606
 10
7342.2191281744
 20
4925.1039207906
 10
7342.0845058132
 20
4925.1705001194
 10
7341.9463240209
 20
4925.2350730621
 10
7341.7158410343
 20
4925.3385019117
 10
7341.1585121945
 20
4925.5844086894
 10
7340.2697729818
 20
4925.9784988059
 10
7339.1260204688
 20
4926.4929503713
 10
7337.7083651147
 20
4927.1419286082
 10
7336.017461168
 20
4927.9312391294
 10
7334.0587375189
 20
4928.8647645864
 10
7331.8444586473
 20
4929.9436251135
 10
7329.358322765
 20
4931.1832843663
 10
7327.8229194202
 20
4931.9627899449
  0
LWPOLYLINE
  5
D5
330
1F
100
AcDbEntity
  8
0
  6
Continuous
 62
     7
370
    25
100
AcDbPolyline
 90
       13
 70
   128
 43
0.0
 10
7327.8259484048
 20
4931.9893717819
 10
7326.601389205
 20
4932.6139773925
 10
7323.5658655967
 20
4934.0672672682
 10
7320.3202150442
 20
4935.546660003
 10
7316.8703175692
 20
4937.0602996908
 10
7313.2253048954
 20
4938.6132629135
 10
7309.3964127949
 20
4940.2087553418
 10
7305.3961127591
 20
4941.8488106554
 10
7301.2608510821
 20
4943.532954336
 10
7296.8003228744
 20
4945.3614506498
 10
7292.1198203307
 20
4947.307289745
 10
7287.1695178042
 20
4949.4092912152
 10
7284.8893198896
 20
4950.4051529502
  0
LINE
  5
D6
330
1F
100
AcDbEntity
  8
0
  6
Continuous
 62
     7
370
    25
100
AcDbLine
 10
7262.231250935
 20
4961.1469428687
 30
0.0
 11
7260.5451721924
 21
4962.0344243953
 31
0.0
  0
LWPOLYLINE
  5
D7
330
1F
100
AcDbEntity
  8
0
  6
Continuous
 62
     7
370
    25
100
AcDbPolyline
 90
       62
 70
   128
 43
0.0
 10
7199.6973827546
 20
4902.5160154504
 10
7199.0434286825
 20
4908.1188410491
 10
7198.0365036209
 20
4913.6896489142
 10
7196.6428162327
 20
4919.2510741137
 10
7194.8674490252
 20
4924.7264769134
 10
7192.0287068669
 20
4931.6238758323
 10
7188.6001423119
 20
4938.2971422818
 10
7184.5665428296
 20
4944.7948724643
 10
7180.0264370286
 20
4950.9913763544
 10
7173.3792515131
 20
4958.6539103984
 10
7166.0644588348
 20
4965.7624303349
 10
7158.0860912914
 20
4972.4004837596
 10
7149.6354846626
 20
4978.486246582
 10
7138.5224551919
 20
4985.3586155302
 10
7126.9154902563
 20
4991.4593276408
 10
7114.7232060124
 20
4996.8025985602
 10
7108.4332008579
 20
4999.0868885396
 10
7102.0143828885
 20
5001.0249377847
 10
7093.4271372727
 20
5002.8406976895
 10
7088.9989638981
 20
5003.3185013976
 10
7084.5081283427
 20
5003.3530953701
 10
7081.3578918547
 20
5002.995774178
 10
7078.233252808
 20
5002.1566411389
 10
7076.3446530169
 20
5001.2633798571
 10
7074.5917034213
 20
4999.9926870224
 10
7072.8050439934
 20
4998.1033752499
 10
7071.2863953421
 20
4995.8927291204
 10
7069.8236004791
 20
4993.0724583563
 10
7068.6282273374
 20
4990.0844666281
 10
7067.3332985397
 20
4985.8308888583
 10
7066.3450220137
 20
4981.4632880771
 10
7065.0245983866
 20
4972.4841168466
 10
7064.3503843353
 20
4963.867322737
 10
7064.053560489
 20
4955.2082585562
 10
7064.1402916443
 20
4937.8139234941
 10
7064.5750490542
 20
4920.3923587809
 10
7064.8345140238
 20
4902.9669249743
 10
7064.6590046767
 20
4868.2159970009
 10
7064.4180906545
 20
4850.8429180002
 10
7064.505988776
 20
4833.4652393499
 10
7064.890318944
 20
4825.6917466306
 10
7065.6368674293
 20
4817.930123283
 10
7066.9114178603
 20
4810.1478899929
 10
7068.9506908687
 20
4802.4665391672
 10
7071.1286086323
 20
4797.0444212742
 10
7074.153024109
 20
4791.9192724601
 10
7076.8754909044
 20
4788.7355330826
 10
7080.2029005513
 20
4786.0128595723
 10
7084.6011203316
 20
4783.5889818499
 10
7089.4196272713
 20
4781.8179729587
 10
7095.9920221642
 20
4780.3587347271
 10
7102.7878346756
 20
4779.6896250382
 10
7109.4624373329
 20
4779.7012853067
 10
7116.1629434744
 20
4780.3130239228
 10
7122.9442432873
 20
4781.5414092889
 10
7129.6443779318
 20
4783.399555769
 10
7135.9009500566
 20
4785.7594377045
 10
7141.9824288788
 20
4788.680225283
 10
7147.9305344901
 20
4792.1888938824
 10
7153.6191399828
 20
4796.2076139446
 10
7158.2188106
 20
4799.9804182906
 10
7162.5982456443
 20
4804.0544363656
  0
LWPOLYLINE
  5
D8
330
1F
100
AcDbEntity
  8
0
  6
Continuous
 62
     7
370
    25
100
AcDbPolyline
 90
       17
 70
   128
 43
0.0
 10
7162.5982456443
 20
4804.0544363656
 10
7158.7209784742
 20
4799.1245687331
 10
7154.4728893157
 20
4794.4624437771
 10
7149.8214807796
 20
4790.0487979422
 10
7144.8219454684
 20
4785.971713557
 10
7139.8431102403
 20
4782.5010166168
 10
7134.5827059412
 20
4779.3963835551
 10
7128.9880620484
 20
4776.6626775106
 10
7123.1457752365
 20
4774.3757493987
 10
7117.6677196768
 20
4772.7172224419
 10
7112.0428823367
 20
4771.4705755603
 10
7106.2815472148
 20
4770.6560146733
 10
7100.3928720032
 20
4770.3133276421
 10
7095.3355872104
 20
4770.4382592593
 10
7090.2469541062
 20
4770.9967569633
 10
7085.1887982741
 20
4772.0485709956
 10
7080.1966427907
 20
4773.6790871219
  0
LWPOLYLINE
  5
D9
330
1F
100
AcDbEntity
  8
0
  6
Continuous
 62
     7
370
    25
100
AcDbPolyline
 90
       19
 70
   128
 43
0.0
 10
7086.9428369271
 20
5013.3286990654
 10
7094.389393393
 20
5012.4501277875
 10
7101.7108881196
 20
5010.7827720124
 10
7108.859954521
 20
5008.5629454458
 10
7120.848419864
 20
5003.9176066141
 10
7132.4668583844
 20
4998.3744978507
 10
7143.6628137068
 20
4992.0136978227
 10
7154.3838294556
 20
4984.9152851972
 10
7163.0528088859
 20
4978.2853583366
 10
7171.2162463212
 20
4970.9868728036
 10
7178.7044992942
 20
4962.9994354308
 10
7184.1432908992
 20
4956.0232564789
 10
7188.950777006
 20
4948.5652599631
 10
7192.9992396607
 20
4940.6893531894
 10
7196.2196334817
 20
4932.3132446898
 10
7198.4930622444
 20
4923.6023092597
 10
7199.7396601679
 20
4914.7192788752
 10
7199.9760563399
 20
4908.6160750976
 10
7199.6973827546
 20
4902.5160154504
  0
ARC
  5
DA
330
1F
100
AcDbEntity
  8
0
  6
Continuous
 62
     7
370
    25
100
AcDbCircle
 10
6726.2322494186
 20
5024.6919316335
 30
0.0
 40
488.9746281557779
100
AcDbArc
 50
333.1777047999
 51
345.5306855387
  0
LINE
  5
DB
330
1F
100
AcDbEntity
  8
0
  6
Continuous
 62
     7
370
    25
100
AcDbLine
 10
7278.0509764127
 20
4953.3419513067
 30
0.0
 11
7277.4182539941
 21
4953.6218098728
 31
0.0
  0
LINE
  5
DC
330
1F
100
AcDbEntity
  8
0
  6
Continuous
 62
     7
370
    25
100
AcDbLine
 10
7116.928150054
 20
5127.5902957014
 30
0.0
 11
7116.9190203596
 21
5127.6179729746
 31
0.0
  0
LWPOLYLINE
  5
DD
330
1F
100
AcDbEntity
  8
0
  6
Continuous
 62
     7
370
    25
100
AcDbPolyline
 90
        3
 70
   128
 43
0.0
 10
7271.2791615932
 20
4956.5336862343
 10
7263.1481049715
 20
4960.6383794795
 10
7259.242588407
 20
4962.733046152
  0
LINE
  5
DE
330
1F
100
AcDbEntity
  8
0
  6
Continuous
 62
     7
370
    25
100
AcDbLine
 10
7119.9345787378
 20
5126.3327542239
 30
0.0
 11
7119.9331356318
 21
5126.3253880004
 31
0.0
  0
LINE
  5
DF
330
1F
100
AcDbEntity
  8
0
  6
Continuous
 62
     7
370
    25
100
AcDbLine
 10
7271.2791615932
 20
4956.5336862343
 30
0.0
 11
7277.4182539941
 21
4953.6218098728
 31
0.0
  0
LINE
  5
E0
330
1F
100
AcDbEntity
  8
0
  6
Continuous
 62
     7
370
    25
100
AcDbLine
 10
7022.3036603247
 20
5136.1811736907
 30
0.0
 11
7022.3036603247
 21
4621.1811736907
 31
0.0
  0
LWPOLYLINE
  5
E1
330
1F
100
AcDbEntity
  8
0
  6
Continuous
 62
     7
370
    25
100
AcDbPolyline
 90
       15
 70
   128
 43
0.0
 10
7077.379376198
 20
4762.4148203989
 10
7082.7494139983
 20
4760.5715704698
 10
7088.3194774464
 20
4759.3306396792
 10
7093.9838343014
 20
4758.666777698
 10
7101.3641183441
 20
4758.6088529006
 10
7108.7451295365
 20
4759.383273064
 10
7115.9974295886
 20
4760.9243189059
 10
7123.1498103373
 20
4763.2232834535
 10
7130.0635368257
 20
4766.2294709293
 10
7136.63677394
 20
4769.8884400469
 10
7143.4657655386
 20
4774.6660854658
 10
7149.7810358745
 20
4780.1349483917
 10
7155.4978527261
 20
4786.1872492048
 10
7161.3491206928
 20
4793.8747507749
 10
7166.2306109593
 20
4802.1887906979
  0
ARC
  5
E2
330
1F
100
AcDbEntity
  8
0
  6
Continuous
 62
     7
370
    25
100
AcDbCircle
 10
6718.8818480069
 20
5023.8438862306
 30
0.0
 40
499.2513365937757
100
AcDbArc
 50
333.6422239352
 51
345.8336035775
  0
LWPOLYLINE
  5
E3
330
1F
100
AcDbEntity
  8
0
  6
Continuous
 62
     7
370
    25
100
AcDbPolyline
 90
       25
 70
   128
 43
0.0
 10
7088.0806752134
 20
5025.7781780601
 10
7094.185528198
 20
5025.1433933941
 10
7100.2726978465
 20
5023.9269555175
 10
7106.3873970737
 20
5022.2172881586
 10
7112.4071906983
 20
5020.1315265207
 10
7118.6636593919
 20
5017.601134475
 10
7124.7952344416
 20
5014.8019618393
 10
7136.7976670933
 20
5008.5105363354
 10
7148.5415660558
 20
5001.351133307
 10
7159.8290068961
 20
4993.3640027506
 10
7166.7216175357
 20
4987.8027789705
 10
7173.3267160524
 20
4981.840182271
 10
7179.63300238
 20
4975.3908347574
 10
7185.5063631195
 20
4968.4678851234
 10
7189.7829838796
 20
4962.6309301755
 10
7193.6602569995
 20
4956.4770639808
 10
7197.1113107032
 20
4949.9262524956
 10
7200.0144655499
 20
4943.0609031848
 10
7202.1966413605
 20
4936.2685885992
 10
7203.7527049035
 20
4929.2474241687
 10
7204.6325231263
 20
4921.9009062582
 10
7204.7412853991
 20
4914.4227163995
 10
7204.2226216639
 20
4908.3392531901
 10
7203.1040938101
 20
4902.2773126542
 10
7202.9504792809
 20
4901.65772782
  0
LWPOLYLINE
  5
E4
330
1F
100
AcDbEntity
  8
0
  6
Continuous
 62
     7
370
    25
100
AcDbPolyline
 90
       34
 70
   128
 43
0.0
 10
7077.379376198
 20
4762.4148203989
 10
7071.4549718374
 20
4765.2745912117
 10
7065.8692958361
 20
4768.9410851122
 10
7062.7093159261
 20
4771.5995968894
 10
7059.8053116437
 20
4774.5381685327
 10
7057.0910785471
 20
4777.8344770669
 10
7054.6678290339
 20
4781.3561852478
 10
7052.1106158881
 20
4785.8806058747
 10
7049.9506909231
 20
4790.6173882308
 10
7048.1139401624
 20
4795.6402039079
 10
7046.6186305569
 20
4800.7831975219
 10
7044.3993165104
 20
4811.7891153235
 10
7043.1538759458
 20
4822.9960388961
 10
7042.5984275294
 20
4834.2638131067
 10
7042.4962096073
 20
4851.5855528334
 10
7042.7324431855
 20
4868.9172540996
 10
7042.903376991
 20
4888.9594445025
 10
7042.8471796932
 20
4909.009799947
 10
7042.4672071316
 20
4929.0940745494
 10
7042.2461674386
 20
4949.1745395117
 10
7042.7227461396
 20
4965.3307343542
 10
7043.362028573
 20
4973.4238600069
 10
7044.3868222218
 20
4981.4635939747
 10
7046.5219668727
 20
4991.8771717553
 10
7048.0536344856
 20
4997.0358187809
 10
7049.96470998
 20
5002.050042616
 10
7053.0046598144
 20
5008.0445403707
 10
7056.9538044107
 20
5013.6217589129
 10
7060.8425769184
 20
5017.5695639003
 10
7065.4580548364
 20
5020.9027403214
 10
7070.3778834032
 20
5023.2828566486
 10
7075.7882160281
 20
5024.8860544743
 10
7081.8331901405
 20
5025.7286494785
 10
7088.0806752134
 20
5025.7781780601
  0
LWPOLYLINE
  5
E5
330
1F
100
AcDbEntity
  8
0
  6
Continuous
 62
     7
370
    25
100
AcDbPolyline
 90
       27
 70
   128
 43
0.0
 10
7152.3036603247
 20
4647.5273058606
 10
7151.6515269749
 20
4647.5899202315
 10
7149.6382500819
 20
4647.7743202084
 10
7146.4340443642
 20
4648.0267002869
 10
7141.9462976661
 20
4648.2706948304
 10
7136.5313720819
 20
4648.3710604355
 10
7133.4024751939
 20
4648.3264232764
 10
7130.0401564249
 20
4648.1914358298
 10
7123.1994521644
 20
4647.6285368845
 10
7119.5021666989
 20
4647.1596450876
 10
7115.6905160173
 20
4646.5537924949
 10
7108.4568461625
 20
4645.0615591764
 10
7101.0438508833
 20
4643.0716312429
 10
7093.7800809818
 20
4640.6821989508
 10
7086.7070149898
 20
4637.9575198433
 10
7079.6165671122
 20
4634.8667180978
 10
7076.2533319721
 20
4633.2890043747
 10
7073.0704377682
 20
4631.7371177691
 10
7070.0485469329
 20
4630.2157127353
 10
7067.2630862843
 20
4628.7763280353
 10
7064.7041657761
 20
4627.4268426894
 10
7062.4574497038
 20
4626.2245302651
 10
7060.7925075304
 20
4625.3263508012
 10
7059.4215659838
 20
4624.5842740563
 10
7058.3547786279
 20
4624.006417536
 10
7057.6475511865
 20
4623.6239471819
 10
7057.3953401224
 20
4623.4880203773
  0
LWPOLYLINE
  5
E6
330
1F
100
AcDbEntity
  8
0
  6
Continuous
 62
     7
370
    25
100
AcDbPolyline
 90
       13
 70
   128
 43
0.0
 10
7052.2626363795
 20
4852.4523040287
 10
7052.2023036981
 20
4840.3950185129
 10
7052.5356344156
 20
4828.3383391602
 10
7053.5965410734
 20
4816.2397202394
 10
7054.5362770519
 20
4810.2040787304
 10
7055.8447010849
 20
4804.2242564817
 10
7058.5148840157
 20
4795.9577017664
 10
7060.3248026911
 20
4791.9315883354
 10
7062.51016218
 20
4788.0692254964
 10
7066.319337525
 20
4783.0373201953
 10
7071.1126482976
 20
4778.6622471274
 10
7075.4439237465
 20
4775.895812683
 10
7080.1966427907
 20
4773.6790871219
  0
LWPOLYLINE
  5
E7
330
1F
100
AcDbEntity
  8
0
  6
Continuous
 62
     7
370
    25
100
AcDbPolyline
 90
       10
 70
   128
 43
0.0
 10
7080.1966427907
 20
4773.6790871219
 10
7080.4027580806
 20
4773.4011049742
 10
7080.4669127173
 20
4772.7937816953
 10
7080.38676416
 20
4771.8792930724
 10
7080.1652389511
 20
4770.6910307204
 10
7079.8104258566
 20
4769.2723828213
 10
7079.3352805131
 20
4767.6751498495
 10
7078.7571523659
 20
4765.95765313
 10
7078.0971511718
 20
4764.1826052956
 10
7077.379376198
 20
4762.4148203989
  0
ARC
  5
E8
330
1F
100
AcDbEntity
  8
0
  6
Continuous
 62
     7
370
    25
100
AcDbCircle
 10
7020.9632863415
 20
5025.6357329932
 30
0.0
 40
67.11754002922828
100
AcDbArc
 50
349.4341540048
 51
0.1216002146
  0
LWPOLYLINE
  5
E9
330
1F
100
AcDbEntity
  8
0
  6
Continuous
 62
     7
370
    25
100
AcDbPolyline
 90
       19
 70
   128
 43
0.0
 10
7086.9428369271
 20
5013.3286990654
 10
7081.8959202742
 20
5013.3444736974
 10
7076.9218624132
 20
5012.7458062402
 10
7073.0651600295
 20
5011.7053959051
 10
7069.464631029
 20
5010.0923271512
 10
7066.3198134079
 20
5007.9288822244
 10
7063.5837009911
 20
5005.2631980819
 10
7060.6271982418
 20
5001.1860145155
 10
7058.3005749216
 20
4996.6605046644
 10
7056.2202430711
 20
4990.9951354351
 10
7054.7010983369
 20
4985.0969162039
 10
7053.6155514387
 20
4979.0869002618
 10
7052.4817368347
 20
4969.0771214308
 10
7051.9537191656
 20
4958.9802048155
 10
7051.8297234211
 20
4948.8610389822
 10
7052.0925796103
 20
4922.3124283849
 10
7052.4847741756
 20
4895.7559085029
 10
7052.4964615156
 20
4869.2150769381
 10
7052.3363876999
 20
4857.7309796468
  0
LWPOLYLINE
  5
EA
330
1F
100
AcDbEntity
  8
0
  6
Continuous
 62
     7
370
    25
100
AcDbPolyline
 90
        4
 70
   128
 43
0.0
 10
7052.2626363795
 20
4852.4523040287
 10
7052.2847413879
 20
4854.8984308193
 10
7052.3310938328
 20
4857.4041094054
 10
7052.3363876999
 20
4857.7309796468
  0
ARC
  5
EB
330
1F
100
AcDbEntity
  8
0
  6
Continuous
 62
     7
370
    25
100
AcDbCircle
 10
7246.1857897991
 20
5072.123059738
 30
0.0
 40
175.8627915777079
100
AcDbArc
 50
254.6719781566
 51
255.768115505
  0
ARC
  5
EC
330
1F
100
AcDbEntity
  8
0
  6
Continuous
 62
     7
370
    25
100
AcDbCircle
 10
7208.8622194102
 20
4889.6603478398
 30
0.0
 40
97.30738588584957
100
AcDbArc
 50
241.6118972094
 51
244.0164696413
  0
LWPOLYLINE
  5
ED
330
1F
100
AcDbEntity
  8
0
  6
Continuous
 62
     7
370
    25
100
AcDbPolyline
 90
        8
 70
   128
 43
0.0
 10
7052.4090042666
 20
4862.8335746744
 10
7052.4096457137
 20
4862.8790148222
 10
7052.3996434235
 20
4862.1715486607
 10
7052.3787984666
 20
4860.7041413091
 10
7052.3493875589
 20
4858.6420986181
 10
7052.3148422779
 20
4856.2177246658
 10
7052.2794877319
 20
4853.7043008016
 10
7052.2623787582
 20
4852.4008192615
  0
LINE
  5
EE
330
1F
100
AcDbEntity
  8
0
  6
Continuous
 62
     7
370
    25
100
AcDbLine
 10
7266.3401715621
 20
4959.026970928
 30
0.0
 11
7273.0035230452
 21
4955.7157921511
 31
0.0
  0
LINE
  5
EF
330
1F
100
AcDbEntity
  8
0
  6
Continuous
 62
     7
370
    25
100
AcDbLine
 10
7275.0143099738
 20
4954.7620415732
 30
0.0
 11
7283.1107882477
 21
4951.0632789764
 31
0.0
  0
LWPOLYLINE
  5
F0
330
1F
100
AcDbEntity
  8
0
  6
Continuous
 62
     8
370
    25
100
AcDbPolyline
 90
       10
 70
   128
 43
0.0
 10
7329.7622347229
 20
4928.404475776
 10
7326.966520163
 20
4930.2689900218
 10
7323.8531761339
 20
4932.1770355279
 10
7320.4021741851
 20
4934.1384652446
 10
7316.643146072
 20
4936.1332000576
 10
7310.3619639725
 20
4939.2161189801
 10
7303.4541302273
 20
4942.3476069977
 10
7295.93705902
 20
4945.5770292167
 10
7288.064823423
 20
4948.912740671
 10
7278.0509764127
 20
4953.3419513067
  0
LWPOLYLINE
  5
F1
330
1F
100
AcDbEntity
  8
0
  6
Continuous
 62
     8
370
    25
100
AcDbPolyline
 90
       43
 70
   128
 43
0.0
 10
7329.7622347229
 20
4928.404475776
 10
7326.1114706406
 20
4929.284036731
 10
7322.0381303938
 20
4930.2926997142
 10
7316.8982260846
 20
4931.6089882543
 10
7311.1793002855
 20
4933.137496172
 10
7304.784142364
 20
4934.9412410418
 10
7297.7988685271
 20
4937.0497438682
 10
7290.603325562
 20
4939.4022824932
 10
7282.9869660398
 20
4942.1226579731
 10
7274.9185177316
 20
4945.2910499476
 10
7266.6183330923
 20
4948.8813527596
 10
7255.4735177311
 20
4954.2659326025
 10
7244.2623790881
 20
4960.3691297469
 10
7232.95683863
 20
4967.2667063483
 10
7221.8475440532
 20
4974.8294192456
 10
7211.1777710375
 20
4982.8977081174
 10
7200.8562385568
 20
4991.5402660698
 10
7190.838359367
 20
5000.8231580993
 10
7181.2984344648
 20
5010.6015824724
 10
7170.9734134757
 20
5022.3908260206
 10
7161.3904317848
 20
5034.6770582703
 10
7156.8269088554
 20
5041.0694033486
 10
7152.4827582513
 20
5047.5327048478
 10
7148.3487257473
 20
5054.0718793878
 10
7144.4494518899
 20
5060.6373734064
 10
7140.077120068
 20
5068.5369797968
 10
7136.0706605525
 20
5076.3759165499
 10
7132.4153001734
 20
5084.1519720518
 10
7129.1753932737
 20
5091.6813918239
 10
7126.9898783567
 20
5097.1960258815
 10
7125.5139343525
 20
5101.1696216682
 10
7124.1989296136
 20
5104.9125435854
 10
7123.0235993535
 20
5108.4470214329
 10
7122.0043029806
 20
5111.6727958572
 10
7121.1533541691
 20
5114.4843577869
 10
7120.4181648053
 20
5116.986282541
 10
7119.7845201595
 20
5119.1616676932
 10
7119.1447809817
 20
5121.3180655405
 10
7118.5921006093
 20
5123.0753557126
 10
7117.8884795837
 20
5125.0519200246
 10
7117.3431582219
 20
5126.4398317316
 10
7117.019375273
 20
5127.3137404071
 10
7116.928150054
 20
5127.5902957014
  0
LWPOLYLINE
  5
F2
330
1F
100
AcDbEntity
  8
0
  6
Continuous
 62
     8
370
    25
100
AcDbPolyline
 90
       33
 70
   128
 43
0.0
 10
7259.242588407
 20
4962.733046152
 10
7254.9186562824
 20
4965.0521238889
 10
7246.6606624535
 20
4969.7168658602
 10
7238.2911493491
 20
4974.6783971695
 10
7229.9305553632
 20
4979.8914575021
 10
7217.1291208839
 20
4988.4040168146
 10
7204.4227830635
 20
4997.4628117197
 10
7192.7591550552
 20
5006.3603903804
 10
7187.0281151358
 20
5011.0158785273
 10
7181.4464186829
 20
5015.813016009
 10
7171.773519873
 20
5025.009017152
 10
7167.198908841
 20
5029.8767391553
 10
7162.853624308
 20
5034.8856218846
 10
7154.9111179953
 20
5045.1918548312
 10
7147.7853778965
 20
5055.8938182531
 10
7143.4256029455
 20
5063.2089439518
 10
7139.4363138089
 20
5070.5101695227
 10
7135.7759181349
 20
5077.8662867315
 10
7132.5586398859
 20
5085.0662435706
 10
7130.2772101401
 20
5090.7451895317
 10
7128.2704940124
 20
5096.2013240096
 10
7126.5410210633
 20
5101.296712755
 10
7125.0576076517
 20
5105.9881688467
 10
7123.7678571836
 20
5110.321833584
 10
7122.6992205267
 20
5114.0964874871
 10
7121.8609515922
 20
5117.1707868518
 10
7121.1945127931
 20
5119.7034461895
 10
7120.6756211997
 20
5121.7669723863
 10
7120.3055022277
 20
5123.3591807049
 10
7120.0214108868
 20
5124.9292723301
 10
7119.9331000027
 20
5125.9062429434
 10
7119.9431825678
 20
5126.3766718121
 10
7119.9345787378
 20
5126.3327542239
  0
ARC
  5
F3
330
1F
100
AcDbEntity
  8
0
  6
Continuous
 62
     8
370
    25
100
AcDbCircle
 10
7404.013541429
 20
5074.518617279
 30
0.0
 40
163.8981357267468
100
AcDbArc
 50
243.0615380623
 51
248.8041329738
  0
ARC
  5
F4
330
1F
100
AcDbEntity
  8
0
  6
Continuous
 62
     8
370
    25
100
AcDbCircle
 10
7325.506849929
 20
4928.2738463955
 30
0.0
 40
4.257389314993262
100
AcDbArc
 50
1.7582810737
 51
61.943207992
  0
LWPOLYLINE
  5
F5
330
1F
100
AcDbEntity
  8
0
  6
Continuous
 62
     8
370
    25
100
AcDbPolyline
 90
        3
 70
   128
 43
0.0
 10
7327.2240473111
 20
4932.1904747324
 10
7327.5680597473
 20
4932.066955381
 10
7327.8210373016
 20
4931.951680678
  0
LWPOLYLINE
  5
F6
330
1F
100
AcDbEntity
  8
0
  6
Continuous
 62
     7
370
    25
100
AcDbPolyline
 90
        6
 70
   128
 43
0.0
 10
6770.3258810871
 20
4383.7154907336
 10
6770.384401714
 20
4385.7249410557
 10
6770.4745968475
 20
4388.7669555827
 10
6770.5974399011
 20
4392.8186914628
 10
6770.7570811972
 20
4397.9184341017
 10
6770.9567311858
 20
4404.01845506
  0
LWPOLYLINE
  5
F7
330
1F
100
AcDbEntity
  8
0
  6
Continuous
 62
     7
370
    25
100
AcDbPolyline
 90
        9
 70
   128
 43
0.0
 10
6765.5625698865
 20
4210.761436976
 10
6765.60929699
 20
4211.8164898517
 10
6765.6877264314
 20
4213.6649515565
 10
6765.7723557095
 20
4215.7484795295
 10
6765.9104151267
 20
4219.3398697863
 10
6766.05367807
 20
4223.3084522074
 10
6766.2016771715
 20
4227.6524271447
 10
6766.3545826986
 20
4232.3837657657
 10
6766.3888021623
 20
4233.4929812079
  0
LWPOLYLINE
  5
F8
330
1F
100
AcDbEntity
  8
0
  6
Continuous
 62
     7
370
    25
100
AcDbPolyline
 90
       33
 70
   128
 43
0.0
 10
6516.3646646586
 20
4135.3041856034
 10
6522.3531167436
 20
4127.5888965356
 10
6528.8199682994
 20
4120.4017495357
 10
6535.3689762661
 20
4114.0518405164
 10
6541.8812795923
 20
4108.4940189205
 10
6548.2427325954
 20
4103.6789392454
 10
6554.3453942709
 20
4099.5541181935
 10
6560.1155192918
 20
4096.0502866053
 10
6566.314231954
 20
4092.6772895735
 10
6573.3845594657
 20
4089.2869476521
 10
6581.3931602842
 20
4085.9934662293
 10
6590.397947375
 20
4082.9406302492
 10
6600.2633605976
 20
4080.3459016317
 10
6608.1192615652
 20
4078.823331611
 10
6616.3384662578
 20
4077.7417615653
 10
6624.8784910193
 20
4077.1776110814
 10
6633.6761279377
 20
4077.2075564985
 10
6642.6533697384
 20
4077.8755020606
 10
6651.4163700329
 20
4079.1340876192
 10
6659.2439645726
 20
4080.7612458032
 10
6666.1230032572
 20
4082.5871369323
 10
6672.0885232515
 20
4084.4771686111
 10
6677.1842202632
 20
4086.3240458376
 10
6681.45750155
 20
4088.0433935644
 10
6685.3347174071
 20
4089.7427157079
 10
6691.0455008742
 20
4092.4980623447
 10
6697.3248646863
 20
4095.8949477855
 10
6704.0728223444
 20
4100.0090732702
 10
6711.1734892749
 20
4104.9147544676
 10
6718.4877375361
 20
4110.6800580873
 10
6725.4974085494
 20
4117.0099598213
 10
6733.1326048139
 20
4125.0097394626
 10
6735.2905524926
 20
4127.6659363166
  0
LINE
  5
F9
330
1F
100
AcDbEntity
  8
0
  6
Continuous
 62
     7
370
    25
100
AcDbLine
 10
6740.7470414261
 20
4134.558952762
 30
0.0
 11
6742.9480390429
 21
4137.7503159919
 31
0.0
  0
LWPOLYLINE
  5
FA
330
1F
100
AcDbEntity
  8
0
  6
Continuous
 62
     7
370
    25
100
AcDbPolyline
 90
        8
 70
   128
 43
0.0
 10
6491.3223989823
 20
4233.4917174325
 10
6491.4213384013
 20
4230.3451052277
 10
6491.5866934277
 20
4225.3506213513
 10
6491.754824387
 20
4220.580273189
 10
6491.9065747896
 20
4216.5605523698
 10
6492.0204578445
 20
4213.7316563219
 10
6492.1456461739
 20
4210.8152269984
 10
6492.1503666637
 20
4210.7141531554
  0
LWPOLYLINE
  5
FB
330
1F
100
AcDbEntity
  8
0
  6
Continuous
 62
     7
370
    25
100
AcDbPolyline
 90
        6
 70
   128
 43
0.0
 10
6486.7541425698
 20
4404.01845506
 10
6486.9538927814
 20
4397.9180724367
 10
6487.1136487236
 20
4392.8162768846
 10
6487.2366843496
 20
4388.7597423824
 10
6487.3273845392
 20
4385.7026760616
 10
6487.3850645411
 20
4383.7220826574
  0
ARC
  5
FC
330
1F
100
AcDbEntity
  8
0
  6
Continuous
 62
     7
370
    25
100
AcDbCircle
 10
6632.2873750048
 20
4212.9956158652
 30
0.0
 40
139.8092744533794
100
AcDbArc
 50
186.8007361609
 51
208.6196189017
  0
ARC
  5
FD
330
1F
100
AcDbEntity
  8
0
  6
Continuous
 62
     7
370
    25
100
AcDbCircle
 10
6627.0514358047
 20
4212.9672364355
 30
0.0
 40
138.2534559125363
100
AcDbArc
 50
329.7569742329
 51
353.9495287747
  0
LWPOLYLINE
  5
FE
330
1F
100
AcDbEntity
  8
0
  6
Continuous
 62
     7
370
    25
100
AcDbPolyline
 90
       22
 70
   128
 43
0.0
 10
6491.2277839306
 20
4377.3697338989
 10
6491.2374601158
 20
4377.354618704
 10
6491.4049253436
 20
4377.085717754
 10
6491.7123970313
 20
4376.5401799089
 10
6492.1418485144
 20
4375.7073104471
 10
6492.6651313914
 20
4374.5941265379
 10
6493.1515373676
 20
4373.4562104728
 10
6493.6582121409
 20
4372.163680298
 10
6494.1827134134
 20
4370.7102102452
 10
6494.7843381818
 20
4368.8978738093
 10
6495.3876311279
 20
4366.9195880464
 10
6495.9111151757
 20
4365.0371172485
 10
6496.4650862419
 20
4362.8540581576
 10
6497.0204079626
 20
4360.4391469117
 10
6497.561012212
 20
4357.8198582071
 10
6498.070797191
 20
4355.0280880224
 10
6498.5340947129
 20
4352.0993371045
 10
6498.9369857878
 20
4349.0684037236
 10
6499.2743651705
 20
4345.9758326576
 10
6499.570822599
 20
4342.5279754127
 10
6499.7991064965
 20
4338.8889515858
 10
6499.8201156971
 20
4338.3603660487
  0
ARC
  5
FF
330
1F
100
AcDbEntity
  8
0
  6
Continuous
 62
     7
370
    25
100
AcDbCircle
 10
6497.6166007293
 20
4383.9351365354
 30
0.0
 40
10.21711636335186
100
AcDbArc
 50
181.14452246
 51
239.3319971298
  0
LWPOLYLINE
  5
100
330
1F
100
AcDbEntity
  8
0
  6
Continuous
 62
     7
370
    25
100
AcDbPolyline
 90
       19
 70
   128
 43
0.0
 10
6766.114297573
 20
4245.8611241295
 10
6765.9605442007
 20
4248.5073228857
 10
6765.6180654154
 20
4252.8929837573
 10
6765.1651242369
 20
4257.5385691717
 10
6764.5896324845
 20
4262.6502818838
 10
6763.8896885083
 20
4268.3117414673
 10
6763.1035499911
 20
4274.3155252828
 10
6762.2473256671
 20
4280.6913665916
 10
6761.3430040524
 20
4287.4593781908
 10
6760.4202965238
 20
4294.6298396539
 10
6759.5199736983
 20
4302.210532169
 10
6758.8832435996
 20
4308.3388749648
 10
6758.3882763611
 20
4314.0667922679
 10
6758.0224266121
 20
4319.5812690698
 10
6757.8046263717
 20
4324.4500908572
 10
6757.7083139954
 20
4328.8185264072
 10
6757.713840139
 20
4332.8714432552
 10
6757.8109719938
 20
4336.7056884403
 10
6757.893165196
 20
4338.3590012628
  0
LWPOLYLINE
  5
101
330
1F
100
AcDbEntity
  8
0
  6
Continuous
 62
     7
370
    25
100
AcDbPolyline
 90
       19
 70
   128
 43
0.0
 10
6499.814970793
 20
4338.3573515167
 10
6499.835499846
 20
4338.0011737665
 10
6499.963317976
 20
4334.2972414905
 10
6500.0070842417
 20
4330.3413304935
 10
6499.9516855424
 20
4326.0935146942
 10
6499.7826573493
 20
4321.4000356243
 10
6499.4913915402
 20
4316.3738076913
 10
6499.0726705124
 20
4311.0209067925
 10
6498.516927309
 20
4305.2439361253
 10
6497.8082208217
 20
4298.859675826
 10
6496.9013886028
 20
4291.4868980978
 10
6495.9559090647
 20
4284.2938922058
 10
6495.0204843085
 20
4277.3653422995
 10
6494.1354220278
 20
4270.7399071998
 10
6493.3339483444
 20
4264.4336843817
 10
6492.6427497825
 20
4258.4329317883
 10
6492.1889127743
 20
4253.7976645779
 10
6491.8111749563
 20
4249.0745613451
 10
6491.7493451109
 20
4248.0542249148
  0
LWPOLYLINE
  5
102
330
1F
100
AcDbEntity
  8
0
  6
Continuous
 62
     7
370
    25
100
AcDbPolyline
 90
       21
 70
   128
 43
0.0
 10
6757.8900434549
 20
4338.3580578887
 10
6758.0462542499
 20
4341.2317208878
 10
6758.3121104169
 20
4344.6458012431
 10
6758.6855625168
 20
4348.2443540372
 10
6759.1223273753
 20
4351.6174772136
 10
6759.6092468917
 20
4354.7814475625
 10
6760.1288895612
 20
4357.7021904262
 10
6760.6660188371
 20
4360.3583754299
 10
6761.2074338708
 20
4362.7376622978
 10
6761.7470517994
 20
4364.8612227057
 10
6762.3133309898
 20
4366.8986109231
 10
6762.8674186959
 20
4368.728572802
 10
6763.4205945765
 20
4370.4079952089
 10
6763.9669173146
 20
4371.932660979
 10
6764.4991362678
 20
4373.2980879749
 10
6765.0086790864
 20
4374.50056726
 10
6765.4980784027
 20
4375.5667056652
 10
6765.9179998708
 20
4376.4161791488
 10
6766.249882799
 20
4377.0311392169
 10
6766.4459990812
 20
4377.358494591
 10
6766.4623180624
 20
4377.3843363982
  0
ARC
  5
103
330
1F
100
AcDbEntity
  8
0
  6
Continuous
 62
     7
370
    25
100
AcDbCircle
 10
6760.0605050373
 20
4383.9906665131
 30
0.0
 40
10.26793436348559
100
AcDbArc
 50
300.7845387863
 51
358.4534946584
  0
ARC
  5
104
330
1F
100
AcDbEntity
  8
0
  6
Continuous
 62
     7
370
    25
100
AcDbCircle
 10
6611.0287983205
 20
4290.8209467351
 30
0.0
 40
8.196931755364488
100
AcDbArc
 50
113.0114366596
 51
118.0272310249
  0
LWPOLYLINE
  5
105
330
1F
100
AcDbEntity
  8
0
  6
Continuous
 62
     7
370
    25
100
AcDbPolyline
 90
       13
 70
   128
 43
0.0
 10
6692.144796884
 20
4096.2227258665
 10
6683.269247666
 20
4092.3187682222
 10
6674.0705034334
 20
4088.9500631032
 10
6664.5794007846
 20
4086.1501185828
 10
6654.7780931779
 20
4083.9492697976
 10
6643.4500602228
 20
4082.2640065931
 10
6631.9156981715
 20
4081.5025793091
 10
6620.0563726102
 20
4081.752832415
 10
6608.1680059835
 20
4083.0422271637
 10
6597.1025667244
 20
4085.1570367808
 10
6586.1898940157
 20
4088.112600058
 10
6575.3551551697
 20
4091.9354862921
 10
6564.8314734012
 20
4096.5598806617
  0
ARC
  5
106
330
1F
100
AcDbEntity
  8
0
  6
Continuous
 62
     7
370
    25
100
AcDbCircle
 10
6640.078909991
 20
4215.766457268
 30
0.0
 40
125.6269793814609
100
AcDbArc
 50
352.1449358628
 51
1.3533876634
  0
ARC
  5
107
330
1F
100
AcDbEntity
  8
0
  6
Continuous
 62
     7
370
    25
100
AcDbCircle
 10
6669.0607563442
 20
4187.3531744528
 30
0.0
 40
89.14459353601774
100
AcDbArc
 50
316.6710905797
 51
330.441382131
  0
ARC
  5
108
330
1F
100
AcDbEntity
  8
0
  6
Continuous
 62
     7
370
    25
100
AcDbCircle
 10
6701.2929128409
 20
4242.6688666515
 30
0.0
 40
59.31368295822926
100
AcDbArc
 50
22.6419224848
 51
63.6788419234
  0
ARC
  5
109
330
1F
100
AcDbEntity
  8
0
  6
Continuous
 62
     7
370
    25
100
AcDbCircle
 10
6590.0480034221
 20
4188.419506803
 30
0.0
 40
90.9070538565288
100
AcDbArc
 50
207.7036757271
 51
223.8927047846
  0
ARC
  5
10A
330
1F
100
AcDbEntity
  8
0
  6
Continuous
 62
     7
370
    25
100
AcDbCircle
 10
6610.6367789665
 20
4215.2009002911
 30
0.0
 40
118.6003528916481
100
AcDbArc
 50
178.4852025949
 51
189.0043991558
  0
LWPOLYLINE
  5
10B
330
1F
100
AcDbEntity
  8
0
  6
Continuous
 62
     7
370
    25
100
AcDbPolyline
 90
        3
 70
   128
 43
0.0
 10
6491.2991001167
 20
4238.1608604426
 10
6491.2735310708
 20
4236.539131505
 10
6491.3345198538
 20
4233.4920520118
  0
LWPOLYLINE
  5
10C
330
1F
100
AcDbEntity
  8
0
  6
Continuous
 62
     7
370
    25
100
AcDbPolyline
 90
        3
 70
   128
 43
0.0
 10
6766.3746052975
 20
4233.4934216007
 10
6766.4265783303
 20
4235.149532045
 10
6766.4204470043
 20
4238.0202362382
  0
LINE
  5
10D
330
1F
100
AcDbEntity
  8
0
  6
Continuous
 62
     7
370
    25
100
AcDbLine
 10
6628.8554368819
 20
4404.01845506
 30
0.0
 11
6486.7772742888
 21
4404.01845506
 31
0.0
  0
LINE
  5
10E
330
1F
100
AcDbEntity
  8
0
  6
Continuous
 62
     7
370
    25
100
AcDbLine
 10
6770.9411456188
 20
4404.01845506
 30
0.0
 11
6628.8554368819
 21
4404.01845506
 31
0.0
  0
LWPOLYLINE
  5
10F
330
1F
100
AcDbEntity
  8
0
  6
Continuous
 62
     7
370
    25
100
AcDbPolyline
 90
       10
 70
   128
 43
0.0
 10
6564.8314734012
 20
4096.5598806617
 10
6559.7214206465
 20
4099.3555952216
 10
6554.7880390136
 20
4102.4689392507
 10
6550.0183355046
 20
4105.9199411995
 10
6545.4701107854
 20
4109.6789693126
 10
6539.0132664613
 20
4115.9601514121
 10
6533.1313154771
 20
4122.8679851573
 10
6527.7538280501
 20
4130.3850563646
 10
6522.8927742414
 20
4138.2572919616
 10
6517.0725207652
 20
4148.9038613905
  0
LWPOLYLINE
  5
110
330
1F
100
AcDbEntity
  8
0
  6
Continuous
 62
     7
370
    25
100
AcDbPolyline
 90
       46
 70
   128
 43
0.0
 10
6513.9778813729
 20
4155.0429537914
 10
6510.1464884843
 20
4163.1740104132
 10
6506.6363865499
 20
4171.4034591022
 10
6503.5445648831
 20
4179.6614529311
 10
6500.894960226
 20
4188.0309660355
 10
6498.7493739762
 20
4196.3915600214
 10
6496.4143012644
 20
4209.1929945007
 10
6495.2043597878
 20
4221.8993323211
 10
6495.1708644771
 20
4233.5629603294
 10
6495.5891362761
 20
4239.2940002488
 10
6496.3086283202
 20
4244.8756967017
 10
6498.3871070881
 20
4254.5485955116
 10
6499.7863603689
 20
4259.1232065436
 10
6501.4021079984
 20
4263.4684910766
 10
6505.2189268199
 20
4271.4109973893
 10
6509.8753151826
 20
4278.5367374881
 10
6513.5118133273
 20
4282.8965124391
 10
6517.5747961427
 20
4286.8858015758
 10
6522.1914710554
 20
4290.5461972497
 10
6527.3482915629
 20
4293.7634754987
 10
6531.9872181287
 20
4296.0449052445
 10
6537.0666805735
 20
4298.0516213722
 10
6542.5412003561
 20
4299.7810943213
 10
6548.4319120143
 20
4301.2645077329
 10
6554.917239747
 20
4302.554258201
 10
6561.7810725493
 20
4303.622894858
 10
6568.7024514674
 20
4304.4611637924
 10
6575.8593263537
 20
4305.1276025915
 10
6583.3608050566
 20
4305.6464941849
 10
6590.9866826966
 20
4306.0166131569
 10
6601.5997138067
 20
4306.3007044979
 10
6612.2987307895
 20
4306.3890153819
 10
6623.0278030431
 20
4306.3789328168
 10
6639.4814936934
 20
4306.4079115979
 10
6655.8826408367
 20
4306.337652804
 10
6664.4103734775
 20
4306.141579172
 10
6672.855658658
 20
4305.7939874711
 10
6681.3140542838
 20
4305.2662779941
 10
6689.5503248608
 20
4304.5432237794
 10
6697.0380128063
 20
4303.6625465582
 10
6704.1657399859
 20
4302.5697836266
 10
6711.1028835841
 20
4301.1881916956
 10
6717.5337912684
 20
4299.5282091329
 10
6719.0995824052
 20
4299.0535978833
 10
6723.4877266963
 20
4297.5415775625
 10
6727.5927311502
 20
4295.8330702377
  0
LINE
  5
111
330
1F
100
AcDbEntity
  8
0
  6
Continuous
 62
     7
370
    25
100
AcDbLine
 10
6513.9778813729
 20
4155.0429537914
 30
0.0
 11
6517.0725207652
 21
4148.9038613905
 31
0.0
  0
LWPOLYLINE
  5
112
330
1F
100
AcDbEntity
  8
0
  6
Continuous
 62
     7
370
    25
100
AcDbPolyline
 90
        9
 70
   128
 43
0.0
 10
6727.5927311502
 20
4295.8330702377
 10
6727.2923188569
 20
4294.7802592542
 10
6726.8133259286
 20
4293.7735862055
 10
6726.1796092674
 20
4292.8631898284
 10
6725.4227320037
 20
4292.0944136674
 10
6724.5803914516
 20
4291.5055476774
 10
6723.6945415414
 20
4291.1259211395
 10
6722.8093032472
 20
4290.9744418758
 10
6721.9687670806
 20
4291.0586545196
  0
LWPOLYLINE
  5
113
330
1F
100
AcDbEntity
  8
0
  6
Continuous
 62
     7
370
    25
100
AcDbPolyline
 90
       44
 70
   128
 43
0.0
 10
6721.9687670806
 20
4291.0586545196
 10
6718.2832938476
 20
4292.8937151105
 10
6714.3028144524
 20
4294.5756665726
 10
6709.4484132575
 20
4296.2885384763
 10
6704.1927393486
 20
4297.8090179519
 10
6698.4580663333
 20
4299.154989426
 10
6692.3395506327
 20
4300.3054697024
 10
6687.3073765456
 20
4301.072965635
 10
6679.680225057
 20
4301.9890677817
 10
6671.7690698533
 20
4302.6875873188
 10
6663.5699606186
 20
4303.199894261
 10
6655.2530658076
 20
4303.5483282485
 10
6639.6657276833
 20
4303.8654850986
 10
6623.9282450838
 20
4303.9025253039
 10
6607.9356440266
 20
4303.6944751429
 10
6599.9359257184
 20
4303.4447096593
 10
6591.9734546259
 20
4303.06046731
 10
6584.9462718735
 20
4302.5792029813
 10
6578.0098165728
 20
4301.9400300649
 10
6571.1419235139
 20
4301.1075521368
 10
6564.477744334
 20
4300.0617794509
 10
6558.3893880643
 20
4298.8485670289
 10
6552.6053906767
 20
4297.4081964528
 10
6547.0852421929
 20
4295.7016313223
 10
6541.9517543066
 20
4293.74240104
 10
6538.0794905123
 20
4291.9637851429
 10
6534.4704113716
 20
4290.0145583494
 10
6527.9635363771
 20
4285.5623802753
 10
6522.2247972493
 20
4280.2840060638
 10
6517.2976776787
 20
4274.3242484094
 10
6513.453421237
 20
4268.3198083294
 10
6510.1707022949
 20
4261.7267817314
 10
6509.5048622142
 20
4260.1526545409
 10
6506.6688054454
 20
4252.039067975
 10
6504.5331821756
 20
4243.1795913605
 10
6503.0891474774
 20
4232.9206055162
 10
6502.573293702
 20
4222.0837130374
 10
6503.0524598981
 20
4210.1563332786
 10
6504.6021902031
 20
4197.8195606823
 10
6506.1841185587
 20
4189.794274741
 10
6508.2554587097
 20
4181.6806677753
 10
6510.8477714493
 20
4173.4599514581
 10
6513.9628013626
 20
4165.2229620569
 10
6517.52684669
 20
4157.1850516967
  0
ARC
  5
114
330
1F
100
AcDbEntity
  8
0
  6
Continuous
 62
     7
370
    25
100
AcDbCircle
 10
6510.2286227281
 20
4165.2655761891
 30
0.0
 40
10.88847781238062
100
AcDbArc
 50
290.141064835
 51
312.0879348784
  0
LWPOLYLINE
  5
115
330
1F
100
AcDbEntity
  8
0
  6
Continuous
 62
     7
370
    25
100
AcDbPolyline
 90
       69
 70
   128
 43
0.0
 10
6628.8555058231
 20
4301.0184558627
 10
6618.6122193607
 20
4300.7028885727
 10
6608.4785229731
 20
4299.9633639891
 10
6598.4779090766
 20
4298.7436041076
 10
6588.6639280888
 20
4296.9622824606
 10
6581.1329197323
 20
4295.1077385616
 10
6573.831947289
 20
4292.7903592528
 10
6566.8509062019
 20
4289.9514132725
 10
6560.3147099373
 20
4286.5366770664
 10
6554.5247151989
 20
4282.6243749348
 10
6549.460812233
 20
4278.1373209068
 10
6545.2636915628
 20
4273.1259685923
 10
6542.0173466254
 20
4267.6842774967
 10
6539.736035592
 20
4261.9248129162
 10
6538.3674544197
 20
4255.9549453278
 10
6537.7920749169
 20
4249.8605875658
 10
6538.0522253405
 20
4241.2139046846
 10
6539.3278614349
 20
4232.4868461556
 10
6541.4651630045
 20
4223.6986426181
 10
6544.3819365664
 20
4214.8513043826
 10
6548.0307047146
 20
4205.9740842424
 10
6552.3867802812
 20
4197.1099832575
 10
6557.4449146832
 20
4188.3098845969
 10
6563.2182383084
 20
4179.6383329003
 10
6569.7389023937
 20
4171.1781531552
 10
6577.0619902901
 20
4163.0404305885
 10
6582.7100402149
 20
4157.6178770303
 10
6588.8320237593
 20
4152.5047567131
 10
6595.4764159612
 20
4147.8061972338
 10
6602.6949319318
 20
4143.6729350152
 10
6607.5435635994
 20
4141.458358058
 10
6612.6325848432
 20
4139.6242652405
 10
6617.9377679738
 20
4138.2541231651
 10
6623.4065951152
 20
4137.4390158241
 10
6628.9411108698
 20
4137.2552061941
 10
6634.7731415534
 20
4137.7806337683
 10
6640.4598242792
 20
4138.9791649075
 10
6645.9155480106
 20
4140.7404529835
 10
6651.1037063789
 20
4142.9541898317
 10
6656.0183807064
 20
4145.5289714976
 10
6660.6694008515
 20
4148.3898169208
 10
6667.4838245724
 20
4153.3334309523
 10
6673.7508444645
 20
4158.6898307661
 10
6679.5273114698
 20
4164.3508093246
 10
6686.6929334556
 20
4172.4269862532
 10
6693.1110391814
 20
4180.7934720962
 10
6698.834579835
 20
4189.3545442043
 10
6703.8939172792
 20
4198.03944216
 10
6708.301005403
 20
4206.7931564507
 10
6712.0494442508
 20
4215.5727229644
 10
6715.1130589201
 20
4224.3419699802
 10
6717.4437862138
 20
4233.0796867312
 10
6718.9568080408
 20
4241.7868662818
 10
6719.4943943231
 20
4250.4465567009
 10
6719.1365353657
 20
4256.5738857196
 10
6717.9929041939
 20
4262.6006249806
 10
6715.9313224554
 20
4268.4430885009
 10
6712.8736167735
 20
4273.9880989751
 10
6708.8076292634
 20
4279.1076005351
 10
6703.8024256127
 20
4283.6855312862
 10
6698.0034427689
 20
4287.6511414144
 10
6691.2817767424
 20
4291.1275455869
 10
6684.0717292202
 20
4293.9568367401
 10
6676.5236618212
 20
4296.2037828408
 10
6668.7447221771
 20
4297.9400493066
 10
6660.8133460447
 20
4299.2358479023
 10
6650.2671419113
 20
4300.3577192327
 10
6639.6034478575
 20
4300.9266602219
 10
6628.8555058231
 20
4301.0184558627
  0
ARC
  5
116
330
1F
100
AcDbEntity
  8
0
  6
Continuous
 62
     7
370
    25
100
AcDbCircle
 10
6645.6731758338
 20
4195.3256253193
 30
0.0
 40
101.3421972374054
100
AcDbArc
 50
294.7171469458
 51
330.5725646633
  0
ARC
  5
117
330
1F
100
AcDbEntity
  8
0
  6
Continuous
 62
     7
370
    25
100
AcDbCircle
 10
6628.9559144757
 20
4230.2061734387
 30
0.0
 40
140.0185238651101
100
AcDbArc
 50
244.6486884106
 51
294.9629802837
  0
LWPOLYLINE
  5
118
330
1F
100
AcDbEntity
  8
0
  6
Continuous
 62
     7
370
    25
100
AcDbPolyline
 90
        8
 70
   128
 43
0.0
 10
6520.5570356232
 20
4151.1701319766
 10
6526.5523022574
 20
4140.9479754843
 10
6531.4490279353
 20
4133.9504447798
 10
6536.9539479533
 20
4127.270819007
 10
6543.1848744897
 20
4120.9351757643
 10
6550.0628184489
 20
4115.1291739959
 10
6559.1438958042
 20
4108.9335683578
 10
6569.0045543548
 20
4103.6715084452
  0
LINE
  5
119
330
1F
100
AcDbEntity
  8
0
  6
Continuous
 62
     7
370
    25
100
AcDbLine
 10
6517.52684669
 20
4157.1850516967
 30
0.0
 11
6520.5570356232
 21
4151.1701319766
 31
0.0
  0
ARC
  5
11A
330
1F
100
AcDbEntity
  8
0
  6
Continuous
 62
     7
370
    25
100
AcDbCircle
 10
6693.9872495423
 20
4240.3311568188
 30
0.0
 40
57.9331023399366
100
AcDbArc
 50
21.5776787958
 51
61.1186722705
  0
LWPOLYLINE
  5
11B
330
1F
100
AcDbEntity
  8
0
  6
Continuous
 62
     7
370
    25
100
AcDbPolyline
 90
       13
 70
   128
 43
0.0
 10
6743.0490535968
 20
4163.7219097442
 10
6746.1654925918
 20
4171.651766275
 10
6748.8091497184
 20
4179.6002877347
 10
6751.0095346681
 20
4187.6414281254
 10
6752.7358354633
 20
4195.6363424224
 10
6754.3095842812
 20
4206.0639704774
 10
6755.1155796053
 20
4216.295439154
 10
6755.1590691358
 20
4226.4842528857
 10
6754.4010055331
 20
4236.3485600629
 10
6753.4398702706
 20
4242.7147430727
 10
6752.1158005854
 20
4248.8500486003
 10
6750.6069408547
 20
4254.1912895602
 10
6747.8603901487
 20
4261.6367680031
  0
LWPOLYLINE
  5
11C
330
1F
100
AcDbEntity
  8
0
  6
Continuous
 62
     7
370
    25
100
AcDbPolyline
 90
        3
 70
   128
 43
0.0
 10
6733.9400658087
 20
4145.5340891403
 10
6738.817791947
 20
4154.5364737974
 10
6743.0490535968
 20
4163.7219097442
  0
ARC
  5
11D
330
1F
100
AcDbEntity
  8
0
  6
Continuous
 62
     7
370
    25
100
AcDbCircle
 10
6750.4491529107
 20
4266.7386910345
 30
0.0
 40
5.721128495061244
100
AcDbArc
 50
243.096342884
 51
347.5254962876
  0
LWPOLYLINE
  5
11E
330
1F
100
AcDbEntity
  8
0
  6
Continuous
 62
     7
370
    25
100
AcDbPolyline
 90
        8
 70
   128
 43
0.0
 10
6737.2900330968
 20
4143.2113271369
 10
6732.6804162013
 20
4135.1088708237
 10
6727.6338099557
 20
4127.2861562093
 10
6721.9535870731
 20
4119.8254426541
 10
6715.4543633317
 20
4112.7834250758
 10
6708.177708479
 20
4106.3860213836
 10
6700.4736748031
 20
4100.9287752043
 10
6692.144796884
 20
4096.2227258665
  0
LWPOLYLINE
  5
11F
330
1F
100
AcDbEntity
  8
0
  6
Continuous
 62
     7
370
    25
100
AcDbPolyline
 90
        3
 70
   128
 43
0.0
 10
6737.2900330968
 20
4143.2113271369
 10
6742.4136893333
 20
4152.3043723851
 10
6746.5931893586
 20
4161.7574004774
  0
LWPOLYLINE
  5
120
330
1F
100
AcDbEntity
  8
0
  6
Continuous
 62
     7
370
    25
100
AcDbPolyline
 90
       12
 70
   128
 43
0.0
 10
6756.0352182905
 20
4265.5028978358
 10
6758.9699148191
 20
4257.3144864894
 10
6761.2447080951
 20
4247.7760034952
 10
6762.5453190682
 20
4237.4908685576
 10
6762.8308377397
 20
4227.0272723491
 10
6762.2000720811
 20
4216.306987183
 10
6760.7000638172
 20
4205.3023567409
 10
6758.3427635246
 20
4194.155272187
 10
6756.0834252637
 20
4186.0807069345
 10
6753.3552062778
 20
4177.9922690269
 10
6750.1709259898
 20
4169.869952403
 10
6746.5931893586
 20
4161.7574004774
  0
ARC
  5
121
330
1F
100
AcDbEntity
  8
0
  6
Continuous
 62
     7
370
    25
100
AcDbCircle
 10
6749.703082669
 20
4171.547113308
 30
0.0
 40
10.27180187251531
100
AcDbArc
 50
229.6243875542
 51
252.3765341462
  0
LWPOLYLINE
  5
122
330
1F
100
AcDbEntity
  8
0
  6
Continuous
 62
     7
370
    25
100
AcDbPolyline
 90
       25
 70
   128
 43
0.0
 10
6628.8554368819
 20
4191.01845506
 10
6632.842655635
 20
4191.591527479
 10
6636.7945021399
 20
4193.2437210638
 10
6640.6756041483
 20
4195.8745003062
 10
6644.4505894121
 20
4199.3833296975
 10
6648.0840856831
 20
4203.6696737296
 10
6652.3730997161
 20
4209.9678241696
 10
6656.3166816376
 20
4217.1273960891
 10
6659.8457450254
 20
4224.9520310732
 10
6662.8912034571
 20
4233.2453707072
 10
6665.3839705103
 20
4241.8110565763
 10
6667.2549597629
 20
4250.4527302656
 10
6668.4350847925
 20
4258.9740333604
 10
6668.8552591768
 20
4267.1786074459
 10
6668.5978081439
 20
4273.3822689729
 10
6667.7744011394
 20
4279.15701904
 10
6666.3496659153
 20
4284.402322139
 10
6664.2882302233
 20
4289.0176427614
 10
6661.5547218151
 20
4292.9024453988
 10
6658.2942125513
 20
4295.8311459577
 10
6654.3927574338
 20
4297.9681515584
 10
6649.9431164104
 20
4299.41953729
 10
6645.0549266624
 20
4300.3177818293
 10
6639.8378253708
 20
4300.795363853
 10
6634.9213609133
 20
4300.9666488234
  0
LWPOLYLINE
  5
123
330
1F
100
AcDbEntity
  8
0
  6
Continuous
 62
     7
370
    25
100
AcDbPolyline
 90
       24
 70
   128
 43
0.0
 10
6612.2085487892
 20
4300.2355692815
 10
6607.7677490552
 20
4299.4195352492
 10
6603.3181113802
 20
4297.9681494668
 10
6599.4166590934
 20
4295.8311444683
 10
6596.1561519487
 20
4292.9024453988
 10
6593.4226435405
 20
4289.0176427614
 10
6591.3612078485
 20
4284.402322139
 10
6589.9364726244
 20
4279.15701904
 10
6589.11306562
 20
4273.3822689729
 10
6588.855614587
 20
4267.1786074459
 10
6589.2757889713
 20
4258.9740333604
 10
6590.4559140009
 20
4250.4527302656
 10
6592.3269032535
 20
4241.8110565763
 10
6594.8196703068
 20
4233.2453707072
 10
6597.8651287384
 20
4224.9520310732
 10
6601.3941921262
 20
4217.1273960891
 10
6605.3377740477
 20
4209.9678241696
 10
6609.6267880808
 20
4203.6696737296
 10
6613.2602843517
 20
4199.3833296975
 10
6617.0352696155
 20
4195.8745003062
 10
6620.9163716239
 20
4193.2437210638
 10
6624.8682181288
 20
4191.591527479
 10
6628.8554368819
 20
4191.01845506
 10
6628.8554368819
 20
4191.01845506
  0
LWPOLYLINE
  5
124
330
1F
100
AcDbEntity
  8
0
  6
Continuous
 62
     7
370
    25
100
AcDbPolyline
 90
        9
 70
   128
 43
0.0
 10
6569.0045543548
 20
4103.6715084452
 10
6568.6658408099
 20
4102.6139690917
 10
6568.1987336471
 20
4101.4487478626
 10
6567.6357905484
 20
4100.2570614576
 10
6567.0162490247
 20
4099.1219712173
 10
6566.3832915351
 20
4098.1225936913
 10
6565.7810356405
 20
4097.3285861625
 10
6565.2514589799
 20
4096.7952914873
 10
6564.8314734012
 20
4096.5598806617
  0
ARC
  5
125
330
1F
100
AcDbEntity
  8
0
  6
Continuous
 62
     7
370
    25
100
AcDbCircle
 10
6512.5731451199
 20
4159.6338485858
 30
0.0
 40
11.63516250029754
100
AcDbArc
 50
292.7496303052
 51
313.3289839424
  0
LWPOLYLINE
  5
126
330
1F
100
AcDbEntity
  8
0
  6
Continuous
 62
     7
370
    25
100
AcDbPolyline
 90
        3
 70
   128
 43
0.0
 10
6746.5931893586
 20
4161.7574004774
 10
6742.2929188365
 20
4152.4417512123
 10
6737.2900330968
 20
4143.2113271369
  0
ARC
  5
127
330
1F
100
AcDbEntity
  8
0
  6
Continuous
 62
     7
370
    25
100
AcDbCircle
 10
6742.6692319917
 20
4154.5464929321
 30
0.0
 40
12.54678302815023
100
AcDbArc
 50
225.9146282499
 51
244.6129263352
  0
LWPOLYLINE
  5
128
330
1F
100
AcDbEntity
  8
0
  6
Continuous
 62
     7
370
    25
100
AcDbPolyline
 90
        9
 70
   128
 43
0.0
 10
6688.0482952632
 20
4103.2680879079
 10
6688.3914221528
 20
4102.2103291032
 10
6688.8559214895
 20
4101.0527001949
 10
6689.4102164384
 20
4099.8738972203
 10
6690.0166258257
 20
4098.7540556373
 10
6690.6339257193
 20
4097.7693026868
 10
6691.2201518464
 20
4096.986582235
 10
6691.73545234
 20
4096.4591039048
 10
6692.144796884
 20
4096.2227258665
  0
LINE
  5
129
330
1F
100
AcDbEntity
  8
0
  6
Continuous
 62
     7
370
    25
100
AcDbLine
 10
6628.8462526704
 20
4300.5447965994
 30
0.0
 11
6628.8554368819
 21
4301.01845506
 31
0.0
  0
LWPOLYLINE
  5
12A
330
1F
100
AcDbEntity
  8
0
  6
Continuous
 62
     7
370
    25
100
AcDbPolyline
 90
       19
 70
   128
 43
0.0
 10
6636.3554223408
 20
4224.0433527537
 10
6634.8029254222
 20
4211.245454555
 10
6634.2216905492
 20
4207.7764028007
 10
6632.707098649
 20
4200.8792161778
 10
6631.5186810594
 20
4197.0878551052
 10
6630.0222599517
 20
4193.4965509526
 10
6629.7054999171
 20
4192.8411708782
 10
6629.4547252657
 20
4192.3278127795
 10
6629.2848235657
 20
4191.9767642977
 10
6629.1624649561
 20
4191.7205939092
 10
6629.0776757441
 20
4191.5402767113
 10
6629.0165969095
 20
4191.4061348866
 10
6628.9718873344
 20
4191.3044345259
 10
6628.9391207254
 20
4191.2274531471
 10
6628.9152291717
 20
4191.1697692028
 10
6628.8979363126
 20
4191.1270947877
 10
6628.8855132123
 20
4191.095917012
 10
6628.8707148817
 20
4191.0581689641
 10
6628.8554368819
 20
4191.01845506
  0
LWPOLYLINE
  5
12B
330
1F
100
AcDbEntity
  8
0
  6
Continuous
 62
     7
370
    25
100
AcDbPolyline
 90
       13
 70
   128
 43
0.0
 10
6652.6786586284
 20
4294.3564276903
 10
6653.926049913
 20
4290.8236930899
 10
6654.6794963674
 20
4287.0554493903
 10
6655.1207544864
 20
4281.9062404705
 10
6655.0772416154
 20
4276.6850961777
 10
6654.6400713072
 20
4271.373985599
 10
6653.8722588355
 20
4266.0779228295
 10
6651.9220579046
 20
4257.179711911
 10
6649.2275443368
 20
4248.4103727791
 10
6645.733635557
 20
4239.7027239382
 10
6641.3759641979
 20
4231.2991712224
 10
6639.009220343
 20
4227.5859986964
 10
6636.3554223408
 20
4224.0433527537
  0
LINE
  5
12C
330
1F
100
AcDbEntity
  8
0
  6
Continuous
 62
     7
370
    25
100
AcDbLine
 10
6652.6940514742
 20
4294.3603065925
 30
0.0
 11
6652.6786586283
 21
4294.3564276901
 31
0.0
  0
ARC
  5
12D
330
1F
100
AcDbEntity
  8
0
  6
Continuous
 62
     7
370
    25
100
AcDbCircle
 10
6646.5714374236
 20
4292.2087890796
 30
0.0
 40
6.489640238174691
100
AcDbArc
 50
19.3617328946
 51
60.149388781
  0
LWPOLYLINE
  5
12E
330
1F
100
AcDbEntity
  8
0
  6
Continuous
 62
     7
370
    25
100
AcDbPolyline
 90
       10
 70
   128
 43
0.0
 10
6628.8462526704
 20
4300.5447965994
 10
6628.8463126704
 20
4300.5447965997
 10
6633.1421110549
 20
4300.5223272846
 10
6637.4381784182
 20
4300.4042766009
 10
6639.6508478152
 20
4300.278179055
 10
6642.1315478081
 20
4300.0594628749
 10
6644.4149865069
 20
4299.7610551758
 10
6646.995555579
 20
4299.2660747387
 10
6649.0195449034
 20
4298.6973861812
 10
6650.1047023005
 20
4298.260715821
  0
LWPOLYLINE
  5
12F
330
1F
100
AcDbEntity
  8
0
  6
Continuous
 62
     7
370
    25
100
AcDbPolyline
 90
       11
 70
   128
 43
0.0
 10
6607.5227656394
 20
4298.2342575944
 10
6608.6767686755
 20
4298.6997812571
 10
6610.6118452196
 20
4299.2465321418
 10
6613.2800108932
 20
4299.7616154993
 10
6616.1467696033
 20
4300.1198031712
 10
6619.4962742525
 20
4300.3672314929
 10
6620.2549763457
 20
4300.4042585427
 10
6624.4068018127
 20
4300.5203280013
 10
6628.8461926704
 20
4300.5447965992
 10
6628.8462526704
 20
4300.5447965994
 10
6628.8462526704
 20
4300.5447965994
  0
ARC
  5
130
330
1F
100
AcDbEntity
  8
0
  6
Continuous
 62
     7
370
    25
100
AcDbCircle
 10
6611.0908445571
 20
4292.2189779062
 30
0.0
 40
6.473214892607038
100
AcDbArc
 50
119.6551163795
 51
160.6572744902
  0
LINE
  5
131
330
1F
100
AcDbEntity
  8
0
  6
Continuous
 62
     7
370
    25
100
AcDbLine
 10
6604.9983129777
 20
4294.3591738962
 30
0.0
 11
6604.9830153001
 21
4294.3630238043
 31
0.0
  0
LWPOLYLINE
  5
132
330
1F
100
AcDbEntity
  8
0
  6
Continuous
 62
     7
370
    25
100
AcDbPolyline
 90
       12
 70
   128
 43
0.0
 10
6621.3193066645
 20
4224.0429377586
 10
6618.3849845751
 20
4227.9977218177
 10
6615.7655340479
 20
4232.2118568821
 10
6611.2572967885
 20
4241.2413732516
 10
6607.962497314
 20
4249.8161819133
 10
6605.365003374
 20
4258.6936822426
 10
6603.4921823241
 20
4267.9734613952
 10
6602.5642624193
 20
4277.4871930655
 10
6602.6360232635
 20
4283.5582224447
 10
6603.4660966675
 20
4289.6543634034
 10
6604.1016972985
 20
4292.0364979726
 10
6604.9983129775
 20
4294.3591738964
  0
LWPOLYLINE
  5
133
330
1F
100
AcDbEntity
  8
0
  6
Continuous
 62
     7
370
    25
100
AcDbPolyline
 90
       15
 70
   128
 43
0.0
 10
6628.8554368819
 20
4191.01845506
 10
6628.8423140458
 20
4191.052495496
 10
6628.8388822717
 20
4191.061304429
 10
6628.8208821044
 20
4191.106909369
 10
6628.7737036324
 20
4191.2221406743
 10
6628.7490738419
 20
4191.2801555618
 10
6628.7364757151
 20
4191.3093374816
 10
6628.7300913259
 20
4191.3240081235
 10
6628.5267265891
 20
4191.7639983686
 10
6628.0030072011
 20
4192.8410623176
 10
6626.3291144429
 20
4196.7324677755
 10
6624.9918652373
 20
4200.8788043728
 10
6623.4698990617
 20
4207.7757902464
 10
6622.884697587
 20
4211.2450059726
 10
6621.3193066645
 20
4224.0429377586
  0
ARC
  5
134
330
1F
100
AcDbEntity
  8
0
  6
Continuous
 62
     7
370
    25
100
AcDbCircle
 10
6628.8371635792
 20
4231.3230106138
 30
0.0
 40
10.46506728915256
100
AcDbArc
 50
224.0794083463
 51
315.9237543674
  0
LWPOLYLINE
  5
135
330
1F
100
AcDbEntity
  8
0
  6
Continuous
 62
     7
370
    25
100
AcDbPolyline
 90
       12
 70
   128
 43
0.0
 10
6613.8366137218
 20
4289.7132585437
 10
6612.8826048459
 20
4286.0806592279
 10
6612.4940695415
 20
4282.6385046056
 10
6612.4001841975
 20
4279.1467981062
 10
6612.8421432643
 20
4272.2322097215
 10
6613.9150933431
 20
4265.3919126255
 10
6615.5077339037
 20
4258.6109354412
 10
6617.5462556791
 20
4251.9961900032
 10
6620.0297984773
 20
4245.5350977605
 10
6622.9599331559
 20
4239.3344968472
 10
6626.4766640398
 20
4233.3836965386
 10
6628.8376835201
 20
4230.1776206554
  0
LINE
  5
136
330
1F
100
AcDbEntity
  8
0
  6
Continuous
 62
     7
370
    25
100
AcDbLine
 10
6628.8376835201
 20
4230.1776206554
 30
0.0
 11
6621.3193066645
 21
4224.0429377586
 31
0.0
  0
ARC
  5
137
330
1F
100
AcDbEntity
  8
0
  6
Continuous
 62
     7
370
    25
100
AcDbCircle
 10
6532.4283222563
 20
4145.5735428039
 30
0.0
 40
165.5402294696843
100
AcDbArc
 50
60.5427872322
 51
63.9992565914
  0
LINE
  5
138
330
1F
100
AcDbEntity
  8
0
  6
Continuous
 62
     7
370
    25
100
AcDbLine
 10
6636.3554223408
 20
4224.0433527537
 30
0.0
 11
6628.8376835201
 21
4230.1776206554
 31
0.0
  0
LWPOLYLINE
  5
139
330
1F
100
AcDbEntity
  8
0
  6
Continuous
 62
     7
370
    25
100
AcDbPolyline
 90
       12
 70
   128
 43
0.0
 10
6628.8376835201
 20
4230.1776206554
 10
6631.0831978513
 20
4233.2077010826
 10
6633.0905872851
 20
4236.4032926708
 10
6636.5570016203
 20
4243.0793228279
 10
6639.4370715662
 20
4250.0480393295
 10
6641.7783132937
 20
4257.2170312191
 10
6643.5830719663
 20
4264.5147007234
 10
6644.7989530156
 20
4271.9346920385
 10
6645.2770755389
 20
4279.442785992
 10
6645.1129488414
 20
4283.647711559
 10
6644.4429582855
 20
4287.7920055221
 10
6643.8374610755
 20
4289.71801626
  0
ARC
  5
13A
330
1F
100
AcDbEntity
  8
0
  6
Continuous
 62
     7
370
    25
100
AcDbCircle
 10
6725.0745133506
 20
4145.6186795708
 30
0.0
 40
165.4209100948519
100
AcDbArc
 50
115.9538040937
 51
119.4124471445
  0
ARC
  5
13B
330
1F
100
AcDbEntity
  8
0
  6
Continuous
 62
     7
370
    25
100
AcDbCircle
 10
6593.2669426775
 20
4322.4484542883
 30
0.0
 40
38.66140720806764
100
AcDbArc
 50
302.1438412964
 51
316.7342640295
  0
ARC
  5
13C
330
1F
100
AcDbEntity
  8
0
  6
Continuous
 62
     7
370
    25
100
AcDbCircle
 10
6673.5383295311
 20
4339.6182443294
 30
0.0
 40
77.81261129697158
100
AcDbArc
 50
212.4988399157
 51
219.8924322824
  0
LINE
  5
13D
330
1F
100
AcDbEntity
  8
0
  6
Continuous
 62
     7
370
    25
100
AcDbLine
 10
6607.8880398554
 20
4297.8443270588
 30
0.0
 11
6607.9109922877
 21
4297.8108875223
 31
0.0
  0
ARC
  5
13E
330
1F
100
AcDbEntity
  8
0
  6
Continuous
 62
     7
370
    25
100
AcDbCircle
 10
6500.5814760479
 20
4401.2022759463
 30
0.0
 40
181.5241510214203
100
AcDbArc
 50
322.1093354129
 51
325.2767216001
  0
ARC
  5
13F
330
1F
100
AcDbEntity
  8
0
  6
Continuous
 62
     7
370
    25
100
AcDbCircle
 10
6665.2735378904
 20
4323.4010276467
 30
0.0
 40
39.92556380679932
100
AcDbArc
 50
223.4333896588
 51
237.5270725146
  0
LINE
  5
140
330
1F
100
AcDbEntity
  8
0
  6
Continuous
 62
     7
370
    25
100
AcDbLine
 10
6649.8015928532
 20
4297.8374235784
 30
0.0
 11
6649.7784781537
 21
4297.8036687667
 31
0.0
  0
ARC
  5
141
330
1F
100
AcDbEntity
  8
0
  6
Continuous
 62
     7
370
    25
100
AcDbCircle
 10
6611.1391833373
 20
4292.1320562916
 30
0.0
 40
6.532253944800934
100
AcDbArc
 50
119.6165183927
 51
160.0657435919
  0
ARC
  5
142
330
1F
100
AcDbEntity
  8
0
  6
Continuous
 62
     7
370
    25
100
AcDbCircle
 10
6646.5232085111
 20
4292.1214063619
 30
0.0
 40
6.548655318740936
100
AcDbArc
 50
19.955773604
 51
60.1923524407
  0
ARC
  5
143
330
1F
100
AcDbEntity
  8
0
  6
Continuous
 62
     7
370
    25
100
AcDbCircle
 10
6629.6691521155
 20
4278.1366240291
 30
0.0
 40
19.00239567493268
100
AcDbArc
 50
69.6393388467
 51
92.4990429272
  0
ARC
  5
144
330
1F
100
AcDbEntity
  8
0
  6
Continuous
 62
     7
370
    25
100
AcDbCircle
 10
6628.3219451891
 20
4276.2965307873
 30
0.0
 40
20.83087442976024
100
AcDbArc
 50
88.5732910436
 51
109.3510912509
  0
ARC
  5
145
330
1F
100
AcDbEntity
  8
0
  6
Continuous
 62
     8
370
    25
100
AcDbCircle
 10
6652.4688754488
 20
4219.7884477894
 30
0.0
 40
113.2068827971549
100
AcDbArc
 50
359.4661299612
 51
23.8167866006
  0
LWPOLYLINE
  5
146
330
1F
100
AcDbEntity
  8
0
  6
Continuous
 62
     8
370
    25
100
AcDbPolyline
 90
        6
 70
   128
 43
0.0
 10
6733.9069071919
 20
4126.1834492864
 10
6729.1702799842
 20
4121.1084575967
 10
6721.599763733
 20
4114.3334984338
 10
6713.3660703108
 20
4108.1593438195
 10
6703.0743969657
 20
4101.7624121458
 10
6692.144796884
 20
4096.2227258665
  0
LWPOLYLINE
  5
147
330
1F
100
AcDbEntity
  8
0
  6
Continuous
 62
     8
370
    25
100
AcDbPolyline
 90
        7
 70
   128
 43
0.0
 10
6564.8314734012
 20
4096.5598806617
 10
6557.4755534185
 20
4100.2106447441
 10
6550.329147013
 20
4104.2839849909
 10
6542.5382824237
 20
4109.4238893
 10
6535.1332200792
 20
4115.1428150991
 10
6528.1045117718
 20
4121.5379730206
 10
6524.5367992576
 20
4125.3927301935
  0
LWPOLYLINE
  5
148
330
1F
100
AcDbEntity
  8
0
  6
Continuous
 62
     8
370
    25
100
AcDbPolyline
 90
       40
 70
   128
 43
0.0
 10
6492.0778732111
 20
4218.336115133
 10
6492.2211528605
 20
4225.4658768278
 10
6493.1827601013
 20
4235.4837560176
 10
6494.865589239
 20
4245.0236809199
 10
6497.6670349224
 20
4255.3487019089
 10
6501.4103033621
 20
4264.9316835998
 10
6503.6892285291
 20
4269.4952065293
 10
6506.2352152836
 20
4273.8393571333
 10
6509.0765907092
 20
4277.9733896373
 10
6512.2244040044
 20
4281.8726634947
 10
6516.4583300404
 20
4286.2449953166
 10
6521.2305356092
 20
4290.2514548321
 10
6526.664357945
 20
4293.9068152112
 10
6532.7906169
 20
4297.1467221109
 10
6539.3933302693
 20
4299.8441039376
 10
6545.2446699784
 20
4301.7067048953
 10
6551.5935644447
 20
4303.2961452161
 10
6556.6945973697
 20
4304.317812404
 10
6561.8636957794
 20
4305.1704269336
 10
6567.4904044036
 20
4305.9345499378
 10
6573.3120451743
 20
4306.5892017388
 10
6579.8078903292
 20
4307.1994932214
 10
6586.4412409907
 20
4307.7300147753
 10
6596.8331131615
 20
4308.4336358009
 10
6607.3700733131
 20
4308.9789571627
 10
6618.0777094566
 20
4309.3027401116
 10
6628.8554260078
 20
4309.4031072719
 10
6636.8431260156
 20
4309.3489714328
 10
6644.8308260445
 20
4309.1755299895
 10
6654.4714101287
 20
4308.7892351607
 10
6664.0709510769
 20
4308.2327350185
 10
6673.6579574195
 20
4307.5477156145
 10
6683.107853619
 20
4306.7193345627
 10
6689.3467256272
 20
4306.0406785574
 10
6696.2976561405
 20
4305.1024483418
 10
6702.9822118332
 20
4303.9475583184
 10
6710.1297960535
 20
4302.3380960501
 10
6717.1480581297
 20
4300.2518775132
 10
6723.6024676467
 20
4297.7439641248
 10
6727.5927311502
 20
4295.8330702377
  0
LWPOLYLINE
  5
149
330
1F
100
AcDbEntity
  8
0
  6
Continuous
 62
     8
370
    25
100
AcDbPolyline
 90
       15
 70
   128
 43
0.0
 10
6500.1437512747
 20
4338.2414401712
 10
6500.3230139365
 20
4332.1365871867
 10
6500.2784345743
 20
4326.0494175381
 10
6500.0364741697
 20
4319.9347183109
 10
6499.6328538924
 20
4313.9149246863
 10
6499.0702492875
 20
4307.6653984974
 10
6498.4034364361
 20
4301.526880943
 10
6496.8748989847
 20
4289.5244482913
 10
6495.2438186346
 20
4277.7805493289
 10
6493.7064918621
 20
4266.4931084885
 10
6492.8550639826
 20
4259.6004978489
 10
6492.1540760449
 20
4252.9953993322
 10
6491.6375289774
 20
4246.6891130046
 10
6491.3409585612
 20
4240.8157522652
 10
6491.2991001167
 20
4238.1608604426
  0
LWPOLYLINE
  5
14A
330
1F
100
AcDbEntity
  8
0
  6
Continuous
 62
     8
370
    25
100
AcDbPolyline
 90
       17
 70
   128
 43
0.0
 10
6487.429103524
 20
4383.7302589405
 10
6487.400623949
 20
4383.8351036049
 10
6487.7753650015
 20
4384.0759479461
 10
6488.5209889646
 20
4383.599369245
 10
6489.0822137387
 20
4382.9600359711
 10
6489.7940038432
 20
4381.9352931629
 10
6490.9919870282
 20
4379.8001485119
 10
6491.7254032149
 20
4378.2732080073
 10
6492.5541455859
 20
4376.3574054047
 10
6493.7189615324
 20
4373.3174555702
 10
6495.0267277797
 20
4369.3683109739
 10
6496.1327379794
 20
4365.4795384662
 10
6497.2430474761
 20
4360.8640605482
 10
6498.2084668886
 20
4355.9442319815
 10
6499.0400638851
 20
4350.5338993566
 10
6499.7113414289
 20
4344.4889252441
 10
6500.1437512747
 20
4338.2414401712
  0
LWPOLYLINE
  5
14B
330
1F
100
AcDbEntity
  8
0
  6
Continuous
 62
     8
370
    25
100
AcDbPolyline
 90
       17
 70
   128
 43
0.0
 10
6757.5673588712
 20
4338.2399542668
 10
6757.936990401
 20
4343.7698581276
 10
6758.567945256
 20
4349.74004775
 10
6759.4495302161
 20
4355.6385532596
 10
6760.5233004805
 20
4361.1156237425
 10
6761.7558672345
 20
4366.1441509964
 10
6762.8512335173
 20
4369.9075126824
 10
6763.9250999051
 20
4373.1294909963
 10
6764.7231733433
 20
4375.2737507288
 10
6765.4657082723
 20
4377.0946571979
 10
6766.7788867641
 20
4379.9175055911
 10
6767.9458062892
 20
4381.9805355848
 10
6768.8351018227
 20
4383.2149757669
 10
6769.4897493662
 20
4383.8581390531
 10
6769.9357055883
 20
4384.075979519
 10
6770.2844317978
 20
4383.906307338
 10
6770.2876032435
 20
4383.7166171575
  0
LWPOLYLINE
  5
14C
330
1F
100
AcDbEntity
  8
0
  6
Continuous
 62
     8
370
    25
100
AcDbPolyline
 90
       15
 70
   128
 43
0.0
 10
6766.4204470043
 20
4238.0202362382
 10
6766.4186727282
 20
4238.8509573649
 10
6766.1821010712
 20
4244.9553381555
 10
6765.6788915389
 20
4251.6777071845
 10
6764.9249713535
 20
4259.0006495511
 10
6763.9706972011
 20
4266.7528899775
 10
6762.4589083468
 20
4277.8400458842
 10
6760.8429790226
 20
4289.4743498879
 10
6759.2848059953
 20
4301.7238072905
 10
6758.6013841652
 20
4308.0621090862
 10
6758.0289058438
 20
4314.5488584743
 10
6757.6586857457
 20
4320.2335107746
 10
6757.4319315702
 20
4326.0827709205
 10
6757.3875369137
 20
4332.074335187
 10
6757.5673588712
 20
4338.2399542668
  0
LWPOLYLINE
  5
14D
330
1F
100
AcDbEntity
  8
0
  6
Continuous
 62
     8
370
    25
100
AcDbPolyline
 90
        3
 70
   128
 43
0.0
 10
6500.1437512747
 20
4338.2414401712
 10
6499.840625064
 20
4338.3349208761
 10
6499.8284568929
 20
4338.3599097832
  0
LWPOLYLINE
  5
14E
330
1F
100
AcDbEntity
  8
0
  6
Continuous
 62
     8
370
    25
100
AcDbPolyline
 90
        3
 70
   128
 43
0.0
 10
6757.8826734066
 20
4338.3598414323
 10
6757.8704851965
 20
4338.3334848317
 10
6757.5673588712
 20
4338.2399542668
  0
LWPOLYLINE
  5
14F
330
1F
100
AcDbEntity
  8
0
  6
Continuous
 62
     8
370
    25
100
AcDbPolyline
 90
        6
 70
   128
 43
0.0
 10
6650.1047023005
 20
4298.260715821
 10
6650.3719120547
 20
4298.1531898714
 10
6651.0493751653
 20
4297.7375043565
 10
6651.1657881789
 20
4297.5136168203
 10
6650.8891746802
 20
4297.4957989235
 10
6649.8015928532
 20
4297.8374235784
  0
LWPOLYLINE
  5
150
330
1F
100
AcDbEntity
  8
0
  6
Continuous
 62
     8
370
    25
100
AcDbPolyline
 90
        6
 70
   128
 43
0.0
 10
6607.8880398554
 20
4297.8443270588
 10
6606.8024053014
 20
4297.5024016936
 10
6606.528310512
 20
4297.518570513
 10
6606.6456257032
 20
4297.7424807708
 10
6607.294478092
 20
4298.1421666276
 10
6607.5227656394
 20
4298.2342575944
  0
LWPOLYLINE
  5
151
330
1F
100
AcDbEntity
  8
0
  6
Continuous
 62
     8
370
    25
100
AcDbPolyline
 90
        3
 70
   128
 43
0.0
 10
6607.8880398554
 20
4297.8443270588
 10
6609.1745562851
 20
4298.5411112487
 10
6610.0714209296
 20
4299.0938366531
  0
LWPOLYLINE
  5
152
330
1F
100
AcDbEntity
  8
0
  6
Continuous
 62
     8
370
    25
100
AcDbPolyline
 90
        3
 70
   128
 43
0.0
 10
6647.6306058526
 20
4299.0876420663
 10
6648.148415084
 20
4298.7563186116
 10
6649.8015928532
 20
4297.8374235784
  0
LINE
  5
153
330
1F
100
AcDbEntity
  8
0
  6
Continuous
 62
     8
370
    25
100
AcDbLine
 10
6621.41951291
 20
4295.9505827395
 30
0.0
 11
6617.9080619771
 21
4300.2499100562
 31
0.0
  0
LINE
  5
154
330
1F
100
AcDbEntity
  8
0
  6
Continuous
 62
     8
370
    25
100
AcDbLine
 10
6639.8076207439
 20
4300.264356837
 30
0.0
 11
6636.2806258948
 21
4295.9517708388
 31
0.0
  0
LINE
  5
155
330
1F
100
AcDbEntity
  8
0
  6
Continuous
 62
     8
370
    25
100
AcDbLine
 10
6621.41951291
 20
4295.9505827395
 30
0.0
 11
6619.9816007191
 21
4300.3909169518
 31
0.0
  0
LINE
  5
156
330
1F
100
AcDbEntity
  8
0
  6
Continuous
 62
     8
370
    25
100
AcDbLine
 10
6637.7566936662
 20
4300.3861247743
 30
0.0
 11
6636.2806258948
 21
4295.9517708388
 31
0.0
  0
LINE
  5
157
330
1F
100
AcDbEntity
  8
0
  6
Continuous
 62
     8
370
    25
100
AcDbLine
 10
6628.8388846131
 20
4300.5925733112
 30
0.0
 11
6628.8405963743
 21
4297.1209474768
 31
0.0
  0
ENDSEC
  0
SECTION
  2
OBJECTS
  0
DICTIONARY
  5
C
330
0
100
AcDbDictionary
281
     1
  3
ACAD_GROUP
350
D
  3
ACAD_LAYOUT
350
1A
  3
ACAD_MLINESTYLE
350
17
  3
ACAD_PLOTSETTINGS
350
19
  3
ACAD_PLOTSTYLENAME
350
E
  3
ACAD_SCALELIST
350
47
  3
DWGPROPS
350
158
  0
DICTIONARY
  5
D
102
{ACAD_REACTORS
330
C
102
}
330
C
100
AcDbDictionary
281
     1
  0
DICTIONARY
  5
1A
102
{ACAD_REACTORS
330
C
102
}
330
C
100
AcDbDictionary
281
     1
  3
Layout1
350
1E
  3
Layout2
350
26
  3
Model
350
22
  0
DICTIONARY
  5
17
102
{ACAD_REACTORS
330
C
102
}
330
C
100
AcDbDictionary
281
     1
  3
Standard
350
18
  0
DICTIONARY
  5
19
102
{ACAD_REACTORS
330
C
102
}
330
C
100
AcDbDictionary
281
     1
  0
ACDBDICTIONARYWDFLT
  5
E
102
{ACAD_REACTORS
330
C
102
}
330
C
100
AcDbDictionary
281
     1
  3
Normal
350
F
100
AcDbDictionaryWithDefault
340
F
  0
DICTIONARY
  5
47
102
{ACAD_REACTORS
330
C
102
}
330
C
100
AcDbDictionary
281
     1
  3
A0
350
48
  3
A1
350
49
  3
A2
350
4A
  3
A3
350
4B
  3
A4
350
4C
  3
A5
350
4D
  3
A6
350
4E
  3
A7
350
4F
  3
A8
350
50
  3
A9
350
51
  3
B0
350
52
  3
B1
350
53
  3
B2
350
54
  3
B3
350
55
  3
B4
350
56
  3
B5
350
57
  3
B6
350
58
  3
B7
350
59
  3
B8
350
5A
  3
B9
350
5B
  3
C0
350
5C
  3
C1
350
5D
  3
C2
350
5E
  3
C3
350
5F
  3
C4
350
60
  3
C5
350
61
  3
C6
350
62
  3
C7
350
63
  3
C8
350
64
  3
C9
350
65
  3
D0
350
66
  3
D1
350
67
  3
D2
350
68
  0
XRECORD
  5
158
102
{ACAD_REACTORS
330
C
102
}
330
C
100
AcDbXrecord
280
     1
  1
DWGPROPS COOKIE
  2

  3

  4

  6

  7

  8
radek.stransky
  9

300
=
301
=
302
=
303
=
304
=
305
=
306
=
307
=
308
=
309
=
 40
0.0
 41
2459136.329030764
 42
2459136.329031053
  1

 90
        0
  0
LAYOUT
  5
1E
102
{ACAD_REACTORS
330
1A
102
}
330
1A
100
AcDbPlotSettings
  1

  2
none_device
  4

  6

 40
0.0
 41
0.0
 42
0.0
 43
0.0
 44
0.0
 45
0.0
 46
0.0
 47
0.0
 48
0.0
 49
0.0
140
0.0
141
0.0
142
1.0
143
1.0
 70
   688
 72
     1
 73
     0
 74
     5
  7

 75
    16
147
1.0
148
0.0
149
0.0
100
AcDbLayout
  1
Layout1
 70
     1
 71
     1
 10
0.0
 20
0.0
 11
420.0
 21
297.0
 12
0.0
 22
0.0
 32
0.0
 14
1.0000000000E+20
 24
1.0000000000E+20
 34
1.0000000000E+20
 15
-1.0000000000E+20
 25
-1.0000000000E+20
 35
-1.0000000000E+20
146
0.0
 13
0.0
 23
0.0
 33
0.0
 16
1.0
 26
0.0
 36
0.0
 17
0.0
 27
1.0
 37
0.0
 76
     0
330
1B
  0
LAYOUT
  5
26
102
{ACAD_REACTORS
330
1A
102
}
330
1A
100
AcDbPlotSettings
  1

  2
none_device
  4

  6

 40
0.0
 41
0.0
 42
0.0
 43
0.0
 44
0.0
 45
0.0
 46
0.0
 47
0.0
 48
0.0
 49
0.0
140
0.0
141
0.0
142
1.0
143
1.0
 70
   688
 72
     1
 73
     0
 74
     5
  7

 75
    16
147
1.0
148
0.0
149
0.0
100
AcDbLayout
  1
Layout2
 70
     1
 71
     2
 10
0.0
 20
0.0
 11
0.0
 21
0.0
 12
0.0
 22
0.0
 32
0.0
 14
0.0
 24
0.0
 34
0.0
 15
0.0
 25
0.0
 35
0.0
146
0.0
 13
0.0
 23
0.0
 33
0.0
 16
1.0
 26
0.0
 36
0.0
 17
0.0
 27
1.0
 37
0.0
 76
     0
330
23
  0
LAYOUT
  5
22
102
{ACAD_REACTORS
330
1A
102
}
330
1A
100
AcDbPlotSettings
  1

  2
none_device
  4
Letter_(8.50_x_11.00_Inches)
  6

 40
6.35
 41
6.35
 42
6.35000508
 43
6.35000508
 44
215.9
 45
279.4
 46
0.0
 47
0.0
 48
0.0
 49
0.0
140
0.0
141
0.0
142
1.0
143
1.0
 70
  1712
 72
     1
 73
     0
 74
     0
  7

 75
     0
147
1.0
148
0.0
149
0.0
100
AcDbLayout
  1
Model
 70
     1
 71
     0
 10
0.0
 20
0.0
 11
20000.0
 21
10000.0
 12
0.0
 22
0.0
 32
0.0
 14
0.0
 24
0.0
 34
0.0
 15
20000.0
 25
10000.0
 35
0.0
146
0.0
 13
0.0
 23
0.0
 33
0.0
 16
1.0
 26
0.0
 36
0.0
 17
0.0
 27
1.0
 37
0.0
 76
     0
330
1F
331
29
  0
MLINESTYLE
  5
18
102
{ACAD_REACTORS
330
17
102
}
330
17
100
AcDbMlineStyle
  2
Standard
 70
     0
  3

 62
   256
 51
90.0
 52
90.0
 71
     2
 49
0.5
 62
   256
  6
BYLAYER
 49
-0.5
 62
   256
  6
BYLAYER
  0
ACDBPLACEHOLDER
  5
F
102
{ACAD_REACTORS
330
E
102
}
330
E
  0
SCALE
  5
48
102
{ACAD_REACTORS
330
47
102
}
330
47
100
AcDbScale
 70
     0
300
1:1
140
1.0
141
1.0
290
     1
  0
SCALE
  5
49
102
{ACAD_REACTORS
330
47
102
}
330
47
100
AcDbScale
 70
     0
300
1:2
140
1.0
141
2.0
290
     0
  0
SCALE
  5
4A
102
{ACAD_REACTORS
330
47
102
}
330
47
100
AcDbScale
 70
     0
300
1:4
140
1.0
141
4.0
290
     0
  0
SCALE
  5
4B
102
{ACAD_REACTORS
330
47
102
}
330
47
100
AcDbScale
 70
     0
300
1:5
140
1.0
141
5.0
290
     0
  0
SCALE
  5
4C
102
{ACAD_REACTORS
330
47
102
}
330
47
100
AcDbScale
 70
     0
300
1:8
140
1.0
141
8.0
290
     0
  0
SCALE
  5
4D
102
{ACAD_REACTORS
330
47
102
}
330
47
100
AcDbScale
 70
     0
300
1:10
140
1.0
141
10.0
290
     0
  0
SCALE
  5
4E
102
{ACAD_REACTORS
330
47
102
}
330
47
100
AcDbScale
 70
     0
300
1:16
140
1.0
141
16.0
290
     0
  0
SCALE
  5
4F
102
{ACAD_REACTORS
330
47
102
}
330
47
100
AcDbScale
 70
     0
300
1:20
140
1.0
141
20.0
290
     0
  0
SCALE
  5
50
102
{ACAD_REACTORS
330
47
102
}
330
47
100
AcDbScale
 70
     0
300
1:30
140
1.0
141
30.0
290
     0
  0
SCALE
  5
51
102
{ACAD_REACTORS
330
47
102
}
330
47
100
AcDbScale
 70
     0
300
1:40
140
1.0
141
40.0
290
     0
  0
SCALE
  5
52
102
{ACAD_REACTORS
330
47
102
}
330
47
100
AcDbScale
 70
     0
300
1:50
140
1.0
141
50.0
290
     0
  0
SCALE
  5
53
102
{ACAD_REACTORS
330
47
102
}
330
47
100
AcDbScale
 70
     0
300
1:100
140
1.0
141
100.0
290
     0
  0
SCALE
  5
54
102
{ACAD_REACTORS
330
47
102
}
330
47
100
AcDbScale
 70
     0
300
2:1
140
2.0
141
1.0
290
     0
  0
SCALE
  5
55
102
{ACAD_REACTORS
330
47
102
}
330
47
100
AcDbScale
 70
     0
300
4:1
140
4.0
141
1.0
290
     0
  0
SCALE
  5
56
102
{ACAD_REACTORS
330
47
102
}
330
47
100
AcDbScale
 70
     0
300
8:1
140
8.0
141
1.0
290
     0
  0
SCALE
  5
57
102
{ACAD_REACTORS
330
47
102
}
330
47
100
AcDbScale
 70
     0
300
10:1
140
10.0
141
1.0
290
     0
  0
SCALE
  5
58
102
{ACAD_REACTORS
330
47
102
}
330
47
100
AcDbScale
 70
     0
300
100:1
140
100.0
141
1.0
290
     0
  0
SCALE
  5
59
102
{ACAD_REACTORS
330
47
102
}
330
47
100
AcDbScale
 70
     0
300
1/128" = 1'-0"
140
0.0078125
141
12.0
290
     0
  0
SCALE
  5
5A
102
{ACAD_REACTORS
330
47
102
}
330
47
100
AcDbScale
 70
     0
300
1/64" = 1'-0"
140
0.015625
141
12.0
290
     0
  0
SCALE
  5
5B
102
{ACAD_REACTORS
330
47
102
}
330
47
100
AcDbScale
 70
     0
300
1/32" = 1'-0"
140
0.03125
141
12.0
290
     0
  0
SCALE
  5
5C
102
{ACAD_REACTORS
330
47
102
}
330
47
100
AcDbScale
 70
     0
300
1/16" = 1'-0"
140
0.0625
141
12.0
290
     0
  0
SCALE
  5
5D
102
{ACAD_REACTORS
330
47
102
}
330
47
100
AcDbScale
 70
     0
300
3/32" = 1'-0"
140
0.09375
141
12.0
290
     0
  0
SCALE
  5
5E
102
{ACAD_REACTORS
330
47
102
}
330
47
100
AcDbScale
 70
     0
300
1/8" = 1'-0"
140
0.125
141
12.0
290
     0
  0
SCALE
  5
5F
102
{ACAD_REACTORS
330
47
102
}
330
47
100
AcDbScale
 70
     0
300
3/16" = 1'-0"
140
0.1875
141
12.0
290
     0
  0
SCALE
  5
60
102
{ACAD_REACTORS
330
47
102
}
330
47
100
AcDbScale
 70
     0
300
1/4" = 1'-0"
140
0.25
141
12.0
290
     0
  0
SCALE
  5
61
102
{ACAD_REACTORS
330
47
102
}
330
47
100
AcDbScale
 70
     0
300
3/8" = 1'-0"
140
0.375
141
12.0
290
     0
  0
SCALE
  5
62
102
{ACAD_REACTORS
330
47
102
}
330
47
100
AcDbScale
 70
     0
300
1/2" = 1'-0"
140
0.5
141
12.0
290
     0
  0
SCALE
  5
63
102
{ACAD_REACTORS
330
47
102
}
330
47
100
AcDbScale
 70
     0
300
3/4" = 1'-0"
140
0.75
141
12.0
290
     0
  0
SCALE
  5
64
102
{ACAD_REACTORS
330
47
102
}
330
47
100
AcDbScale
 70
     0
300
1" = 1'-0"
140
1.0
141
12.0
290
     0
  0
SCALE
  5
65
102
{ACAD_REACTORS
330
47
102
}
330
47
100
AcDbScale
 70
     0
300
1-1/2" = 1'-0"
140
1.5
141
12.0
290
     0
  0
SCALE
  5
66
102
{ACAD_REACTORS
330
47
102
}
330
47
100
AcDbScale
 70
     0
300
3" = 1'-0"
140
3.0
141
12.0
290
     0
  0
SCALE
  5
67
102
{ACAD_REACTORS
330
47
102
}
330
47
100
AcDbScale
 70
     0
300
6" = 1'-0"
140
6.0
141
12.0
290
     0
  0
SCALE
  5
68
102
{ACAD_REACTORS
330
47
102
}
330
47
100
AcDbScale
 70
     0
300
1'-0" = 1'-0"
140
12.0
141
12.0
290
     0
  0
ENDSEC
  0
EOF
