  0
SECTION
  2
HEADER
  9
$ACADVER
  1
AC1015
  9
$ACADMAINTVER
 70
     6
  9
$DWGCODEPAGE
  3
ANSI_1250
  9
$INSBASE
 10
0.0
 20
0.0
 30
0.0
  9
$EXTMIN
 10
0.0
 20
0.0
 30
0.0
  9
$EXTMAX
 10
20000.0
 20
10000.0
 30
0.0
  9
$LIMMIN
 10
0.0
 20
0.0
  9
$LIMMAX
 10
20000.0
 20
10000.0
  9
$ORTHOMODE
 70
     0
  9
$REGENMODE
 70
     1
  9
$FILLMODE
 70
     1
  9
$QTEXTMODE
 70
     0
  9
$MIRRTEXT
 70
     1
  9
$LTSCALE
 40
1.0
  9
$ATTMODE
 70
     1
  9
$TEXTSIZE
 40
2.0
  9
$TRACEWID
 40
1.0
  9
$TEXTSTYLE
  7
Standard
  9
$CLAYER
  8
0
  9
$CELTYPE
  6
ByLayer
  9
$CECOLOR
 62
   256
  9
$CELTSCALE
 40
1.0
  9
$DISPSILH
 70
     0
  9
$DIMSCALE
 40
1.0
  9
$DIMASZ
 40
2.0
  9
$DIMEXO
 40
1.0
  9
$DIMDLI
 40
3.75
  9
$DIMRND
 40
0.0
  9
$DIMDLE
 40
0.0
  9
$DIMEXE
 40
1.0
  9
$DIMTP
 40
0.0
  9
$DIMTM
 40
0.0
  9
$DIMTXT
 40
2.0
  9
$DIMCEN
 40
2.5
  9
$DIMTSZ
 40
0.0
  9
$DIMTOL
 70
     0
  9
$DIMLIM
 70
     0
  9
$DIMTIH
 70
     1
  9
$DIMTOH
 70
     1
  9
$DIMSE1
 70
     0
  9
$DIMSE2
 70
     0
  9
$DIMTAD
 70
     1
  9
$DIMZIN
 70
     0
  9
$DIMBLK
  1

  9
$DIMASO
 70
     1
  9
$DIMSHO
 70
     1
  9
$DIMPOST
  1

  9
$DIMAPOST
  1

  9
$DIMALT
 70
     0
  9
$DIMALTD
 70
     3
  9
$DIMALTF
 40
0.0393700787
  9
$DIMLFAC
 40
1.0
  9
$DIMTOFL
 70
     1
  9
$DIMTVP
 40
0.0
  9
$DIMTIX
 70
     0
  9
$DIMSOXD
 70
     0
  9
$DIMSAH
 70
     0
  9
$DIMBLK1
  1

  9
$DIMBLK2
  1

  9
$DIMSTYLE
  2
ISO-25
  9
$DIMCLRD
 70
     0
  9
$DIMCLRE
 70
     0
  9
$DIMCLRT
 70
     0
  9
$DIMTFAC
 40
1.0
  9
$DIMGAP
 40
1.524
  9
$DIMJUST
 70
     0
  9
$DIMSD1
 70
     0
  9
$DIMSD2
 70
     0
  9
$DIMTOLJ
 70
     0
  9
$DIMTZIN
 70
     0
  9
$DIMALTZ
 70
     0
  9
$DIMALTTZ
 70
     0
  9
$DIMUPT
 70
     0
  9
$DIMDEC
 70
     2
  9
$DIMTDEC
 70
     0
  9
$DIMALTU
 70
     2
  9
$DIMALTTD
 70
     3
  9
$DIMTXSTY
  7
Standard
  9
$DIMAUNIT
 70
     0
  9
$DIMADEC
 70
     2
  9
$DIMALTRND
 40
0.0
  9
$DIMAZIN
 70
     0
  9
$DIMDSEP
 70
    44
  9
$DIMATFIT
 70
     3
  9
$DIMFRAC
 70
     0
  9
$DIMLDRBLK
  1

  9
$DIMLUNIT
 70
     2
  9
$DIMLWD
 70
    -2
  9
$DIMLWE
 70
    -2
  9
$DIMTMOVE
 70
     0
  9
$LUNITS
 70
     2
  9
$LUPREC
 70
     3
  9
$SKETCHINC
 40
1.0
  9
$FILLETRAD
 40
10.0
  9
$AUNITS
 70
     0
  9
$AUPREC
 70
     2
  9
$MENU
  1
.
  9
$ELEVATION
 40
0.0
  9
$PELEVATION
 40
0.0
  9
$THICKNESS
 40
0.0
  9
$LIMCHECK
 70
     0
  9
$CHAMFERA
 40
0.0
  9
$CHAMFERB
 40
0.0
  9
$CHAMFERC
 40
0.0
  9
$CHAMFERD
 40
0.0
  9
$SKPOLY
 70
     0
  9
$TDCREATE
 40
2459135.550805903
  9
$TDUCREATE
 40
2459135.46747257
  9
$TDUPDATE
 40
2459135.550806273
  9
$TDUUPDATE
 40
2459135.46747294
  9
$TDINDWG
 40
0.0000000116
  9
$TDUSRTIMER
 40
0.0000000116
  9
$USRTIMER
 70
     1
  9
$ANGBASE
 50
0.0
  9
$ANGDIR
 70
     0
  9
$PDMODE
 70
     0
  9
$PDSIZE
 40
-1.0
  9
$PLINEWID
 40
0.0
  9
$SPLFRAME
 70
     0
  9
$SPLINETYPE
 70
     6
  9
$SPLINESEGS
 70
     8
  9
$HANDSEED
  5
129
  9
$SURFTAB1
 70
     6
  9
$SURFTAB2
 70
     6
  9
$SURFTYPE
 70
     6
  9
$SURFU
 70
     6
  9
$SURFV
 70
     6
  9
$UCSBASE
  2

  9
$UCSNAME
  2

  9
$UCSORG
 10
0.0
 20
0.0
 30
0.0
  9
$UCSXDIR
 10
1.0
 20
0.0
 30
0.0
  9
$UCSYDIR
 10
0.0
 20
1.0
 30
0.0
  9
$UCSORTHOREF
  2

  9
$UCSORTHOVIEW
 70
     0
  9
$UCSORGTOP
 10
0.0
 20
0.0
 30
0.0
  9
$UCSORGBOTTOM
 10
0.0
 20
0.0
 30
0.0
  9
$UCSORGLEFT
 10
0.0
 20
0.0
 30
0.0
  9
$UCSORGRIGHT
 10
0.0
 20
0.0
 30
0.0
  9
$UCSORGFRONT
 10
0.0
 20
0.0
 30
0.0
  9
$UCSORGBACK
 10
0.0
 20
0.0
 30
0.0
  9
$PUCSBASE
  2

  9
$PUCSNAME
  2

  9
$PUCSORG
 10
0.0
 20
0.0
 30
0.0
  9
$PUCSXDIR
 10
1.0
 20
0.0
 30
0.0
  9
$PUCSYDIR
 10
0.0
 20
1.0
 30
0.0
  9
$PUCSORTHOREF
  2

  9
$PUCSORTHOVIEW
 70
     0
  9
$PUCSORGTOP
 10
0.0
 20
0.0
 30
0.0
  9
$PUCSORGBOTTOM
 10
0.0
 20
0.0
 30
0.0
  9
$PUCSORGLEFT
 10
0.0
 20
0.0
 30
0.0
  9
$PUCSORGRIGHT
 10
0.0
 20
0.0
 30
0.0
  9
$PUCSORGFRONT
 10
0.0
 20
0.0
 30
0.0
  9
$PUCSORGBACK
 10
0.0
 20
0.0
 30
0.0
  9
$USERI1
 70
     0
  9
$USERI2
 70
     0
  9
$USERI3
 70
     0
  9
$USERI4
 70
     0
  9
$USERI5
 70
     0
  9
$USERR1
 40
0.0
  9
$USERR2
 40
0.0
  9
$USERR3
 40
0.0
  9
$USERR4
 40
0.0
  9
$USERR5
 40
0.0
  9
$WORLDVIEW
 70
     1
  9
$SHADEDGE
 70
     3
  9
$SHADEDIF
 70
    70
  9
$TILEMODE
 70
     1
  9
$MAXACTVP
 70
    64
  9
$PINSBASE
 10
0.0
 20
0.0
 30
0.0
  9
$PLIMCHECK
 70
     0
  9
$PEXTMIN
 10
1.0000000000E+20
 20
1.0000000000E+20
 30
1.0000000000E+20
  9
$PEXTMAX
 10
-1.0000000000E+20
 20
-1.0000000000E+20
 30
-1.0000000000E+20
  9
$PLIMMIN
 10
0.0
 20
0.0
  9
$PLIMMAX
 10
420.0
 20
297.0
  9
$UNITMODE
 70
     0
  9
$VISRETAIN
 70
     1
  9
$PLINEGEN
 70
     0
  9
$PSLTSCALE
 70
     1
  9
$TREEDEPTH
 70
  3020
  9
$CMLSTYLE
  2
Standard
  9
$CMLJUST
 70
     0
  9
$CMLSCALE
 40
20.0
  9
$PROXYGRAPHICS
 70
     1
  9
$MEASUREMENT
 70
     1
  9
$CELWEIGHT
370
    -1
  9
$ENDCAPS
280
     0
  9
$JOINSTYLE
280
     0
  9
$LWDISPLAY
290
     1
  9
$INSUNITS
 70
     4
  9
$HYPERLINKBASE
  1

  9
$STYLESHEET
  1

  9
$XEDIT
290
     1
  9
$CEPSNTYPE
380
     0
  9
$PSTYLEMODE
290
     1
  9
$FINGERPRINTGUID
  2
{adf2d060-ce42-4030-a9cc-474ffdb7f92c}
  9
$VERSIONGUID
  2
{FAEB1C32-E019-11D5-929B-00C0DF256EC4}
  9
$EXTNAMES
290
     1
  9
$PSVPSCALE
 40
0.0
  9
$OLESTARTUP
290
     0
  0
ENDSEC
  0
SECTION
  2
CLASSES
  0
CLASS
  1
ACDBDICTIONARYWDFLT
  2
AcDbDictionaryWithDefault
  3
ObjectDBX Classes
 90
        0
280
     0
281
     0
  0
CLASS
  1
VISUALSTYLE
  2
AcDbVisualStyle
  3
ObjectDBX Classes
 90
     4095
280
     0
281
     0
  0
CLASS
  1
MATERIAL
  2
AcDbMaterial
  3
ObjectDBX Classes
 90
     1153
280
     0
281
     0
  0
CLASS
  1
SCALE
  2
AcDbScale
  3
ObjectDBX Classes
 90
     1153
280
     0
281
     0
  0
CLASS
  1
TABLESTYLE
  2
AcDbTableStyle
  3
ObjectDBX Classes
 90
     4095
280
     0
281
     0
  0
CLASS
  1
MLEADERSTYLE
  2
AcDbMLeaderStyle
  3
ACDB_MLEADERSTYLE_CLASS
 90
     4095
280
     0
281
     0
  0
CLASS
  1
SUN
  2
AcDbSun
  3
SCENEOE
 90
     1153
280
     0
281
     0
  0
CLASS
  1
ACDBPLACEHOLDER
  2
AcDbPlaceHolder
  3
ObjectDBX Classes
 90
        0
280
     0
281
     0
  0
CLASS
  1
LAYOUT
  2
AcDbLayout
  3
ObjectDBX Classes
 90
        0
280
     0
281
     0
  0
ENDSEC
  0
SECTION
  2
TABLES
  0
TABLE
  2
VPORT
  5
8
330
0
100
AcDbSymbolTable
 70
     1
  0
VPORT
  5
29
330
8
100
AcDbSymbolTableRecord
100
AcDbViewportTableRecord
  2
*Active
 70
     0
 10
0.0
 20
0.0
 11
1.0
 21
1.0
 12
10000.0
 22
5000.0
 13
0.0
 23
0.0
 14
10.0
 24
10.0
 15
10.0
 25
10.0
 16
0.0
 26
0.0
 36
1.0
 17
0.0
 27
0.0
 37
0.0
 40
10000.0
 41
2.0
 42
50.0
 43
0.0
 44
0.0
 50
0.0
 51
0.0
 71
     0
 72
  2000
 73
     1
 74
     3
 75
     0
 76
     0
 77
     0
 78
     0
281
     0
 65
     1
110
0.0
120
0.0
130
0.0
111
1.0
121
0.0
131
0.0
112
0.0
122
1.0
132
0.0
 79
     0
146
0.0
  0
ENDTAB
  0
TABLE
  2
LTYPE
  5
5
330
0
100
AcDbSymbolTable
 70
     6
  0
LTYPE
  5
14
330
5
100
AcDbSymbolTableRecord
100
AcDbLinetypeTableRecord
  2
ByBlock
 70
     0
  3

 72
    65
 73
     0
 40
0.0
  0
LTYPE
  5
15
330
5
100
AcDbSymbolTableRecord
100
AcDbLinetypeTableRecord
  2
ByLayer
 70
     0
  3

 72
    65
 73
     0
 40
0.0
  0
LTYPE
  5
16
330
5
100
AcDbSymbolTableRecord
100
AcDbLinetypeTableRecord
  2
Continuous
 70
     0
  3
Solid line
 72
    65
 73
     0
 40
0.0
  0
LTYPE
  5
6E
330
5
100
AcDbSymbolTableRecord
100
AcDbLinetypeTableRecord
  2
HIDDEN
 70
     0
  3
Hidden __ __ __ __ __ __ __ __ __ __ __ __ __ __
 72
    65
 73
     2
 40
1.905
 49
1.27
 74
     0
 49
-0.635
 74
     0
  0
LTYPE
  5
6F
330
5
100
AcDbSymbolTableRecord
100
AcDbLinetypeTableRecord
  2
PHANTOM
 70
     0
  3
Phantom ______  __  __  ______  __  __  ______
 72
    65
 73
     6
 40
12.7
 49
6.35
 74
     0
 49
-1.27
 74
     0
 49
1.27
 74
     0
 49
-1.27
 74
     0
 49
1.27
 74
     0
 49
-1.27
 74
     0
  0
LTYPE
  5
70
330
5
100
AcDbSymbolTableRecord
100
AcDbLinetypeTableRecord
  2
CENTER
 70
     0
  3
Center ____ _ ____ _ ____ _ ____ _ ____ _ ____
 72
    65
 73
     4
 40
10.16
 49
6.35
 74
     0
 49
-1.27
 74
     0
 49
1.27
 74
     0
 49
-1.27
 74
     0
  0
LTYPE
  5
71
330
5
100
AcDbSymbolTableRecord
100
AcDbLinetypeTableRecord
  2
CENTERX2
 70
     0
  3
Center (2x) ________  __  ________  __  _____
 72
    65
 73
     4
 40
20.32
 49
12.7
 74
     0
 49
-2.54
 74
     0
 49
2.54
 74
     0
 49
-2.54
 74
     0
  0
LTYPE
  5
72
330
5
100
AcDbSymbolTableRecord
100
AcDbLinetypeTableRecord
  2
DOT2
 70
     0
  3
Dot (.5x) ........................................
 72
    65
 73
     2
 40
0.635
 49
0.0
 74
     0
 49
-0.635
 74
     0
  0
ENDTAB
  0
TABLE
  2
LAYER
  5
2
330
0
100
AcDbSymbolTable
 70
    13
  0
LAYER
  5
10
330
2
100
AcDbSymbolTableRecord
100
AcDbLayerTableRecord
  2
0
 70
     0
 62
     7
  6
Continuous
370
    -3
390
F
  0
LAYER
  5
73
330
2
100
AcDbSymbolTableRecord
100
AcDbLayerTableRecord
  2
FORMAT
 70
     0
 62
     7
  6
Continuous
370
    -3
390
F
  0
LAYER
  5
74
330
2
100
AcDbSymbolTableRecord
100
AcDbLayerTableRecord
  2
OSA
 70
     0
 62
     7
  6
CENTER
370
    -3
390
F
  0
LAYER
  5
75
330
2
100
AcDbSymbolTableRecord
100
AcDbLayerTableRecord
  2
0_35
 70
     0
 62
     7
  6
Continuous
370
    35
390
F
  0
LAYER
  5
76
330
2
100
AcDbSymbolTableRecord
100
AcDbLayerTableRecord
  2
0_5
 70
     0
 62
     7
  6
Continuous
370
    50
390
F
  0
LAYER
  5
77
330
2
100
AcDbSymbolTableRecord
100
AcDbLayerTableRecord
  2
0_25
 70
     0
 62
     7
  6
Continuous
370
    25
390
F
  0
LAYER
  5
78
330
2
100
AcDbSymbolTableRecord
100
AcDbLayerTableRecord
  2
0_18
 70
     0
 62
     7
  6
Continuous
370
    -3
390
F
  0
LAYER
  5
79
330
2
100
AcDbSymbolTableRecord
100
AcDbLayerTableRecord
  2
SLD-0
 70
     0
 62
   179
  6
Continuous
370
    -3
390
F
  0
LAYER
  5
7A
330
2
100
AcDbSymbolTableRecord
100
AcDbLayerTableRecord
  2
KOTY
 70
     0
 62
     7
  6
Continuous
370
    -3
390
F
  0
LAYER
  5
7B
330
2
100
AcDbSymbolTableRecord
100
AcDbLayerTableRecord
  2
SILNA
 70
     0
 62
   179
  6
Continuous
370
    -3
390
F
  0
LAYER
  5
7C
330
2
100
AcDbSymbolTableRecord
100
AcDbLayerTableRecord
  2
0_18_1
 70
     0
 62
   179
  6
Continuous
370
    -3
390
F
  0
LAYER
  5
7D
330
2
100
AcDbSymbolTableRecord
100
AcDbLayerTableRecord
  2
0_35_1
 70
     0
 62
   179
  6
Continuous
370
    35
390
F
  0
LAYER
  5
7E
330
2
100
AcDbSymbolTableRecord
100
AcDbLayerTableRecord
  2
0_5_1
 70
     0
 62
   179
  6
Continuous
370
    50
390
F
  0
ENDTAB
  0
TABLE
  2
STYLE
  5
3
330
0
100
AcDbSymbolTable
 70
     1
  0
STYLE
  5
11
330
3
100
AcDbSymbolTableRecord
100
AcDbTextStyleTableRecord
  2
Standard
 70
     0
 40
0.0
 41
1.0
 50
0.0
 71
     0
 42
2.0
  3
txt
  4

  0
ENDTAB
  0
TABLE
  2
VIEW
  5
6
330
0
100
AcDbSymbolTable
 70
     0
  0
ENDTAB
  0
TABLE
  2
UCS
  5
7
330
0
100
AcDbSymbolTable
 70
     0
  0
ENDTAB
  0
TABLE
  2
APPID
  5
9
330
0
100
AcDbSymbolTable
 70
     1
  0
APPID
  5
12
330
9
100
AcDbSymbolTableRecord
100
AcDbRegAppTableRecord
  2
ACAD
 70
     0
  0
ENDTAB
  0
TABLE
  2
DIMSTYLE
  5
A
330
0
100
AcDbSymbolTable
 70
     1
100
AcDbDimStyleTable
  0
DIMSTYLE
105
27
330
A
100
AcDbSymbolTableRecord
100
AcDbDimStyleTableRecord
  2
ISO-25
 70
     0
 41
2.5
 42
0.625
 43
3.75
 44
1.25
 73
     0
 74
     0
 77
     1
 78
     8
140
2.5
141
2.5
143
0.0393700787
147
0.625
171
     3
172
     1
178
     0
271
     2
272
     2
274
     3
278
    44
283
     0
284
     8
340
11
  0
ENDTAB
  0
TABLE
  2
BLOCK_RECORD
  5
1
330
0
100
AcDbSymbolTable
 70
     1
  0
BLOCK_RECORD
  5
1F
330
1
100
AcDbSymbolTableRecord
100
AcDbBlockTableRecord
  2
*Model_Space
340
22
  0
BLOCK_RECORD
  5
1B
330
1
100
AcDbSymbolTableRecord
100
AcDbBlockTableRecord
  2
*Paper_Space
340
1E
  0
BLOCK_RECORD
  5
23
330
1
100
AcDbSymbolTableRecord
100
AcDbBlockTableRecord
  2
*Paper_Space0
340
26
  0
ENDTAB
  0
ENDSEC
  0
SECTION
  2
BLOCKS
  0
BLOCK
  5
20
330
1F
100
AcDbEntity
  8
0
100
AcDbBlockBegin
  2
*Model_Space
 70
     0
 10
0.0
 20
0.0
 30
0.0
  3
*Model_Space
  1

  0
ENDBLK
  5
21
330
1F
100
AcDbEntity
  8
0
100
AcDbBlockEnd
  0
BLOCK
  5
1C
330
1B
100
AcDbEntity
 67
     1
  8
0
100
AcDbBlockBegin
  2
*Paper_Space
 70
     0
 10
0.0
 20
0.0
 30
0.0
  3
*Paper_Space
  1

  0
ENDBLK
  5
1D
330
1B
100
AcDbEntity
 67
     1
  8
0
100
AcDbBlockEnd
  0
BLOCK
  5
24
330
23
100
AcDbEntity
  8
0
100
AcDbBlockBegin
  2
*Paper_Space0
 70
     0
 10
0.0
 20
0.0
 30
0.0
  3
*Paper_Space0
  1

  0
ENDBLK
  5
25
330
23
100
AcDbEntity
  8
0
100
AcDbBlockEnd
  0
ENDSEC
  0
SECTION
  2
ENTITIES
  0
LWPOLYLINE
  5
7F
330
1F
100
AcDbEntity
  8
0
  6
Continuous
 62
     7
370
    25
100
AcDbPolyline
 90
       45
 70
   128
 43
0.0
 10
6501.6118879868
 20
5187.4329653606
 10
6499.2086782498
 20
5184.2638400197
 10
6496.3668648223
 20
5180.9218358579
 10
6493.0146238213
 20
5177.3159728517
 10
6488.9142178391
 20
5173.2254489003
 10
6484.0971793891
 20
5168.8097169211
 10
6479.058397203
 20
5164.5838873215
 10
6473.8160952821
 20
5160.5633588823
 10
6468.3890001077
 20
5156.761988891
 10
6462.7962373615
 20
5153.1921379963
 10
6457.0570009382
 20
5149.8645574175
 10
6451.190231901
 20
5146.7883350078
 10
6445.2143210628
 20
5143.9708997298
 10
6439.1468461617
 20
5141.418080588
 10
6433.0043515375
 20
5139.134213402
 10
6426.8021750215
 20
5137.1222869623
 10
6420.5543237356
 20
5135.3841191368
 10
6414.273397907
 20
5133.9205532973
 10
6407.9772849851
 20
5132.7379851323
 10
6401.8302492455
 20
5131.8608733029
 10
6395.6180594797
 20
5131.2415070144
 10
6389.3336511817
 20
5130.8802800437
 10
6383.0165853287
 20
5130.7824394342
 10
6376.7123178648
 20
5130.9503287045
 10
6370.4664980356
 20
5131.3827027377
 10
6364.3195203846
 20
5132.0752919351
 10
6358.2885542167
 20
5133.0217197396
 10
6352.25884919
 20
5134.2287931465
 10
6346.1445332741
 20
5135.7186529935
 10
6340.0242871342
 20
5137.4808984634
 10
6333.9240156015
 20
5139.5130082723
 10
6327.872746225
 20
5141.8098836775
 10
6321.9016998219
 20
5144.3637093251
 10
6316.0437545426
 20
5147.1637814094
 10
6310.3151693624
 20
5150.2030992294
 10
6304.6675889528
 20
5153.5074323842
 10
6299.1364591241
 20
5157.0628451879
 10
6293.7561314891
 20
5160.852015077
 10
6288.5511002739
 20
5164.8610693607
 10
6283.5457763418
 20
5169.0739507016
 10
6278.7639220602
 20
5173.4726400064
 10
6274.1873417451
 20
5178.0584121981
 10
6270.8316607942
 20
5181.6812640605
 10
6268.0992368522
 20
5184.9303873246
 10
6266.2587950226
 20
5187.4001255875
  0
LWPOLYLINE
  5
80
330
1F
100
AcDbEntity
  8
0
  6
Continuous
 62
     7
370
    25
100
AcDbPolyline
 90
        3
 70
   128
 43
0.0
 10
6266.3336276695
 20
5187.4364451911
 10
6265.0924977892
 20
5189.1932816225
 10
6263.3748412105
 20
5192.0203399088
  0
ARC
  5
81
330
1F
100
AcDbEntity
  8
0
  6
Continuous
 62
     7
370
    25
100
AcDbCircle
 10
6478.1952464793
 20
5205.5368141613
 30
0.0
 40
29.67089490929274
100
AcDbArc
 50
322.3056713299
 51
333.226461001
  0
LINE
  5
82
330
1F
100
AcDbEntity
  8
0
  6
Continuous
 62
     7
370
    25
100
AcDbLine
 10
6396.4657626555
 20
5303.791585344
 30
0.0
 11
6396.4657626555
 21
5305.1034593149
 31
0.0
  0
LINE
  5
83
330
1F
100
AcDbEntity
  8
0
  6
Continuous
 62
     7
370
    25
100
AcDbLine
 10
6371.4657626555
 20
5305.1033937991
 30
0.0
 11
6371.4657626555
 21
5303.791585344
 31
0.0
  0
LINE
  5
84
330
1F
100
AcDbEntity
  8
0
  6
Continuous
 62
     7
370
    25
100
AcDbLine
 10
6436.5520160039
 20
4819.4651492785
 30
0.0
 11
6331.3795093071
 21
4819.4651492785
 31
0.0
  0
LWPOLYLINE
  5
85
330
1F
100
AcDbEntity
  8
0
  6
Continuous
 62
     7
370
    25
100
AcDbPolyline
 90
        7
 70
   128
 43
0.0
 10
6331.3795093071
 20
4819.4651492785
 10
6328.5353711364
 20
4842.1190981266
 10
6325.252846462
 20
4864.7223540518
 10
6319.5010257464
 20
4898.5994919129
 10
6312.7786262969
 20
4932.3480394113
 10
6306.8791409654
 20
4958.5381478165
 10
6300.4129374413
 20
4984.6137362546
  0
ARC
  5
86
330
1F
100
AcDbEntity
  8
0
  6
Continuous
 62
     7
370
    25
100
AcDbCircle
 10
6252.9495110947
 20
4972.2938228504
 30
0.0
 40
49.0362835749724
100
AcDbArc
 50
14.5509464178
 51
47.0161559169
  0
ARC
  5
87
330
1F
100
AcDbEntity
  8
0
  6
Continuous
 62
     7
370
    25
100
AcDbCircle
 10
6404.1580703478
 20
5134.4651492785
 30
0.0
 40
172.6923076923087
100
AcDbArc
 50
224.1200730028
 51
226.9999376894
  0
LWPOLYLINE
  5
88
330
1F
100
AcDbEntity
  8
0
  6
Continuous
 62
     7
370
    25
100
AcDbPolyline
 90
       25
 70
   128
 43
0.0
 10
6280.1852938172
 20
5014.2429224842
 10
6286.2273369899
 20
5021.0375877133
 10
6293.659216223
 20
5028.4654454717
 10
6301.6359405238
 20
5035.4536990421
 10
6310.1214902663
 20
5041.9180338715
 10
6319.0798458244
 20
5047.7741354069
 10
6328.4749875723
 20
5052.9376890956
 10
6337.3894928635
 20
5056.9736930305
 10
6346.6538823462
 20
5060.3533642773
 10
6356.1821134394
 20
5063.0189728763
 10
6365.8881435626
 20
5064.9127888676
 10
6375.7775506678
 20
5065.9937980689
 10
6385.7722930855
 20
5066.2524358726
 10
6395.7528617589
 20
5065.6921646609
 10
6405.5997476311
 20
5064.3164468162
 10
6414.6810062795
 20
5062.2893580489
 10
6423.5850598184
 20
5059.5888783225
 10
6432.2429351638
 20
5056.2650376703
 10
6440.5856592317
 20
5052.3678661257
 10
6449.263510974
 20
5047.5296936023
 10
6457.5577496859
 20
5042.1066630939
 10
6465.4344612379
 20
5036.1682028854
 10
6472.8597315006
 20
5029.7837412613
 10
6480.5711557608
 20
5022.2334118804
 10
6487.7462314938
 20
5014.2429224842
  0
ARC
  5
89
330
1F
100
AcDbEntity
  8
0
  6
Continuous
 62
     7
370
    25
100
AcDbCircle
 10
6363.7734549632
 20
5134.4651492785
 30
0.0
 40
172.692307692308
100
AcDbArc
 50
313.0000623106
 51
315.8799269972
  0
ARC
  5
8A
330
1F
100
AcDbEntity
  8
0
  6
Continuous
 62
     7
370
    25
100
AcDbCircle
 10
6514.9783778811
 20
4972.2959891265
 30
0.0
 40
49.03221963395909
100
AcDbArc
 50
132.9824614788
 51
165.4504361866
  0
LWPOLYLINE
  5
8B
330
1F
100
AcDbEntity
  8
0
  6
Continuous
 62
     7
370
    25
100
AcDbPolyline
 90
        7
 70
   128
 43
0.0
 10
6467.5185878697
 20
4984.6137362546
 10
6458.5064343245
 20
4947.5582119647
 10
6450.639035187
 20
4910.2490326961
 10
6446.4643200928
 20
4887.6616618419
 10
6442.7221279818
 20
4865.0023540014
 10
6439.4156310974
 20
4842.2631360511
 10
6436.5520160039
 20
4819.4651492785
  0
LWPOLYLINE
  5
8C
330
1F
100
AcDbEntity
  8
0
  6
Continuous
 62
     7
370
    25
100
AcDbPolyline
 90
       39
 70
   128
 43
0.0
 10
6536.4657626555
 20
5212.7266923072
 10
6535.8865281121
 20
5202.7605463579
 10
6534.1468851047
 20
5192.7703541693
 10
6531.2283927774
 20
5182.7208340499
 10
6527.2231492654
 20
5172.8824967802
 10
6522.0134598936
 20
5163.0181273279
 10
6515.7853617154
 20
5153.5329181053
 10
6508.7683588551
 20
5144.6936996859
 10
6500.8983974992
 20
5136.3523811487
 10
6491.9710210152
 20
5128.3552125515
 10
6482.2715568059
 20
5121.0100001438
 10
6472.1550103368
 20
5114.5423182056
 10
6461.4433196221
 20
5108.7909624038
 10
6449.8811133528
 20
5103.6690124917
 10
6437.8487900088
 20
5099.3860076149
 10
6425.7981029735
 20
5096.0639316477
 10
6413.466136513
 20
5093.5860636849
 10
6400.5782938794
 20
5091.9398014823
 10
6387.57231991
 20
5091.2166721156
 10
6374.9609866651
 20
5091.40402007
 10
6362.4096278293
 20
5092.4596764077
 10
6349.6575092324
 20
5094.4453896987
 10
6337.1467994234
 20
5097.3263410299
 10
6325.4365588558
 20
5100.921012653
 10
6314.1064801355
 20
5105.2983724472
 10
6302.9418703909
 20
5110.58155254
 10
6292.3326962849
 20
5116.6212265045
 10
6282.8840151184
 20
5122.9879330675
 10
6274.0557421673
 20
5129.9504137257
 10
6265.704077084
 20
5137.6666565312
 10
6258.1218811336
 20
5145.9089289007
 10
6251.7598648351
 20
5154.0698133798
 10
6246.1701692693
 20
5162.5927721862
 10
6241.2890577399
 20
5171.6579370477
 10
6237.3245292536
 20
5180.9879468154
 10
6234.7608332944
 20
5188.9310321615
 10
6232.902656039
 20
5197.0230124375
 10
6231.8288430002
 20
5204.8372367699
 10
6231.4657626555
 20
5212.7266923072
  0
LWPOLYLINE
  5
8D
330
1F
100
AcDbEntity
  8
0
  6
Continuous
 62
     7
370
    25
100
AcDbPolyline
 90
        9
 70
   128
 43
0.0
 10
6231.4657626555
 20
5212.7266923072
 10
6231.5618362535
 20
5213.2406964556
 10
6231.846364993
 20
5213.7349477128
 10
6232.308414594
 20
5214.1904522803
 10
6232.9302287496
 20
5214.5897053728
 10
6233.6879114904
 20
5214.9173639181
 10
6234.5523454937
 20
5215.1608361818
 10
6235.4903110454
 20
5215.3107656616
 10
6236.4657626555
 20
5215.3613906515
  0
LWPOLYLINE
  5
8E
330
1F
100
AcDbEntity
  8
0
  6
Continuous
 62
     7
370
    25
100
AcDbPolyline
 90
       38
 70
   128
 43
0.0
 10
6236.4657626555
 20
5215.3613906515
 10
6237.0613139078
 20
5204.6674339813
 10
6238.8246462346
 20
5194.0429669195
 10
6241.7207774912
 20
5183.6226451597
 10
6245.3133840477
 20
5174.3977618083
 10
6249.7905702326
 20
5165.4220655924
 10
6255.095657026
 20
5156.7769046815
 10
6261.1719654078
 20
5148.543627245
 10
6268.3306310027
 20
5140.4037407481
 10
6276.2743017376
 20
5132.7626222021
 10
6284.917319406
 20
5125.6900805785
 10
6294.1740258013
 20
5119.2559248489
 10
6304.3647646602
 20
5113.3010272797
 10
6315.1396086523
 20
5108.0680104554
 10
6326.3843306722
 20
5103.6052294591
 10
6337.984703614
 20
5099.9610393742
 10
6350.0754747759
 20
5097.1229755211
 10
6362.4469980635
 20
5095.1482231665
 10
6374.9686976914
 20
5094.0524616872
 10
6387.5099978741
 20
5093.8513704599
 10
6400.0876984242
 20
5094.5620722398
 10
6412.5951263318
 20
5096.1746483338
 10
6424.9006964085
 20
5098.6679193656
 10
6436.8728234659
 20
5102.0207059593
 10
6448.4619769706
 20
5106.2314951093
 10
6459.631850387
 20
5111.2766717236
 10
6470.2643403425
 20
5117.099863588
 10
6480.2413434648
 20
5123.6446984882
 10
6489.4677728787
 20
5130.8569428742
 10
6497.9705459783
 20
5138.7387195694
 10
6505.6555247664
 20
5147.2042152143
 10
6512.4285712457
 20
5156.1676164496
 10
6518.1588002681
 20
5165.4503557219
 10
6522.9405556024
 20
5175.1571319535
 10
6526.710557395
 20
5185.1785094492
 10
6529.4055257923
 20
5195.4050525136
 10
6530.9475013092
 20
5205.3451444563
 10
6531.4657626555
 20
5215.3613906515
  0
LWPOLYLINE
  5
8F
330
1F
100
AcDbEntity
  8
0
  6
Continuous
 62
     7
370
    25
100
AcDbPolyline
 90
        9
 70
   128
 43
0.0
 10
6536.4657626555
 20
5212.7266923072
 10
6536.3696890575
 20
5213.2406964556
 10
6536.0851603181
 20
5213.7349477128
 10
6535.623110717
 20
5214.1904522803
 10
6535.0012965614
 20
5214.5897053728
 10
6534.2436138206
 20
5214.9173639181
 10
6533.3791798173
 20
5215.1608361818
 10
6532.4412142656
 20
5215.3107656616
 10
6531.4657626555
 20
5215.3613906515
  0
LWPOLYLINE
  5
90
330
1F
100
AcDbEntity
  8
0
  6
Continuous
 62
     7
370
    25
100
AcDbPolyline
 90
       12
 70
   128
 43
0.0
 10
6531.4657626555
 20
5357.0998476228
 10
6531.354139246
 20
5362.6078962364
 10
6530.6748813023
 20
5368.0732736385
 10
6529.7651267519
 20
5371.336450546
 10
6528.30487203
 20
5374.4420837747
 10
6526.8520742524
 20
5376.4215373056
 10
6524.9990369061
 20
5378.1371392343
 10
6522.7968070436
 20
5379.4954302501
 10
6520.3513662349
 20
5380.5188684537
 10
6516.5827070416
 20
5381.4747023806
 10
6512.6796851308
 20
5381.9484313102
 10
6506.4657626555
 20
5382.0998476228
  0
LINE
  5
91
330
1F
100
AcDbEntity
  8
0
  6
Continuous
 62
     7
370
    25
100
AcDbLine
 10
6531.4657626555
 20
5215.3613906515
 30
0.0
 11
6531.4657626555
 21
5357.0998476228
 31
0.0
  0
LINE
  5
92
330
1F
100
AcDbEntity
  8
0
  6
Continuous
 62
     7
370
    25
100
AcDbLine
 10
6236.4657626555
 20
5357.0998476228
 30
0.0
 11
6236.4657626555
 21
5215.3613906515
 31
0.0
  0
LWPOLYLINE
  5
93
330
1F
100
AcDbEntity
  8
0
  6
Continuous
 62
     7
370
    25
100
AcDbPolyline
 90
       13
 70
   128
 43
0.0
 10
6261.4657626555
 20
5382.0998476228
 10
6256.9358018003
 20
5382.0399609804
 10
6252.4058409451
 20
5381.6463926527
 10
6249.1181176669
 20
5380.9833405098
 10
6245.9207180551
 20
5379.87078279
 10
6243.7601406553
 20
5378.7127891891
 10
6241.8199684976
 20
5377.1969639376
 10
6240.3039488309
 20
5375.4648405506
 10
6239.1005978026
 20
5373.494896157
 10
6237.94269132
 20
5370.6726290344
 10
6237.181631259
 20
5367.703666893
 10
6236.5628483873
 20
5362.4387284918
 10
6236.4657626555
 20
5357.0998476228
  0
LINE
  5
94
330
1F
100
AcDbEntity
  8
0
  6
Continuous
 62
     7
370
    25
100
AcDbLine
 10
6506.4657626555
 20
5382.0998476228
 30
0.0
 11
6261.4657626555
 21
5382.0998476228
 31
0.0
  0
ARC
  5
95
330
1F
100
AcDbEntity
  8
0
  6
Continuous
 62
     7
370
    25
100
AcDbCircle
 10
6298.2717348288
 20
5213.5139886423
 30
0.0
 40
44.73740130749807
100
AcDbArc
 50
179.4962816336
 51
216.1701540002
  0
LWPOLYLINE
  5
96
330
1F
100
AcDbEntity
  8
0
  6
Continuous
 62
     7
370
    25
100
AcDbPolyline
 90
       28
 70
   128
 43
0.0
 10
6505.7748565031
 20
5187.1106350423
 10
6501.3301122306
 20
5181.5622095939
 10
6496.4288056497
 20
5176.289002328
 10
6491.1908148679
 20
5171.1331388663
 10
6485.6635699235
 20
5166.2002226116
 10
6477.1294490735
 20
5159.4471261262
 10
6468.0477514115
 20
5153.231567312
 10
6458.2410769376
 20
5147.4767540089
 10
6447.9474538574
 20
5142.3743217268
 10
6437.9149581436
 20
5138.2394311761
 10
6427.5415589065
 20
5134.7666079815
 10
6416.5970527334
 20
5131.94249325
 10
6405.4125160205
 20
5129.9118058159
 10
6394.3920273838
 20
5128.7381421255
 10
6383.2102658022
 20
5128.3765428443
 10
6370.3655227335
 20
5128.9945007606
 10
6357.6547230559
 20
5130.6895724184
 10
6344.7010533399
 20
5133.5544386751
 10
6332.1304870588
 20
5137.4669481092
 10
6321.5837372836
 20
5141.6622279913
 10
6311.4501033709
 20
5146.5391751172
 10
6301.5501041933
 20
5152.1875655976
 10
6292.1731275696
 20
5158.4481682255
 10
6283.8758519309
 20
5164.8525251304
 10
6276.1133869854
 20
5171.7243843283
 10
6271.1135421073
 20
5176.6265297207
 10
6266.4032035604
 20
5181.7333452465
 10
6262.1566688095
 20
5187.1106350263
  0
ARC
  5
97
330
1F
100
AcDbEntity
  8
0
  6
Continuous
 62
     7
370
    25
100
AcDbCircle
 10
6470.0098188152
 20
5213.4013829596
 30
0.0
 40
44.38852719869507
100
AcDbArc
 50
323.6805303322
 51
0.6530340199
  0
LWPOLYLINE
  5
98
330
1F
100
AcDbEntity
  8
0
  6
Continuous
 62
     7
370
    25
100
AcDbPolyline
 90
        8
 70
   128
 43
0.0
 10
6514.8739631499
 20
5355.2500572449
 10
6515.1964895544
 20
5351.1782290612
 10
6515.1136776646
 20
5347.081550032
 10
6514.9982349621
 20
5342.9847732807
 10
6514.9727916564
 20
5330.7021529203
 10
6514.9037792959
 20
5306.1546528332
 10
6514.7005432284
 20
5260.0308509765
 10
6514.3954628961
 20
5213.9072944074
  0
LWPOLYLINE
  5
99
330
1F
100
AcDbEntity
  8
0
  6
Continuous
 62
     7
370
    25
100
AcDbPolyline
 90
        9
 70
   128
 43
0.0
 10
6501.9224134287
 20
5365.965105552
 10
6504.1770788105
 20
5365.6190579205
 10
6506.3405619939
 20
5364.9792907067
 10
6508.4857923929
 20
5363.9824518805
 10
6510.4040971685
 20
5362.6942218604
 10
6512.0706769378
 20
5361.1052183907
 10
6513.3937733931
 20
5359.2972118365
 10
6514.3324129288
 20
5357.3263997357
 10
6514.8739631499
 20
5355.2500572449
  0
LWPOLYLINE
  5
9A
330
1F
100
AcDbEntity
  8
0
  6
Continuous
 62
     7
370
    25
100
AcDbPolyline
 90
       11
 70
   128
 43
0.0
 10
6266.0091118815
 20
5365.965105552
 10
6276.4563295294
 20
5366.5106058669
 10
6286.9364854309
 20
5366.5513632755
 10
6297.4298873204
 20
5366.3827095889
 10
6307.9168429321
 20
5366.2999766181
 10
6349.843311571
 20
5366.477437372
 10
6410.625204379
 20
5366.4958997276
 10
6471.4081737227
 20
5366.2323942332
 10
6486.6655713618
 20
5366.130832356
 10
6494.3036133245
 20
5366.1977020698
 10
6501.9224134287
 20
5365.965105552
  0
LWPOLYLINE
  5
9B
330
1F
100
AcDbEntity
  8
0
  6
Continuous
 62
     7
370
    25
100
AcDbPolyline
 90
        9
 70
   128
 43
0.0
 10
6253.0575621611
 20
5355.2500572444
 10
6253.5722312089
 20
5357.2527858117
 10
6254.4565005297
 20
5359.1594108858
 10
6255.7092182269
 20
5360.9298873731
 10
6257.2890905506
 20
5362.4994103925
 10
6259.1770242316
 20
5363.8276503659
 10
6261.3009354352
 20
5364.867366626
 10
6263.6006872441
 20
5365.5836980351
 10
6266.0091118815
 20
5365.965105552
  0
LWPOLYLINE
  5
9C
330
1F
100
AcDbEntity
  8
0
  6
Continuous
 62
     7
370
    25
100
AcDbPolyline
 90
        8
 70
   128
 43
0.0
 10
6253.5360624149
 20
5213.9072944076
 10
6253.2342813443
 20
5259.4346612009
 10
6253.0317520841
 20
5304.96257461
 10
6252.9603726578
 20
5329.9962662699
 10
6252.9339583045
 20
5342.6230351985
 10
6252.8139628238
 20
5346.8406351754
 10
6252.7266351525
 20
5351.0581415258
 10
6253.0575621611
 20
5355.2500572444
  0
ARC
  5
9D
330
1F
100
AcDbEntity
  8
0
  6
Continuous
 62
     7
370
    25
100
AcDbCircle
 10
6363.7734549632
 20
5134.4651492785
 30
0.0
 40
172.6923076923022
100
AcDbArc
 50
315.8799269972
 51
0.0
  0
ARC
  5
9E
330
1F
100
AcDbEntity
  8
0
  6
Continuous
 62
     7
370
    25
100
AcDbCircle
 10
6404.1580703478
 20
5134.4651492785
 30
0.0
 40
172.6923076923194
100
AcDbArc
 50
180.0
 51
224.1200730028
  0
LINE
  5
9F
330
1F
100
AcDbEntity
  8
0
  6
Continuous
 62
     7
370
    25
100
AcDbLine
 10
6231.4657626555
 20
5134.4651492785
 30
0.0
 11
6231.4657626555
 21
5212.7266923072
 31
0.0
  0
LINE
  5
A0
330
1F
100
AcDbEntity
  8
0
  6
Continuous
 62
     7
370
    25
100
AcDbLine
 10
6536.4657626555
 20
5134.4651492785
 30
0.0
 11
6536.4657626555
 21
5212.7266923072
 31
0.0
  0
ARC
  5
A1
330
1F
100
AcDbEntity
  8
0
  6
Continuous
 62
     7
370
    25
100
AcDbCircle
 10
6521.5055127711
 20
4977.2068664622
 30
0.0
 40
50.03975018579923
100
AcDbArc
 50
135.0834757917
 51
179.996964013
  0
ARC
  5
A2
330
1F
100
AcDbEntity
  8
0
  6
Continuous
 62
     7
370
    25
100
AcDbCircle
 10
6488.0394228919
 20
4990.7991297943
 30
0.0
 40
21.43277311150833
100
AcDbArc
 50
196.7738660629
 51
219.3501204657
  0
ARC
  5
A3
330
1F
100
AcDbEntity
  8
0
  6
Continuous
 62
     7
370
    25
100
AcDbCircle
 10
6279.8921024191
 20
4990.7991297943
 30
0.0
 40
21.43277311155294
100
AcDbArc
 50
320.6498795343
 51
343.226133937
  0
ARC
  5
A4
330
1F
100
AcDbEntity
  8
0
  6
Continuous
 62
     7
370
    25
100
AcDbCircle
 10
6246.4241764291
 20
4977.2061074298
 30
0.0
 40
50.04158634260448
100
AcDbArc
 50
0.0039049398
 51
44.9156552555
  0
LINE
  5
A5
330
1F
100
AcDbEntity
  8
0
  6
Continuous
 62
     7
370
    25
100
AcDbLine
 10
6257.9063829237
 20
5212.5765424211
 30
0.0
 11
6257.9093466019
 21
5211.2239547196
 31
0.0
  0
LWPOLYLINE
  5
A6
330
1F
100
AcDbEntity
  8
0
  6
Continuous
 62
     7
370
    25
100
AcDbPolyline
 90
        5
 70
   128
 43
0.0
 10
6257.6361730574
 20
5351.6975027254
 10
6257.6361730996
 20
5351.6974526346
 10
6257.6612465257
 20
5328.2671080035
 10
6257.6997609396
 20
5303.2833148937
 10
6257.9063829237
 20
5212.5765424211
  0
LWPOLYLINE
  5
A7
330
1F
100
AcDbEntity
  8
0
  6
Continuous
 62
     7
370
    25
100
AcDbPolyline
 90
        3
 70
   128
 43
0.0
 10
6257.647553617
 20
5353.0754128304
 10
6257.6361694034
 20
5351.6975582743
 10
6257.6361730574
 20
5351.6975027254
  0
ARC
  5
A8
330
1F
100
AcDbEntity
  8
0
  6
Continuous
 62
     7
370
    25
100
AcDbCircle
 10
6265.9438683518
 20
5352.2841315887
 30
0.0
 40
8.333964493643704
100
AcDbArc
 50
86.4096415763
 51
174.5517561024
  0
LWPOLYLINE
  5
A9
330
1F
100
AcDbEntity
  8
0
  6
Continuous
 62
     7
370
    25
100
AcDbPolyline
 90
        3
 70
   128
 43
0.0
 10
6267.4069600401
 20
5360.5459361925
 10
6267.4069010392
 20
5360.5459424359
 10
6266.4657626554
 20
5360.6017388478
  0
LWPOLYLINE
  5
AA
330
1F
100
AcDbEntity
  8
0
  6
Continuous
 62
     7
370
    25
100
AcDbPolyline
 90
        7
 70
   128
 43
0.0
 10
6500.5245652709
 20
5360.5459361925
 10
6500.5245057414
 20
5360.5459360346
 10
6471.3735408117
 20
5360.4873672974
 10
6410.6168641515
 20
5360.4419863683
 10
6349.8589504054
 20
5360.447978965
 10
6267.4070200356
 20
5360.5459360333
 10
6267.4069600401
 20
5360.5459361925
  0
LWPOLYLINE
  5
AB
330
1F
100
AcDbEntity
  8
0
  6
Continuous
 62
     7
370
    25
100
AcDbPolyline
 90
        3
 70
   128
 43
0.0
 10
6501.4657626551
 20
5360.6017388478
 10
6500.5246247337
 20
5360.5459424848
 10
6500.5245652709
 20
5360.5459361925
  0
ARC
  5
AC
330
1F
100
AcDbEntity
  8
0
  6
Continuous
 62
     7
370
    25
100
AcDbCircle
 10
6501.9788875774
 20
5352.2738569551
 30
0.0
 40
8.343675089813326
100
AcDbArc
 50
5.5127631899
 51
93.5258391374
  0
LWPOLYLINE
  5
AD
330
1F
100
AcDbEntity
  8
0
  6
Continuous
 62
     7
370
    25
100
AcDbPolyline
 90
        3
 70
   128
 43
0.0
 10
6510.2953522537
 20
5351.6975027254
 10
6510.2953558463
 20
5351.6975573415
 10
6510.283971694
 20
5353.0754128307
  0
LWPOLYLINE
  5
AE
330
1F
100
AcDbEntity
  8
0
  6
Continuous
 62
     7
370
    25
100
AcDbPolyline
 90
        5
 70
   128
 43
0.0
 10
6510.0251423873
 20
5212.5765424209
 10
6510.2338678109
 20
5304.4726044602
 10
6510.2711890852
 20
5328.9718413872
 10
6510.2953522107
 20
5351.697451779
 10
6510.2953522537
 20
5351.6975027254
  0
LINE
  5
AF
330
1F
100
AcDbEntity
  8
0
  6
Continuous
 62
     7
370
    25
100
AcDbLine
 10
6510.0221787091
 20
5211.2239547196
 30
0.0
 11
6510.0251423873
 21
5212.5765424209
 31
0.0
  0
LINE
  5
B0
330
1F
100
AcDbEntity
  8
0
  6
Continuous
 62
     7
370
    25
100
AcDbLine
 10
6504.4649057194
 20
5191.9109799547
 30
0.0
 11
6504.6439337198
 21
5192.2086515969
 31
0.0
  0
LWPOLYLINE
  5
B1
330
1F
100
AcDbEntity
  8
0
  6
Continuous
 62
     7
370
    25
100
AcDbPolyline
 90
       31
 70
   128
 43
0.0
 10
6371.4788652632
 20
5305.1028563455
 10
6371.5371021421
 20
5306.2885206926
 10
6371.8427971428
 20
5307.8094375711
 10
6372.1399181798
 20
5308.6985918426
 10
6372.6969731127
 20
5309.9034402378
 10
6373.0158719787
 20
5310.4517160437
 10
6373.5596786481
 20
5311.2446621235
 10
6374.1769590406
 20
5311.9941713502
 10
6375.1616021321
 20
5312.965174172
 10
6376.4780305496
 20
5313.9668739876
 10
6377.2380482832
 20
5314.4302560993
 10
6378.6343272242
 20
5315.1090728728
 10
6380.239745623
 20
5315.6596280671
 10
6381.1230962578
 20
5315.8713220493
 10
6382.6804391059
 20
5316.1010151918
 10
6384.3842918756
 20
5316.1530962409
 10
6385.2869455055
 20
5316.0977106999
 10
6386.8231826802
 20
5315.8682842025
 10
6388.4444708022
 20
5315.4294589002
 10
6389.2718917073
 20
5315.119545467
 10
6390.6287660183
 20
5314.4664121666
 10
6392.0044226273
 20
5313.5817607962
 10
6392.6740541669
 20
5313.0482119296
 10
6393.7176032443
 20
5312.0350897129
 10
6394.6984968843
 20
5310.7866712165
 10
6395.1369186529
 20
5310.0794755601
 10
6395.7511097401
 20
5308.8017524194
 10
6396.2145093183
 20
5307.3185069738
 10
6396.3648402255
 20
5306.5120164425
 10
6396.4657623125
 20
5305.1060632072
 10
6396.4656814519
 20
5305.1034614237
  0
LINE
  5
B2
330
1F
100
AcDbEntity
  8
0
  6
Continuous
 62
     7
370
    25
100
AcDbLine
 10
6436.5520160039
 20
4819.4651492785
 30
0.0
 11
6471.4657626555
 21
4819.4651492785
 31
0.0
  0
LINE
  5
B3
330
1F
100
AcDbEntity
  8
0
  6
Continuous
 62
     7
370
    25
100
AcDbLine
 10
6471.4657626555
 20
4819.4651492785
 30
0.0
 11
6471.4657626555
 21
4977.2095179669
 31
0.0
  0
LINE
  5
B4
330
1F
100
AcDbEntity
  8
0
  6
Continuous
 62
     7
370
    25
100
AcDbLine
 10
6331.3795093071
 20
4819.4651492785
 30
0.0
 11
6296.4657626555
 21
4819.4651492785
 31
0.0
  0
LINE
  5
B5
330
1F
100
AcDbEntity
  8
0
  6
Continuous
 62
     7
370
    25
100
AcDbLine
 10
6296.4657626555
 20
4977.2095179669
 30
0.0
 11
6296.4657626555
 21
4819.4651492785
 31
0.0
  0
ARC
  5
B6
330
1F
100
AcDbEntity
  8
0
  6
Continuous
 62
     7
370
    25
100
AcDbCircle
 10
6253.9295179292
 20
5207.3577836914
 30
0.0
 40
6.561318302183548
100
AcDbArc
 50
52.6914127208
 51
93.4378568319
  0
ARC
  5
B7
330
1F
100
AcDbEntity
  8
0
  6
Continuous
 62
     7
370
    25
100
AcDbCircle
 10
6514.0020073818
 20
5207.3577836912
 30
0.0
 40
6.561318302170113
100
AcDbArc
 50
86.562143168
 51
127.3085872792
  0
ARC
  5
B8
330
1F
100
AcDbEntity
  8
0
  6
Continuous
 62
     7
370
    25
100
AcDbCircle
 10
6515.2390873635
 20
5348.5480571972
 30
0.0
 40
6.711938641727135
100
AcDbArc
 50
93.1183849198
 51
137.5828963037
  0
ARC
  5
B9
330
1F
100
AcDbEntity
  8
0
  6
Continuous
 62
     7
370
    25
100
AcDbCircle
 10
6252.6924379477
 20
5348.548057197
 30
0.0
 40
6.711938641516232
100
AcDbArc
 50
42.4171036968
 51
86.8816150821
  0
LWPOLYLINE
  5
BA
330
1F
100
AcDbEntity
  8
0
  6
Continuous
 62
     7
370
    25
100
AcDbPolyline
 90
        5
 70
   128
 43
0.0
 10
6531.4657626555
 20
5357.0998476228
 10
6533.3791798173
 20
5356.8992931532
 10
6535.0012965614
 20
5356.3281623442
 10
6536.0851603181
 20
5355.4734046842
 10
6536.4657626555
 20
5354.4651492785
  0
LINE
  5
BB
330
1F
100
AcDbEntity
  8
0
  6
Continuous
 62
     7
370
    25
100
AcDbLine
 10
6536.4657626555
 20
5354.4651492785
 30
0.0
 11
6536.4657626555
 21
5212.7266923072
 31
0.0
  0
LINE
  5
BC
330
1F
100
AcDbEntity
  8
0
  6
Continuous
 62
     7
370
    25
100
AcDbLine
 10
6231.4657626555
 20
5212.7266923072
 30
0.0
 11
6231.4657626555
 21
5354.4651492785
 31
0.0
  0
LWPOLYLINE
  5
BD
330
1F
100
AcDbEntity
  8
0
  6
Continuous
 62
     7
370
    25
100
AcDbPolyline
 90
        5
 70
   128
 43
0.0
 10
6231.4657626555
 20
5354.4651492785
 10
6231.846364993
 20
5355.4734046842
 10
6232.9302287496
 20
5356.3281623442
 10
6234.5523454937
 20
5356.8992931532
 10
6236.4657626555
 20
5357.0998476228
  0
ARC
  5
BE
330
1F
100
AcDbEntity
  8
0
  6
Continuous
 62
     7
370
    25
100
AcDbCircle
 10
6181.0009439604
 20
5356.0261689154
 30
0.0
 40
85.58721326679364
100
AcDbArc
 50
3.0645452259
 51
6.6685994591
  0
ARC
  5
BF
330
1F
100
AcDbEntity
  8
0
  6
Continuous
 62
     7
370
    25
100
AcDbCircle
 10
6586.9305813966
 20
5356.0261689156
 30
0.0
 40
85.58721331324458
100
AcDbArc
 50
173.3314005446
 51
176.9354547759
  0
LINE
  5
C0
330
1F
100
AcDbEntity
  8
0
  6
Continuous
 62
     7
370
    25
100
AcDbLine
 10
6506.4657626555
 20
5382.0998476228
 30
0.0
 11
6506.4657626555
 21
5384.4651492785
 31
0.0
  0
LWPOLYLINE
  5
C1
330
1F
100
AcDbEntity
  8
0
  6
Continuous
 62
     7
370
    25
100
AcDbPolyline
 90
       13
 70
   128
 43
0.0
 10
6506.4657626555
 20
5384.4651492785
 10
6511.718864908
 20
5384.3549749615
 10
6516.9407236501
 20
5383.834003589
 10
6521.9652007948
 20
5382.616562529
 10
6525.1265059222
 20
5381.2849068435
 10
6528.0047456651
 20
5379.4981529488
 10
6530.5604229039
 20
5377.1378511568
 10
6532.5878759648
 20
5374.387284129
 10
6534.424907944
 20
5370.5122336977
 10
6535.5683629865
 20
5366.4651409312
 10
6536.1712891931
 20
5362.5299717135
 10
6536.4223752224
 20
5358.6037846169
 10
6536.4657626555
 20
5354.4651492785
  0
LWPOLYLINE
  5
C2
330
1F
100
AcDbEntity
  8
0
  6
Continuous
 62
     7
370
    25
100
AcDbPolyline
 90
       13
 70
   128
 43
0.0
 10
6231.4657626555
 20
5354.4651492785
 10
6231.5765488747
 20
5360.1916813166
 10
6232.2751911145
 20
5366.0316965
 10
6233.1949750847
 20
5369.6063022472
 10
6234.6495702143
 20
5373.1379935472
 10
6236.2541408666
 20
5375.7625761014
 10
6238.3768509544
 20
5378.1878609352
 10
6240.9163401502
 20
5380.1930945507
 10
6243.888213143
 20
5381.8043361663
 10
6247.652076052
 20
5383.1319907092
 10
6251.6876371513
 20
5383.9598437918
 10
6256.5426839268
 20
5384.3934370598
 10
6261.4657626555
 20
5384.4651492785
  0
LINE
  5
C3
330
1F
100
AcDbEntity
  8
0
  6
Continuous
 62
     7
370
    25
100
AcDbLine
 10
6261.4657626555
 20
5382.0998476228
 30
0.0
 11
6261.4657626555
 21
5384.4651492785
 31
0.0
  0
LINE
  5
C4
330
1F
100
AcDbEntity
  8
0
  6
Continuous
 62
     7
370
    25
100
AcDbLine
 10
6261.4657626555
 20
5384.4651492785
 30
0.0
 11
6506.4657626555
 21
5384.4651492785
 31
0.0
  0
LWPOLYLINE
  5
C5
330
1F
100
AcDbEntity
  8
0
  6
Continuous
 62
     7
370
    25
100
AcDbPolyline
 90
       38
 70
   128
 43
0.0
 10
6383.9657626555
 20
5315.5377431039
 10
6386.0782729095
 20
5315.3687853176
 10
6388.1300100898
 20
5314.8667725666
 10
6390.0619494532
 20
5314.0461468438
 10
6391.8185126217
 20
5312.9305160571
 10
6393.3491664712
 20
5311.5519748729
 10
6394.6098768772
 20
5309.9501814113
 10
6395.5643754967
 20
5308.1712163538
 10
6396.1852031424
 20
5306.2662572861
 10
6396.4544997331
 20
5304.2901064123
 10
6396.3645180962
 20
5302.299613995
 10
6395.9178468398
 20
5300.352042877
 10
6395.1273358824
 20
5298.5034211334
 10
6394.0157267851
 20
5296.806930246
 10
6392.6149985177
 20
5295.3113751688
 10
6390.9654474822
 20
5294.0597802985
 10
6389.1145282586
 20
5293.0881517407
 10
6387.1154884228
 20
5292.42444148
 10
6385.0258367115
 20
5292.0877432521
 10
6382.9056885996
 20
5292.0877432521
 10
6380.8160368882
 20
5292.42444148
 10
6378.8169970525
 20
5293.0881517407
 10
6376.9660778288
 20
5294.0597802985
 10
6375.3165267933
 20
5295.3113751688
 10
6373.9157985259
 20
5296.806930246
 10
6372.8041894286
 20
5298.5034211334
 10
6372.0136784713
 20
5300.352042877
 10
6371.5670072148
 20
5302.299613995
 10
6371.477025578
 20
5304.2901064123
 10
6371.7463221687
 20
5306.2662572861
 10
6372.3671498143
 20
5308.1712163538
 10
6373.3216484338
 20
5309.9501814113
 10
6374.5823588399
 20
5311.5519748729
 10
6376.1130126893
 20
5312.9305160571
 10
6377.8695758578
 20
5314.0461468438
 10
6379.8015152212
 20
5314.8667725666
 10
6381.8532524015
 20
5315.3687853176
 10
6383.9657626555
 20
5315.5377431039
  0
ARC
  5
C6
330
1F
100
AcDbEntity
  8
0
  6
Continuous
 62
     7
370
    25
100
AcDbCircle
 10
5740.6965318863
 20
5134.4651492785
 30
0.0
 40
795.7692307692325
100
AcDbArc
 50
336.681414693
 51
0.0
  0
CIRCLE
  5
C7
330
1F
100
AcDbEntity
  8
0
  6
Continuous
 62
     7
370
    25
100
AcDbCircle
 10
6499.4668735182
 20
4987.6322945311
 30
0.0
 40
7.499999999999091
  0
ARC
  5
C8
330
1F
100
AcDbEntity
  8
0
  6
Continuous
 62
     7
370
    25
100
AcDbCircle
 10
7027.2349934247
 20
5134.4651492785
 30
0.0
 40
795.7692307692317
100
AcDbArc
 50
180.0
 51
203.318585307
  0
CIRCLE
  5
C9
330
1F
100
AcDbEntity
  8
0
  6
Continuous
 62
     7
370
    25
100
AcDbCircle
 10
6268.4646517928
 20
4987.6322945311
 30
0.0
 40
7.499999999999091
  0
LWPOLYLINE
  5
CA
330
1F
100
AcDbEntity
  8
0
  6
Continuous
 62
     8
370
    25
100
AcDbPolyline
 90
        9
 70
   128
 43
0.0
 10
6505.7748565031
 20
5187.1106350423
 10
6505.0255698736
 20
5187.456737693
 10
6504.2995018652
 20
5187.7104723689
 10
6503.6191516085
 20
5187.8639764322
 10
6503.0056015495
 20
5187.9124931551
 10
6502.4778641537
 20
5187.854519119
 10
6502.0522927552
 20
5187.6918508021
 10
6501.7420748053
 20
5187.4295289111
 10
6501.6982244057
 20
5187.3707735996
  0
LWPOLYLINE
  5
CB
330
1F
100
AcDbEntity
  8
0
  6
Continuous
 62
     8
370
    25
100
AcDbPolyline
 90
        9
 70
   128
 43
0.0
 10
6262.1566688095
 20
5187.1106350263
 10
6262.90595544
 20
5187.4567376802
 10
6263.6320234493
 20
5187.7104723585
 10
6264.3123737064
 20
5187.8639764234
 10
6264.9259237653
 20
5187.9124931469
 10
6265.4536611604
 20
5187.8545191105
 10
6265.8792325575
 20
5187.6918507923
 10
6266.189450505
 20
5187.4295288991
 10
6266.2280748817
 20
5187.3782588449
  0
ARC
  5
CC
330
1F
100
AcDbEntity
  8
0
  6
Continuous
 62
     8
370
    25
100
AcDbCircle
 10
6298.707455527
 20
5212.3634500474
 30
0.0
 40
40.81401893302589
100
AcDbArc
 50
181.5998610179
 51
210.0888734073
  0
LWPOLYLINE
  5
CD
330
1F
100
AcDbEntity
  8
0
  6
Continuous
 62
     8
370
    25
100
AcDbPolyline
 90
        7
 70
   128
 43
0.0
 10
6504.8243220207
 20
5192.5085850243
 10
6505.1989886804
 20
5193.1315470169
 10
6507.9340918378
 20
5199.6291013468
 10
6509.401757219
 20
5205.338249688
 10
6510.0221772342
 20
5211.2239027472
 10
6510.0221787091
 20
5211.2239547196
 10
6510.0221787091
 20
5211.2239547196
  0
ARC
  5
CE
330
1F
100
AcDbEntity
  8
0
  6
Continuous
 62
     7
370
    25
100
AcDbCircle
 10
7101.1834470691
 20
5091.1810479501
 30
0.0
 40
5.00000000000045
100
AcDbArc
 50
1.0079015604
 51
31.7989128359
  0
LINE
  5
CF
330
1F
100
AcDbEntity
  8
0
  6
Continuous
 62
     7
370
    25
100
AcDbLine
 10
7106.1834470691
 20
5066.2338344871
 30
0.0
 11
7106.1834470691
 21
5091.2696146068
 31
0.0
  0
LINE
  5
D0
330
1F
100
AcDbEntity
  8
0
  6
Continuous
 62
     7
370
    25
100
AcDbLine
 10
7025.8251475677
 20
5212.7266923072
 30
0.0
 11
7030.0746610263
 21
5215.3613906515
 31
0.0
  0
LINE
  5
D1
330
1F
100
AcDbEntity
  8
0
  6
Continuous
 62
     7
370
    25
100
AcDbLine
 10
7030.0746610263
 20
5215.3613906515
 30
0.0
 11
7105.3754864269
 21
5093.9084464569
 31
0.0
  0
LINE
  5
D2
330
1F
100
AcDbEntity
  8
0
  6
Continuous
 62
     7
370
    25
100
AcDbLine
 10
6790.2303306775
 20
5354.4651492785
 30
0.0
 11
6790.2303306775
 21
5384.4651492785
 31
0.0
  0
LINE
  5
D3
330
1F
100
AcDbEntity
  8
0
  6
Continuous
 62
     7
370
    25
100
AcDbLine
 10
6790.2303306775
 20
5384.4651492785
 30
0.0
 11
6922.4473042455
 21
5384.4651492785
 31
0.0
  0
LWPOLYLINE
  5
D4
330
1F
100
AcDbEntity
  8
0
  6
Continuous
 62
     7
370
    25
100
AcDbPolyline
 90
       13
 70
   128
 43
0.0
 10
6937.9473042455
 20
5354.4651492785
 10
6934.5686016062
 20
5360.1916813166
 10
6931.372936298
 20
5366.0316965
 10
6929.519139971
 20
5369.6063022472
 10
6927.7823741543
 20
5373.1379935472
 10
6926.5655599176
 20
5375.7625761014
 10
6925.4870921303
 20
5378.1878609352
 10
6924.588810137
 20
5380.1930945507
 10
6923.8293244418
 20
5381.8043361663
 10
6923.1648663632
 20
5383.1319907092
 10
6922.728446327
 20
5383.9598437918
 10
6922.4890306608
 20
5384.3934370598
 10
6922.4473042455
 20
5384.4651492785
  0
LINE
  5
D5
330
1F
100
AcDbEntity
  8
0
  6
Continuous
 62
     7
370
    25
100
AcDbLine
 10
6937.9473042456
 20
5354.4651492785
 30
0.0
 11
6790.2303306775
 21
5354.4651492785
 31
0.0
  0
LINE
  5
D6
330
1F
100
AcDbEntity
  8
0
  6
Continuous
 62
     7
370
    25
100
AcDbLine
 10
6937.9473042455
 20
5354.4651492785
 30
0.0
 11
6942.196817704
 21
5357.0998476228
 31
0.0
  0
ARC
  5
D7
330
1F
100
AcDbEntity
  8
0
  6
Continuous
 62
     7
370
    25
100
AcDbCircle
 10
6922.4473042455
 20
5379.4651492785
 30
0.0
 40
5.000000000006789
100
AcDbArc
 50
31.7989128243
 51
90.0
  0
LINE
  5
D8
330
1F
100
AcDbEntity
  8
0
  6
Continuous
 62
     7
370
    25
100
AcDbLine
 10
6926.696817704
 20
5382.0998476228
 30
0.0
 11
6942.196817704
 21
5357.0998476228
 31
0.0
  0
LINE
  5
D9
330
1F
100
AcDbEntity
  8
0
  6
Continuous
 62
     7
370
    25
100
AcDbLine
 10
6790.2303306775
 20
5134.4651492785
 30
0.0
 11
6790.2303306775
 21
5354.4651492785
 31
0.0
  0
LINE
  5
DA
330
1F
100
AcDbEntity
  8
0
  6
Continuous
 62
     7
370
    25
100
AcDbLine
 10
7025.8251475677
 20
5212.7266923072
 30
0.0
 11
6937.9473042455
 21
5354.4651492785
 31
0.0
  0
LINE
  5
DB
330
1F
100
AcDbEntity
  8
0
  6
Continuous
 62
     7
370
    25
100
AcDbLine
 10
7025.8251475677
 20
5134.4651492785
 30
0.0
 11
7025.8251475677
 21
5212.7266923072
 31
0.0
  0
LINE
  5
DC
330
1F
100
AcDbEntity
  8
0
  6
Continuous
 62
     7
370
    25
100
AcDbLine
 10
7025.8251475677
 20
5134.4651492785
 30
0.0
 11
6820.2303306775
 21
5134.4651492785
 31
0.0
  0
LINE
  5
DD
330
1F
100
AcDbEntity
  8
0
  6
Continuous
 62
     7
370
    25
100
AcDbLine
 10
6790.2303306775
 20
5134.4651492785
 30
0.0
 11
6820.2303306775
 21
5134.4651492785
 31
0.0
  0
LINE
  5
DE
330
1F
100
AcDbEntity
  8
0
  6
Continuous
 62
     7
370
    25
100
AcDbLine
 10
6942.196817704
 20
5357.0998476228
 30
0.0
 11
7030.0746610263
 21
5215.3613906515
 31
0.0
  0
LINE
  5
DF
330
1F
100
AcDbEntity
  8
0
  6
Continuous
 62
     7
370
    25
100
AcDbLine
 10
6820.2303306775
 20
4819.4651492785
 30
0.0
 11
6820.2303306775
 21
5134.4651492785
 31
0.0
  0
LINE
  5
E0
330
1F
100
AcDbEntity
  8
0
  6
Continuous
 62
     7
370
    25
100
AcDbLine
 10
6790.2303306775
 20
4819.4651492785
 30
0.0
 11
6820.2303306775
 21
4819.4651492785
 31
0.0
  0
LINE
  5
E1
330
1F
100
AcDbEntity
  8
0
  6
Continuous
 62
     7
370
    25
100
AcDbLine
 10
6790.2303306775
 20
5134.4651492785
 30
0.0
 11
6790.2303306775
 21
4819.4651492785
 31
0.0
  0
LWPOLYLINE
  5
E2
330
1F
100
AcDbEntity
  8
0
  6
Continuous
 62
     7
370
    25
100
AcDbPolyline
 90
       13
 70
   128
 43
0.0
 10
7084.7054726715
 20
5014.2429224842
 10
7082.4299868669
 20
5019.0237708897
 10
7077.2522006008
 20
5029.816795698
 10
7071.7113039108
 20
5041.267514242
 10
7065.9242969609
 20
5053.1478639932
 10
7059.8653119854
 20
5065.5232800772
 10
7053.6455619186
 20
5078.177527962
 10
7047.2365501109
 20
5091.1786279987
 10
7042.0032385388
 20
5101.7739824826
 10
7036.6957651403
 20
5112.506172424
 10
7031.2974641312
 20
5123.4131360477
 10
7025.8620288858
 20
5134.3906680011
 10
7025.8251475677
 20
5134.4651492785
  0
LINE
  5
E3
330
1F
100
AcDbEntity
  8
0
  6
Continuous
 62
     7
370
    25
100
AcDbLine
 10
7084.7054726715
 20
5014.2429224842
 30
0.0
 11
7082.1975854743
 21
5008.1661188908
 31
0.0
  0
LWPOLYLINE
  5
E4
330
1F
100
AcDbEntity
  8
0
  6
Continuous
 62
     7
370
    25
100
AcDbPolyline
 90
        5
 70
   128
 43
0.0
 10
6820.2303306775
 20
5012.5387244992
 10
6850.6566368248
 20
5011.9883693637
 10
6949.6331742169
 20
5010.2704323268
 10
7048.6160107125
 20
5008.6765356036
 10
7082.1975854743
 20
5008.1661188908
  0
LINE
  5
E5
330
1F
100
AcDbEntity
  8
0
  6
Continuous
 62
     7
370
    25
100
AcDbLine
 10
7084.7054726715
 20
5014.2429224842
 30
0.0
 11
7106.1620395299
 21
5066.2338344871
 31
0.0
  0
LWPOLYLINE
  5
E6
330
1F
100
AcDbEntity
  8
0
  6
Continuous
 62
     7
370
    25
100
AcDbPolyline
 90
        5
 70
   128
 43
0.0
 10
7072.477554545
 20
4984.6137362546
 10
7047.8194575272
 20
4983.914503604
 10
6948.6702025659
 20
4981.0161532662
 10
6849.5303119829
 20
4978.0698411669
 10
6820.2303306775
 20
4977.2095179669
  0
LINE
  5
E7
330
1F
100
AcDbEntity
  8
0
  6
Continuous
 62
     7
370
    25
100
AcDbLine
 10
7082.1975854743
 20
5008.1661188908
 30
0.0
 11
7072.477554545
 21
4984.6137362546
 31
0.0
  0
LINE
  5
E8
330
1F
100
AcDbEntity
  8
0
  6
Continuous
 62
     7
370
    25
100
AcDbLine
 10
7004.3209948406
 20
4819.4651492785
 30
0.0
 11
6820.2303306775
 21
4819.4651492785
 31
0.0
  0
LINE
  5
E9
330
1F
100
AcDbEntity
  8
0
  6
Continuous
 62
     7
370
    25
100
AcDbLine
 10
7004.3209948406
 20
4819.4651492785
 30
0.0
 11
7072.477554545
 21
4984.6137362546
 31
0.0
  0
LWPOLYLINE
  5
EA
330
1F
100
AcDbEntity
  8
0
  6
Continuous
 62
     8
370
    25
100
AcDbPolyline
 90
       21
 70
   128
 43
0.0
 10
7106.1275615888
 20
5091.2696263169
 10
7106.044542662
 20
5091.4012093928
 10
7105.376604863
 20
5092.4596764077
 10
7104.128883085
 20
5094.4359870737
 10
7102.3026570499
 20
5097.3263410299
 10
7100.0375335648
 20
5100.9073613494
 10
7097.2559560595
 20
5105.2983724472
 10
7093.9154193573
 20
5110.5613843942
 10
7090.0591389093
 20
5116.6212265045
 10
7086.0078990796
 20
5122.9668806783
 10
7081.5315121722
 20
5129.9504137257
 10
7076.5771476565
 20
5137.6399323457
 10
7071.2141030702
 20
5145.9089289007
 10
7065.8951110184
 20
5154.0444826461
 10
7060.2152495654
 20
5162.6490495276
 10
7054.220481701
 20
5171.6262145586
 10
7047.8849761109
 20
5180.9879468154
 10
7042.4395399044
 20
5188.9310321615
 10
7036.8303405109
 20
5197.0230124375
 10
7031.3669818051
 20
5204.8372367699
 10
7025.8251475677
 20
5212.7266923072
  0
LWPOLYLINE
  5
EB
330
1F
100
AcDbEntity
  8
0
  6
Continuous
 62
     7
370
    25
100
AcDbPolyline
 90
       15
 70
   128
 43
0.0
 10
6266.2789440087
 20
4465.3480215136
 10
6266.4041636894
 20
4465.3593094186
 10
6268.2712897092
 20
4465.4247037257
 10
6270.8551820059
 20
4465.4258026334
 10
6274.7695501252
 20
4465.4133407679
 10
6281.1369670181
 20
4465.4417549883
 10
6340.4502969009
 20
4465.639083408
 10
6394.5454848086
 20
4465.6840669275
 10
6451.4395779121
 20
4465.575591028
 10
6481.0765792797
 20
4465.4662400497
 10
6492.3026450958
 20
4465.417242981
 10
6496.6290033664
 20
4465.4352076179
 10
6499.6719217404
 20
4465.4226264425
 10
6501.6374656236
 20
4465.3484035331
 10
6501.6525779403
 20
4465.3470243069
  0
LWPOLYLINE
  5
EC
330
1F
100
AcDbEntity
  8
0
  6
Continuous
 62
     7
370
    25
100
AcDbPolyline
 90
       10
 70
   128
 43
0.0
 10
6501.651773201
 20
4465.3390017319
 10
6503.0902068563
 20
4465.2228835329
 10
6504.7678304027
 20
4464.9516439636
 10
6506.290330464
 20
4464.5670776407
 10
6507.587662882
 20
4464.1031274108
 10
6508.6066353107
 20
4463.6083100244
 10
6509.3358872087
 20
4463.1347569279
 10
6509.7944595599
 20
4462.7335100859
 10
6510.0069591383
 20
4462.4738754104
 10
6510.0202371938
 20
4462.4513674175
  0
LWPOLYLINE
  5
ED
330
1F
100
AcDbEntity
  8
0
  6
Continuous
 62
     7
370
    25
100
AcDbPolyline
 90
       11
 70
   128
 43
0.0
 10
6257.8982344584
 20
4462.4277180146
 10
6257.9038664106
 20
4462.4381963133
 10
6258.0654886521
 20
4462.6529274068
 10
6258.4791535289
 20
4463.0419226805
 10
6259.159580858
 20
4463.5118317617
 10
6260.1113276802
 20
4464.0024809235
 10
6261.294717834
 20
4464.4569874854
 10
6262.6901415724
 20
4464.8470843702
 10
6264.2862129359
 20
4465.1486571644
 10
6266.0237321761
 20
4465.3316747204
 10
6266.2749286265
 20
4465.3404867332
  0
LINE
  5
EE
330
1F
100
AcDbEntity
  8
0
  6
Continuous
 62
     7
370
    25
100
AcDbLine
 10
6506.4657626555
 20
4612.5601290938
 30
0.0
 11
6536.4657626555
 21
4612.5601290938
 31
0.0
  0
LINE
  5
EF
330
1F
100
AcDbEntity
  8
0
  6
Continuous
 62
     7
370
    25
100
AcDbLine
 10
6536.4657626555
 20
4612.5601290938
 30
0.0
 11
6536.4657626555
 21
4464.8431555258
 31
0.0
  0
LWPOLYLINE
  5
F0
330
1F
100
AcDbEntity
  8
0
  6
Continuous
 62
     7
370
    25
100
AcDbPolyline
 90
       14
 70
   128
 43
0.0
 10
6506.4657626555
 20
4480.3431555258
 10
6510.3463826333
 20
4480.3199106934
 10
6514.2154817252
 20
4480.1946308253
 10
6518.1498358529
 20
4479.8859722828
 10
6521.9652007948
 20
4479.3629484409
 10
6525.0870595636
 20
4478.7220800818
 10
6528.0047456651
 20
4477.8862763249
 10
6530.5240103651
 20
4476.8628079861
 10
6532.5878759648
 20
4475.59534194
 10
6534.4051915858
 20
4473.7519033528
 10
6535.5683629865
 20
4471.6466796555
 10
6536.1706858858
 20
4469.5333559488
 10
6536.4223752224
 20
4467.3147755914
 10
6536.4657626555
 20
4464.8431555258
  0
LINE
  5
F1
330
1F
100
AcDbEntity
  8
0
  6
Continuous
 62
     7
370
    25
100
AcDbLine
 10
6506.4657626555
 20
4480.3431555258
 30
0.0
 11
6506.4657626555
 21
4612.5601290938
 31
0.0
  0
LWPOLYLINE
  5
F2
330
1F
100
AcDbEntity
  8
0
  6
Continuous
 62
     7
370
    25
100
AcDbPolyline
 90
       12
 70
   128
 43
0.0
 10
6531.4657626555
 20
4460.5936420672
 10
6531.3605787049
 20
4463.9954041321
 10
6530.6748813023
 20
4467.397166197
 10
6529.7744854751
 20
4469.3982364642
 10
6528.30487203
 20
4471.3458284814
 10
6526.8863459206
 20
4472.5545260914
 10
6524.9990369061
 20
4473.6367628664
 10
6522.8327831967
 20
4474.4689162318
 10
6520.3513662349
 20
4475.1134349824
 10
6516.6259499546
 20
4475.7016156212
 10
6512.6796851308
 20
4475.9997639534
 10
6506.4657626555
 20
4476.0936420672
  0
LINE
  5
F3
330
1F
100
AcDbEntity
  8
0
  6
Continuous
 62
     7
370
    25
100
AcDbLine
 10
6506.4657626555
 20
4476.0936420672
 30
0.0
 11
6506.4657626555
 21
4480.3431555258
 31
0.0
  0
ARC
  5
F4
330
1F
100
AcDbEntity
  8
0
  6
Continuous
 62
     7
370
    25
100
AcDbCircle
 10
6531.8128444238
 20
4465.2515337692
 30
0.0
 40
4.670805161936181
100
AcDbArc
 50
265.738493309
 51
354.9841059656
  0
LINE
  5
F5
330
1F
100
AcDbEntity
  8
0
  6
Continuous
 62
     7
370
    25
100
AcDbLine
 10
6231.4657626555
 20
4612.5601290938
 30
0.0
 11
6261.4657626555
 21
4612.5601290938
 31
0.0
  0
LINE
  5
F6
330
1F
100
AcDbEntity
  8
0
  6
Continuous
 62
     7
370
    25
100
AcDbLine
 10
6261.4657626555
 20
4612.5601290938
 30
0.0
 11
6261.4657626555
 21
4480.3431555258
 31
0.0
  0
LWPOLYLINE
  5
F7
330
1F
100
AcDbEntity
  8
0
  6
Continuous
 62
     7
370
    25
100
AcDbPolyline
 90
       13
 70
   128
 43
0.0
 10
6231.4657626555
 20
4464.8431555258
 10
6231.5765488747
 20
4468.2218581651
 10
6232.2751911145
 20
4471.4175234733
 10
6233.1949750847
 20
4473.2713198003
 10
6234.6495702143
 20
4475.008085617
 10
6236.2541408666
 20
4476.2248998536
 10
6238.3768509544
 20
4477.3033676409
 10
6240.9163401502
 20
4478.2016496342
 10
6243.888213143
 20
4478.9611353295
 10
6247.652076052
 20
4479.6255934081
 10
6251.6876371513
 20
4480.0620134443
 10
6256.5426839268
 20
4480.3014291105
 10
6261.4657626555
 20
4480.3431555258
  0
LINE
  5
F8
330
1F
100
AcDbEntity
  8
0
  6
Continuous
 62
     7
370
    25
100
AcDbLine
 10
6231.4657626555
 20
4464.8431555257
 30
0.0
 11
6231.4657626555
 21
4612.5601290938
 31
0.0
  0
LWPOLYLINE
  5
F9
330
1F
100
AcDbEntity
  8
0
  6
Continuous
 62
     7
370
    25
100
AcDbPolyline
 90
       21
 70
   128
 43
0.0
 10
6261.4657626555
 20
4476.0936420672
 10
6259.2007822279
 20
4476.0888889641
 10
6256.9358018003
 20
4476.056512349
 10
6254.6675938244
 20
4475.9716128787
 10
6252.4058409451
 20
4475.8124999858
 10
6250.7524523266
 20
4475.6363492938
 10
6247.4962490766
 20
4475.095574201
 10
6245.9207180551
 20
4474.7116218709
 10
6244.8158227027
 20
4474.3774124316
 10
6242.7513231507
 20
4473.5507338695
 10
6241.8199684976
 20
4473.0538541824
 10
6241.0199762843
 20
4472.5366940835
 10
6239.6622687763
 20
4471.3822958808
 10
6239.1005978026
 20
4470.7585721584
 10
6238.4647163522
 20
4469.8967163939
 10
6237.5175073692
 20
4468.0948746158
 10
6237.181631259
 20
4467.1680100147
 10
6236.7800233566
 20
4465.5439826667
 10
6236.5628483873
 20
4463.903748206
 10
6236.4782855712
 20
4462.2495559015
 10
6236.4657626555
 20
4460.5936420672
  0
ARC
  5
FA
330
1F
100
AcDbEntity
  8
0
  6
Continuous
 62
     7
370
    25
100
AcDbCircle
 10
6236.1186808872
 20
4465.2515337692
 30
0.0
 40
4.670805161937529
100
AcDbArc
 50
185.0158940344
 51
274.261506691
  0
LINE
  5
FB
330
1F
100
AcDbEntity
  8
0
  6
Continuous
 62
     7
370
    25
100
AcDbLine
 10
6261.4657626555
 20
4476.0936420672
 30
0.0
 11
6261.4657626555
 21
4480.3431555258
 31
0.0
  0
LINE
  5
FC
330
1F
100
AcDbEntity
  8
0
  6
Continuous
 62
     7
370
    25
100
AcDbLine
 10
6506.4657626555
 20
4612.5601290938
 30
0.0
 11
6261.4657626555
 21
4612.5601290938
 31
0.0
  0
LINE
  5
FD
330
1F
100
AcDbEntity
  8
0
  6
Continuous
 62
     7
370
    25
100
AcDbLine
 10
6261.4657626555
 20
4480.3431555258
 30
0.0
 11
6506.4657626555
 21
4480.3431555258
 31
0.0
  0
LINE
  5
FE
330
1F
100
AcDbEntity
  8
0
  6
Continuous
 62
     7
370
    25
100
AcDbLine
 10
6506.4657626555
 20
4476.0936420672
 30
0.0
 11
6261.4657626555
 21
4476.0936420672
 31
0.0
  0
LINE
  5
FF
330
1F
100
AcDbEntity
  8
0
  6
Continuous
 62
     7
370
    25
100
AcDbLine
 10
6531.4657626555
 20
4372.715798745
 30
0.0
 11
6531.4657626555
 21
4460.5936420672
 31
0.0
  0
LWPOLYLINE
  5
100
330
1F
100
AcDbEntity
  8
0
  6
Continuous
 62
     7
370
    25
100
AcDbPolyline
 90
       38
 70
   128
 43
0.0
 10
6236.4657626555
 20
4372.715798745
 10
6237.0613139078
 20
4366.0855456095
 10
6238.8246462346
 20
4359.4983760312
 10
6241.7207774912
 20
4353.0377765401
 10
6245.2623992595
 20
4347.3818146868
 10
6249.6534947153
 20
4341.8935713528
 10
6255.0072735156
 20
4336.4689724371
 10
6261.1719654078
 20
4331.288785433
 10
6268.2377509215
 20
4326.2973097429
 10
6276.0442353884
 20
4321.6221418355
 10
6284.7784633229
 20
4317.1802965203
 10
6294.1740258013
 20
4313.1304099474
 10
6304.2335590905
 20
4309.4775870458
 10
6314.8271900214
 20
4306.2712317658
 10
6326.2024647875
 20
4303.4630722072
 10
6337.984703614
 20
4301.1675809531
 10
6349.9221051242
 20
4299.4228335178
 10
6362.0920915323
 20
4298.203235399
 10
6374.7678367972
 20
4297.506885852
 10
6387.5099978741
 20
4297.3795862262
 10
6399.9312067772
 20
4297.8073783454
 10
6412.2424096245
 20
4298.7760818951
 10
6424.7064920414
 20
4300.3328156841
 10
6436.8728234659
 20
4302.4445742358
 10
6448.3208036604
 20
4305.0154061457
 10
6459.323260473
 20
4308.0790780365
 10
6470.1001229253
 20
4311.7278041558
 10
6480.2413434648
 20
4315.8514496037
 10
6489.3577891374
 20
4320.2596379801
 10
6497.7413302499
 20
4325.0546784314
 10
6505.5404451199
 20
4330.365786191
 10
6512.4285712457
 20
4336.0156587399
 10
6518.0939745586
 20
4341.6888317439
 10
6522.8213593031
 20
4347.5955479021
 10
6526.6610882844
 20
4353.8908083168
 10
6529.4055257923
 20
4360.3428690995
 10
6530.9475013092
 20
4366.505726104
 10
6531.4657626555
 20
4372.715798745
  0
LINE
  5
101
330
1F
100
AcDbEntity
  8
0
  6
Continuous
 62
     7
370
    25
100
AcDbLine
 10
6236.4657626555
 20
4460.5936420672
 30
0.0
 11
6236.4657626555
 21
4372.715798745
 31
0.0
  0
LWPOLYLINE
  5
102
330
1F
100
AcDbEntity
  8
0
  6
Continuous
 62
     7
370
    25
100
AcDbPolyline
 90
        7
 70
   128
 43
0.0
 10
6262.1566688095
 20
4355.2003302574
 10
6259.2337562724
 20
4358.0511408514
 10
6256.8578197873
 20
4361.0770723131
 10
6255.3674894947
 20
4363.6493697908
 10
6254.3104626068
 20
4366.2804689633
 10
6253.7166353865
 20
4369.0380498895
 10
6253.5360624149
 20
4371.8142590738
  0
LWPOLYLINE
  5
103
330
1F
100
AcDbEntity
  8
0
  6
Continuous
 62
     7
370
    25
100
AcDbPolyline
 90
       28
 70
   128
 43
0.0
 10
6505.7748565031
 20
4355.2003302673
 10
6501.3088652358
 20
4351.7793396857
 10
6496.4023649687
 20
4348.4739957128
 10
6491.1972332906
 20
4345.2979930173
 10
6485.6635699235
 20
4342.2358745603
 10
6477.1526401475
 20
4338.0591126885
 10
6468.0477514115
 20
4334.1953082745
 10
6458.2705160076
 20
4330.6371070696
 10
6447.9474538574
 20
4327.4638160117
 10
6437.9448972886
 20
4324.9069344003
 10
6427.4392154511
 20
4322.7284996838
 10
6416.6370475296
 20
4321.0007116834
 10
6405.4125160205
 20
4319.7370561469
 10
6394.3501770274
 20
4319.008182618
 10
6383.2102658022
 20
4318.7851931045
 10
6370.4286662074
 20
4319.163771257
 10
6357.6547230559
 20
4320.2192714405
 10
6344.7604374024
 20
4321.9846884908
 10
6332.1304870588
 20
4324.4212443688
 10
6321.6146086295
 20
4327.013458777
 10
6311.4501033709
 20
4330.0460251138
 10
6301.5770444895
 20
4333.537668062
 10
6292.1731275696
 20
4337.4296008409
 10
6283.8945824564
 20
4341.3905353608
 10
6276.1133869854
 20
4345.6608548246
 10
6268.7992474928
 20
4350.2719571223
 10
6265.3417441028
 20
4352.6866472145
 10
6262.1566688095
 20
4355.2003302574
  0
LWPOLYLINE
  5
104
330
1F
100
AcDbEntity
  8
0
  6
Continuous
 62
     7
370
    25
100
AcDbPolyline
 90
        6
 70
   128
 43
0.0
 10
6514.3954628961
 20
4371.8142590736
 10
6514.3172933346
 20
4369.6974094515
 10
6513.9749564932
 20
4367.5814618461
 10
6512.4159878994
 20
4363.3525519728
 10
6509.6779864447
 20
4359.1939022525
 10
6505.7748565031
 20
4355.2003302673
  0
LWPOLYLINE
  5
105
330
1F
100
AcDbEntity
  8
0
  6
Continuous
 62
     7
370
    25
100
AcDbPolyline
 90
        8
 70
   128
 43
0.0
 10
6514.8739631499
 20
4459.4467720329
 10
6515.1964895544
 20
4456.922238559
 10
6515.1136776646
 20
4454.3822975609
 10
6514.9982349621
 20
4451.8422959751
 10
6514.9727916564
 20
4444.2270713517
 10
6514.9037792959
 20
4429.0076212976
 10
6514.7005432284
 20
4400.4108641465
 10
6514.3954628961
 20
4371.8142590736
  0
LWPOLYLINE
  5
106
330
1F
100
AcDbEntity
  8
0
  6
Continuous
 62
     7
370
    25
100
AcDbPolyline
 90
        9
 70
   128
 43
0.0
 10
6501.9224134287
 20
4466.0901019833
 10
6504.1770788105
 20
4465.8755524518
 10
6506.3405619939
 20
4465.4788967793
 10
6508.4857923929
 20
4464.860856707
 10
6510.4040971685
 20
4464.0621540945
 10
6512.0706769378
 20
4463.0769719433
 10
6513.3937733931
 20
4461.9560078797
 10
6514.3324129288
 20
4460.7341043772
 10
6514.8739631499
 20
4459.4467720329
  0
LWPOLYLINE
  5
107
330
1F
100
AcDbEntity
  8
0
  6
Continuous
 62
     7
370
    25
100
AcDbPolyline
 90
       11
 70
   128
 43
0.0
 10
6266.0091118815
 20
4466.0901019833
 10
6276.4563295294
 20
4466.4283121785
 10
6286.9364854309
 20
4466.4535817719
 10
6297.4298873204
 20
4466.3490164862
 10
6307.9168429321
 20
4466.2977220443
 10
6349.843311571
 20
4466.4077477117
 10
6410.625204379
 20
4466.4191943722
 10
6471.4081737227
 20
4466.2558209657
 10
6486.6655713618
 20
4466.1928526018
 10
6494.3036133245
 20
4466.2343118244
 10
6501.9224134287
 20
4466.0901019833
  0
LWPOLYLINE
  5
108
330
1F
100
AcDbEntity
  8
0
  6
Continuous
 62
     7
370
    25
100
AcDbPolyline
 90
        9
 70
   128
 43
0.0
 10
6253.0575621611
 20
4459.4467720326
 10
6253.5722312089
 20
4460.6884637443
 10
6254.4565005297
 20
4461.8705712903
 10
6255.7092182269
 20
4462.9682667124
 10
6257.2890905506
 20
4463.9413709844
 10
6259.1770242316
 20
4464.764879768
 10
6261.3009354352
 20
4465.4095038492
 10
6263.6006872441
 20
4465.8536293228
 10
6266.0091118815
 20
4466.0901019833
  0
LWPOLYLINE
  5
109
330
1F
100
AcDbEntity
  8
0
  6
Continuous
 62
     7
370
    25
100
AcDbPolyline
 90
        8
 70
   128
 43
0.0
 10
6253.5360624149
 20
4371.8142590738
 10
6253.2342813443
 20
4400.0412264856
 10
6253.0317520841
 20
4428.2685327993
 10
6252.9603726578
 20
4443.7894216284
 10
6252.9339583045
 20
4451.6180183642
 10
6252.8139628238
 20
4454.2329303499
 10
6252.7266351525
 20
4456.8477842871
 10
6253.0575621611
 20
4459.4467720326
  0
LINE
  5
10A
330
1F
100
AcDbEntity
  8
0
  6
Continuous
 62
     7
370
    25
100
AcDbLine
 10
6509.9140864408
 20
4462.388045784
 30
0.0
 11
6509.8709480008
 21
4462.4604213834
 31
0.0
  0
ARC
  5
10B
330
1F
100
AcDbEntity
  8
0
  6
Continuous
 62
     7
370
    25
100
AcDbCircle
 10
6514.3132962536
 20
4464.0373624377
 30
0.0
 40
4.624701896666015
100
AcDbArc
 50
209.3944373532
 51
276.9632729785
  0
LINE
  5
10C
330
1F
100
AcDbEntity
  8
0
  6
Continuous
 62
     7
370
    25
100
AcDbLine
 10
6258.0507440744
 20
4462.4614331405
 30
0.0
 11
6257.997471737
 21
4462.3697418998
 31
0.0
  0
ARC
  5
10D
330
1F
100
AcDbEntity
  8
0
  6
Continuous
 62
     7
370
    25
100
AcDbCircle
 10
6253.6182290573
 20
4464.0373624375
 30
0.0
 40
4.624701896768258
100
AcDbArc
 50
263.0367270227
 51
330.6055626476
  0
ARC
  5
10E
330
1F
100
AcDbEntity
  8
0
  6
Continuous
 62
     7
370
    25
100
AcDbCircle
 10
6383.9657626555
 20
4456.4853172072
 30
0.0
 40
25.00000000000045
100
AcDbArc
 50
270.0
 51
21.6551059647
  0
ARC
  5
10F
330
1F
100
AcDbEntity
  8
0
  6
Continuous
 62
     7
370
    25
100
AcDbCircle
 10
6383.9657626555
 20
4456.4853172072
 30
0.0
 40
25.0
100
AcDbArc
 50
158.3550102472
 51
270.0
  0
LWPOLYLINE
  5
110
330
1F
100
AcDbEntity
  8
0
  6
Continuous
 62
     7
370
    25
100
AcDbPolyline
 90
        3
 70
   128
 43
0.0
 10
6499.2830497757
 20
4358.6279025488
 10
6499.2830847637
 20
4358.627923721
 10
6501.556823225
 20
4360.1203052745
  0
LWPOLYLINE
  5
111
330
1F
100
AcDbEntity
  8
0
  6
Continuous
 62
     7
370
    25
100
AcDbPolyline
 90
       28
 70
   128
 43
0.0
 10
6268.6484755353
 20
4358.6279025488
 10
6268.6485104048
 20
4358.6278787204
 10
6274.602517672
 20
4354.822398706
 10
6281.0296742622
 20
4351.2128943008
 10
6287.9587063176
 20
4347.7817505073
 10
6295.3282099681
 20
4344.5620124467
 10
6304.1200269389
 20
4341.2028256786
 10
6313.434410306
 20
4338.1336775709
 10
6323.3657795767
 20
4335.3535479796
 10
6333.794754299
 20
4332.9338096325
 10
6337.42515705
 20
4332.2051840776
 10
6348.2606045314
 20
4330.3674408343
 10
6359.4838641082
 20
4328.9848387945
 10
6371.236749259
 20
4328.0928236563
 10
6383.2333492395
 20
4327.7630664688
 10
6393.9910726886
 20
4327.9673083524
 10
6404.7549284666
 20
4328.6437487064
 10
6415.2663357308
 20
4329.7623159737
 10
6425.6169918247
 20
4331.3139864398
 10
6435.8799861115
 20
4333.3042206822
 10
6445.8433220489
 20
4335.6843395064
 10
6455.5187697933
 20
4338.44765399
 10
6464.7924580521
 20
4341.5541884803
 10
6473.7169887605
 20
4345.0232171942
 10
6482.1503209554
 20
4348.8142726783
 10
6491.0925813427
 20
4353.5138590589
 10
6499.2830148638
 20
4358.6278786913
 10
6499.2830497757
 20
4358.6279025488
  0
LWPOLYLINE
  5
112
330
1F
100
AcDbEntity
  8
0
  6
Continuous
 62
     7
370
    25
100
AcDbPolyline
 90
        3
 70
   128
 43
0.0
 10
6266.3747020823
 20
4360.1203052933
 10
6268.6484405048
 20
4358.6279237468
 10
6268.6484755353
 20
4358.6279025488
  0
LWPOLYLINE
  5
113
330
1F
100
AcDbEntity
  8
0
  6
Continuous
 62
     7
370
    25
100
AcDbPolyline
 90
        9
 70
   128
 43
0.0
 10
6257.9093466019
 20
4373.1600833441
 10
6257.9093480752
 20
4373.1600534317
 10
6258.200745443
 20
4371.0134124413
 10
6258.8619988743
 20
4368.8993331616
 10
6259.9067196028
 20
4366.8062161346
 10
6261.3185611343
 20
4364.7839600595
 10
6263.2893799152
 20
4362.6499100146
 10
6265.6711478104
 20
4360.6368305228
 10
6266.3747020823
 20
4360.1203052933
  0
LINE
  5
114
330
1F
100
AcDbEntity
  8
0
  6
Continuous
 62
     7
370
    25
100
AcDbLine
 10
6257.9063829237
 20
4374.0143768784
 30
0.0
 11
6257.9093466019
 21
4373.1600833441
 31
0.0
  0
LWPOLYLINE
  5
115
330
1F
100
AcDbEntity
  8
0
  6
Continuous
 62
     7
370
    25
100
AcDbPolyline
 90
        5
 70
   128
 43
0.0
 10
6257.6361730574
 20
4461.186685536
 10
6257.6361730996
 20
4461.1866543751
 10
6257.6612465257
 20
4446.5960968957
 10
6257.6997609396
 20
4431.0025165308
 10
6257.9063829237
 20
4374.0143768784
  0
LWPOLYLINE
  5
116
330
1F
100
AcDbEntity
  8
0
  6
Continuous
 62
     7
370
    25
100
AcDbPolyline
 90
        3
 70
   128
 43
0.0
 10
6257.647553617
 20
4461.7674700994
 10
6257.6361694034
 20
4461.1867079184
 10
6257.6361730574
 20
4461.186685536
  0
LWPOLYLINE
  5
117
330
1F
100
AcDbEntity
  8
0
  6
Continuous
 62
     7
370
    25
100
AcDbPolyline
 90
        3
 70
   128
 43
0.0
 10
6510.2953522537
 20
4461.186685536
 10
6510.2953558463
 20
4461.1867075425
 10
6510.283971694
 20
4461.7674700996
  0
LWPOLYLINE
  5
118
330
1F
100
AcDbEntity
  8
0
  6
Continuous
 62
     7
370
    25
100
AcDbPolyline
 90
        5
 70
   128
 43
0.0
 10
6510.0251423873
 20
4374.0143768783
 10
6510.2338678109
 20
4431.7457166293
 10
6510.2711890852
 20
4447.0353985771
 10
6510.2953522107
 20
4461.1866538429
 10
6510.2953522537
 20
4461.186685536
  0
LINE
  5
119
330
1F
100
AcDbEntity
  8
0
  6
Continuous
 62
     7
370
    25
100
AcDbLine
 10
6510.0221787091
 20
4373.1600833441
 30
0.0
 11
6510.0251423873
 21
4374.0143768783
 31
0.0
  0
LWPOLYLINE
  5
11A
330
1F
100
AcDbEntity
  8
0
  6
Continuous
 62
     7
370
    25
100
AcDbPolyline
 90
        6
 70
   128
 43
0.0
 10
6501.556823225
 20
4360.1203052745
 10
6505.1989886804
 20
4363.1977901732
 10
6507.9340918378
 20
4366.6560694973
 10
6509.401757219
 20
4369.8113473059
 10
6510.0221772342
 20
4373.1600533993
 10
6510.0221787091
 20
4373.1600833441
  0
LINE
  5
11B
330
1F
100
AcDbEntity
  8
0
  6
Continuous
 62
     7
370
    25
100
AcDbLine
 10
6231.4657626555
 20
4376.9653122036
 30
0.0
 11
6231.4657626555
 21
4464.8431555258
 31
0.0
  0
ARC
  5
11C
330
1F
100
AcDbEntity
  8
0
  6
Continuous
 62
     7
370
    25
100
AcDbCircle
 10
6236.1186808872
 20
4377.3736904469
 30
0.0
 40
4.670805161939275
100
AcDbArc
 50
185.0158940344
 51
274.261506691
  0
LINE
  5
11D
330
1F
100
AcDbEntity
  8
0
  6
Continuous
 62
     7
370
    25
100
AcDbLine
 10
6536.4657626555
 20
4464.8431555258
 30
0.0
 11
6536.4657626555
 21
4376.9653122036
 31
0.0
  0
ARC
  5
11E
330
1F
100
AcDbEntity
  8
0
  6
Continuous
 62
     7
370
    25
100
AcDbCircle
 10
6531.8128444238
 20
4377.3736904469
 30
0.0
 40
4.670805161937529
100
AcDbArc
 50
265.738493309
 51
354.9841059656
  0
ARC
  5
11F
330
1F
100
AcDbEntity
  8
0
  6
Continuous
 62
     7
370
    25
100
AcDbCircle
 10
6514.2794170706
 20
4377.0244129921
 30
0.0
 40
5.211446103280417
100
AcDbArc
 50
215.2806343206
 51
271.2759386724
  0
ARC
  5
120
330
1F
100
AcDbEntity
  8
0
  6
Continuous
 62
     7
370
    25
100
AcDbCircle
 10
6253.6521082404
 20
4377.0244129922
 30
0.0
 40
5.211446103283993
100
AcDbArc
 50
268.7240613276
 51
324.7193656794
  0
LWPOLYLINE
  5
121
330
1F
100
AcDbEntity
  8
0
  6
Continuous
 62
     7
370
    25
100
AcDbPolyline
 90
       39
 70
   128
 43
0.0
 10
6536.4657626555
 20
4376.9653122036
 10
6535.8865281121
 20
4369.9680965692
 10
6534.1468851047
 20
4363.0050855252
 10
6531.2435169826
 20
4356.1161194482
 10
6527.2231492654
 20
4349.4150277122
 10
6522.0362088399
 20
4342.8449945713
 10
6515.7853617154
 20
4336.559506571
 10
6508.794872635
 20
4330.8048459078
 10
6500.8983974992
 20
4325.3816893966
 10
6492.0052415359
 20
4320.2520095735
 10
6482.2715568059
 20
4315.5316924652
 10
6472.1908302426
 20
4311.419889714
 10
6461.4433196221
 20
4307.7504715353
 10
6449.9238147961
 20
4304.511998062
 10
6437.8487900088
 20
4301.790263747
 10
6425.8395269
 20
4299.6956907982
 10
6413.466136513
 20
4298.1248920689
 10
6400.624677047
 20
4297.0879139515
 10
6387.57231991
 20
4296.6294881035
 10
6375.0030447502
 20
4296.7459171092
 10
6362.4096278293
 20
4297.4138549083
 10
6349.7019685754
 20
4298.6615766863
 10
6337.1467994234
 20
4300.4878027214
 10
6325.4738403823
 20
4302.7529262065
 10
6314.1064801355
 20
4305.5345037118
 10
6302.9789156866
 20
4308.875040414
 10
6292.3326962849
 20
4312.731320862
 10
6282.9117940061
 20
4316.7825606916
 10
6274.0557421673
 20
4321.2589475991
 10
6265.7298047696
 20
4326.2133121148
 10
6258.1218811336
 20
4331.5763567011
 10
6251.7582669986
 20
4336.9129468971
 10
6246.1365849069
 20
4342.5752102058
 10
6241.2897394822
 20
4348.589709322
 10
6237.3245292536
 20
4354.9054836603
 10
6234.7608332944
 20
4360.3509198668
 10
6232.902656039
 20
4365.9601192604
 10
6231.8288430002
 20
4371.4234779662
 10
6231.4657626555
 20
4376.9653122036
  0
ARC
  5
122
330
1F
100
AcDbEntity
  8
0
  6
Continuous
 62
     7
370
    25
100
AcDbCircle
 10
6260.0420813424
 20
4361.2813326198
 30
0.0
 40
6.438172868777382
100
AcDbArc
 50
289.1744372361
 51
349.6107320177
  0
ARC
  5
123
330
1F
100
AcDbEntity
  8
0
  6
Continuous
 62
     7
370
    25
100
AcDbCircle
 10
6507.8894439517
 20
4361.2813326275
 30
0.0
 40
6.438172860555695
100
AcDbArc
 50
190.3892682356
 51
250.8255629129
  0
ARC
  5
124
330
1F
100
AcDbEntity
  8
0
  6
Continuous
 62
     8
370
    25
100
AcDbCircle
 10
6267.1541587944
 20
4466.0812826686
 30
0.0
 40
1.145080876235881
100
AcDbArc
 50
179.5587084573
 51
219.9025777625
  0
ARC
  5
125
330
1F
100
AcDbEntity
  8
0
  6
Continuous
 62
     8
370
    25
100
AcDbCircle
 10
6500.7753448943
 20
4466.0817798293
 30
0.0
 40
1.147098723247421
100
AcDbArc
 50
320.1485640341
 51
0.4156821703
  0
LINE
  5
126
330
1F
100
AcDbEntity
  8
0
  6
Continuous
 62
     8
370
    25
100
AcDbLine
 10
6510.283971694
 20
4461.7674700996
 30
0.0
 11
6509.9140864408
 21
4462.388045784
 31
0.0
  0
LINE
  5
127
330
1F
100
AcDbEntity
  8
0
  6
Continuous
 62
     8
370
    25
100
AcDbLine
 10
6257.997471737
 20
4462.3697418998
 30
0.0
 11
6257.647553617
 21
4461.7674700994
 31
0.0
  0
ENDSEC
  0
SECTION
  2
OBJECTS
  0
DICTIONARY
  5
C
330
0
100
AcDbDictionary
281
     1
  3
ACAD_GROUP
350
D
  3
ACAD_LAYOUT
350
1A
  3
ACAD_MLINESTYLE
350
17
  3
ACAD_PLOTSETTINGS
350
19
  3
ACAD_PLOTSTYLENAME
350
E
  3
ACAD_SCALELIST
350
47
  3
DWGPROPS
350
128
  0
DICTIONARY
  5
D
102
{ACAD_REACTORS
330
C
102
}
330
C
100
AcDbDictionary
281
     1
  0
DICTIONARY
  5
1A
102
{ACAD_REACTORS
330
C
102
}
330
C
100
AcDbDictionary
281
     1
  3
Layout1
350
1E
  3
Layout2
350
26
  3
Model
350
22
  0
DICTIONARY
  5
17
102
{ACAD_REACTORS
330
C
102
}
330
C
100
AcDbDictionary
281
     1
  3
Standard
350
18
  0
DICTIONARY
  5
19
102
{ACAD_REACTORS
330
C
102
}
330
C
100
AcDbDictionary
281
     1
  0
ACDBDICTIONARYWDFLT
  5
E
102
{ACAD_REACTORS
330
C
102
}
330
C
100
AcDbDictionary
281
     1
  3
Normal
350
F
100
AcDbDictionaryWithDefault
340
F
  0
DICTIONARY
  5
47
102
{ACAD_REACTORS
330
C
102
}
330
C
100
AcDbDictionary
281
     1
  3
A0
350
48
  3
A1
350
49
  3
A2
350
4A
  3
A3
350
4B
  3
A4
350
4C
  3
A5
350
4D
  3
A6
350
4E
  3
A7
350
4F
  3
A8
350
50
  3
A9
350
51
  3
B0
350
52
  3
B1
350
53
  3
B2
350
54
  3
B3
350
55
  3
B4
350
56
  3
B5
350
57
  3
B6
350
58
  3
B7
350
59
  3
B8
350
5A
  3
B9
350
5B
  3
C0
350
5C
  3
C1
350
5D
  3
C2
350
5E
  3
C3
350
5F
  3
C4
350
60
  3
C5
350
61
  3
C6
350
62
  3
C7
350
63
  3
C8
350
64
  3
C9
350
65
  3
D0
350
66
  3
D1
350
67
  3
D2
350
68
  0
XRECORD
  5
128
102
{ACAD_REACTORS
330
C
102
}
330
C
100
AcDbXrecord
280
     1
  1
DWGPROPS COOKIE
  2

  3

  4

  6

  7

  8
radek.stransky
  9

300
=
301
=
302
=
303
=
304
=
305
=
306
=
307
=
308
=
309
=
 40
0.0
 41
2459135.46747257
 42
2459135.46747294
  1

 90
        0
  0
LAYOUT
  5
1E
102
{ACAD_REACTORS
330
1A
102
}
330
1A
100
AcDbPlotSettings
  1

  2
none_device
  4

  6

 40
0.0
 41
0.0
 42
0.0
 43
0.0
 44
0.0
 45
0.0
 46
0.0
 47
0.0
 48
0.0
 49
0.0
140
0.0
141
0.0
142
1.0
143
1.0
 70
   688
 72
     1
 73
     0
 74
     5
  7

 75
    16
147
1.0
148
0.0
149
0.0
100
AcDbLayout
  1
Layout1
 70
     1
 71
     1
 10
0.0
 20
0.0
 11
420.0
 21
297.0
 12
0.0
 22
0.0
 32
0.0
 14
1.0000000000E+20
 24
1.0000000000E+20
 34
1.0000000000E+20
 15
-1.0000000000E+20
 25
-1.0000000000E+20
 35
-1.0000000000E+20
146
0.0
 13
0.0
 23
0.0
 33
0.0
 16
1.0
 26
0.0
 36
0.0
 17
0.0
 27
1.0
 37
0.0
 76
     0
330
1B
  0
LAYOUT
  5
26
102
{ACAD_REACTORS
330
1A
102
}
330
1A
100
AcDbPlotSettings
  1

  2
none_device
  4

  6

 40
0.0
 41
0.0
 42
0.0
 43
0.0
 44
0.0
 45
0.0
 46
0.0
 47
0.0
 48
0.0
 49
0.0
140
0.0
141
0.0
142
1.0
143
1.0
 70
   688
 72
     1
 73
     0
 74
     5
  7

 75
    16
147
1.0
148
0.0
149
0.0
100
AcDbLayout
  1
Layout2
 70
     1
 71
     2
 10
0.0
 20
0.0
 11
0.0
 21
0.0
 12
0.0
 22
0.0
 32
0.0
 14
0.0
 24
0.0
 34
0.0
 15
0.0
 25
0.0
 35
0.0
146
0.0
 13
0.0
 23
0.0
 33
0.0
 16
1.0
 26
0.0
 36
0.0
 17
0.0
 27
1.0
 37
0.0
 76
     0
330
23
  0
LAYOUT
  5
22
102
{ACAD_REACTORS
330
1A
102
}
330
1A
100
AcDbPlotSettings
  1

  2
none_device
  4
Letter_(8.50_x_11.00_Inches)
  6

 40
6.35
 41
6.35
 42
6.35000508
 43
6.35000508
 44
215.9
 45
279.4
 46
0.0
 47
0.0
 48
0.0
 49
0.0
140
0.0
141
0.0
142
1.0
143
1.0
 70
  1712
 72
     1
 73
     0
 74
     0
  7

 75
     0
147
1.0
148
0.0
149
0.0
100
AcDbLayout
  1
Model
 70
     1
 71
     0
 10
0.0
 20
0.0
 11
20000.0
 21
10000.0
 12
0.0
 22
0.0
 32
0.0
 14
0.0
 24
0.0
 34
0.0
 15
20000.0
 25
10000.0
 35
0.0
146
0.0
 13
0.0
 23
0.0
 33
0.0
 16
1.0
 26
0.0
 36
0.0
 17
0.0
 27
1.0
 37
0.0
 76
     0
330
1F
331
29
  0
MLINESTYLE
  5
18
102
{ACAD_REACTORS
330
17
102
}
330
17
100
AcDbMlineStyle
  2
Standard
 70
     0
  3

 62
   256
 51
90.0
 52
90.0
 71
     2
 49
0.5
 62
   256
  6
BYLAYER
 49
-0.5
 62
   256
  6
BYLAYER
  0
ACDBPLACEHOLDER
  5
F
102
{ACAD_REACTORS
330
E
102
}
330
E
  0
SCALE
  5
48
102
{ACAD_REACTORS
330
47
102
}
330
47
100
AcDbScale
 70
     0
300
1:1
140
1.0
141
1.0
290
     1
  0
SCALE
  5
49
102
{ACAD_REACTORS
330
47
102
}
330
47
100
AcDbScale
 70
     0
300
1:2
140
1.0
141
2.0
290
     0
  0
SCALE
  5
4A
102
{ACAD_REACTORS
330
47
102
}
330
47
100
AcDbScale
 70
     0
300
1:4
140
1.0
141
4.0
290
     0
  0
SCALE
  5
4B
102
{ACAD_REACTORS
330
47
102
}
330
47
100
AcDbScale
 70
     0
300
1:5
140
1.0
141
5.0
290
     0
  0
SCALE
  5
4C
102
{ACAD_REACTORS
330
47
102
}
330
47
100
AcDbScale
 70
     0
300
1:8
140
1.0
141
8.0
290
     0
  0
SCALE
  5
4D
102
{ACAD_REACTORS
330
47
102
}
330
47
100
AcDbScale
 70
     0
300
1:10
140
1.0
141
10.0
290
     0
  0
SCALE
  5
4E
102
{ACAD_REACTORS
330
47
102
}
330
47
100
AcDbScale
 70
     0
300
1:16
140
1.0
141
16.0
290
     0
  0
SCALE
  5
4F
102
{ACAD_REACTORS
330
47
102
}
330
47
100
AcDbScale
 70
     0
300
1:20
140
1.0
141
20.0
290
     0
  0
SCALE
  5
50
102
{ACAD_REACTORS
330
47
102
}
330
47
100
AcDbScale
 70
     0
300
1:30
140
1.0
141
30.0
290
     0
  0
SCALE
  5
51
102
{ACAD_REACTORS
330
47
102
}
330
47
100
AcDbScale
 70
     0
300
1:40
140
1.0
141
40.0
290
     0
  0
SCALE
  5
52
102
{ACAD_REACTORS
330
47
102
}
330
47
100
AcDbScale
 70
     0
300
1:50
140
1.0
141
50.0
290
     0
  0
SCALE
  5
53
102
{ACAD_REACTORS
330
47
102
}
330
47
100
AcDbScale
 70
     0
300
1:100
140
1.0
141
100.0
290
     0
  0
SCALE
  5
54
102
{ACAD_REACTORS
330
47
102
}
330
47
100
AcDbScale
 70
     0
300
2:1
140
2.0
141
1.0
290
     0
  0
SCALE
  5
55
102
{ACAD_REACTORS
330
47
102
}
330
47
100
AcDbScale
 70
     0
300
4:1
140
4.0
141
1.0
290
     0
  0
SCALE
  5
56
102
{ACAD_REACTORS
330
47
102
}
330
47
100
AcDbScale
 70
     0
300
8:1
140
8.0
141
1.0
290
     0
  0
SCALE
  5
57
102
{ACAD_REACTORS
330
47
102
}
330
47
100
AcDbScale
 70
     0
300
10:1
140
10.0
141
1.0
290
     0
  0
SCALE
  5
58
102
{ACAD_REACTORS
330
47
102
}
330
47
100
AcDbScale
 70
     0
300
100:1
140
100.0
141
1.0
290
     0
  0
SCALE
  5
59
102
{ACAD_REACTORS
330
47
102
}
330
47
100
AcDbScale
 70
     0
300
1/128" = 1'-0"
140
0.0078125
141
12.0
290
     0
  0
SCALE
  5
5A
102
{ACAD_REACTORS
330
47
102
}
330
47
100
AcDbScale
 70
     0
300
1/64" = 1'-0"
140
0.015625
141
12.0
290
     0
  0
SCALE
  5
5B
102
{ACAD_REACTORS
330
47
102
}
330
47
100
AcDbScale
 70
     0
300
1/32" = 1'-0"
140
0.03125
141
12.0
290
     0
  0
SCALE
  5
5C
102
{ACAD_REACTORS
330
47
102
}
330
47
100
AcDbScale
 70
     0
300
1/16" = 1'-0"
140
0.0625
141
12.0
290
     0
  0
SCALE
  5
5D
102
{ACAD_REACTORS
330
47
102
}
330
47
100
AcDbScale
 70
     0
300
3/32" = 1'-0"
140
0.09375
141
12.0
290
     0
  0
SCALE
  5
5E
102
{ACAD_REACTORS
330
47
102
}
330
47
100
AcDbScale
 70
     0
300
1/8" = 1'-0"
140
0.125
141
12.0
290
     0
  0
SCALE
  5
5F
102
{ACAD_REACTORS
330
47
102
}
330
47
100
AcDbScale
 70
     0
300
3/16" = 1'-0"
140
0.1875
141
12.0
290
     0
  0
SCALE
  5
60
102
{ACAD_REACTORS
330
47
102
}
330
47
100
AcDbScale
 70
     0
300
1/4" = 1'-0"
140
0.25
141
12.0
290
     0
  0
SCALE
  5
61
102
{ACAD_REACTORS
330
47
102
}
330
47
100
AcDbScale
 70
     0
300
3/8" = 1'-0"
140
0.375
141
12.0
290
     0
  0
SCALE
  5
62
102
{ACAD_REACTORS
330
47
102
}
330
47
100
AcDbScale
 70
     0
300
1/2" = 1'-0"
140
0.5
141
12.0
290
     0
  0
SCALE
  5
63
102
{ACAD_REACTORS
330
47
102
}
330
47
100
AcDbScale
 70
     0
300
3/4" = 1'-0"
140
0.75
141
12.0
290
     0
  0
SCALE
  5
64
102
{ACAD_REACTORS
330
47
102
}
330
47
100
AcDbScale
 70
     0
300
1" = 1'-0"
140
1.0
141
12.0
290
     0
  0
SCALE
  5
65
102
{ACAD_REACTORS
330
47
102
}
330
47
100
AcDbScale
 70
     0
300
1-1/2" = 1'-0"
140
1.5
141
12.0
290
     0
  0
SCALE
  5
66
102
{ACAD_REACTORS
330
47
102
}
330
47
100
AcDbScale
 70
     0
300
3" = 1'-0"
140
3.0
141
12.0
290
     0
  0
SCALE
  5
67
102
{ACAD_REACTORS
330
47
102
}
330
47
100
AcDbScale
 70
     0
300
6" = 1'-0"
140
6.0
141
12.0
290
     0
  0
SCALE
  5
68
102
{ACAD_REACTORS
330
47
102
}
330
47
100
AcDbScale
 70
     0
300
1'-0" = 1'-0"
140
12.0
141
12.0
290
     0
  0
ENDSEC
  0
EOF
