  0
SECTION
  2
HEADER
  9
$ACADVER
  1
AC1015
  9
$ACADMAINTVER
 70
     6
  9
$DWGCODEPAGE
  3
ANSI_1250
  9
$INSBASE
 10
0.0
 20
0.0
 30
0.0
  9
$EXTMIN
 10
0.0
 20
0.0
 30
0.0
  9
$EXTMAX
 10
20000.0
 20
10000.0
 30
0.0
  9
$LIMMIN
 10
0.0
 20
0.0
  9
$LIMMAX
 10
20000.0
 20
10000.0
  9
$ORTHOMODE
 70
     0
  9
$REGENMODE
 70
     1
  9
$FILLMODE
 70
     1
  9
$QTEXTMODE
 70
     0
  9
$MIRRTEXT
 70
     1
  9
$LTSCALE
 40
1.0
  9
$ATTMODE
 70
     1
  9
$TEXTSIZE
 40
2.0
  9
$TRACEWID
 40
1.0
  9
$TEXTSTYLE
  7
Standard
  9
$CLAYER
  8
0
  9
$CELTYPE
  6
ByLayer
  9
$CECOLOR
 62
   256
  9
$CELTSCALE
 40
1.0
  9
$DISPSILH
 70
     0
  9
$DIMSCALE
 40
1.0
  9
$DIMASZ
 40
2.0
  9
$DIMEXO
 40
1.0
  9
$DIMDLI
 40
3.75
  9
$DIMRND
 40
0.0
  9
$DIMDLE
 40
0.0
  9
$DIMEXE
 40
1.0
  9
$DIMTP
 40
0.0
  9
$DIMTM
 40
0.0
  9
$DIMTXT
 40
2.0
  9
$DIMCEN
 40
2.5
  9
$DIMTSZ
 40
0.0
  9
$DIMTOL
 70
     0
  9
$DIMLIM
 70
     0
  9
$DIMTIH
 70
     1
  9
$DIMTOH
 70
     1
  9
$DIMSE1
 70
     0
  9
$DIMSE2
 70
     0
  9
$DIMTAD
 70
     1
  9
$DIMZIN
 70
     0
  9
$DIMBLK
  1

  9
$DIMASO
 70
     1
  9
$DIMSHO
 70
     1
  9
$DIMPOST
  1

  9
$DIMAPOST
  1

  9
$DIMALT
 70
     0
  9
$DIMALTD
 70
     3
  9
$DIMALTF
 40
0.0393700787
  9
$DIMLFAC
 40
1.0
  9
$DIMTOFL
 70
     1
  9
$DIMTVP
 40
0.0
  9
$DIMTIX
 70
     0
  9
$DIMSOXD
 70
     0
  9
$DIMSAH
 70
     0
  9
$DIMBLK1
  1

  9
$DIMBLK2
  1

  9
$DIMSTYLE
  2
ISO-25
  9
$DIMCLRD
 70
     0
  9
$DIMCLRE
 70
     0
  9
$DIMCLRT
 70
     0
  9
$DIMTFAC
 40
1.0
  9
$DIMGAP
 40
1.524
  9
$DIMJUST
 70
     0
  9
$DIMSD1
 70
     0
  9
$DIMSD2
 70
     0
  9
$DIMTOLJ
 70
     0
  9
$DIMTZIN
 70
     0
  9
$DIMALTZ
 70
     0
  9
$DIMALTTZ
 70
     0
  9
$DIMUPT
 70
     0
  9
$DIMDEC
 70
     2
  9
$DIMTDEC
 70
     0
  9
$DIMALTU
 70
     2
  9
$DIMALTTD
 70
     3
  9
$DIMTXSTY
  7
Standard
  9
$DIMAUNIT
 70
     0
  9
$DIMADEC
 70
     2
  9
$DIMALTRND
 40
0.0
  9
$DIMAZIN
 70
     0
  9
$DIMDSEP
 70
    44
  9
$DIMATFIT
 70
     3
  9
$DIMFRAC
 70
     0
  9
$DIMLDRBLK
  1

  9
$DIMLUNIT
 70
     2
  9
$DIMLWD
 70
    -2
  9
$DIMLWE
 70
    -2
  9
$DIMTMOVE
 70
     0
  9
$LUNITS
 70
     2
  9
$LUPREC
 70
     3
  9
$SKETCHINC
 40
1.0
  9
$FILLETRAD
 40
10.0
  9
$AUNITS
 70
     0
  9
$AUPREC
 70
     2
  9
$MENU
  1
.
  9
$ELEVATION
 40
0.0
  9
$PELEVATION
 40
0.0
  9
$THICKNESS
 40
0.0
  9
$LIMCHECK
 70
     0
  9
$CHAMFERA
 40
0.0
  9
$CHAMFERB
 40
0.0
  9
$CHAMFERC
 40
0.0
  9
$CHAMFERD
 40
0.0
  9
$SKPOLY
 70
     0
  9
$TDCREATE
 40
2460362.569841643
  9
$TDUCREATE
 40
2460362.528174977
  9
$TDUPDATE
 40
2460362.569843229
  9
$TDUUPDATE
 40
2460362.528176562
  9
$TDINDWG
 40
0.0000000116
  9
$TDUSRTIMER
 40
0.0000000116
  9
$USRTIMER
 70
     1
  9
$ANGBASE
 50
0.0
  9
$ANGDIR
 70
     0
  9
$PDMODE
 70
     0
  9
$PDSIZE
 40
-1.0
  9
$PLINEWID
 40
0.0
  9
$SPLFRAME
 70
     0
  9
$SPLINETYPE
 70
     6
  9
$SPLINESEGS
 70
     8
  9
$HANDSEED
  5
592
  9
$SURFTAB1
 70
     6
  9
$SURFTAB2
 70
     6
  9
$SURFTYPE
 70
     6
  9
$SURFU
 70
     6
  9
$SURFV
 70
     6
  9
$UCSBASE
  2

  9
$UCSNAME
  2

  9
$UCSORG
 10
0.0
 20
0.0
 30
0.0
  9
$UCSXDIR
 10
1.0
 20
0.0
 30
0.0
  9
$UCSYDIR
 10
0.0
 20
1.0
 30
0.0
  9
$UCSORTHOREF
  2

  9
$UCSORTHOVIEW
 70
     0
  9
$UCSORGTOP
 10
0.0
 20
0.0
 30
0.0
  9
$UCSORGBOTTOM
 10
0.0
 20
0.0
 30
0.0
  9
$UCSORGLEFT
 10
0.0
 20
0.0
 30
0.0
  9
$UCSORGRIGHT
 10
0.0
 20
0.0
 30
0.0
  9
$UCSORGFRONT
 10
0.0
 20
0.0
 30
0.0
  9
$UCSORGBACK
 10
0.0
 20
0.0
 30
0.0
  9
$PUCSBASE
  2

  9
$PUCSNAME
  2

  9
$PUCSORG
 10
0.0
 20
0.0
 30
0.0
  9
$PUCSXDIR
 10
1.0
 20
0.0
 30
0.0
  9
$PUCSYDIR
 10
0.0
 20
1.0
 30
0.0
  9
$PUCSORTHOREF
  2

  9
$PUCSORTHOVIEW
 70
     0
  9
$PUCSORGTOP
 10
0.0
 20
0.0
 30
0.0
  9
$PUCSORGBOTTOM
 10
0.0
 20
0.0
 30
0.0
  9
$PUCSORGLEFT
 10
0.0
 20
0.0
 30
0.0
  9
$PUCSORGRIGHT
 10
0.0
 20
0.0
 30
0.0
  9
$PUCSORGFRONT
 10
0.0
 20
0.0
 30
0.0
  9
$PUCSORGBACK
 10
0.0
 20
0.0
 30
0.0
  9
$USERI1
 70
     0
  9
$USERI2
 70
     0
  9
$USERI3
 70
     0
  9
$USERI4
 70
     0
  9
$USERI5
 70
     0
  9
$USERR1
 40
0.0
  9
$USERR2
 40
0.0
  9
$USERR3
 40
0.0
  9
$USERR4
 40
0.0
  9
$USERR5
 40
0.0
  9
$WORLDVIEW
 70
     1
  9
$SHADEDGE
 70
     3
  9
$SHADEDIF
 70
    70
  9
$TILEMODE
 70
     1
  9
$MAXACTVP
 70
    64
  9
$PINSBASE
 10
0.0
 20
0.0
 30
0.0
  9
$PLIMCHECK
 70
     0
  9
$PEXTMIN
 10
1.0000000000E+20
 20
1.0000000000E+20
 30
1.0000000000E+20
  9
$PEXTMAX
 10
-1.0000000000E+20
 20
-1.0000000000E+20
 30
-1.0000000000E+20
  9
$PLIMMIN
 10
0.0
 20
0.0
  9
$PLIMMAX
 10
420.0
 20
297.0
  9
$UNITMODE
 70
     0
  9
$VISRETAIN
 70
     1
  9
$PLINEGEN
 70
     0
  9
$PSLTSCALE
 70
     1
  9
$TREEDEPTH
 70
  3020
  9
$CMLSTYLE
  2
Standard
  9
$CMLJUST
 70
     0
  9
$CMLSCALE
 40
20.0
  9
$PROXYGRAPHICS
 70
     1
  9
$MEASUREMENT
 70
     1
  9
$CELWEIGHT
370
    -1
  9
$ENDCAPS
280
     0
  9
$JOINSTYLE
280
     0
  9
$LWDISPLAY
290
     1
  9
$INSUNITS
 70
     4
  9
$HYPERLINKBASE
  1

  9
$STYLESHEET
  1

  9
$XEDIT
290
     1
  9
$CEPSNTYPE
380
     0
  9
$PSTYLEMODE
290
     1
  9
$FINGERPRINTGUID
  2
{d834aed1-60f5-4b92-b6da-ccec671a1615}
  9
$VERSIONGUID
  2
{FAEB1C32-E019-11D5-929B-00C0DF256EC4}
  9
$EXTNAMES
290
     1
  9
$PSVPSCALE
 40
0.0
  9
$OLESTARTUP
290
     0
  0
ENDSEC
  0
SECTION
  2
CLASSES
  0
CLASS
  1
ACDBDICTIONARYWDFLT
  2
AcDbDictionaryWithDefault
  3
ObjectDBX Classes
 90
        0
280
     0
281
     0
  0
CLASS
  1
VISUALSTYLE
  2
AcDbVisualStyle
  3
ObjectDBX Classes
 90
     4095
280
     0
281
     0
  0
CLASS
  1
MATERIAL
  2
AcDbMaterial
  3
ObjectDBX Classes
 90
     1153
280
     0
281
     0
  0
CLASS
  1
SCALE
  2
AcDbScale
  3
ObjectDBX Classes
 90
     1153
280
     0
281
     0
  0
CLASS
  1
TABLESTYLE
  2
AcDbTableStyle
  3
ObjectDBX Classes
 90
     4095
280
     0
281
     0
  0
CLASS
  1
MLEADERSTYLE
  2
AcDbMLeaderStyle
  3
ACDB_MLEADERSTYLE_CLASS
 90
     4095
280
     0
281
     0
  0
CLASS
  1
SUN
  2
AcDbSun
  3
SCENEOE
 90
     1153
280
     0
281
     0
  0
CLASS
  1
ACDBPLACEHOLDER
  2
AcDbPlaceHolder
  3
ObjectDBX Classes
 90
        0
280
     0
281
     0
  0
CLASS
  1
LAYOUT
  2
AcDbLayout
  3
ObjectDBX Classes
 90
        0
280
     0
281
     0
  0
ENDSEC
  0
SECTION
  2
TABLES
  0
TABLE
  2
VPORT
  5
8
330
0
100
AcDbSymbolTable
 70
     1
  0
VPORT
  5
29
330
8
100
AcDbSymbolTableRecord
100
AcDbViewportTableRecord
  2
*Active
 70
     0
 10
0.0
 20
0.0
 11
1.0
 21
1.0
 12
10000.0
 22
5000.0
 13
0.0
 23
0.0
 14
10.0
 24
10.0
 15
10.0
 25
10.0
 16
0.0
 26
0.0
 36
1.0
 17
0.0
 27
0.0
 37
0.0
 40
10000.0
 41
2.0
 42
50.0
 43
0.0
 44
0.0
 50
0.0
 51
0.0
 71
     0
 72
  2000
 73
     1
 74
     3
 75
     0
 76
     0
 77
     0
 78
     0
281
     0
 65
     1
110
0.0
120
0.0
130
0.0
111
1.0
121
0.0
131
0.0
112
0.0
122
1.0
132
0.0
 79
     0
146
0.0
  0
ENDTAB
  0
TABLE
  2
LTYPE
  5
5
330
0
100
AcDbSymbolTable
 70
     6
  0
LTYPE
  5
14
330
5
100
AcDbSymbolTableRecord
100
AcDbLinetypeTableRecord
  2
ByBlock
 70
     0
  3

 72
    65
 73
     0
 40
0.0
  0
LTYPE
  5
15
330
5
100
AcDbSymbolTableRecord
100
AcDbLinetypeTableRecord
  2
ByLayer
 70
     0
  3

 72
    65
 73
     0
 40
0.0
  0
LTYPE
  5
16
330
5
100
AcDbSymbolTableRecord
100
AcDbLinetypeTableRecord
  2
Continuous
 70
     0
  3
Solid line
 72
    65
 73
     0
 40
0.0
  0
LTYPE
  5
6E
330
5
100
AcDbSymbolTableRecord
100
AcDbLinetypeTableRecord
  2
HIDDEN
 70
     0
  3
Hidden __ __ __ __ __ __ __ __ __ __ __ __ __ __
 72
    65
 73
     2
 40
1.905
 49
1.27
 74
     0
 49
-0.635
 74
     0
  0
LTYPE
  5
6F
330
5
100
AcDbSymbolTableRecord
100
AcDbLinetypeTableRecord
  2
PHANTOM
 70
     0
  3
Phantom ______  __  __  ______  __  __  ______
 72
    65
 73
     6
 40
12.7
 49
6.35
 74
     0
 49
-1.27
 74
     0
 49
1.27
 74
     0
 49
-1.27
 74
     0
 49
1.27
 74
     0
 49
-1.27
 74
     0
  0
LTYPE
  5
70
330
5
100
AcDbSymbolTableRecord
100
AcDbLinetypeTableRecord
  2
CENTER
 70
     0
  3
Center ____ _ ____ _ ____ _ ____ _ ____ _ ____
 72
    65
 73
     4
 40
10.16
 49
6.35
 74
     0
 49
-1.27
 74
     0
 49
1.27
 74
     0
 49
-1.27
 74
     0
  0
LTYPE
  5
71
330
5
100
AcDbSymbolTableRecord
100
AcDbLinetypeTableRecord
  2
CENTERX2
 70
     0
  3
Center (2x) ________  __  ________  __  _____
 72
    65
 73
     4
 40
20.32
 49
12.7
 74
     0
 49
-2.54
 74
     0
 49
2.54
 74
     0
 49
-2.54
 74
     0
  0
LTYPE
  5
72
330
5
100
AcDbSymbolTableRecord
100
AcDbLinetypeTableRecord
  2
DOT2
 70
     0
  3
Dot (.5x) ........................................
 72
    65
 73
     2
 40
0.635
 49
0.0
 74
     0
 49
-0.635
 74
     0
  0
ENDTAB
  0
TABLE
  2
LAYER
  5
2
330
0
100
AcDbSymbolTable
 70
    13
  0
LAYER
  5
10
330
2
100
AcDbSymbolTableRecord
100
AcDbLayerTableRecord
  2
0
 70
     0
 62
     7
  6
Continuous
370
    -3
390
F
  0
LAYER
  5
73
330
2
100
AcDbSymbolTableRecord
100
AcDbLayerTableRecord
  2
FORMAT
 70
     0
 62
     7
  6
Continuous
370
    -3
390
F
  0
LAYER
  5
74
330
2
100
AcDbSymbolTableRecord
100
AcDbLayerTableRecord
  2
OSA
 70
     0
 62
     7
  6
CENTER
370
    -3
390
F
  0
LAYER
  5
75
330
2
100
AcDbSymbolTableRecord
100
AcDbLayerTableRecord
  2
0_35
 70
     0
 62
     7
  6
Continuous
370
    35
390
F
  0
LAYER
  5
76
330
2
100
AcDbSymbolTableRecord
100
AcDbLayerTableRecord
  2
0_5
 70
     0
 62
     7
  6
Continuous
370
    50
390
F
  0
LAYER
  5
77
330
2
100
AcDbSymbolTableRecord
100
AcDbLayerTableRecord
  2
0_25
 70
     0
 62
     7
  6
Continuous
370
    25
390
F
  0
LAYER
  5
78
330
2
100
AcDbSymbolTableRecord
100
AcDbLayerTableRecord
  2
0_18
 70
     0
 62
     7
  6
Continuous
370
    -3
390
F
  0
LAYER
  5
79
330
2
100
AcDbSymbolTableRecord
100
AcDbLayerTableRecord
  2
SLD-0
 70
     0
 62
   179
  6
Continuous
370
    -3
390
F
  0
LAYER
  5
7A
330
2
100
AcDbSymbolTableRecord
100
AcDbLayerTableRecord
  2
KOTY
 70
     0
 62
     7
  6
Continuous
370
    -3
390
F
  0
LAYER
  5
7B
330
2
100
AcDbSymbolTableRecord
100
AcDbLayerTableRecord
  2
SILNA
 70
     0
 62
   179
  6
Continuous
370
    -3
390
F
  0
LAYER
  5
7C
330
2
100
AcDbSymbolTableRecord
100
AcDbLayerTableRecord
  2
0_18_1
 70
     0
 62
   179
  6
Continuous
370
    -3
390
F
  0
LAYER
  5
7D
330
2
100
AcDbSymbolTableRecord
100
AcDbLayerTableRecord
  2
0_35_1
 70
     0
 62
   179
  6
Continuous
370
    35
390
F
  0
LAYER
  5
7E
330
2
100
AcDbSymbolTableRecord
100
AcDbLayerTableRecord
  2
0_5_1
 70
     0
 62
   179
  6
Continuous
370
    50
390
F
  0
ENDTAB
  0
TABLE
  2
STYLE
  5
3
330
0
100
AcDbSymbolTable
 70
     1
  0
STYLE
  5
11
330
3
100
AcDbSymbolTableRecord
100
AcDbTextStyleTableRecord
  2
Standard
 70
     0
 40
0.0
 41
1.0
 50
0.0
 71
     0
 42
2.0
  3
txt
  4

  0
ENDTAB
  0
TABLE
  2
VIEW
  5
6
330
0
100
AcDbSymbolTable
 70
     0
  0
ENDTAB
  0
TABLE
  2
UCS
  5
7
330
0
100
AcDbSymbolTable
 70
     0
  0
ENDTAB
  0
TABLE
  2
APPID
  5
9
330
0
100
AcDbSymbolTable
 70
     1
  0
APPID
  5
12
330
9
100
AcDbSymbolTableRecord
100
AcDbRegAppTableRecord
  2
ACAD
 70
     0
  0
ENDTAB
  0
TABLE
  2
DIMSTYLE
  5
A
330
0
100
AcDbSymbolTable
 70
     1
100
AcDbDimStyleTable
  0
DIMSTYLE
105
27
330
A
100
AcDbSymbolTableRecord
100
AcDbDimStyleTableRecord
  2
ISO-25
 70
     0
 41
2.5
 42
0.625
 43
3.75
 44
1.25
 73
     0
 74
     0
 77
     1
 78
     8
140
2.5
141
2.5
143
0.0393700787
147
0.625
171
     3
172
     1
178
     0
271
     2
272
     2
274
     3
278
    44
283
     0
284
     8
340
11
  0
ENDTAB
  0
TABLE
  2
BLOCK_RECORD
  5
1
330
0
100
AcDbSymbolTable
 70
     1
  0
BLOCK_RECORD
  5
1F
330
1
100
AcDbSymbolTableRecord
100
AcDbBlockTableRecord
  2
*Model_Space
340
22
  0
BLOCK_RECORD
  5
1B
330
1
100
AcDbSymbolTableRecord
100
AcDbBlockTableRecord
  2
*Paper_Space
340
1E
  0
BLOCK_RECORD
  5
23
330
1
100
AcDbSymbolTableRecord
100
AcDbBlockTableRecord
  2
*Paper_Space0
340
26
  0
ENDTAB
  0
ENDSEC
  0
SECTION
  2
BLOCKS
  0
BLOCK
  5
20
330
1F
100
AcDbEntity
  8
0
100
AcDbBlockBegin
  2
*Model_Space
 70
     0
 10
0.0
 20
0.0
 30
0.0
  3
*Model_Space
  1

  0
ENDBLK
  5
21
330
1F
100
AcDbEntity
  8
0
100
AcDbBlockEnd
  0
BLOCK
  5
1C
330
1B
100
AcDbEntity
 67
     1
  8
0
100
AcDbBlockBegin
  2
*Paper_Space
 70
     0
 10
0.0
 20
0.0
 30
0.0
  3
*Paper_Space
  1

  0
ENDBLK
  5
1D
330
1B
100
AcDbEntity
 67
     1
  8
0
100
AcDbBlockEnd
  0
BLOCK
  5
24
330
23
100
AcDbEntity
  8
0
100
AcDbBlockBegin
  2
*Paper_Space0
 70
     0
 10
0.0
 20
0.0
 30
0.0
  3
*Paper_Space0
  1

  0
ENDBLK
  5
25
330
23
100
AcDbEntity
  8
0
100
AcDbBlockEnd
  0
ENDSEC
  0
SECTION
  2
ENTITIES
  0
ARC
  5
7F
330
1F
100
AcDbEntity
  8
0
  6
Continuous
 62
     7
370
    25
100
AcDbCircle
 10
7983.8265452858
 20
5372.5494545927
 30
0.0
 40
5.000000000000909
100
AcDbArc
 50
90.0
 51
180.0
  0
ARC
  5
80
330
1F
100
AcDbEntity
  8
0
  6
Continuous
 62
     7
370
    25
100
AcDbCircle
 10
8018.8265452858
 20
5372.5494545927
 30
0.0
 40
5.000000000000909
100
AcDbArc
 50
0.0
 51
90.0
  0
LINE
  5
81
330
1F
100
AcDbEntity
  8
0
  6
Continuous
 62
     7
370
    25
100
AcDbLine
 10
8023.8265452858
 20
5360.5494545927
 30
0.0
 11
8023.8265452858
 21
5372.5494545927
 31
0.0
  0
LINE
  5
82
330
1F
100
AcDbEntity
  8
0
  6
Continuous
 62
     7
370
    25
100
AcDbLine
 10
7978.8265452858
 20
5372.5494545927
 30
0.0
 11
7978.8265452858
 21
5360.5494545927
 31
0.0
  0
LINE
  5
83
330
1F
100
AcDbEntity
  8
0
  6
Continuous
 62
     7
370
    25
100
AcDbLine
 10
8018.8265452858
 20
5358.5494545927
 30
0.0
 11
8018.8265452858
 21
5360.5494545927
 31
0.0
  0
LINE
  5
84
330
1F
100
AcDbEntity
  8
0
  6
Continuous
 62
     7
370
    25
100
AcDbLine
 10
7983.8265452858
 20
5360.5494545927
 30
0.0
 11
7983.8265452858
 21
5358.5494545927
 31
0.0
  0
ARC
  5
85
330
1F
100
AcDbEntity
  8
0
  6
Continuous
 62
     7
370
    25
100
AcDbCircle
 10
8017.485355434
 20
5353.8859629055
 30
0.0
 40
4.849574992950484
100
AcDbArc
 50
19.5738855897
 51
75.9807017686
  0
LINE
  5
86
330
1F
100
AcDbEntity
  8
0
  6
Continuous
 62
     7
370
    25
100
AcDbLine
 10
7959.3265452858
 20
5085.8494545927
 30
0.0
 11
7959.3265452858
 21
5083.5494545927
 31
0.0
  0
LINE
  5
87
330
1F
100
AcDbEntity
  8
0
  6
Continuous
 62
     7
370
    25
100
AcDbLine
 10
7966.3265452858
 20
5083.5494545927
 30
0.0
 11
7966.3265452858
 21
5085.8494545927
 31
0.0
  0
ARC
  5
88
330
1F
100
AcDbEntity
  8
0
  6
Continuous
 62
     7
370
    25
100
AcDbCircle
 10
7965.8265452858
 20
5085.8494545927
 30
0.0
 40
0.5000000000009095
100
AcDbArc
 50
0.0
 51
90.0
  0
ARC
  5
89
330
1F
100
AcDbEntity
  8
0
  6
Continuous
 62
     7
370
    25
100
AcDbCircle
 10
7959.8265452858
 20
5085.8494545927
 30
0.0
 40
0.5000000000009095
100
AcDbArc
 50
90.0
 51
180.0
  0
LINE
  5
8A
330
1F
100
AcDbEntity
  8
0
  6
Continuous
 62
     7
370
    25
100
AcDbLine
 10
8124.6265452858
 20
5161.6817939265
 30
0.0
 11
8125.3265452858
 21
5161.6817939265
 31
0.0
  0
LINE
  5
8B
330
1F
100
AcDbEntity
  8
0
  6
Continuous
 62
     7
370
    25
100
AcDbLine
 10
8124.6265452858
 20
5149.6817939265
 30
0.0
 11
8125.3265452858
 21
5149.6817939265
 31
0.0
  0
LINE
  5
8C
330
1F
100
AcDbEntity
  8
0
  6
Continuous
 62
     7
370
    25
100
AcDbLine
 10
8124.6265452858
 20
5157.6817939265
 30
0.0
 11
8125.3265452858
 21
5157.6817939265
 31
0.0
  0
LINE
  5
8D
330
1F
100
AcDbEntity
  8
0
  6
Continuous
 62
     7
370
    25
100
AcDbLine
 10
8124.6265452858
 20
5153.6817939265
 30
0.0
 11
8125.3265452858
 21
5153.6817939265
 31
0.0
  0
LINE
  5
8E
330
1F
100
AcDbEntity
  8
0
  6
Continuous
 62
     7
370
    25
100
AcDbLine
 10
8124.6265452858
 20
5165.6817939265
 30
0.0
 11
8125.3265452858
 21
5165.6817939265
 31
0.0
  0
LINE
  5
8F
330
1F
100
AcDbEntity
  8
0
  6
Continuous
 62
     7
370
    25
100
AcDbLine
 10
8124.6265452858
 20
5209.6817939265
 30
0.0
 11
8125.3265452858
 21
5209.6817939265
 31
0.0
  0
LINE
  5
90
330
1F
100
AcDbEntity
  8
0
  6
Continuous
 62
     7
370
    25
100
AcDbLine
 10
8124.6265452858
 20
5201.6817939265
 30
0.0
 11
8125.3265452858
 21
5201.6817939265
 31
0.0
  0
LINE
  5
91
330
1F
100
AcDbEntity
  8
0
  6
Continuous
 62
     7
370
    25
100
AcDbLine
 10
8124.6265452858
 20
5197.6817939265
 30
0.0
 11
8125.3265452858
 21
5197.6817939265
 31
0.0
  0
LINE
  5
92
330
1F
100
AcDbEntity
  8
0
  6
Continuous
 62
     7
370
    25
100
AcDbLine
 10
8124.6265452858
 20
5205.6817939265
 30
0.0
 11
8125.3265452858
 21
5205.6817939265
 31
0.0
  0
LINE
  5
93
330
1F
100
AcDbEntity
  8
0
  6
Continuous
 62
     7
370
    25
100
AcDbLine
 10
8124.6265452858
 20
5213.6817939265
 30
0.0
 11
8125.3265452858
 21
5213.6817939265
 31
0.0
  0
LINE
  5
94
330
1F
100
AcDbEntity
  8
0
  6
Continuous
 62
     7
370
    25
100
AcDbLine
 10
8066.7265452858
 20
5173.7294447563
 30
0.0
 11
8067.4265452858
 21
5173.7294447563
 31
0.0
  0
LINE
  5
95
330
1F
100
AcDbEntity
  8
0
  6
Continuous
 62
     7
370
    25
100
AcDbLine
 10
8067.4265452858
 20
5182.3694644292
 30
0.0
 11
8066.7265452858
 21
5182.3694644292
 31
0.0
  0
LINE
  5
96
330
1F
100
AcDbEntity
  8
0
  6
Continuous
 62
     7
370
    25
100
AcDbLine
 10
8044.7265452858
 20
5174.0494545927
 30
0.0
 11
8045.7265452858
 21
5174.0494545927
 31
0.0
  0
LINE
  5
97
330
1F
100
AcDbEntity
  8
0
  6
Continuous
 62
     7
370
    25
100
AcDbLine
 10
8045.7265452858
 20
5182.0494545927
 30
0.0
 11
8044.7265452858
 21
5182.0494545927
 31
0.0
  0
ARC
  5
98
330
1F
100
AcDbEntity
  8
0
  6
Continuous
 62
     7
370
    25
100
AcDbCircle
 10
8045.7265452858
 20
5174.5494545927
 30
0.0
 40
0.4999999999990905
100
AcDbArc
 50
270.0
 51
0.0
  0
ARC
  5
99
330
1F
100
AcDbEntity
  8
0
  6
Continuous
 62
     7
370
    25
100
AcDbCircle
 10
8045.7265452858
 20
5181.5494545927
 30
0.0
 40
0.5000000000009095
100
AcDbArc
 50
0.0000000001
 51
90.0
  0
ARC
  5
9A
330
1F
100
AcDbEntity
  8
0
  6
Continuous
 62
     7
370
    25
100
AcDbCircle
 10
8044.7265452858
 20
5174.5494545927
 30
0.0
 40
0.5
100
AcDbArc
 50
211.890791802
 51
270.0
  0
ARC
  5
9B
330
1F
100
AcDbEntity
  8
0
  6
Continuous
 62
     7
370
    25
100
AcDbCircle
 10
8044.7265452858
 20
5181.5494545927
 30
0.0
 40
0.5
100
AcDbArc
 50
90.0
 51
148.1092081981
  0
ARC
  5
9C
330
1F
100
AcDbEntity
  8
0
  6
Continuous
 62
     7
370
    25
100
AcDbCircle
 10
8050.3515452858
 20
5178.0494545927
 30
0.0
 40
7.124999999999519
100
AcDbArc
 50
187.4380473866
 51
211.8907918018
  0
ARC
  5
9D
330
1F
100
AcDbEntity
  8
0
  6
Continuous
 62
     7
370
    25
100
AcDbCircle
 10
8050.3515452858
 20
5178.0494545927
 30
0.0
 40
7.124999999999821
100
AcDbArc
 50
148.1092081982
 51
172.5619526134
  0
LINE
  5
9E
330
1F
100
AcDbEntity
  8
0
  6
Continuous
 62
     7
370
    25
100
AcDbLine
 10
8061.7765452858
 20
5143.0494545927
 30
0.0
 11
8061.7765452858
 21
5150.0494545927
 31
0.0
  0
LINE
  5
9F
330
1F
100
AcDbEntity
  8
0
  6
Continuous
 62
     7
370
    25
100
AcDbLine
 10
8053.6765452858
 20
5150.0494545927
 30
0.0
 11
8053.6765452858
 21
5143.0494545927
 31
0.0
  0
LINE
  5
A0
330
1F
100
AcDbEntity
  8
0
  6
Continuous
 62
     7
370
    25
100
AcDbLine
 10
8066.7265452858
 20
5173.1494545927
 30
0.0
 11
8067.4265452858
 21
5173.1494545927
 31
0.0
  0
LINE
  5
A1
330
1F
100
AcDbEntity
  8
0
  6
Continuous
 62
     7
370
    25
100
AcDbLine
 10
8067.4265452858
 20
5182.9494545927
 30
0.0
 11
8066.7265452858
 21
5182.9494545927
 31
0.0
  0
LINE
  5
A2
330
1F
100
AcDbEntity
  8
0
  6
Continuous
 62
     7
370
    25
100
AcDbLine
 10
8069.2965340595
 20
5203.2994545927
 30
0.0
 11
8067.4265452858
 21
5203.2994545927
 31
0.0
  0
LINE
  5
A3
330
1F
100
AcDbEntity
  8
0
  6
Continuous
 62
     7
370
    25
100
AcDbLine
 10
8046.2265452858
 20
5173.7494545927
 30
0.0
 11
8046.3052401744
 21
5173.7494545927
 31
0.0
  0
LINE
  5
A4
330
1F
100
AcDbEntity
  8
0
  6
Continuous
 62
     7
370
    25
100
AcDbLine
 10
8066.7265452858
 20
5182.3494545927
 30
0.0
 11
8046.2265452858
 21
5182.3494545927
 31
0.0
  0
LINE
  5
A5
330
1F
100
AcDbEntity
  8
0
  6
Continuous
 62
     7
370
    25
100
AcDbLine
 10
8066.7265452858
 20
5160.5494545927
 30
0.0
 11
8067.4265452858
 21
5160.5494545927
 31
0.0
  0
LINE
  5
A6
330
1F
100
AcDbEntity
  8
0
  6
Continuous
 62
     7
370
    25
100
AcDbLine
 10
8067.4265452858
 20
5163.0494545927
 30
0.0
 11
8066.7265452858
 21
5163.0494545927
 31
0.0
  0
ARC
  5
A7
330
1F
100
AcDbEntity
  8
0
  6
Continuous
 62
     7
370
    25
100
AcDbCircle
 10
8048.2265452858
 20
5198.5994545927
 30
0.0
 40
2.000000000000909
100
AcDbArc
 50
90.0
 51
180.0
  0
LINE
  5
A8
330
1F
100
AcDbEntity
  8
0
  6
Continuous
 62
     7
370
    25
100
AcDbLine
 10
8066.7265452858
 20
5200.5994545927
 30
0.0
 11
8048.2265452858
 21
5200.5994545927
 31
0.0
  0
LINE
  5
A9
330
1F
100
AcDbEntity
  8
0
  6
Continuous
 62
     7
370
    25
100
AcDbLine
 10
8066.7265452858
 20
5186.3671084326
 30
0.0
 11
8067.4265452858
 21
5186.3671084326
 31
0.0
  0
LINE
  5
AA
330
1F
100
AcDbEntity
  8
0
  6
Continuous
 62
     7
370
    25
100
AcDbLine
 10
8067.4265452858
 20
5188.8671084326
 30
0.0
 11
8066.7265452858
 21
5188.8671084326
 31
0.0
  0
LINE
  5
AB
330
1F
100
AcDbEntity
  8
0
  6
Continuous
 62
     7
370
    25
100
AcDbLine
 10
8046.2265452858
 20
5184.5494545927
 30
0.0
 11
8043.7265452858
 21
5184.5494545927
 31
0.0
  0
LINE
  5
AC
330
1F
100
AcDbEntity
  8
0
  6
Continuous
 62
     7
370
    25
100
AcDbLine
 10
8043.7265452858
 20
5171.5494545927
 30
0.0
 11
8045.2265452858
 21
5171.5494545927
 31
0.0
  0
ARC
  5
AD
330
1F
100
AcDbEntity
  8
0
  6
Continuous
 62
     7
370
    25
100
AcDbCircle
 10
8043.7265452858
 20
5172.0494545927
 30
0.0
 40
0.5000000000009095
100
AcDbArc
 50
180.0
 51
270.0
  0
ARC
  5
AE
330
1F
100
AcDbEntity
  8
0
  6
Continuous
 62
     7
370
    25
100
AcDbCircle
 10
8043.7265452858
 20
5184.0494545927
 30
0.0
 40
0.5000000000009095
100
AcDbArc
 50
90.0
 51
180.0
  0
LINE
  5
AF
330
1F
100
AcDbEntity
  8
0
  6
Continuous
 62
     7
370
    25
100
AcDbLine
 10
8066.7265452858
 20
5197.8494545927
 30
0.0
 11
8067.4265452858
 21
5197.8494545927
 31
0.0
  0
LINE
  5
B0
330
1F
100
AcDbEntity
  8
0
  6
Continuous
 62
     7
370
    25
100
AcDbLine
 10
8067.4265452858
 20
5200.3494545927
 30
0.0
 11
8066.7265452858
 21
5200.3494545927
 31
0.0
  0
LINE
  5
B1
330
1F
100
AcDbEntity
  8
0
  6
Continuous
 62
     7
370
    25
100
AcDbLine
 10
8066.7265452858
 20
5159.8984531394
 30
0.0
 11
8067.4265452858
 21
5159.8984531394
 31
0.0
  0
ARC
  5
B2
330
1F
100
AcDbEntity
  8
0
  6
Continuous
 62
     7
370
    25
100
AcDbCircle
 10
8081.6523517374
 20
5196.0494545927
 30
0.0
 40
14.32580645161286
100
AcDbArc
 50
204.760401104
 51
218.407947011
  0
ARC
  5
B3
330
1F
100
AcDbEntity
  8
0
  6
Continuous
 62
     7
370
    25
100
AcDbCircle
 10
8081.6523517374
 20
5196.0494545927
 30
0.0
 40
14.32580645161324
100
AcDbArc
 50
141.592052989
 51
155.239598896
  0
LINE
  5
B4
330
1F
100
AcDbEntity
  8
0
  6
Continuous
 62
     7
370
    25
100
AcDbLine
 10
8070.4265452858
 20
5187.1494545927
 30
0.0
 11
8070.6265452858
 21
5187.1494545927
 31
0.0
  0
LINE
  5
B5
330
1F
100
AcDbEntity
  8
0
  6
Continuous
 62
     7
370
    25
100
AcDbLine
 10
8070.6265452858
 20
5204.9494545927
 30
0.0
 11
8070.4265452858
 21
5204.9494545927
 31
0.0
  0
ARC
  5
B6
330
1F
100
AcDbEntity
  8
0
  6
Continuous
 62
     7
370
    25
100
AcDbCircle
 10
8081.6523517374
 20
5196.0494545927
 30
0.0
 40
14.32580645161327
100
AcDbArc
 50
156.1174094853
 51
203.8825905147
  0
LINE
  5
B7
330
1F
100
AcDbEntity
  8
0
  6
Continuous
 62
     7
370
    25
100
AcDbLine
 10
8068.553163576
 20
5190.2494545927
 30
0.0
 11
8068.6435573856
 21
5190.2494545927
 31
0.0
  0
LINE
  5
B8
330
1F
100
AcDbEntity
  8
0
  6
Continuous
 62
     7
370
    25
100
AcDbLine
 10
8068.6435573856
 20
5201.8494545927
 30
0.0
 11
8068.553163576
 21
5201.8494545927
 31
0.0
  0
LINE
  5
B9
330
1F
100
AcDbEntity
  8
0
  6
Continuous
 62
     7
370
    25
100
AcDbLine
 10
8070.4265452858
 20
5187.1494545927
 30
0.0
 11
8070.6265452858
 21
5187.1494545927
 31
0.0
  0
LINE
  5
BA
330
1F
100
AcDbEntity
  8
0
  6
Continuous
 62
     7
370
    25
100
AcDbLine
 10
8070.6265452858
 20
5204.9494545927
 30
0.0
 11
8070.4265452858
 21
5204.9494545927
 31
0.0
  0
LINE
  5
BB
330
1F
100
AcDbEntity
  8
0
  6
Continuous
 62
     7
370
    25
100
AcDbLine
 10
8068.553163576
 20
5190.2494545927
 30
0.0
 11
8068.6435573856
 21
5190.2494545927
 31
0.0
  0
LINE
  5
BC
330
1F
100
AcDbEntity
  8
0
  6
Continuous
 62
     7
370
    25
100
AcDbLine
 10
8068.6435573856
 20
5201.8494545927
 30
0.0
 11
8068.553163576
 21
5201.8494545927
 31
0.0
  0
SPLINE
  5
BD
330
1F
100
AcDbEntity
  8
0
  6
Continuous
 62
     7
370
    25
100
AcDbSpline
210
0.0
220
0.0
230
1.0
 70
     8
 71
     3
 72
     9
 73
     5
 74
     0
 42
0.00000001
 43
0.00000001
 40
0.0
 40
0.0
 40
0.0
 40
0.0
 40
0.3889430502807226
 40
1.0
 40
1.0
 40
1.0
 40
1.0
 10
8082.469303981421
 20
5144.830211916974
 30
0.0
 10
8082.504080853992
 20
5144.889097709978
 30
0.0
 10
8082.593494644897
 20
5145.040497234823
 30
0.0
 10
8082.684282714052
 20
5145.190335799984
 30
0.0
 10
8082.739759394659
 20
5145.281895696563
 30
0.0
  0
LINE
  5
BE
330
1F
100
AcDbEntity
  8
0
  6
Continuous
 62
     7
370
    25
100
AcDbLine
 10
8082.5950517358
 20
5215.3720895221
 30
0.0
 11
8082.5337865932
 21
5215.2686972685
 31
0.0
  0
LINE
  5
BF
330
1F
100
AcDbEntity
  8
0
  6
Continuous
 62
     7
370
    25
100
AcDbLine
 10
8102.9265452858
 20
5220.5494545927
 30
0.0
 11
8102.9265452858
 21
5221.2432018777
 31
0.0
  0
LINE
  5
C0
330
1F
100
AcDbEntity
  8
0
  6
Continuous
 62
     7
370
    25
100
AcDbLine
 10
8094.9265452858
 20
5221.2432018777
 30
0.0
 11
8094.9265452858
 21
5220.5494545927
 31
0.0
  0
ARC
  5
C1
330
1F
100
AcDbEntity
  8
0
  6
Continuous
 62
     7
370
    25
100
AcDbCircle
 10
8102.4265452858
 20
5220.5494545927
 30
0.0
 40
0.5000000000009095
100
AcDbArc
 50
270.0
 51
0.0
  0
ARC
  5
C2
330
1F
100
AcDbEntity
  8
0
  6
Continuous
 62
     7
370
    25
100
AcDbCircle
 10
8095.4265452858
 20
5220.5494545927
 30
0.0
 40
0.5000000000009095
100
AcDbArc
 50
180.0
 51
270.0
  0
ARC
  5
C3
330
1F
100
AcDbEntity
  8
0
  6
Continuous
 62
     7
370
    25
100
AcDbCircle
 10
8102.4265452858
 20
5221.2432018777
 30
0.0
 40
0.5000000000009095
100
AcDbArc
 50
0.0
 51
64.0555202276
  0
ARC
  5
C4
330
1F
100
AcDbEntity
  8
0
  6
Continuous
 62
     7
370
    25
100
AcDbCircle
 10
8095.4265452858
 20
5221.2432018777
 30
0.0
 40
0.5
100
AcDbArc
 50
115.9444797724
 51
180.0
  0
ARC
  5
C5
330
1F
100
AcDbEntity
  8
0
  6
Continuous
 62
     7
370
    25
100
AcDbCircle
 10
8098.9265452858
 20
5214.0494545927
 30
0.0
 40
8.499999999999885
100
AcDbArc
 50
107.1046351767
 51
115.9444797724
  0
ARC
  5
C6
330
1F
100
AcDbEntity
  8
0
  6
Continuous
 62
     7
370
    25
100
AcDbCircle
 10
8098.9265452858
 20
5214.0494545927
 30
0.0
 40
8.49999999999911
100
AcDbArc
 50
64.0555202276
 51
72.8953648234
  0
LINE
  5
C7
330
1F
100
AcDbEntity
  8
0
  6
Continuous
 62
     7
370
    25
100
AcDbLine
 10
8122.9265452858
 20
5220.5494545927
 30
0.0
 11
8122.9265452858
 21
5221.2432018777
 31
0.0
  0
ARC
  5
C8
330
1F
100
AcDbEntity
  8
0
  6
Continuous
 62
     7
370
    25
100
AcDbCircle
 10
8122.4265452858
 20
5220.5494545927
 30
0.0
 40
0.5000000000009095
100
AcDbArc
 50
270.0
 51
0.0
  0
ARC
  5
C9
330
1F
100
AcDbEntity
  8
0
  6
Continuous
 62
     7
370
    25
100
AcDbCircle
 10
8122.4265452858
 20
5221.2432018777
 30
0.0
 40
0.4999999999995237
100
AcDbArc
 50
0.0
 51
64.0555202277
  0
ARC
  5
CA
330
1F
100
AcDbEntity
  8
0
  6
Continuous
 62
     7
370
    25
100
AcDbCircle
 10
8118.9265452858
 20
5214.0494545927
 30
0.0
 40
8.499999999999089
100
AcDbArc
 50
64.0555202276
 51
72.8953648234
  0
LINE
  5
CB
330
1F
100
AcDbEntity
  8
0
  6
Continuous
 62
     7
370
    25
100
AcDbLine
 10
8118.1765452858
 20
5239.8894545927
 30
0.0
 11
8117.9265452858
 21
5240.2494545927
 31
0.0
  0
LINE
  5
CC
330
1F
100
AcDbEntity
  8
0
  6
Continuous
 62
     7
370
    25
100
AcDbLine
 10
8099.9265452858
 20
5240.2494545927
 30
0.0
 11
8099.6765452858
 21
5239.8894545927
 31
0.0
  0
LINE
  5
CD
330
1F
100
AcDbEntity
  8
0
  6
Continuous
 62
     7
370
    25
100
AcDbLine
 10
8099.9265452858
 20
5242.5494545927
 30
0.0
 11
8099.9265452858
 21
5240.2494545927
 31
0.0
  0
LINE
  5
CE
330
1F
100
AcDbEntity
  8
0
  6
Continuous
 62
     7
370
    25
100
AcDbLine
 10
8117.9265452858
 20
5240.2494545927
 30
0.0
 11
8117.9265452858
 21
5242.5494545927
 31
0.0
  0
ARC
  5
CF
330
1F
100
AcDbEntity
  8
0
  6
Continuous
 62
     7
370
    25
100
AcDbCircle
 10
8103.0265452858
 20
5242.5494545927
 30
0.0
 40
3.100000000000364
100
AcDbArc
 50
90.0
 51
180.0
  0
ARC
  5
D0
330
1F
100
AcDbEntity
  8
0
  6
Continuous
 62
     7
370
    25
100
AcDbCircle
 10
8114.8265452858
 20
5242.5494545927
 30
0.0
 40
3.099999999999454
100
AcDbArc
 50
0.0
 51
90.0
  0
LINE
  5
D1
330
1F
100
AcDbEntity
  8
0
  6
Continuous
 62
     7
370
    25
100
AcDbLine
 10
8101.4265452858
 20
5226.0806490055
 30
0.0
 11
8101.4265452858
 21
5225.9218087283
 31
0.0
  0
LINE
  5
D2
330
1F
100
AcDbEntity
  8
0
  6
Continuous
 62
     7
370
    25
100
AcDbLine
 10
8101.4265452858
 20
5227.3509717068
 30
0.0
 11
8101.4265452858
 21
5227.1918087283
 31
0.0
  0
LINE
  5
D3
330
1F
100
AcDbEntity
  8
0
  6
Continuous
 62
     7
370
    25
100
AcDbLine
 10
8101.4265452858
 20
5228.6205499276
 30
0.0
 11
8101.4265452858
 21
5228.4618087283
 31
0.0
  0
LINE
  5
D4
330
1F
100
AcDbEntity
  8
0
  6
Continuous
 62
     7
370
    25
100
AcDbLine
 10
8101.4265452858
 20
5230.0494545927
 30
0.0
 11
8101.4265452858
 21
5229.7318087283
 31
0.0
  0
LINE
  5
D5
330
1F
100
AcDbEntity
  8
0
  6
Continuous
 62
     7
370
    25
100
AcDbLine
 10
8116.4265452858
 20
5229.0968563869
 30
0.0
 11
8116.4265452858
 21
5230.0494545927
 31
0.0
  0
LINE
  5
D6
330
1F
100
AcDbEntity
  8
0
  6
Continuous
 62
     7
370
    25
100
AcDbLine
 10
8116.4265452858
 20
5227.8268563869
 30
0.0
 11
8116.4265452858
 21
5227.9858733306
 31
0.0
  0
LINE
  5
D7
330
1F
100
AcDbEntity
  8
0
  6
Continuous
 62
     7
370
    25
100
AcDbLine
 10
8116.4265452858
 20
5226.5568563869
 30
0.0
 11
8116.4265452858
 21
5226.7155963925
 31
0.0
  0
SPLINE
  5
D8
330
1F
100
AcDbEntity
  8
0
  6
Continuous
 62
     7
370
    25
100
AcDbSpline
210
0.0
220
0.0
230
1.0
 70
     8
 71
     3
 72
     9
 73
     5
 74
     0
 42
0.00000001
 43
0.00000001
 40
0.0
 40
0.0
 40
0.0
 40
0.0
 40
0.5060792186911807
 40
0.9999999999999999
 40
0.9999999999999999
 40
0.9999999999999999
 40
0.9999999999999999
 10
8101.433884877554
 20
5228.453401256595
 30
0.0
 10
8101.548609622437
 20
5228.387095910139
 30
0.0
 10
8101.775302876469
 20
5228.256078188
 30
0.0
 10
8102.001988307313
 20
5228.125045354608
 30
0.0
 10
8102.113952952425
 20
5228.060325515163
 30
0.0
  0
SPLINE
  5
D9
330
1F
100
AcDbEntity
  8
0
  6
Continuous
 62
     7
370
    25
100
AcDbSpline
210
0.0
220
0.0
230
1.0
 70
     8
 71
     3
 72
     9
 73
     5
 74
     0
 42
0.00000001
 43
0.00000001
 40
0.0
 40
0.0
 40
0.0
 40
0.0
 40
0.5061931771376439
 40
0.9999999999999999
 40
0.9999999999999999
 40
0.9999999999999999
 40
0.9999999999999999
 10
8101.433884877554
 20
5227.183401256594
 30
0.0
 10
8101.548635273081
 20
5227.117080912592
 30
0.0
 10
8101.775328165658
 20
5226.98606305815
 30
0.0
 10
8102.002013971058
 20
5226.855030345452
 30
0.0
 10
8102.113952968411
 20
5226.790325497904
 30
0.0
  0
LINE
  5
DA
330
1F
100
AcDbEntity
  8
0
  6
Continuous
 62
     7
370
    25
100
AcDbLine
 10
8101.4338848776
 20
5225.9134012566
 30
0.0
 11
8101.6862574499
 21
5225.7675380964
 31
0.0
  0
SPLINE
  5
DB
330
1F
100
AcDbEntity
  8
0
  6
Continuous
 62
     7
370
    25
100
AcDbSpline
210
0.0
220
0.0
230
1.0
 70
     8
 71
     3
 72
     9
 73
     5
 74
     0
 42
0.00000001
 43
0.00000001
 40
0.0
 40
0.0
 40
0.0
 40
0.0
 40
0.4998684901330448
 40
1.0
 40
1.0
 40
1.0
 40
1.0
 10
8115.731049306067
 20
5227.420650268056
 30
0.0
 10
8115.845709759803
 20
5227.486928409363
 30
0.0
 10
8116.075090999068
 20
5227.619519566064
 30
0.0
 10
8116.304480160738
 20
5227.752095428627
 30
0.0
 10
8116.41920490851
 20
5227.818400794942
 30
0.0
  0
SPLINE
  5
DC
330
1F
100
AcDbEntity
  8
0
  6
Continuous
 62
     7
370
    25
100
AcDbSpline
210
0.0
220
0.0
230
1.0
 70
     8
 71
     3
 72
     9
 73
     5
 74
     0
 42
0.00000001
 43
0.00000001
 40
0.0
 40
0.0
 40
0.0
 40
0.0
 40
0.4997558499775173
 40
1.0
 40
1.0
 40
1.0
 40
1.0
 10
8115.731049306067
 20
5226.150650268057
 30
0.0
 10
8115.845684107196
 20
5226.216913411114
 30
0.0
 10
8116.075065716503
 20
5226.349504441434
 30
0.0
 10
8116.304454507655
 20
5226.482080431486
 30
0.0
 10
8116.41920490851
 20
5226.548400794943
 30
0.0
  0
SPLINE
  5
DD
330
1F
100
AcDbEntity
  8
0
  6
Continuous
 62
     7
370
    25
100
AcDbSpline
210
0.0
220
0.0
230
1.0
 70
     8
 71
     3
 72
     9
 73
     5
 74
     0
 42
0.00000001
 43
0.00000001
 40
0.0
 40
0.0
 40
0.0
 40
0.0
 40
0.4999807264792498
 40
0.9999999999999999
 40
0.9999999999999999
 40
0.9999999999999999
 40
0.9999999999999999
 10
8115.731049306067
 20
5228.690650268058
 30
0.0
 10
8115.845735267642
 20
5228.756943431626
 30
0.0
 10
8116.075116032745
 20
5228.889534869775
 30
0.0
 10
8116.304505669158
 20
5229.022110449755
 30
0.0
 10
8116.41920490851
 20
5229.088400794943
 30
0.0
  0
SPLINE
  5
DE
330
1F
100
AcDbEntity
  8
0
  6
Continuous
 62
     7
370
    25
100
AcDbSpline
210
0.0
220
0.0
230
1.0
 70
     8
 71
     3
 72
     9
 73
     5
 74
     0
 42
0.00000001
 43
0.00000001
 40
0.0
 40
0.0
 40
0.0
 40
0.0
 40
0.5059656627654164
 40
0.9999999999999999
 40
0.9999999999999999
 40
0.9999999999999999
 40
0.9999999999999999
 10
8101.433884877554
 20
5229.723401256594
 30
0.0
 10
8101.54858411666
 20
5229.657110931979
 30
0.0
 10
8101.77527783828
 20
5229.526093494448
 30
0.0
 10
8102.001962794805
 20
5229.395060386152
 30
0.0
 10
8102.113952947063
 20
5229.330325531339
 30
0.0
  0
SPLINE
  5
DF
330
1F
100
AcDbEntity
  8
0
  6
Continuous
 62
     7
370
    25
100
AcDbSpline
210
0.0
220
0.0
230
1.0
 70
     8
 71
     3
 72
     9
 73
     5
 74
     0
 42
0.00000001
 43
0.00000001
 40
0.0
 40
0.0
 40
0.0
 40
0.0
 40
0.500092546758739
 40
1.0
 40
1.0
 40
1.0
 40
1.0
 10
8102.122040338068
 20
5227.757008375121
 30
0.0
 10
8102.007329018776
 20
5227.690700167822
 30
0.0
 10
8101.777948836975
 20
5227.558108295123
 30
0.0
 10
8101.548558639182
 20
5227.425533164688
 30
0.0
 10
8101.433884769605
 20
5227.35925786887
 30
0.0
  0
SPLINE
  5
E0
330
1F
100
AcDbEntity
  8
0
  6
Continuous
 62
     7
370
    25
100
AcDbSpline
210
0.0
220
0.0
230
1.0
 70
     8
 71
     3
 72
     9
 73
     5
 74
     0
 42
0.00000001
 43
0.00000001
 40
0.0
 40
0.0
 40
0.0
 40
0.0
 40
0.5002039393470773
 40
1.0
 40
1.0
 40
1.0
 40
1.0
 10
8102.122040338068
 20
5226.487008375121
 30
0.0
 10
8102.007303798478
 20
5226.420685094983
 30
0.0
 10
8101.777924278314
 20
5226.288092616356
 30
0.0
 10
8101.548533417961
 20
5226.155518093257
 30
0.0
 10
8101.433884769605
 20
5226.089257868869
 30
0.0
  0
SPLINE
  5
E1
330
1F
100
AcDbEntity
  8
0
  6
Continuous
 62
     7
370
    25
100
AcDbSpline
210
0.0
220
0.0
230
1.0
 70
     8
 71
     3
 72
     9
 73
     5
 74
     0
 42
0.00000001
 43
0.00000001
 40
0.0
 40
0.0
 40
0.0
 40
0.0
 40
0.505852932130926
 40
1.0
 40
1.0
 40
1.0
 40
1.0
 10
8116.419205231393
 20
5226.724258204214
 30
0.0
 10
8116.304531339018
 20
5226.790533491542
 30
0.0
 10
8116.077837205031
 20
5226.921550400049
 30
0.0
 10
8115.851152969414
 20
5227.052583852226
 30
0.0
 10
8115.739137619052
 20
5227.117333648413
 30
0.0
  0
SPLINE
  5
E2
330
1F
100
AcDbEntity
  8
0
  6
Continuous
 62
     7
370
    25
100
AcDbSpline
210
0.0
220
0.0
230
1.0
 70
     8
 71
     3
 72
     9
 73
     5
 74
     0
 42
0.00000001
 43
0.00000001
 40
0.0
 40
0.0
 40
0.0
 40
0.0
 40
0.5059660800823507
 40
0.9999999999999999
 40
0.9999999999999999
 40
0.9999999999999999
 40
0.9999999999999999
 10
8116.419205231393
 20
5227.994258204214
 30
0.0
 10
8116.304505975984
 20
5228.060548538121
 30
0.0
 10
8116.077812409117
 20
5228.191565885954
 30
0.0
 10
8115.851127606263
 20
5228.322598906547
 30
0.0
 10
8115.739137624521
 20
5228.387333663348
 30
0.0
  0
SPLINE
  5
E3
330
1F
100
AcDbEntity
  8
0
  6
Continuous
 62
     7
370
    25
100
AcDbSpline
210
0.0
220
0.0
230
1.0
 70
     8
 71
     3
 72
     9
 73
     5
 74
     0
 42
0.00000001
 43
0.00000001
 40
0.0
 40
0.0
 40
0.0
 40
0.0
 40
0.4999807273464258
 40
1.0
 40
1.0
 40
1.0
 40
1.0
 10
8102.122040338068
 20
5229.02700837512
 30
0.0
 10
8102.007354381206
 20
5228.960715215052
 30
0.0
 10
8101.77797362593
 20
5228.828123784138
 30
0.0
 10
8101.548584002347
 20
5228.695548210681
 30
0.0
 10
8101.433884769605
 20
5228.62925786887
 30
0.0
  0
SPLINE
  5
E4
330
1F
100
AcDbEntity
  8
0
  6
Continuous
 62
     7
370
    25
100
AcDbSpline
210
0.0
220
0.0
230
1.0
 70
     8
 71
     3
 72
     9
 73
     5
 74
     0
 42
0.00000001
 43
0.00000001
 40
0.0
 40
0.0
 40
0.0
 40
0.0
 40
0.5077406828356076
 40
1.0
 40
1.0
 40
1.0
 40
1.0
 10
8102.113952947063
 20
5228.065079384409
 30
0.0
 10
8102.113953037115
 20
5228.012148136648
 30
0.0
 10
8102.113953214477
 20
5227.90789955159
 30
0.0
 10
8102.113953038872
 20
5227.803650974799
 30
0.0
 10
8102.113952952429
 20
5227.752333641572
 30
0.0
  0
SPLINE
  5
E5
330
1F
100
AcDbEntity
  8
0
  6
Continuous
 62
     7
370
    25
100
AcDbSpline
210
0.0
220
0.0
230
1.0
 70
     8
 71
     3
 72
     9
 73
     5
 74
     0
 42
0.00000001
 43
0.00000001
 40
0.0
 40
0.0
 40
0.0
 40
0.0
 40
0.5078804490036462
 40
1.0
 40
1.0
 40
1.0
 40
1.0
 10
8102.113952947063
 20
5226.795079384409
 30
0.0
 10
8102.113953305645
 20
5226.742133549249
 30
0.0
 10
8102.113954011681
 20
5226.63788493077
 30
0.0
 10
8102.113953312511
 20
5226.533636378415
 30
0.0
 10
8102.113952968436
 20
5226.482333627639
 30
0.0
  0
SPLINE
  5
E6
330
1F
100
AcDbEntity
  8
0
  6
Continuous
 62
     7
370
    25
100
AcDbSpline
210
0.0
220
0.0
230
1.0
 70
     8
 71
     3
 72
     9
 73
     5
 74
     0
 42
0.00000001
 43
0.00000001
 40
0.0
 40
0.0
 40
0.0
 40
0.0
 40
0.5074596892184335
 40
1.0
 40
1.0
 40
1.0
 40
1.0
 10
8115.739137624521
 20
5227.112578964689
 30
0.0
 10
8115.73913753279
 20
5227.165481050241
 30
0.0
 10
8115.739137352024
 20
5227.269729893404
 30
0.0
 10
8115.739137530935
 20
5227.373978744834
 30
0.0
 10
8115.739137619057
 20
5227.425325506516
 30
0.0
  0
SPLINE
  5
E7
330
1F
100
AcDbEntity
  8
0
  6
Continuous
 62
     7
370
    25
100
AcDbSpline
210
0.0
220
0.0
230
1.0
 70
     8
 71
     3
 72
     9
 73
     5
 74
     0
 42
0.00000001
 43
0.00000001
 40
0.0
 40
0.0
 40
0.0
 40
0.0
 40
0.5073199286001634
 40
1.0
 40
1.0
 40
1.0
 40
1.0
 10
8115.739137624521
 20
5225.842578964689
 30
0.0
 10
8115.739137262784
 20
5225.895466462835
 30
0.0
 10
8115.739136549745
 20
5225.999715271454
 30
0.0
 10
8115.739137255339
 20
5226.103964146199
 30
0.0
 10
8115.739137602972
 20
5226.155325489251
 30
0.0
  0
LINE
  5
E8
330
1F
100
AcDbEntity
  8
0
  6
Continuous
 62
     7
370
    25
100
AcDbLine
 10
8115.7391376245
 20
5228.3825789647
 30
0.0
 11
8115.7391376245
 21
5228.6953255227
 31
0.0
  0
LINE
  5
E9
330
1F
100
AcDbEntity
  8
0
  6
Continuous
 62
     7
370
    25
100
AcDbLine
 10
8102.1139529471
 20
5229.3350793844
 30
0.0
 11
8102.1139529471
 21
5229.0223336566
 31
0.0
  0
LINE
  5
EA
330
1F
100
AcDbEntity
  8
0
  6
Continuous
 62
     7
370
    25
100
AcDbLine
 10
7987.3265452858
 20
5071.8494545927
 30
0.0
 11
7987.3265452858
 21
5071.0494545927
 31
0.0
  0
LINE
  5
EB
330
1F
100
AcDbEntity
  8
0
  6
Continuous
 62
     7
370
    25
100
AcDbLine
 10
7968.3265452858
 20
5071.0494545927
 30
0.0
 11
7968.3265452858
 21
5071.8494545927
 31
0.0
  0
LINE
  5
EC
330
1F
100
AcDbEntity
  8
0
  6
Continuous
 62
     7
370
    25
100
AcDbLine
 10
8100.0535415541
 20
5223.8421183147
 30
0.0
 11
8100.0535415541
 21
5222.4595603835
 31
0.0
  0
LINE
  5
ED
330
1F
100
AcDbEntity
  8
0
  6
Continuous
 62
     7
370
    25
100
AcDbLine
 10
8117.8535415541
 20
5220.0494545927
 30
0.0
 11
8117.8535415541
 21
5223.8421183147
 31
0.0
  0
ARC
  5
EE
330
1F
100
AcDbEntity
  8
0
  6
Continuous
 62
     7
370
    25
100
AcDbCircle
 10
8102.0535415541
 20
5223.8421183147
 30
0.0
 40
2.000000000000909
100
AcDbArc
 50
90.0
 51
180.0
  0
ARC
  5
EF
330
1F
100
AcDbEntity
  8
0
  6
Continuous
 62
     7
370
    25
100
AcDbCircle
 10
8115.8535415541
 20
5223.8421183147
 30
0.0
 40
2.000000000000909
100
AcDbArc
 50
0.0
 51
90.0
  0
LINE
  5
F0
330
1F
100
AcDbEntity
  8
0
  6
Continuous
 62
     7
370
    25
100
AcDbLine
 10
8102.0535415541
 20
5239.6678025341
 30
0.0
 11
8102.0535415541
 21
5235.3421183147
 31
0.0
  0
LINE
  5
F1
330
1F
100
AcDbEntity
  8
0
  6
Continuous
 62
     7
370
    25
100
AcDbLine
 10
8115.8535415541
 20
5235.3421183147
 30
0.0
 11
8115.8535415541
 21
5239.6678025341
 31
0.0
  0
ARC
  5
F2
330
1F
100
AcDbEntity
  8
0
  6
Continuous
 62
     7
370
    25
100
AcDbCircle
 10
8103.0535415541
 20
5239.6678025341
 30
0.0
 40
0.9999999999992335
100
AcDbArc
 50
120.0
 51
180.0
  0
ARC
  5
F3
330
1F
100
AcDbEntity
  8
0
  6
Continuous
 62
     7
370
    25
100
AcDbCircle
 10
8114.8535415541
 20
5239.6678025341
 30
0.0
 40
1.000000000000143
100
AcDbArc
 50
0.0
 51
59.9999999999
  0
LINE
  5
F4
330
1F
100
AcDbEntity
  8
0
  6
Continuous
 62
     7
370
    25
100
AcDbLine
 10
8115.3535415541
 20
5240.5338279378
 30
0.0
 11
8113.9535415541
 21
5241.3421183147
 31
0.0
  0
LINE
  5
F5
330
1F
100
AcDbEntity
  8
0
  6
Continuous
 62
     7
370
    25
100
AcDbLine
 10
8103.9535415541
 20
5241.3421183147
 30
0.0
 11
8102.5535415541
 21
5240.5338279378
 31
0.0
  0
LINE
  5
F6
330
1F
100
AcDbEntity
  8
0
  6
Continuous
 62
     7
370
    25
100
AcDbLine
 10
8102.6035415541
 20
5235.3421183147
 30
0.0
 11
8102.6035415541
 21
5225.8421183147
 31
0.0
  0
LINE
  5
F7
330
1F
100
AcDbEntity
  8
0
  6
Continuous
 62
     7
370
    25
100
AcDbLine
 10
8115.3035415541
 20
5225.8421183147
 30
0.0
 11
8115.3035415541
 21
5235.3421183147
 31
0.0
  0
LINE
  5
F8
330
1F
100
AcDbEntity
  8
0
  6
Continuous
 62
     7
370
    25
100
AcDbLine
 10
8103.9535415541
 20
5246.4421183147
 30
0.0
 11
8103.9535415541
 21
5241.3421183147
 31
0.0
  0
LINE
  5
F9
330
1F
100
AcDbEntity
  8
0
  6
Continuous
 62
     7
370
    25
100
AcDbLine
 10
8113.9535415541
 20
5241.3421183147
 30
0.0
 11
8113.9535415541
 21
5246.4421183147
 31
0.0
  0
LINE
  5
FA
330
1F
100
AcDbEntity
  8
0
  6
Continuous
 62
     7
370
    25
100
AcDbLine
 10
7840.1265452858
 20
5050.6694545927
 30
0.0
 11
7840.1265452858
 21
5051.0494545927
 31
0.0
  0
LINE
  5
FB
330
1F
100
AcDbEntity
  8
0
  6
Continuous
 62
     7
370
    25
100
AcDbLine
 10
7832.5265452858
 20
5051.0494545927
 30
0.0
 11
7832.5265452858
 21
5050.6694545927
 31
0.0
  0
ARC
  5
FC
330
1F
100
AcDbEntity
  8
0
  6
Continuous
 62
     7
370
    25
100
AcDbCircle
 10
7836.3265452858
 20
5052.734729318
 30
0.0
 40
4.324969328314234
100
AcDbArc
 50
296.059831153
 51
331.4762140417
  0
ARC
  5
FD
330
1F
100
AcDbEntity
  8
0
  6
Continuous
 62
     7
370
    25
100
AcDbCircle
 10
7836.3265452858
 20
5052.734729318
 30
0.0
 40
4.324969328314634
100
AcDbArc
 50
208.5237859583
 51
243.940168847
  0
ARC
  5
FE
330
1F
100
AcDbEntity
  8
0
  6
Continuous
 62
     7
370
    25
100
AcDbCircle
 10
8119.3265452858
 20
5053.4200567783
 30
0.0
 40
4.324969328316235
100
AcDbArc
 50
296.059831153
 51
326.7618675674
  0
ARC
  5
FF
330
1F
100
AcDbEntity
  8
0
  6
Continuous
 62
     7
370
    25
100
AcDbCircle
 10
8119.3265452858
 20
5053.4200567783
 30
0.0
 40
4.324969328314713
100
AcDbArc
 50
213.2381324326
 51
243.940168847
  0
LINE
  5
100
330
1F
100
AcDbEntity
  8
0
  6
Continuous
 62
     7
370
    25
100
AcDbLine
 10
7981.6265452858
 20
5050.6694545927
 30
0.0
 11
7981.6265452858
 21
5051.0494545927
 31
0.0
  0
LINE
  5
101
330
1F
100
AcDbEntity
  8
0
  6
Continuous
 62
     7
370
    25
100
AcDbLine
 10
7974.0265452858
 20
5051.0494545927
 30
0.0
 11
7974.0265452858
 21
5050.6694545927
 31
0.0
  0
ARC
  5
102
330
1F
100
AcDbEntity
  8
0
  6
Continuous
 62
     7
370
    25
100
AcDbCircle
 10
7977.8265452858
 20
5052.734729318
 30
0.0
 40
4.324969328314634
100
AcDbArc
 50
296.059831153
 51
331.4762140417
  0
ARC
  5
103
330
1F
100
AcDbEntity
  8
0
  6
Continuous
 62
     7
370
    25
100
AcDbCircle
 10
7977.8265452858
 20
5052.734729318
 30
0.0
 40
4.324969328314602
100
AcDbArc
 50
208.5237859583
 51
243.940168847
  0
LINE
  5
104
330
1F
100
AcDbEntity
  8
0
  6
Continuous
 62
     7
370
    25
100
AcDbLine
 10
7888.8265452858
 20
5315.4664816289
 30
0.0
 11
7888.8265452858
 21
5299.5979960449
 31
0.0
  0
LINE
  5
105
330
1F
100
AcDbEntity
  8
0
  6
Continuous
 62
     7
370
    25
100
AcDbLine
 10
7888.8265452858
 20
5299.5979960449
 30
0.0
 11
7863.8265452858
 21
5299.5979960449
 31
0.0
  0
LWPOLYLINE
  5
106
330
1F
100
AcDbEntity
  8
0
  6
Continuous
 62
     7
370
    25
100
AcDbPolyline
 90
       14
 70
   128
 43
0.0
 10
7888.8265452858
 20
5315.4664816289
 10
7885.8131282794
 20
5315.3507825026
 10
7882.8436536786
 20
5315.0053722776
 10
7879.9614231097
 20
5314.4352878128
 10
7877.2084659847
 20
5313.6488422233
 10
7874.6249266175
 20
5312.6575036567
 10
7872.2484788298
 20
5311.4757280617
 10
7870.1137765815
 20
5310.1207483876
 10
7868.2519486385
 20
5308.6123232892
 10
7866.6901446445
 20
5306.972449001
 10
7865.4511392187
 20
5305.225038583
 10
7864.5529998502
 20
5303.3955732137
 10
7864.0088234334
 20
5301.5107306179
 10
7863.8265452858
 20
5299.5979960449
  0
LINE
  5
107
330
1F
100
AcDbEntity
  8
0
  6
Continuous
 62
     7
370
    25
100
AcDbLine
 10
7888.8265452858
 20
5204.0737253188
 30
0.0
 11
7888.8265452858
 21
5108.5494545927
 31
0.0
  0
LINE
  5
108
330
1F
100
AcDbEntity
  8
0
  6
Continuous
 62
     7
370
    25
100
AcDbLine
 10
7888.8265452858
 20
5108.5494545927
 30
0.0
 11
7863.8265452858
 21
5108.5494545927
 31
0.0
  0
LINE
  5
109
330
1F
100
AcDbEntity
  8
0
  6
Continuous
 62
     7
370
    25
100
AcDbLine
 10
7863.8265452858
 20
5108.5494545927
 30
0.0
 11
7863.8265452858
 21
5299.5979960449
 31
0.0
  0
LINE
  5
10A
330
1F
100
AcDbEntity
  8
0
  6
Continuous
 62
     7
370
    25
100
AcDbLine
 10
7888.8265452858
 20
5299.5979960449
 30
0.0
 11
7888.8265452858
 21
5204.0737253188
 31
0.0
  0
LINE
  5
10B
330
1F
100
AcDbEntity
  8
0
  6
Continuous
 62
     7
370
    25
100
AcDbLine
 10
7888.8265452858
 20
5108.5494545927
 30
0.0
 11
7888.8265452858
 21
5083.5494545927
 31
0.0
  0
ARC
  5
10C
330
1F
100
AcDbEntity
  8
0
  6
Continuous
 62
     7
370
    25
100
AcDbCircle
 10
7888.8265452858
 20
5108.5494545927
 30
0.0
 40
25.00000000000091
100
AcDbArc
 50
180.0
 51
270.0
  0
LINE
  5
10D
330
1F
100
AcDbEntity
  8
0
  6
Continuous
 62
     7
370
    25
100
AcDbLine
 10
7888.8265452858
 20
5108.5494545927
 30
0.0
 11
8013.8265452858
 21
5108.5494545927
 31
0.0
  0
LINE
  5
10E
330
1F
100
AcDbEntity
  8
0
  6
Continuous
 62
     7
370
    25
100
AcDbLine
 10
8013.8265452858
 20
5108.5494545927
 30
0.0
 11
8013.8265452858
 21
5083.5494545927
 31
0.0
  0
LINE
  5
10F
330
1F
100
AcDbEntity
  8
0
  6
Continuous
 62
     7
370
    25
100
AcDbLine
 10
7987.8265452858
 20
5083.5494545927
 30
0.0
 11
7967.8265452858
 21
5083.5494545927
 31
0.0
  0
LINE
  5
110
330
1F
100
AcDbEntity
  8
0
  6
Continuous
 62
     7
370
    25
100
AcDbLine
 10
7888.8265452858
 20
5315.4664816289
 30
0.0
 11
8013.8265452858
 21
5315.4664816289
 31
0.0
  0
LINE
  5
111
330
1F
100
AcDbEntity
  8
0
  6
Continuous
 62
     7
370
    25
100
AcDbLine
 10
8013.8265452858
 20
5315.4664816289
 30
0.0
 11
8013.8265452858
 21
5299.5979960449
 31
0.0
  0
LINE
  5
112
330
1F
100
AcDbEntity
  8
0
  6
Continuous
 62
     7
370
    25
100
AcDbLine
 10
8013.8265452858
 20
5299.5979960449
 30
0.0
 11
7888.8265452858
 21
5299.5979960449
 31
0.0
  0
LINE
  5
113
330
1F
100
AcDbEntity
  8
0
  6
Continuous
 62
     7
370
    25
100
AcDbLine
 10
8013.8265452858
 20
5204.0737253188
 30
0.0
 11
8013.8265452858
 21
5299.5979960449
 31
0.0
  0
LINE
  5
114
330
1F
100
AcDbEntity
  8
0
  6
Continuous
 62
     7
370
    25
100
AcDbLine
 10
8013.8265452858
 20
5204.0737253188
 30
0.0
 11
7888.8265452858
 21
5204.0737253188
 31
0.0
  0
LWPOLYLINE
  5
115
330
1F
100
AcDbEntity
  8
0
  6
Continuous
 62
     7
370
    25
100
AcDbPolyline
 90
       14
 70
   128
 43
0.0
 10
8038.8265452858
 20
5299.5979960449
 10
8038.6442671383
 20
5301.5107306179
 10
8038.1000907215
 20
5303.3955732137
 10
8037.2019513529
 20
5305.225038583
 10
8035.9629459271
 20
5306.972449001
 10
8034.4011419331
 20
5308.6123232892
 10
8032.5393139901
 20
5310.1207483876
 10
8030.4046117418
 20
5311.4757280617
 10
8028.0281639541
 20
5312.6575036567
 10
8025.4446245869
 20
5313.6488422233
 10
8022.6916674619
 20
5314.4352878128
 10
8019.809436893
 20
5315.0053722776
 10
8016.8399622922
 20
5315.3507825026
 10
8013.8265452858
 20
5315.4664816289
  0
LINE
  5
116
330
1F
100
AcDbEntity
  8
0
  6
Continuous
 62
     7
370
    25
100
AcDbLine
 10
8038.8265452858
 20
5299.5979960449
 30
0.0
 11
8013.8265452858
 21
5299.5979960449
 31
0.0
  0
LINE
  5
117
330
1F
100
AcDbEntity
  8
0
  6
Continuous
 62
     7
370
    25
100
AcDbLine
 10
8013.8265452858
 20
5108.5494545927
 30
0.0
 11
8038.8265452858
 21
5108.5494545927
 31
0.0
  0
ARC
  5
118
330
1F
100
AcDbEntity
  8
0
  6
Continuous
 62
     7
370
    25
100
AcDbCircle
 10
8013.8265452858
 20
5108.5494545927
 30
0.0
 40
25.0
100
AcDbArc
 50
270.0
 51
0.0
  0
LINE
  5
119
330
1F
100
AcDbEntity
  8
0
  6
Continuous
 62
     7
370
    25
100
AcDbLine
 10
8013.8265452858
 20
5108.5494545927
 30
0.0
 11
8013.8265452858
 21
5204.0737253188
 31
0.0
  0
LINE
  5
11A
330
1F
100
AcDbEntity
  8
0
  6
Continuous
 62
     7
370
    25
100
AcDbLine
 10
8038.8265452858
 20
5299.5979960449
 30
0.0
 11
8038.8265452858
 21
5108.5494545927
 31
0.0
  0
LINE
  5
11B
330
1F
100
AcDbEntity
  8
0
  6
Continuous
 62
     7
370
    25
100
AcDbLine
 10
7863.8265452858
 20
5299.5979960449
 30
0.0
 11
7863.8265452858
 21
5304.2191108561
 31
0.0
  0
ARC
  5
11C
330
1F
100
AcDbEntity
  8
0
  6
Continuous
 62
     7
370
    25
100
AcDbCircle
 10
7888.8265452858
 20
5304.2191108561
 30
0.0
 40
25.00000000000091
100
AcDbArc
 50
160.3461759419
 51
180.0
  0
LINE
  5
11D
330
1F
100
AcDbEntity
  8
0
  6
Continuous
 62
     7
370
    25
100
AcDbLine
 10
7865.2829974959
 20
5312.6275207811
 30
0.0
 11
7887.6769851163
 21
5375.3306861182
 31
0.0
  0
LINE
  5
11E
330
1F
100
AcDbEntity
  8
0
  6
Continuous
 62
     7
370
    25
100
AcDbLine
 10
7888.4964906814
 20
5376.7776724978
 30
0.0
 11
7887.6769851163
 21
5375.3306861182
 31
0.0
  0
ELLIPSE
  5
11F
330
1F
100
AcDbEntity
  8
0
  6
Continuous
 62
     7
370
    25
100
AcDbEllipse
 10
7888.8265452858
 20
5373.6994545927
 30
0.0
 11
25.0
 21
0.0
 31
0.0
210
0.0
220
0.0
230
1.0
 40
0.1231394481
 41
1.570796326794897
 42
1.583998894519305
  0
LINE
  5
120
330
1F
100
AcDbEntity
  8
0
  6
Continuous
 62
     7
370
    25
100
AcDbLine
 10
7888.8265452858
 20
5376.777940796
 30
0.0
 11
7888.8265452858
 21
5315.4664816289
 31
0.0
  0
LINE
  5
121
330
1F
100
AcDbEntity
  8
0
  6
Continuous
 62
     7
370
    25
100
AcDbLine
 10
7896.854546456
 20
5354.7844779762
 30
0.0
 11
7893.7777078291
 21
5366.2673960585
 31
0.0
  0
ARC
  5
122
330
1F
100
AcDbEntity
  8
0
  6
Continuous
 62
     7
370
    25
100
AcDbCircle
 10
7911.1985449764
 20
5358.627940796
 30
0.0
 40
14.85000000000036
100
AcDbArc
 50
195.0
 51
270.0
  0
LINE
  5
123
330
1F
100
AcDbEntity
  8
0
  6
Continuous
 62
     7
370
    25
100
AcDbLine
 10
7950.8265452858
 20
5343.777940796
 30
0.0
 11
7911.1985449764
 21
5343.777940796
 31
0.0
  0
ARC
  5
124
330
1F
100
AcDbEntity
  8
0
  6
Continuous
 62
     7
370
    25
100
AcDbCircle
 10
7950.8265452858
 20
5358.627940796
 30
0.0
 40
14.85000000000036
100
AcDbArc
 50
270.0
 51
0.0
  0
LINE
  5
125
330
1F
100
AcDbEntity
  8
0
  6
Continuous
 62
     7
370
    25
100
AcDbLine
 10
7965.6765452858
 20
5360.9925055353
 30
0.0
 11
7965.6765452858
 21
5358.627940796
 31
0.0
  0
ARC
  5
126
330
1F
100
AcDbEntity
  8
0
  6
Continuous
 62
     7
370
    25
100
AcDbCircle
 10
7973.6765452858
 20
5366.477940796
 30
0.0
 40
9.700000000000728
100
AcDbArc
 50
214.4376300407
 51
270.0
  0
LINE
  5
127
330
1F
100
AcDbEntity
  8
0
  6
Continuous
 62
     7
370
    25
100
AcDbLine
 10
8013.8265452858
 20
5356.777940796
 30
0.0
 11
7973.6765452858
 21
5356.777940796
 31
0.0
  0
LINE
  5
128
330
1F
100
AcDbEntity
  8
0
  6
Continuous
 62
     7
370
    25
100
AcDbLine
 10
8013.8265452858
 20
5315.4664816289
 30
0.0
 11
8013.8265452858
 21
5356.777940796
 31
0.0
  0
LINE
  5
129
330
1F
100
AcDbEntity
  8
0
  6
Continuous
 62
     7
370
    25
100
AcDbLine
 10
7897.6617530833
 20
5376.777940796
 30
0.0
 11
7888.8265452858
 21
5376.777940796
 31
0.0
  0
ARC
  5
12A
330
1F
100
AcDbEntity
  8
0
  6
Continuous
 62
     7
370
    25
100
AcDbCircle
 10
7903.1471883441
 20
5368.777940796
 30
0.0
 40
9.699999999999905
100
AcDbArc
 50
124.4376300407
 51
195.0
  0
LINE
  5
12B
330
1F
100
AcDbEntity
  8
0
  6
Continuous
 62
     7
370
    25
100
AcDbLine
 10
8022.1189625981
 20
5355.3306861182
 30
0.0
 11
8037.3700930757
 21
5312.6275207811
 31
0.0
  0
ARC
  5
12C
330
1F
100
AcDbEntity
  8
0
  6
Continuous
 62
     7
370
    25
100
AcDbCircle
 10
8013.8265452858
 20
5304.2191108561
 30
0.0
 40
25.0
100
AcDbArc
 50
0.0
 51
19.6538240581
  0
LINE
  5
12D
330
1F
100
AcDbEntity
  8
0
  6
Continuous
 62
     7
370
    25
100
AcDbLine
 10
8038.8265452858
 20
5304.2191108561
 30
0.0
 11
8038.8265452858
 21
5299.5979960449
 31
0.0
  0
ELLIPSE
  5
12E
330
1F
100
AcDbEntity
  8
0
  6
Continuous
 62
     7
370
    25
100
AcDbEllipse
 10
8013.8265452858
 20
5353.6994545927
 30
0.0
 11
25.0
 21
0.0
 31
0.0
210
0.0
220
0.0
230
1.0
 40
0.1231394481
 41
1.2624368490069
 42
1.570796326794897
  0
LINE
  5
12F
330
1F
100
AcDbEntity
  8
0
  6
Continuous
 62
     7
370
    25
100
AcDbLine
 10
8022.1189625981
 20
5355.3306861182
 30
0.0
 11
8021.4139428424
 21
5356.632737048
 31
0.0
  0
ARC
  5
130
330
1F
100
AcDbEntity
  8
0
  6
Continuous
 62
     7
370
    25
100
AcDbCircle
 10
7911.1985449764
 20
5355.5494545927
 30
0.0
 40
10.00000000000001
100
AcDbArc
 50
195.0
 51
270.0
  0
LINE
  5
131
330
1F
100
AcDbEntity
  8
0
  6
Continuous
 62
     7
370
    25
100
AcDbLine
 10
7911.1985449764
 20
5345.5494545927
 30
0.0
 11
7911.1985449764
 21
5343.777940796
 31
0.0
  0
LWPOLYLINE
  5
132
330
1F
100
AcDbEntity
  8
0
  6
Continuous
 62
     7
370
    25
100
AcDbPolyline
 90
        9
 70
   128
 43
0.0
 10
7901.5392867135
 20
5352.9612641417
 10
7901.3307487647
 20
5353.4509734225
 10
7900.9843509797
 20
5353.8869400733
 10
7900.5107618535
 20
5354.255737022
 10
7899.92456717
 20
5354.5460059155
 10
7899.2438207832
 20
5354.7488069384
 10
7898.4894885875
 20
5354.8578941451
 10
7897.6848028022
 20
5354.8699078251
 10
7896.854546456
 20
5354.7844779762
  0
LINE
  5
133
330
1F
100
AcDbEntity
  8
0
  6
Continuous
 62
     7
370
    25
100
AcDbLine
 10
7911.1985449764
 20
5345.5494545927
 30
0.0
 11
7950.8265452858
 21
5345.5494545927
 31
0.0
  0
LINE
  5
134
330
1F
100
AcDbEntity
  8
0
  6
Continuous
 62
     7
370
    25
100
AcDbLine
 10
7950.8265452858
 20
5345.5494545927
 30
0.0
 11
7950.8265452858
 21
5343.777940796
 31
0.0
  0
ARC
  5
135
330
1F
100
AcDbEntity
  8
0
  6
Continuous
 62
     7
370
    25
100
AcDbCircle
 10
7950.8265452858
 20
5355.5494545927
 30
0.0
 40
10.0
100
AcDbArc
 50
270.0
 51
0.0
  0
LWPOLYLINE
  5
136
330
1F
100
AcDbEntity
  8
0
  6
Continuous
 62
     7
370
    25
100
AcDbPolyline
 90
        9
 70
   128
 43
0.0
 10
7960.8265452858
 20
5355.5494545927
 10
7960.9197366759
 20
5356.1500374574
 10
7961.1957295531
 20
5356.7275402595
 10
7961.6439176661
 20
5357.25976989
 10
7962.2470773971
 20
5357.7262730629
 10
7962.9820296557
 20
5358.1091223227
 10
7963.8205306388
 20
5358.3936049871
 10
7964.730357224
 20
5358.5687885468
 10
7965.6765452858
 20
5358.627940796
  0
LINE
  5
137
330
1F
100
AcDbEntity
  8
0
  6
Continuous
 62
     7
370
    25
100
AcDbLine
 10
7898.4624480866
 20
5364.444182224
 30
0.0
 11
7901.5392867135
 21
5352.9612641417
 31
0.0
  0
LWPOLYLINE
  5
138
330
1F
100
AcDbEntity
  8
0
  6
Continuous
 62
     7
370
    25
100
AcDbPolyline
 90
        9
 70
   128
 43
0.0
 10
7893.7777078291
 20
5366.2673960585
 10
7894.6079641753
 20
5366.3528259074
 10
7895.4126499606
 20
5366.3408122274
 10
7896.1669821563
 20
5366.2317250207
 10
7896.8477285431
 20
5366.0289239978
 10
7897.4339232266
 20
5365.7386551043
 10
7897.9075123528
 20
5365.3698581556
 10
7898.2539101378
 20
5364.9338915047
 10
7898.4624480866
 20
5364.444182224
  0
SPLINE
  5
139
330
1F
100
AcDbEntity
  8
0
  6
Continuous
 62
     7
370
    25
100
AcDbSpline
210
0.0
220
0.0
230
1.0
 70
     8
 71
     3
 72
    10
 73
     6
 74
     0
 42
0.00000001
 43
0.00000001
 40
0.0
 40
0.0
 40
0.0
 40
0.0
 40
0.4949838820654033
 40
0.9971582189568455
 40
1.0
 40
1.0
 40
1.0
 40
1.0
 10
7964.826545285807
 20
5366.430293798441
 30
0.0
 10
7964.865296132748
 20
5365.521526818938
 30
0.0
 10
7964.943360746403
 20
5363.690791525201
 30
0.0
 10
7965.384356419797
 20
5361.901847709002
 30
0.0
 10
7965.674910307239
 20
5360.997593870705
 30
0.0
 10
7965.676545285808
 20
5360.992505535255
 30
0.0
  0
LWPOLYLINE
  5
13A
330
1F
100
AcDbEntity
  8
0
  6
Continuous
 62
     7
370
    25
100
AcDbPolyline
 90
        9
 70
   128
 43
0.0
 10
7968.8265452858
 20
5363.3994545927
 10
7968.7530348716
 20
5363.9334086374
 10
7968.5347319923
 20
5364.4511766271
 10
7968.178254188
 20
5364.9370631644
 10
7967.6944075748
 20
5365.3763392922
 10
7967.0978592722
 20
5365.7556889816
 10
7966.4066927906
 20
5366.0636127881
 10
7965.6418598555
 20
5366.290776441
 10
7964.8265452858
 20
5366.4302937984
  0
ARC
  5
13B
330
1F
100
AcDbEntity
  8
0
  6
Continuous
 62
     7
370
    25
100
AcDbCircle
 10
7973.6765452858
 20
5363.3994545927
 30
0.0
 40
4.850000000000364
100
AcDbArc
 50
180.0
 51
270.0
  0
LINE
  5
13C
330
1F
100
AcDbEntity
  8
0
  6
Continuous
 62
     7
370
    25
100
AcDbLine
 10
7973.6765452858
 20
5356.777940796
 30
0.0
 11
7973.6765452858
 21
5358.5494545927
 31
0.0
  0
LINE
  5
13D
330
1F
100
AcDbEntity
  8
0
  6
Continuous
 62
     7
370
    25
100
AcDbLine
 10
7973.6765452858
 20
5358.5494545927
 30
0.0
 11
8013.8265452858
 21
5358.5494545927
 31
0.0
  0
LINE
  5
13E
330
1F
100
AcDbEntity
  8
0
  6
Continuous
 62
     7
370
    25
100
AcDbLine
 10
8013.8265452858
 20
5358.5494545927
 30
0.0
 11
8013.8265452858
 21
5356.777940796
 31
0.0
  0
LINE
  5
13F
330
1F
100
AcDbEntity
  8
0
  6
Continuous
 62
     7
370
    25
100
AcDbLine
 10
8013.8265452858
 20
5358.5494545927
 30
0.0
 11
8017.5515143269
 21
5358.5494545927
 31
0.0
  0
SPLINE
  5
140
330
1F
100
AcDbEntity
  8
0
  6
Continuous
 62
     7
370
    25
100
AcDbSpline
210
0.0
220
0.0
230
1.0
 70
     8
 71
     3
 72
    11
 73
     7
 74
     0
 42
0.00000001
 43
0.00000001
 40
0.0
 40
0.0
 40
0.0
 40
0.0
 40
0.0026827818619616
 40
0.2818347853737596
 40
0.6399773422072036
 40
1.0
 40
1.0
 40
1.0
 40
1.0
 10
8017.551514326915
 20
5358.549454592719
 30
0.0
 10
8017.555218148897
 20
5358.549451839155
 30
0.0
 10
8017.944316453386
 20
5358.549162568487
 30
0.0
 10
8018.83559603529
 20
5358.436526973132
 30
0.0
 10
8020.223412909484
 20
5357.892386664355
 30
0.0
 10
8021.01640753194
 20
5357.053352429014
 30
0.0
 10
8021.413942842447
 20
5356.632737047992
 30
0.0
  0
LINE
  5
141
330
1F
100
AcDbEntity
  8
0
  6
Continuous
 62
     7
370
    25
100
AcDbLine
 10
7983.8265452858
 20
5377.5494545927
 30
0.0
 11
8018.8265452858
 21
5377.5494545927
 31
0.0
  0
LINE
  5
142
330
1F
100
AcDbEntity
  8
0
  6
Continuous
 62
     7
370
    25
100
AcDbLine
 10
7978.8265452858
 20
5360.5494545927
 30
0.0
 11
8023.8265452858
 21
5360.5494545927
 31
0.0
  0
LINE
  5
143
330
1F
100
AcDbEntity
  8
0
  6
Continuous
 62
     7
370
    25
100
AcDbLine
 10
7960.8265452858
 20
5355.5494545927
 30
0.0
 11
7960.8265452858
 21
5365.6994545927
 31
0.0
  0
LWPOLYLINE
  5
144
330
1F
100
AcDbEntity
  8
0
  6
Continuous
 62
     7
370
    25
100
AcDbPolyline
 90
        9
 70
   128
 43
0.0
 10
7964.8265452858
 20
5368.7302937984
 10
7964.0112307162
 20
5368.590776441
 10
7963.2463977811
 20
5368.3636127881
 10
7962.5552312994
 20
5368.0556889816
 10
7961.9586829968
 20
5367.6763392922
 10
7961.4748363836
 20
5367.2370631644
 10
7961.1183585794
 20
5366.7511766272
 10
7960.9000557
 20
5366.2334086374
 10
7960.8265452858
 20
5365.6994545927
  0
LINE
  5
145
330
1F
100
AcDbEntity
  8
0
  6
Continuous
 62
     7
370
    25
100
AcDbLine
 10
7964.8265452858
 20
5368.7302937984
 30
0.0
 11
7964.8265452858
 21
5366.4302937984
 31
0.0
  0
SPLINE
  5
146
330
1F
100
AcDbEntity
  8
0
  6
Continuous
 62
     7
370
    25
100
AcDbSpline
210
0.0
220
0.0
230
1.0
 70
     8
 71
     3
 72
    11
 73
     7
 74
     0
 42
0.00000001
 43
0.00000001
 40
0.0
 40
0.0
 40
0.0
 40
0.0
 40
0.0030404284712747
 40
0.2105148033642626
 40
0.6009628919773842
 40
0.9999999999999999
 40
0.9999999999999999
 40
0.9999999999999999
 40
0.9999999999999999
 10
7897.661753083326
 20
5376.777940796016
 30
0.0
 10
7897.667081320647
 20
5376.779502414747
 30
0.0
 10
7898.036000649783
 20
5376.88762660293
 30
0.0
 10
7899.100322288507
 20
5377.161074521354
 30
0.0
 10
7900.917335454914
 20
5377.47723855853
 30
0.0
 10
7902.398532601814
 20
5377.524054041287
 30
0.0
 10
7903.147188344099
 20
5377.54771644171
 30
0.0
  0
LINE
  5
147
330
1F
100
AcDbEntity
  8
0
  6
Continuous
 62
     7
370
    25
100
AcDbLine
 10
7903.1471883441
 20
5377.5477164417
 30
0.0
 11
7903.1471883441
 21
5370.5494545927
 31
0.0
  0
ARC
  5
148
330
1F
100
AcDbEntity
  8
0
  6
Continuous
 62
     7
370
    25
100
AcDbCircle
 10
7903.1471883441
 20
5365.6994545927
 30
0.0
 40
4.850000000000328
100
AcDbArc
 50
90.0
 51
195.0
  0
LINE
  5
149
330
1F
100
AcDbEntity
  8
0
  6
Continuous
 62
     7
370
    25
100
AcDbLine
 10
7963.9765452858
 20
5374.2633760568
 30
0.0
 11
7963.9765452858
 21
5376.777940796
 31
0.0
  0
LWPOLYLINE
  5
14A
330
1F
100
AcDbEntity
  8
0
  6
Continuous
 62
     7
370
    25
100
AcDbPolyline
 90
        9
 70
   128
 43
0.0
 10
7968.8265452858
 20
5373.6994545927
 10
7968.7333538958
 20
5374.3000374574
 10
7968.4573610185
 20
5374.8775402595
 10
7968.0091729055
 20
5375.40976989
 10
7967.4060131746
 20
5375.8762730629
 10
7966.671060916
 20
5376.2591223227
 10
7965.8325599328
 20
5376.5436049871
 10
7964.9227333476
 20
5376.7187885468
 10
7963.9765452858
 20
5376.777940796
  0
LINE
  5
14B
330
1F
100
AcDbEntity
  8
0
  6
Continuous
 62
     7
370
    25
100
AcDbLine
 10
7968.8265452858
 20
5373.6994545927
 30
0.0
 11
7968.8265452858
 21
5363.3994545927
 31
0.0
  0
SPLINE
  5
14C
330
1F
100
AcDbEntity
  8
0
  6
Continuous
 62
     7
370
    25
100
AcDbSpline
210
0.0
220
0.0
230
1.0
 70
     8
 71
     3
 72
    10
 73
     6
 74
     0
 42
0.00000001
 43
0.00000001
 40
0.0
 40
0.0
 40
0.0
 40
0.0
 40
0.0028417779881774
 40
0.4976795798451503
 40
1.0
 40
1.0
 40
1.0
 40
1.0
 10
7963.976545285807
 20
5374.263376056777
 30
0.0
 10
7963.978180263218
 20
5374.258287021643
 30
0.0
 10
7964.264513282168
 20
5373.367046088162
 30
0.0
 10
7964.707674245076
 20
5371.513319038914
 30
0.0
 10
7964.786723877589
 20
5369.662598113277
 30
0.0
 10
7964.826545285807
 20
5368.73029379844
 30
0.0
  0
LINE
  5
14D
330
1F
100
AcDbEntity
  8
0
  6
Continuous
 62
     7
370
    25
100
AcDbLine
 10
7955.9765452858
 20
5377.5477164417
 30
0.0
 11
7955.9765452858
 21
5370.5494545927
 31
0.0
  0
SPLINE
  5
14E
330
1F
100
AcDbEntity
  8
0
  6
Continuous
 62
     7
370
    25
100
AcDbSpline
210
0.0
220
0.0
230
1.0
 70
     8
 71
     3
 72
    11
 73
     7
 74
     0
 42
0.00000001
 43
0.00000001
 40
0.0
 40
0.0
 40
0.0
 40
0.0
 40
0.003040762220887
 40
0.435301005581913
 40
0.8771347137164315
 40
1.0
 40
1.0
 40
1.0
 40
1.0
 10
7961.461980546568
 20
5376.777940796016
 30
0.0
 10
7961.456652316767
 20
5376.779502380362
 30
0.0
 10
7960.69388837076
 20
5377.003051341771
 30
0.0
 10
7959.122318102627
 20
5377.351499481036
 30
0.0
 10
7957.265225266647
 20
5377.534120227905
 30
0.0
 10
7956.206827805156
 20
5377.545286846764
 30
0.0
 10
7955.976545285807
 20
5377.54771644171
 30
0.0
  0
ARC
  5
14F
330
1F
100
AcDbEntity
  8
0
  6
Continuous
 62
     7
370
    25
100
AcDbCircle
 10
7955.9765452858
 20
5368.777940796
 30
0.0
 40
9.699999999999905
100
AcDbArc
 50
34.4376300407
 51
55.5623699593
  0
ARC
  5
150
330
1F
100
AcDbEntity
  8
0
  6
Continuous
 62
     7
370
    25
100
AcDbCircle
 10
7955.9765452858
 20
5365.6994545927
 30
0.0
 40
4.850000000000364
100
AcDbArc
 50
0.0
 51
90.0
  0
LINE
  5
151
330
1F
100
AcDbEntity
  8
0
  6
Continuous
 62
     7
370
    25
100
AcDbLine
 10
7963.9765452858
 20
5376.777940796
 30
0.0
 11
7961.4619805466
 21
5376.777940796
 31
0.0
  0
LINE
  5
152
330
1F
100
AcDbEntity
  8
0
  6
Continuous
 62
     7
370
    25
100
AcDbLine
 10
7888.8265452858
 20
5377.1404633
 30
0.0
 11
7888.8265452858
 21
5376.777940796
 31
0.0
  0
LINE
  5
153
330
1F
100
AcDbEntity
  8
0
  6
Continuous
 62
     7
370
    25
100
AcDbLine
 10
7892.2444333876
 20
5378.5494545927
 30
0.0
 11
7963.9765452858
 21
5378.5494545927
 31
0.0
  0
LINE
  5
154
330
1F
100
AcDbEntity
  8
0
  6
Continuous
 62
     7
370
    25
100
AcDbLine
 10
7963.9765452858
 20
5378.5494545927
 30
0.0
 11
7963.9765452858
 21
5376.777940796
 31
0.0
  0
LINE
  5
155
330
1F
100
AcDbEntity
  8
0
  6
Continuous
 62
     7
370
    25
100
AcDbLine
 10
7903.1471883441
 20
5377.5477164417
 30
0.0
 11
7955.9765452858
 21
5377.5477164417
 31
0.0
  0
ARC
  5
156
330
1F
100
AcDbEntity
  8
0
  6
Continuous
 62
     7
370
    25
100
AcDbCircle
 10
7892.2444333876
 20
5373.6994545927
 30
0.0
 40
4.849999999999454
100
AcDbArc
 50
90.0
 51
134.8068628033
  0
LINE
  5
157
330
1F
100
AcDbEntity
  8
0
  6
Continuous
 62
     7
370
    25
100
AcDbLine
 10
7888.4964906814
 20
5376.7776724978
 30
0.0
 11
7888.8265452858
 21
5377.1404633
 31
0.0
  0
ARC
  5
158
330
1F
100
AcDbEntity
  8
0
  6
Continuous
 62
     7
370
    25
100
AcDbCircle
 10
7963.9765452858
 20
5373.6994545927
 30
0.0
 40
4.850000000000364
100
AcDbArc
 50
0.0
 51
90.0
  0
LINE
  5
159
330
1F
100
AcDbEntity
  8
0
  6
Continuous
 62
     7
370
    25
100
AcDbLine
 10
7955.9765452858
 20
5370.5494545927
 30
0.0
 11
7903.1471883441
 21
5370.5494545927
 31
0.0
  0
LINE
  5
15A
330
1F
100
AcDbEntity
  8
0
  6
Continuous
 62
     7
370
    25
100
AcDbLine
 10
7959.8265452858
 20
5086.3494545927
 30
0.0
 11
7965.8265452858
 21
5086.3494545927
 31
0.0
  0
LINE
  5
15B
330
1F
100
AcDbEntity
  8
0
  6
Continuous
 62
     7
370
    25
100
AcDbLine
 10
7967.8265452858
 20
5071.0494545927
 30
0.0
 11
7987.8265452858
 21
5071.0494545927
 31
0.0
  0
LINE
  5
15C
330
1F
100
AcDbEntity
  8
0
  6
Continuous
 62
     7
370
    25
100
AcDbLine
 10
8125.3265452858
 20
5161.1099437533
 30
0.0
 11
8123.8265452858
 21
5161.1099437533
 31
0.0
  0
LINE
  5
15D
330
1F
100
AcDbEntity
  8
0
  6
Continuous
 62
     7
370
    25
100
AcDbLine
 10
8125.3265452858
 20
5165.1099437533
 30
0.0
 11
8123.8265452858
 21
5165.1099437533
 31
0.0
  0
LINE
  5
15E
330
1F
100
AcDbEntity
  8
0
  6
Continuous
 62
     7
370
    25
100
AcDbLine
 10
8125.3265452858
 20
5165.1099437533
 30
0.0
 11
8125.3265452858
 21
5166.0494545927
 31
0.0
  0
LINE
  5
15F
330
1F
100
AcDbEntity
  8
0
  6
Continuous
 62
     7
370
    25
100
AcDbLine
 10
8125.3265452858
 20
5166.0494545927
 30
0.0
 11
8126.8265452858
 21
5166.0494545927
 31
0.0
  0
LINE
  5
160
330
1F
100
AcDbEntity
  8
0
  6
Continuous
 62
     7
370
    25
100
AcDbLine
 10
8125.3265452858
 20
5146.0494545927
 30
0.0
 11
8126.8265452858
 21
5146.0494545927
 31
0.0
  0
LINE
  5
161
330
1F
100
AcDbEntity
  8
0
  6
Continuous
 62
     7
370
    25
100
AcDbLine
 10
8125.3265452858
 20
5146.0494545927
 30
0.0
 11
8125.3265452858
 21
5147.0494545927
 31
0.0
  0
LINE
  5
162
330
1F
100
AcDbEntity
  8
0
  6
Continuous
 62
     7
370
    25
100
AcDbLine
 10
8125.3265452858
 20
5147.0494545927
 30
0.0
 11
8123.8265452858
 21
5147.0494545927
 31
0.0
  0
LINE
  5
163
330
1F
100
AcDbEntity
  8
0
  6
Continuous
 62
     7
370
    25
100
AcDbLine
 10
8123.8265452858
 20
5147.0494545927
 30
0.0
 11
8123.8265452858
 21
5149.1099437533
 31
0.0
  0
LINE
  5
164
330
1F
100
AcDbEntity
  8
0
  6
Continuous
 62
     7
370
    25
100
AcDbLine
 10
8125.3265452858
 20
5149.1099437533
 30
0.0
 11
8123.8265452858
 21
5149.1099437533
 31
0.0
  0
LINE
  5
165
330
1F
100
AcDbEntity
  8
0
  6
Continuous
 62
     7
370
    25
100
AcDbLine
 10
8125.3265452858
 20
5149.1099437533
 30
0.0
 11
8125.3265452858
 21
5151.0494545927
 31
0.0
  0
LINE
  5
166
330
1F
100
AcDbEntity
  8
0
  6
Continuous
 62
     7
370
    25
100
AcDbLine
 10
8125.3265452858
 20
5151.0494545927
 30
0.0
 11
8123.8265452858
 21
5151.0494545927
 31
0.0
  0
LINE
  5
167
330
1F
100
AcDbEntity
  8
0
  6
Continuous
 62
     7
370
    25
100
AcDbLine
 10
8123.8265452858
 20
5151.0494545927
 30
0.0
 11
8123.8265452858
 21
5153.1099437533
 31
0.0
  0
LINE
  5
168
330
1F
100
AcDbEntity
  8
0
  6
Continuous
 62
     7
370
    25
100
AcDbLine
 10
8125.3265452858
 20
5153.1099437533
 30
0.0
 11
8123.8265452858
 21
5153.1099437533
 31
0.0
  0
LINE
  5
169
330
1F
100
AcDbEntity
  8
0
  6
Continuous
 62
     7
370
    25
100
AcDbLine
 10
8125.3265452858
 20
5153.1099437533
 30
0.0
 11
8125.3265452858
 21
5155.0494545927
 31
0.0
  0
LINE
  5
16A
330
1F
100
AcDbEntity
  8
0
  6
Continuous
 62
     7
370
    25
100
AcDbLine
 10
8125.3265452858
 20
5155.0494545927
 30
0.0
 11
8123.8265452858
 21
5155.0494545927
 31
0.0
  0
LINE
  5
16B
330
1F
100
AcDbEntity
  8
0
  6
Continuous
 62
     7
370
    25
100
AcDbLine
 10
8123.8265452858
 20
5155.0494545927
 30
0.0
 11
8123.8265452858
 21
5157.1099437533
 31
0.0
  0
LINE
  5
16C
330
1F
100
AcDbEntity
  8
0
  6
Continuous
 62
     7
370
    25
100
AcDbLine
 10
8125.3265452858
 20
5157.1099437533
 30
0.0
 11
8123.8265452858
 21
5157.1099437533
 31
0.0
  0
LINE
  5
16D
330
1F
100
AcDbEntity
  8
0
  6
Continuous
 62
     7
370
    25
100
AcDbLine
 10
8125.3265452858
 20
5157.1099437533
 30
0.0
 11
8125.3265452858
 21
5159.0494545927
 31
0.0
  0
LINE
  5
16E
330
1F
100
AcDbEntity
  8
0
  6
Continuous
 62
     7
370
    25
100
AcDbLine
 10
8125.3265452858
 20
5159.0494545927
 30
0.0
 11
8123.8265452858
 21
5159.0494545927
 31
0.0
  0
LINE
  5
16F
330
1F
100
AcDbEntity
  8
0
  6
Continuous
 62
     7
370
    25
100
AcDbLine
 10
8125.3265452858
 20
5161.1099437533
 30
0.0
 11
8125.3265452858
 21
5163.0494545927
 31
0.0
  0
LINE
  5
170
330
1F
100
AcDbEntity
  8
0
  6
Continuous
 62
     7
370
    25
100
AcDbLine
 10
8125.3265452858
 20
5163.0494545927
 30
0.0
 11
8123.8265452858
 21
5163.0494545927
 31
0.0
  0
LINE
  5
171
330
1F
100
AcDbEntity
  8
0
  6
Continuous
 62
     7
370
    25
100
AcDbLine
 10
8123.8265452858
 20
5163.0494545927
 30
0.0
 11
8123.8265452858
 21
5165.1099437533
 31
0.0
  0
LINE
  5
172
330
1F
100
AcDbEntity
  8
0
  6
Continuous
 62
     7
370
    25
100
AcDbLine
 10
8123.8265452858
 20
5159.0494545927
 30
0.0
 11
8123.8265452858
 21
5161.1099437533
 31
0.0
  0
LINE
  5
173
330
1F
100
AcDbEntity
  8
0
  6
Continuous
 62
     7
370
    25
100
AcDbLine
 10
8125.3265452858
 20
5146.0494545927
 30
0.0
 11
8124.6265452858
 21
5146.0494545927
 31
0.0
  0
LINE
  5
174
330
1F
100
AcDbEntity
  8
0
  6
Continuous
 62
     7
370
    25
100
AcDbLine
 10
8124.6265452858
 20
5166.0494545927
 30
0.0
 11
8125.3265452858
 21
5166.0494545927
 31
0.0
  0
LINE
  5
175
330
1F
100
AcDbEntity
  8
0
  6
Continuous
 62
     7
370
    25
100
AcDbLine
 10
8125.3265452858
 20
5211.0494545927
 30
0.0
 11
8123.8265452858
 21
5211.0494545927
 31
0.0
  0
LINE
  5
176
330
1F
100
AcDbEntity
  8
0
  6
Continuous
 62
     7
370
    25
100
AcDbLine
 10
8125.3265452858
 20
5213.1099437533
 30
0.0
 11
8123.8265452858
 21
5213.1099437533
 31
0.0
  0
LINE
  5
177
330
1F
100
AcDbEntity
  8
0
  6
Continuous
 62
     7
370
    25
100
AcDbLine
 10
8125.3265452858
 20
5213.1099437533
 30
0.0
 11
8125.3265452858
 21
5214.0494545927
 31
0.0
  0
LINE
  5
178
330
1F
100
AcDbEntity
  8
0
  6
Continuous
 62
     7
370
    25
100
AcDbLine
 10
8125.3265452858
 20
5214.0494545927
 30
0.0
 11
8126.8265452858
 21
5214.0494545927
 31
0.0
  0
LINE
  5
179
330
1F
100
AcDbEntity
  8
0
  6
Continuous
 62
     7
370
    25
100
AcDbLine
 10
8125.3265452858
 20
5194.0494545927
 30
0.0
 11
8126.8265452858
 21
5194.0494545927
 31
0.0
  0
LINE
  5
17A
330
1F
100
AcDbEntity
  8
0
  6
Continuous
 62
     7
370
    25
100
AcDbLine
 10
8125.3265452858
 20
5194.0494545927
 30
0.0
 11
8125.3265452858
 21
5195.0494545927
 31
0.0
  0
LINE
  5
17B
330
1F
100
AcDbEntity
  8
0
  6
Continuous
 62
     7
370
    25
100
AcDbLine
 10
8125.3265452858
 20
5195.0494545927
 30
0.0
 11
8123.8265452858
 21
5195.0494545927
 31
0.0
  0
LINE
  5
17C
330
1F
100
AcDbEntity
  8
0
  6
Continuous
 62
     7
370
    25
100
AcDbLine
 10
8123.8265452858
 20
5195.0494545927
 30
0.0
 11
8123.8265452858
 21
5197.1099437533
 31
0.0
  0
LINE
  5
17D
330
1F
100
AcDbEntity
  8
0
  6
Continuous
 62
     7
370
    25
100
AcDbLine
 10
8125.3265452858
 20
5197.1099437533
 30
0.0
 11
8123.8265452858
 21
5197.1099437533
 31
0.0
  0
LINE
  5
17E
330
1F
100
AcDbEntity
  8
0
  6
Continuous
 62
     7
370
    25
100
AcDbLine
 10
8125.3265452858
 20
5197.1099437533
 30
0.0
 11
8125.3265452858
 21
5199.0494545927
 31
0.0
  0
LINE
  5
17F
330
1F
100
AcDbEntity
  8
0
  6
Continuous
 62
     7
370
    25
100
AcDbLine
 10
8125.3265452858
 20
5199.0494545927
 30
0.0
 11
8123.8265452858
 21
5199.0494545927
 31
0.0
  0
LINE
  5
180
330
1F
100
AcDbEntity
  8
0
  6
Continuous
 62
     7
370
    25
100
AcDbLine
 10
8123.8265452858
 20
5199.0494545927
 30
0.0
 11
8123.8265452858
 21
5201.1099437533
 31
0.0
  0
LINE
  5
181
330
1F
100
AcDbEntity
  8
0
  6
Continuous
 62
     7
370
    25
100
AcDbLine
 10
8125.3265452858
 20
5201.1099437533
 30
0.0
 11
8123.8265452858
 21
5201.1099437533
 31
0.0
  0
LINE
  5
182
330
1F
100
AcDbEntity
  8
0
  6
Continuous
 62
     7
370
    25
100
AcDbLine
 10
8125.3265452858
 20
5201.1099437533
 30
0.0
 11
8125.3265452858
 21
5203.0494545927
 31
0.0
  0
LINE
  5
183
330
1F
100
AcDbEntity
  8
0
  6
Continuous
 62
     7
370
    25
100
AcDbLine
 10
8125.3265452858
 20
5203.0494545927
 30
0.0
 11
8123.8265452858
 21
5203.0494545927
 31
0.0
  0
LINE
  5
184
330
1F
100
AcDbEntity
  8
0
  6
Continuous
 62
     7
370
    25
100
AcDbLine
 10
8123.8265452858
 20
5203.0494545927
 30
0.0
 11
8123.8265452858
 21
5205.1099437533
 31
0.0
  0
LINE
  5
185
330
1F
100
AcDbEntity
  8
0
  6
Continuous
 62
     7
370
    25
100
AcDbLine
 10
8125.3265452858
 20
5205.1099437533
 30
0.0
 11
8123.8265452858
 21
5205.1099437533
 31
0.0
  0
LINE
  5
186
330
1F
100
AcDbEntity
  8
0
  6
Continuous
 62
     7
370
    25
100
AcDbLine
 10
8125.3265452858
 20
5205.1099437533
 30
0.0
 11
8125.3265452858
 21
5207.0494545927
 31
0.0
  0
LINE
  5
187
330
1F
100
AcDbEntity
  8
0
  6
Continuous
 62
     7
370
    25
100
AcDbLine
 10
8125.3265452858
 20
5207.0494545927
 30
0.0
 11
8123.8265452858
 21
5207.0494545927
 31
0.0
  0
LINE
  5
188
330
1F
100
AcDbEntity
  8
0
  6
Continuous
 62
     7
370
    25
100
AcDbLine
 10
8125.3265452858
 20
5209.1099437533
 30
0.0
 11
8123.8265452858
 21
5209.1099437533
 31
0.0
  0
LINE
  5
189
330
1F
100
AcDbEntity
  8
0
  6
Continuous
 62
     7
370
    25
100
AcDbLine
 10
8125.3265452858
 20
5209.1099437533
 30
0.0
 11
8125.3265452858
 21
5211.0494545927
 31
0.0
  0
LINE
  5
18A
330
1F
100
AcDbEntity
  8
0
  6
Continuous
 62
     7
370
    25
100
AcDbLine
 10
8123.8265452858
 20
5211.0494545927
 30
0.0
 11
8123.8265452858
 21
5213.1099437533
 31
0.0
  0
LINE
  5
18B
330
1F
100
AcDbEntity
  8
0
  6
Continuous
 62
     7
370
    25
100
AcDbLine
 10
8123.8265452858
 20
5207.0494545927
 30
0.0
 11
8123.8265452858
 21
5209.1099437533
 31
0.0
  0
LINE
  5
18C
330
1F
100
AcDbEntity
  8
0
  6
Continuous
 62
     7
370
    25
100
AcDbLine
 10
8125.3265452858
 20
5194.0494545927
 30
0.0
 11
8124.6265452858
 21
5194.0494545927
 31
0.0
  0
LINE
  5
18D
330
1F
100
AcDbEntity
  8
0
  6
Continuous
 62
     7
370
    25
100
AcDbLine
 10
8124.6265452858
 20
5214.0494545927
 30
0.0
 11
8125.3265452858
 21
5214.0494545927
 31
0.0
  0
LINE
  5
18E
330
1F
100
AcDbEntity
  8
0
  6
Continuous
 62
     7
370
    25
100
AcDbLine
 10
8066.7265452858
 20
5182.3694644292
 30
0.0
 11
8066.7265452858
 21
5174.0195662568
 31
0.0
  0
ARC
  5
18F
330
1F
100
AcDbEntity
  8
0
  6
Continuous
 62
     7
370
    25
100
AcDbCircle
 10
8048.41607427
 20
5177.8001770528
 30
0.0
 40
5.173264865749602
100
AcDbArc
 50
184.9004764201
 51
204.2234485089
  0
ARC
  5
190
330
1F
100
AcDbEntity
  8
0
  6
Continuous
 62
     7
370
    25
100
AcDbCircle
 10
8045.6478976221
 20
5175.9486494115
 30
0.0
 40
1.968344882175188
100
AcDbArc
 50
172.0851454826
 51
187.9148545174
  0
ARC
  5
191
330
1F
100
AcDbEntity
  8
0
  6
Continuous
 62
     7
370
    25
100
AcDbCircle
 10
8048.41607427
 20
5178.342264513
 30
0.0
 40
5.17326486575209
100
AcDbArc
 50
184.9004764201
 51
204.2234485089
  0
ARC
  5
192
330
1F
100
AcDbEntity
  8
0
  6
Continuous
 62
     7
370
    25
100
AcDbCircle
 10
8045.7006186154
 20
5177.5482139468
 30
0.0
 40
2.464187114255814
100
AcDbArc
 50
144.3474136847
 51
171.7845197171
  0
ARC
  5
193
330
1F
100
AcDbEntity
  8
0
  6
Continuous
 62
     7
370
    25
100
AcDbCircle
 10
8048.3941345659
 20
5179.4046732432
 30
0.0
 40
4.714590523702547
100
AcDbArc
 50
174.8870565454
 51
185.1129434545
  0
ARC
  5
194
330
1F
100
AcDbEntity
  8
0
  6
Continuous
 62
     7
370
    25
100
AcDbCircle
 10
8045.7006186154
 20
5178.3885360193
 30
0.0
 40
2.464187114242562
100
AcDbArc
 50
144.3474136846
 51
171.7845197172
  0
ARC
  5
195
330
1F
100
AcDbEntity
  8
0
  6
Continuous
 62
     7
370
    25
100
AcDbCircle
 10
8048.30817969
 20
5177.7743874785
 30
0.0
 40
5.064256070300373
100
AcDbArc
 50
169.000388785
 51
175.1952497106
  0
LWPOLYLINE
  5
196
330
1F
100
AcDbEntity
  8
0
  6
Continuous
 62
     7
370
    25
100
AcDbPolyline
 90
        3
 70
   128
 43
0.0
 10
8043.2617198296
 20
5178.1985718989
 10
8043.2844066027
 20
5178.0599266574
 10
8043.2864991915
 20
5178.0494545927
  0
LINE
  5
197
330
1F
100
AcDbEntity
  8
0
  6
Continuous
 62
     7
370
    25
100
AcDbLine
 10
8043.546218646
 20
5178.7406593591
 30
0.0
 11
8043.2617198296
 21
5178.7406593591
 31
0.0
  0
LINE
  5
198
330
1F
100
AcDbEntity
  8
0
  6
Continuous
 62
     7
370
    25
100
AcDbLine
 10
8043.3369617106
 20
5177.3582498264
 30
0.0
 11
8043.2617198296
 21
5177.3582498264
 31
0.0
  0
LINE
  5
199
330
1F
100
AcDbEntity
  8
0
  6
Continuous
 62
     7
370
    25
100
AcDbLine
 10
8043.2617198296
 20
5178.1985718989
 30
0.0
 11
8043.3221221341
 21
5178.1985718989
 31
0.0
  0
LINE
  5
19A
330
1F
100
AcDbEntity
  8
0
  6
Continuous
 62
     7
370
    25
100
AcDbLine
 10
8061.7765452858
 20
5143.0494545927
 30
0.0
 11
8053.6765452858
 21
5143.0494545927
 31
0.0
  0
LINE
  5
19B
330
1F
100
AcDbEntity
  8
0
  6
Continuous
 62
     7
370
    25
100
AcDbLine
 10
8070.6265452858
 20
5185.037210983
 30
0.0
 11
8067.4265452858
 21
5185.037210983
 31
0.0
  0
LINE
  5
19C
330
1F
100
AcDbEntity
  8
0
  6
Continuous
 62
     7
370
    25
100
AcDbLine
 10
8070.6265452858
 20
5172.4494545927
 30
0.0
 11
8067.4265452858
 21
5172.4494545927
 31
0.0
  0
LINE
  5
19D
330
1F
100
AcDbEntity
  8
0
  6
Continuous
 62
     7
370
    25
100
AcDbLine
 10
8067.4265452858
 20
5172.4494545927
 30
0.0
 11
8067.4265452858
 21
5185.037210983
 31
0.0
  0
LINE
  5
19E
330
1F
100
AcDbEntity
  8
0
  6
Continuous
 62
     7
370
    25
100
AcDbLine
 10
8070.6265452858
 20
5150.0494545927
 30
0.0
 11
8067.4265452858
 21
5150.0494545927
 31
0.0
  0
LINE
  5
19F
330
1F
100
AcDbEntity
  8
0
  6
Continuous
 62
     7
370
    25
100
AcDbLine
 10
8067.4265452858
 20
5150.0494545927
 30
0.0
 11
8067.4265452858
 21
5172.4494545927
 31
0.0
  0
LINE
  5
1A0
330
1F
100
AcDbEntity
  8
0
  6
Continuous
 62
     7
370
    25
100
AcDbLine
 10
8070.6265452858
 20
5148.0494545927
 30
0.0
 11
8067.4265452858
 21
5148.0494545927
 31
0.0
  0
LINE
  5
1A1
330
1F
100
AcDbEntity
  8
0
  6
Continuous
 62
     7
370
    25
100
AcDbLine
 10
8067.4265452858
 20
5148.0494545927
 30
0.0
 11
8067.4265452858
 21
5150.0494545927
 31
0.0
  0
LINE
  5
1A2
330
1F
100
AcDbEntity
  8
0
  6
Continuous
 62
     7
370
    25
100
AcDbLine
 10
8067.4265452858
 20
5185.037210983
 30
0.0
 11
8067.4265452858
 21
5194.3597323403
 31
0.0
  0
LINE
  5
1A3
330
1F
100
AcDbEntity
  8
0
  6
Continuous
 62
     7
370
    25
100
AcDbLine
 10
8067.4265452858
 20
5197.7391768451
 30
0.0
 11
8067.4265452858
 21
5203.2994545927
 31
0.0
  0
LINE
  5
1A4
330
1F
100
AcDbEntity
  8
0
  6
Continuous
 62
     7
370
    25
100
AcDbLine
 10
8066.7265452858
 20
5174.0195662568
 30
0.0
 11
8048.2265452858
 21
5174.0195662568
 31
0.0
  0
SPLINE
  5
1A5
330
1F
100
AcDbEntity
  8
0
  6
Continuous
 62
     7
370
    25
100
AcDbSpline
210
0.0
220
0.0
230
1.0
 70
     8
 71
     3
 72
    12
 73
     8
 74
     0
 42
0.00000001
 43
0.00000001
 40
0.0
 40
0.0
 40
0.0
 40
0.0
 40
0.0436622706527187
 40
0.279206084168954
 40
0.5222444008843672
 40
0.7809030952067177
 40
1.0
 40
1.0
 40
1.0
 40
1.0
 10
8046.305240174398
 20
5173.756087147869
 30
0.0
 10
8046.31039092423
 20
5173.754013289222
 30
0.0
 10
8046.343328301724
 20
5173.740751634633
 30
0.0
 10
8046.5908897133
 20
5173.800099306098
 30
0.0
 10
8047.03543775107
 20
5173.898163292978
 30
0.0
 10
8047.612223225212
 20
5173.999679996784
 30
0.0
 10
8048.03339671955
 20
5174.013313831797
 30
0.0
 10
8048.226545285807
 20
5174.019566256797
 30
0.0
  0
LINE
  5
1A6
330
1F
100
AcDbEntity
  8
0
  6
Continuous
 62
     7
370
    25
100
AcDbLine
 10
8046.2265452858
 20
5182.3494545927
 30
0.0
 11
8046.2265452858
 21
5173.7494545927
 31
0.0
  0
LINE
  5
1A7
330
1F
100
AcDbEntity
  8
0
  6
Continuous
 62
     7
370
    25
100
AcDbLine
 10
8048.2265452858
 20
5174.0195662568
 30
0.0
 11
8048.2265452858
 21
5154.0494545927
 31
0.0
  0
LINE
  5
1A8
330
1F
100
AcDbEntity
  8
0
  6
Continuous
 62
     7
370
    25
100
AcDbLine
 10
8046.2265452858
 20
5154.0494545927
 30
0.0
 11
8048.2265452858
 21
5154.0494545927
 31
0.0
  0
LINE
  5
1A9
330
1F
100
AcDbEntity
  8
0
  6
Continuous
 62
     7
370
    25
100
AcDbLine
 10
8046.2265452858
 20
5154.0494545927
 30
0.0
 11
8046.2265452858
 21
5173.7494545927
 31
0.0
  0
LINE
  5
1AA
330
1F
100
AcDbEntity
  8
0
  6
Continuous
 62
     7
370
    25
100
AcDbLine
 10
8048.2265452858
 20
5154.0494545927
 30
0.0
 11
8048.2265452858
 21
5150.0494545927
 31
0.0
  0
ARC
  5
1AB
330
1F
100
AcDbEntity
  8
0
  6
Continuous
 62
     7
370
    25
100
AcDbCircle
 10
8048.2265452858
 20
5152.0494545927
 30
0.0
 40
2.000000000000909
100
AcDbArc
 50
180.0
 51
270.0
  0
LINE
  5
1AC
330
1F
100
AcDbEntity
  8
0
  6
Continuous
 62
     7
370
    25
100
AcDbLine
 10
8046.2265452858
 20
5152.0494545927
 30
0.0
 11
8046.2265452858
 21
5154.0494545927
 31
0.0
  0
LINE
  5
1AD
330
1F
100
AcDbEntity
  8
0
  6
Continuous
 62
     7
370
    25
100
AcDbLine
 10
8048.2265452858
 20
5154.0494545927
 30
0.0
 11
8066.7265452858
 21
5154.0494545927
 31
0.0
  0
LINE
  5
1AE
330
1F
100
AcDbEntity
  8
0
  6
Continuous
 62
     7
370
    25
100
AcDbLine
 10
8066.7265452858
 20
5154.0494545927
 30
0.0
 11
8066.7265452858
 21
5173.9982220658
 31
0.0
  0
LINE
  5
1AF
330
1F
100
AcDbEntity
  8
0
  6
Continuous
 62
     7
370
    25
100
AcDbLine
 10
8066.7265452858
 20
5150.0494545927
 30
0.0
 11
8048.2265452858
 21
5150.0494545927
 31
0.0
  0
LINE
  5
1B0
330
1F
100
AcDbEntity
  8
0
  6
Continuous
 62
     7
370
    25
100
AcDbLine
 10
8066.7265452858
 20
5154.0494545927
 30
0.0
 11
8066.7265452858
 21
5150.0494545927
 31
0.0
  0
LINE
  5
1B1
330
1F
100
AcDbEntity
  8
0
  6
Continuous
 62
     7
370
    25
100
AcDbLine
 10
8046.2265452858
 20
5182.3494545927
 30
0.0
 11
8046.2265452858
 21
5198.5994545927
 31
0.0
  0
LINE
  5
1B2
330
1F
100
AcDbEntity
  8
0
  6
Continuous
 62
     7
370
    25
100
AcDbLine
 10
8066.7265452858
 20
5200.5994545927
 30
0.0
 11
8066.7265452858
 21
5182.3494545927
 31
0.0
  0
LINE
  5
1B3
330
1F
100
AcDbEntity
  8
0
  6
Continuous
 62
     7
370
    25
100
AcDbLine
 10
8045.2265452858
 20
5171.6268383034
 30
0.0
 11
8046.2265452858
 21
5171.6268383034
 31
0.0
  0
LINE
  5
1B4
330
1F
100
AcDbEntity
  8
0
  6
Continuous
 62
     7
370
    25
100
AcDbLine
 10
8043.2265452858
 20
5172.0494553154
 30
0.0
 11
8043.2265452858
 21
5184.0494545927
 31
0.0
  0
LINE
  5
1B5
330
1F
100
AcDbEntity
  8
0
  6
Continuous
 62
     7
370
    25
100
AcDbLine
 10
8045.2265452858
 20
5152.0494545927
 30
0.0
 11
8046.2265452858
 21
5152.0494545927
 31
0.0
  0
LINE
  5
1B6
330
1F
100
AcDbEntity
  8
0
  6
Continuous
 62
     7
370
    25
100
AcDbLine
 10
8045.2265452858
 20
5152.0494545927
 30
0.0
 11
8045.2265452858
 21
5171.6268383034
 31
0.0
  0
LINE
  5
1B7
330
1F
100
AcDbEntity
  8
0
  6
Continuous
 62
     7
370
    25
100
AcDbLine
 10
8068.6435573856
 20
5202.0494545927
 30
0.0
 11
8068.6435573856
 21
5190.0494545927
 31
0.0
  0
LINE
  5
1B8
330
1F
100
AcDbEntity
  8
0
  6
Continuous
 62
     7
370
    25
100
AcDbLine
 10
8070.4265452858
 20
5204.9494545927
 30
0.0
 11
8070.4265452858
 21
5187.1494545927
 31
0.0
  0
LINE
  5
1B9
330
1F
100
AcDbEntity
  8
0
  6
Continuous
 62
     7
370
    25
100
AcDbLine
 10
8068.553163576
 20
5201.8494545927
 30
0.0
 11
8068.553163576
 21
5190.2494545927
 31
0.0
  0
LINE
  5
1BA
330
1F
100
AcDbEntity
  8
0
  6
Continuous
 62
     7
370
    25
100
AcDbLine
 10
8072.833652067
 20
5214.0494545927
 30
0.0
 11
8072.833652067
 21
5146.0494545927
 31
0.0
  0
LINE
  5
1BB
330
1F
100
AcDbEntity
  8
0
  6
Continuous
 62
     7
370
    25
100
AcDbLine
 10
8072.833652067
 20
5146.0494545927
 30
0.0
 11
8072.4800986764
 21
5146.0494545927
 31
0.0
  0
LINE
  5
1BC
330
1F
100
AcDbEntity
  8
0
  6
Continuous
 62
     7
370
    25
100
AcDbLine
 10
8072.4800986764
 20
5146.0494545927
 30
0.0
 11
8072.4800986764
 21
5214.0494545927
 31
0.0
  0
LINE
  5
1BD
330
1F
100
AcDbEntity
  8
0
  6
Continuous
 62
     7
370
    25
100
AcDbLine
 10
8072.833652067
 20
5214.0494545927
 30
0.0
 11
8072.4800986764
 21
5214.0494545927
 31
0.0
  0
LINE
  5
1BE
330
1F
100
AcDbEntity
  8
0
  6
Continuous
 62
     7
370
    25
100
AcDbLine
 10
8082.6265452858
 20
5214.0494545927
 30
0.0
 11
8082.6265452858
 21
5146.0494545927
 31
0.0
  0
LINE
  5
1BF
330
1F
100
AcDbEntity
  8
0
  6
Continuous
 62
     7
370
    25
100
AcDbLine
 10
8072.833652067
 20
5146.0494545927
 30
0.0
 11
8082.6265452858
 21
5146.0494545927
 31
0.0
  0
LINE
  5
1C0
330
1F
100
AcDbEntity
  8
0
  6
Continuous
 62
     7
370
    25
100
AcDbLine
 10
8082.6265452858
 20
5214.0494545927
 30
0.0
 11
8072.833652067
 21
5214.0494545927
 31
0.0
  0
LINE
  5
1C1
330
1F
100
AcDbEntity
  8
0
  6
Continuous
 62
     7
370
    25
100
AcDbLine
 10
8082.6265452858
 20
5220.0494545927
 30
0.0
 11
8082.6265452858
 21
5214.0494545927
 31
0.0
  0
LINE
  5
1C2
330
1F
100
AcDbEntity
  8
0
  6
Continuous
 62
     7
370
    25
100
AcDbLine
 10
8072.833652067
 20
5220.0494545927
 30
0.0
 11
8072.833652067
 21
5214.0494545927
 31
0.0
  0
LINE
  5
1C3
330
1F
100
AcDbEntity
  8
0
  6
Continuous
 62
     7
370
    25
100
AcDbLine
 10
8072.833652067
 20
5220.0494545927
 30
0.0
 11
8082.6265452858
 21
5220.0494545927
 31
0.0
  0
LINE
  5
1C4
330
1F
100
AcDbEntity
  8
0
  6
Continuous
 62
     7
370
    25
100
AcDbLine
 10
8072.4800986764
 20
5214.0494545927
 30
0.0
 11
8072.4800986764
 21
5219.9030079833
 31
0.0
  0
ARC
  5
1C5
330
1F
100
AcDbEntity
  8
0
  6
Continuous
 62
     7
370
    25
100
AcDbCircle
 10
8072.833652067
 20
5219.5494545927
 30
0.0
 40
0.5000000000007275
100
AcDbArc
 50
90.0
 51
135.0000000001
  0
LINE
  5
1C6
330
1F
100
AcDbEntity
  8
0
  6
Continuous
 62
     7
370
    25
100
AcDbLine
 10
8082.6265452858
 20
5146.0494545927
 30
0.0
 11
8082.6265452858
 21
5140.0494545927
 31
0.0
  0
LINE
  5
1C7
330
1F
100
AcDbEntity
  8
0
  6
Continuous
 62
     7
370
    25
100
AcDbLine
 10
8082.6265452858
 20
5140.0494545927
 30
0.0
 11
8072.833652067
 21
5140.0494545927
 31
0.0
  0
LINE
  5
1C8
330
1F
100
AcDbEntity
  8
0
  6
Continuous
 62
     7
370
    25
100
AcDbLine
 10
8072.833652067
 20
5146.0494545927
 30
0.0
 11
8072.833652067
 21
5140.0494545927
 31
0.0
  0
ARC
  5
1C9
330
1F
100
AcDbEntity
  8
0
  6
Continuous
 62
     7
370
    25
100
AcDbCircle
 10
8072.833652067
 20
5140.5494545927
 30
0.0
 40
0.5000000000009095
100
AcDbArc
 50
225.0000000001
 51
270.0
  0
LINE
  5
1CA
330
1F
100
AcDbEntity
  8
0
  6
Continuous
 62
     7
370
    25
100
AcDbLine
 10
8072.4800986764
 20
5140.1959012021
 30
0.0
 11
8072.4800986764
 21
5146.0494545927
 31
0.0
  0
LINE
  5
1CB
330
1F
100
AcDbEntity
  8
0
  6
Continuous
 62
     7
370
    25
100
AcDbLine
 10
8070.7729918952
 20
5214.0494545927
 30
0.0
 11
8072.4800986764
 21
5214.0494545927
 31
0.0
  0
LINE
  5
1CC
330
1F
100
AcDbEntity
  8
0
  6
Continuous
 62
     7
370
    25
100
AcDbLine
 10
8070.7729918952
 20
5218.1959012021
 30
0.0
 11
8070.7729918952
 21
5214.0494545927
 31
0.0
  0
LINE
  5
1CD
330
1F
100
AcDbEntity
  8
0
  6
Continuous
 62
     7
370
    25
100
AcDbLine
 10
8072.4800986764
 20
5219.9030079833
 30
0.0
 11
8070.7729918952
 21
5218.1959012021
 31
0.0
  0
LINE
  5
1CE
330
1F
100
AcDbEntity
  8
0
  6
Continuous
 62
     7
370
    25
100
AcDbLine
 10
8070.7729918952
 20
5146.0494545927
 30
0.0
 11
8072.4800986764
 21
5146.0494545927
 31
0.0
  0
LINE
  5
1CF
330
1F
100
AcDbEntity
  8
0
  6
Continuous
 62
     7
370
    25
100
AcDbLine
 10
8070.7729918952
 20
5214.0494545927
 30
0.0
 11
8070.7729918952
 21
5146.0494545927
 31
0.0
  0
LINE
  5
1D0
330
1F
100
AcDbEntity
  8
0
  6
Continuous
 62
     7
370
    25
100
AcDbLine
 10
8070.7729918952
 20
5141.9030079833
 30
0.0
 11
8072.4800986764
 21
5140.1959012021
 31
0.0
  0
LINE
  5
1D1
330
1F
100
AcDbEntity
  8
0
  6
Continuous
 62
     7
370
    25
100
AcDbLine
 10
8070.7729918952
 20
5146.0494545927
 30
0.0
 11
8070.7729918952
 21
5141.9030079833
 31
0.0
  0
LINE
  5
1D2
330
1F
100
AcDbEntity
  8
0
  6
Continuous
 62
     7
370
    25
100
AcDbLine
 10
8070.6265452858
 20
5214.0494545927
 30
0.0
 11
8070.6265452858
 21
5217.8423478115
 31
0.0
  0
ARC
  5
1D3
330
1F
100
AcDbEntity
  8
0
  6
Continuous
 62
     7
370
    25
100
AcDbCircle
 10
8071.1265452858
 20
5217.8423478115
 30
0.0
 40
0.4999999999987982
100
AcDbArc
 50
135.0
 51
180.0
  0
LINE
  5
1D4
330
1F
100
AcDbEntity
  8
0
  6
Continuous
 62
     7
370
    25
100
AcDbLine
 10
8070.7729918952
 20
5214.0494545927
 30
0.0
 11
8070.6265452858
 21
5214.0494545927
 31
0.0
  0
LINE
  5
1D5
330
1F
100
AcDbEntity
  8
0
  6
Continuous
 62
     7
370
    25
100
AcDbLine
 10
8070.7729918952
 20
5146.0494545927
 30
0.0
 11
8070.6265452858
 21
5146.0494545927
 31
0.0
  0
LINE
  5
1D6
330
1F
100
AcDbEntity
  8
0
  6
Continuous
 62
     7
370
    25
100
AcDbLine
 10
8070.6265452858
 20
5146.0494545927
 30
0.0
 11
8070.6265452858
 21
5214.0494545927
 31
0.0
  0
ARC
  5
1D7
330
1F
100
AcDbEntity
  8
0
  6
Continuous
 62
     7
370
    25
100
AcDbCircle
 10
8071.1265452858
 20
5142.2565613739
 30
0.0
 40
0.5000000000007275
100
AcDbArc
 50
180.0
 51
224.9999999999
  0
LINE
  5
1D8
330
1F
100
AcDbEntity
  8
0
  6
Continuous
 62
     7
370
    25
100
AcDbLine
 10
8070.6265452858
 20
5142.2565613739
 30
0.0
 11
8070.6265452858
 21
5146.0494545927
 31
0.0
  0
LINE
  5
1D9
330
1F
100
AcDbEntity
  8
0
  6
Continuous
 62
     7
370
    25
100
AcDbLine
 10
8096.4265452858
 20
5222.1580919628
 30
0.0
 11
8096.4265452858
 21
5222.1734929974
 31
0.0
  0
ARC
  5
1DA
330
1F
100
AcDbEntity
  8
0
  6
Continuous
 62
     7
370
    25
100
AcDbCircle
 10
8098.9265452858
 20
5214.0494545927
 30
0.0
 40
8.485281374238216
100
AcDbArc
 50
96.7681013687
 51
107.1352215075
  0
SPLINE
  5
1DB
330
1F
100
AcDbEntity
  8
0
  6
Continuous
 62
     7
370
    25
100
AcDbSpline
210
0.0
220
0.0
230
1.0
 70
     8
 71
     3
 72
    12
 73
     8
 74
     0
 42
0.00000001
 43
0.00000001
 40
0.0
 40
0.0
 40
0.0
 40
0.0
 40
0.213541341443669
 40
0.4271558781179493
 40
0.6391534182107101
 40
0.8504463930752569
 40
1.0
 40
1.0
 40
1.0
 40
1.0
 10
8098.426545285807
 20
5222.475604365894
 30
0.0
 10
8098.42112653797
 20
5222.481571900784
 30
0.0
 10
8098.410287184917
 20
5222.493509016046
 30
0.0
 10
8098.325175144074
 20
5222.501102135094
 30
0.0
 10
8098.199975141993
 20
5222.499632376888
 30
0.0
 10
8098.059335450505
 20
5222.490268287183
 30
0.0
 10
8097.96545445656
 20
5222.479901077316
 30
0.0
 10
8097.926545285807
 20
5222.475604365894
 30
0.0
  0
LINE
  5
1DC
330
1F
100
AcDbEntity
  8
0
  6
Continuous
 62
     7
370
    25
100
AcDbLine
 10
8098.4265452858
 20
5222.1580919628
 30
0.0
 11
8098.4265452858
 21
5222.4756043659
 31
0.0
  0
ARC
  5
1DD
330
1F
100
AcDbEntity
  8
0
  6
Continuous
 62
     7
370
    25
100
AcDbCircle
 10
8098.9265452858
 20
5214.0494545927
 30
0.0
 40
8.124038404635364
100
AcDbArc
 50
86.4714585265
 51
93.5285414735
  0
LINE
  5
1DE
330
1F
100
AcDbEntity
  8
0
  6
Continuous
 62
     7
370
    25
100
AcDbLine
 10
8099.4265452858
 20
5222.1580919628
 30
0.0
 11
8099.4265452858
 21
5222.4756043659
 31
0.0
  0
SPLINE
  5
1DF
330
1F
100
AcDbEntity
  8
0
  6
Continuous
 62
     7
370
    25
100
AcDbSpline
210
0.0
220
0.0
230
1.0
 70
     8
 71
     3
 72
    12
 73
     8
 74
     0
 42
0.00000001
 43
0.00000001
 40
0.0
 40
0.0
 40
0.0
 40
0.0
 40
0.2135413414436615
 40
0.4271558781179424
 40
0.6391534182107156
 40
0.8504463930752613
 40
1.0
 40
1.0
 40
1.0
 40
1.0
 10
8099.926545285807
 20
5222.475604365894
 30
0.0
 10
8099.870805310351
 20
5222.481571900784
 30
0.0
 10
8099.759306253533
 20
5222.493509016045
 30
0.0
 10
8099.609996097969
 20
5222.501102135094
 30
0.0
 10
8099.4972233469
 20
5222.499632376888
 30
0.0
 10
8099.435709920403
 20
5222.490268287182
 30
0.0
 10
8099.429230637792
 20
5222.479901077316
 30
0.0
 10
8099.426545285807
 20
5222.475604365894
 30
0.0
  0
ARC
  5
1E0
330
1F
100
AcDbEntity
  8
0
  6
Continuous
 62
     7
370
    25
100
AcDbCircle
 10
8098.9265452858
 20
5214.0494545927
 30
0.0
 40
8.485281374238001
100
AcDbArc
 50
72.8647784925
 51
83.2318986313
  0
LINE
  5
1E1
330
1F
100
AcDbEntity
  8
0
  6
Continuous
 62
     7
370
    25
100
AcDbLine
 10
8101.4265452858
 20
5222.1580919628
 30
0.0
 11
8101.4265452858
 21
5222.1734929974
 31
0.0
  0
SPLINE
  5
1E2
330
1F
100
AcDbEntity
  8
0
  6
Continuous
 62
     7
370
    25
100
AcDbSpline
210
0.0
220
0.0
230
1.0
 70
     8
 71
     3
 72
    12
 73
     8
 74
     0
 42
0.00000001
 43
0.00000001
 40
0.0
 40
0.0
 40
0.0
 40
0.0
 40
0.2135413414436504
 40
0.4271558781179343
 40
0.6391534182106984
 40
0.8504463930752412
 40
1.0
 40
1.0
 40
1.0
 40
1.0
 10
8118.426545285807
 20
5222.475604365894
 30
0.0
 10
8118.421126537969
 20
5222.481571900784
 30
0.0
 10
8118.410287184918
 20
5222.493509016045
 30
0.0
 10
8118.325175144076
 20
5222.501102135094
 30
0.0
 10
8118.199975141993
 20
5222.499632376888
 30
0.0
 10
8118.059335450505
 20
5222.490268287183
 30
0.0
 10
8117.965454456559
 20
5222.479901077316
 30
0.0
 10
8117.926545285808
 20
5222.475604365894
 30
0.0
  0
LINE
  5
1E3
330
1F
100
AcDbEntity
  8
0
  6
Continuous
 62
     7
370
    25
100
AcDbLine
 10
8118.4265452858
 20
5222.1580919628
 30
0.0
 11
8118.4265452858
 21
5222.4756043659
 31
0.0
  0
ARC
  5
1E4
330
1F
100
AcDbEntity
  8
0
  6
Continuous
 62
     7
370
    25
100
AcDbCircle
 10
8118.9265452858
 20
5214.0494545927
 30
0.0
 40
8.124038404635364
100
AcDbArc
 50
86.4714585265
 51
93.5285414735
  0
LINE
  5
1E5
330
1F
100
AcDbEntity
  8
0
  6
Continuous
 62
     7
370
    25
100
AcDbLine
 10
8119.4265452858
 20
5222.1580919628
 30
0.0
 11
8119.4265452858
 21
5222.4756043659
 31
0.0
  0
SPLINE
  5
1E6
330
1F
100
AcDbEntity
  8
0
  6
Continuous
 62
     7
370
    25
100
AcDbSpline
210
0.0
220
0.0
230
1.0
 70
     8
 71
     3
 72
    12
 73
     8
 74
     0
 42
0.00000001
 43
0.00000001
 40
0.0
 40
0.0
 40
0.0
 40
0.0
 40
0.2135413414436343
 40
0.4271558781179522
 40
0.6391534182107013
 40
0.850446393075253
 40
1.0
 40
1.0
 40
1.0
 40
1.0
 10
8119.926545285807
 20
5222.475604365894
 30
0.0
 10
8119.870805310351
 20
5222.481571900784
 30
0.0
 10
8119.759306253532
 20
5222.493509016045
 30
0.0
 10
8119.609996097969
 20
5222.501102135094
 30
0.0
 10
8119.497223346901
 20
5222.499632376888
 30
0.0
 10
8119.435709920403
 20
5222.490268287182
 30
0.0
 10
8119.429230637792
 20
5222.479901077316
 30
0.0
 10
8119.426545285808
 20
5222.475604365894
 30
0.0
  0
ARC
  5
1E7
330
1F
100
AcDbEntity
  8
0
  6
Continuous
 62
     7
370
    25
100
AcDbCircle
 10
8118.9265452858
 20
5214.0494545927
 30
0.0
 40
8.485281374238001
100
AcDbArc
 50
72.8647784925
 51
83.2318986313
  0
LINE
  5
1E8
330
1F
100
AcDbEntity
  8
0
  6
Continuous
 62
     7
370
    25
100
AcDbLine
 10
8121.4265452858
 20
5222.1580919628
 30
0.0
 11
8121.4265452858
 21
5222.1734929974
 31
0.0
  0
SPLINE
  5
1E9
330
1F
100
AcDbEntity
  8
0
  6
Continuous
 62
     7
370
    25
100
AcDbSpline
210
0.0
220
0.0
230
1.0
 70
     8
 71
     3
 72
     9
 73
     5
 74
     0
 42
0.00000001
 43
0.00000001
 40
0.0
 40
0.0
 40
0.0
 40
0.0
 40
0.8438949040017997
 40
1.0
 40
1.0
 40
1.0
 40
1.0
 10
8117.375809921003
 20
5238.449454592718
 30
0.0
 10
8116.966201848667
 20
5238.745785759977
 30
0.0
 10
8116.480823787496
 20
5239.09693276401
 30
0.0
 10
8115.938241425743
 20
5239.292821782662
 30
0.0
 10
8115.853541554074
 20
5239.323401056724
 30
0.0
  0
LINE
  5
1EA
330
1F
100
AcDbEntity
  8
0
  6
Continuous
 62
     7
370
    25
100
AcDbLine
 10
8117.375809921
 20
5230.0494545927
 30
0.0
 11
8117.375809921
 21
5238.4494545927
 31
0.0
  0
LINE
  5
1EB
330
1F
100
AcDbEntity
  8
0
  6
Continuous
 62
     7
370
    25
100
AcDbLine
 10
8115.3035415541
 20
5230.0494545927
 30
0.0
 11
8117.375809921
 21
5230.0494545927
 31
0.0
  0
SPLINE
  5
1EC
330
1F
100
AcDbEntity
  8
0
  6
Continuous
 62
     7
370
    25
100
AcDbSpline
210
0.0
220
0.0
230
1.0
 70
     8
 71
     3
 72
     9
 73
     5
 74
     0
 42
0.00000001
 43
0.00000001
 40
0.0
 40
0.0
 40
0.0
 40
0.0
 40
0.2340074091157676
 40
1.0
 40
1.0
 40
1.0
 40
1.0
 10
8102.053541554074
 20
5239.319312035321
 30
0.0
 10
8101.921204208239
 20
5239.277719067869
 30
0.0
 10
8101.355677901461
 20
5239.099976971542
 30
0.0
 10
8100.858282127901
 20
5238.731616208206
 30
0.0
 10
8100.477280650613
 20
5238.449454592718
 30
0.0
  0
LINE
  5
1ED
330
1F
100
AcDbEntity
  8
0
  6
Continuous
 62
     7
370
    25
100
AcDbLine
 10
8099.6765452858
 20
5238.4494545927
 30
0.0
 11
8100.4772806506
 21
5238.4494545927
 31
0.0
  0
SPLINE
  5
1EE
330
1F
100
AcDbEntity
  8
0
  6
Continuous
 62
     7
370
    25
100
AcDbSpline
210
0.0
220
0.0
230
1.0
 70
    24
 71
     3
 72
     9
 73
     5
 74
     0
 42
0.00000001
 43
0.00000001
 40
0.0
 40
0.0
 40
0.0
 40
0.0
 40
0.6333515612809331
 40
1.0
 40
1.0
 40
1.0
 40
1.0
 10
8099.676545285808
 20
5238.449454592718
 30
0.0
 10
8099.676545285808
 20
5238.955191934524
 30
0.0
 10
8099.676545285808
 20
5239.753701597599
 30
0.0
 10
8099.676545285808
 20
5239.801191813502
 30
0.0
 10
8099.676545285808
 20
5239.818604027017
 30
0.0
  0
SPLINE
  5
1EF
330
1F
100
AcDbEntity
  8
0
  6
Continuous
 62
     7
370
    25
100
AcDbSpline
210
0.0
220
0.0
230
1.0
 70
    24
 71
     3
 72
    10
 73
     6
 74
     0
 42
0.00000001
 43
0.00000001
 40
0.0
 40
0.0
 40
0.0
 40
0.0
 40
0.114499933904088
 40
0.5956511548591301
 40
1.0
 40
1.0
 40
1.0
 40
1.0
 10
8118.176545285808
 20
5239.818604027017
 30
0.0
 10
8118.176545285808
 20
5239.839785638137
 30
0.0
 10
8118.176545285808
 20
5239.949976541265
 30
0.0
 10
8118.17654528581
 20
5239.418731366554
 30
0.0
 10
8118.176545285808
 20
5238.753308742384
 30
0.0
 10
8118.176545285808
 20
5238.449454592718
 30
0.0
  0
LINE
  5
1F0
330
1F
100
AcDbEntity
  8
0
  6
Continuous
 62
     7
370
    25
100
AcDbLine
 10
8117.375809921
 20
5238.4494545927
 30
0.0
 11
8118.1765452858
 21
5238.4494545927
 31
0.0
  0
LINE
  5
1F1
330
1F
100
AcDbEntity
  8
0
  6
Continuous
 62
     7
370
    25
100
AcDbLine
 10
8099.9265452858
 20
5240.2494545927
 30
0.0
 11
8102.2401038597
 21
5240.2494545927
 31
0.0
  0
LINE
  5
1F2
330
1F
100
AcDbEntity
  8
0
  6
Continuous
 62
     7
370
    25
100
AcDbLine
 10
8115.6669792485
 20
5240.2494545927
 30
0.0
 11
8117.9265452858
 21
5240.2494545927
 31
0.0
  0
LINE
  5
1F3
330
1F
100
AcDbEntity
  8
0
  6
Continuous
 62
     7
370
    25
100
AcDbLine
 10
8100.4772806506
 20
5238.4494545927
 30
0.0
 11
8100.4772806506
 21
5230.0494545927
 31
0.0
  0
LINE
  5
1F4
330
1F
100
AcDbEntity
  8
0
  6
Continuous
 62
     7
370
    25
100
AcDbLine
 10
8100.4772806506
 20
5230.0494545927
 30
0.0
 11
8102.6035415541
 21
5230.0494545927
 31
0.0
  0
LINE
  5
1F5
330
1F
100
AcDbEntity
  8
0
  6
Continuous
 62
     7
370
    25
100
AcDbLine
 10
8103.0265452858
 20
5245.6494545927
 30
0.0
 11
8103.9535415541
 21
5245.6494545927
 31
0.0
  0
LINE
  5
1F6
330
1F
100
AcDbEntity
  8
0
  6
Continuous
 62
     7
370
    25
100
AcDbLine
 10
8113.9535415541
 20
5245.6494545927
 30
0.0
 11
8114.8265452858
 21
5245.6494545927
 31
0.0
  0
SPLINE
  5
1F7
330
1F
100
AcDbEntity
  8
0
  6
Continuous
 62
     7
370
    25
100
AcDbSpline
210
0.0
220
0.0
230
1.0
 70
     8
 71
     3
 72
    10
 73
     6
 74
     0
 42
0.00000001
 43
0.00000001
 40
0.0
 40
0.0
 40
0.0
 40
0.0
 40
0.3519945145337617
 40
0.8790043757424011
 40
1.0
 40
1.0
 40
1.0
 40
1.0
 10
8102.603541554075
 20
5228.731991554573
 30
0.0
 10
8102.350089042707
 20
5228.718806082647
 30
0.0
 10
8101.717164785832
 20
5228.685879184522
 30
0.0
 10
8101.374273735484
 20
5228.648433881043
 30
0.0
 10
8101.466747227179
 20
5228.624937224739
 30
0.0
 10
8101.484013883256
 20
5228.620549927624
 30
0.0
  0
SPLINE
  5
1F8
330
1F
100
AcDbEntity
  8
0
  6
Continuous
 62
     7
370
    25
100
AcDbSpline
210
0.0
220
0.0
230
1.0
 70
     8
 71
     3
 72
    10
 73
     6
 74
     0
 42
0.00000001
 43
0.00000001
 40
0.0
 40
0.0
 40
0.0
 40
0.0
 40
0.164548525679496
 40
0.7431648458014319
 40
1.0
 40
1.0
 40
1.0
 40
1.0
 10
8116.363850533029
 20
5227.98587333059
 30
0.0
 10
8116.380485573446
 20
5227.980118667078
 30
0.0
 10
8116.455615856111
 20
5227.954128378781
 30
0.0
 10
8116.107350035019
 20
5227.916632029205
 30
0.0
 10
8115.492545309828
 20
5227.886617491958
 30
0.0
 10
8115.303541554073
 20
5227.877390399135
 30
0.0
  0
SPLINE
  5
1F9
330
1F
100
AcDbEntity
  8
0
  6
Continuous
 62
     7
370
    25
100
AcDbSpline
210
0.0
220
0.0
230
1.0
 70
     8
 71
     3
 72
    10
 73
     6
 74
     0
 42
0.00000001
 43
0.00000001
 40
0.0
 40
0.0
 40
0.0
 40
0.0
 40
0.3924997263120917
 40
0.9337293292372713
 40
1.0
 40
1.0
 40
1.0
 40
1.0
 10
8102.603541554075
 20
5227.462354873994
 30
0.0
 10
8102.329385199301
 20
5227.447462298757
 30
0.0
 10
8101.677186453447
 20
5227.412033906446
 30
0.0
 10
8101.345734515123
 20
5227.375828317766
 30
0.0
 10
8101.450865013176
 20
5227.353416549986
 30
0.0
 10
8101.462333433727
 20
5227.350971706834
 30
0.0
  0
SPLINE
  5
1FA
330
1F
100
AcDbEntity
  8
0
  6
Continuous
 62
     7
370
    25
100
AcDbSpline
210
0.0
220
0.0
230
1.0
 70
     8
 71
     3
 72
    10
 73
     6
 74
     0
 42
0.00000001
 43
0.00000001
 40
0.0
 40
0.0
 40
0.0
 40
0.0
 40
0.2387542620842311
 40
0.7969580940428421
 40
1.0
 40
1.0
 40
1.0
 40
1.0
 10
8116.344172601691
 20
5226.715596392511
 30
0.0
 10
8116.361852817244
 20
5226.70717878487
 30
0.0
 10
8116.420869107749
 20
5226.679080938643
 30
0.0
 10
8116.042649294001
 20
5226.641794969963
 30
0.0
 10
8115.459169229256
 20
5226.614182555524
 30
0.0
 10
8115.303541554073
 20
5226.606817683741
 30
0.0
  0
SPLINE
  5
1FB
330
1F
100
AcDbEntity
  8
0
  6
Continuous
 62
     7
370
    25
100
AcDbSpline
210
0.0
220
0.0
230
1.0
 70
     8
 71
     3
 72
    11
 73
     7
 74
     0
 42
0.00000001
 43
0.00000001
 40
0.0
 40
0.0
 40
0.0
 40
0.0
 40
0.088995327324803
 40
0.4579608084260992
 40
0.9858098926048372
 40
1.0
 40
1.0
 40
1.0
 40
1.0
 10
8102.603541554075
 20
5226.196061966571
 30
0.0
 10
8102.536674829807
 20
5226.192609661462
 30
0.0
 10
8102.192585538569
 20
5226.174844454168
 30
0.0
 10
8101.675048119528
 20
5226.135959024255
 30
0.0
 10
8101.321464034212
 20
5226.101728392419
 30
0.0
 10
8101.432379338659
 20
5226.081186767084
 30
0.0
 10
8101.435283003389
 20
5226.080649005471
 30
0.0
  0
SPLINE
  5
1FC
330
1F
100
AcDbEntity
  8
0
  6
Continuous
 62
     7
370
    25
100
AcDbSpline
210
0.0
220
0.0
230
1.0
 70
     8
 71
     3
 72
    10
 73
     6
 74
     0
 42
0.00000001
 43
0.00000001
 40
0.0
 40
0.0
 40
0.0
 40
0.0
 40
0.2790933748142808
 40
0.8157184065913737
 40
1.0
 40
1.0
 40
1.0
 40
1.0
 10
8102.603541554075
 20
5229.843551903055
 30
0.0
 10
8102.393269948769
 20
5229.833124790754
 30
0.0
 10
8101.778699936325
 20
5229.802649013833
 30
0.0
 10
8101.407928994028
 20
5229.764332765273
 30
0.0
 10
8101.479704830801
 20
5229.738430093072
 30
0.0
 10
8101.498052512882
 20
5229.731808728334
 30
0.0
  0
SPLINE
  5
1FD
330
1F
100
AcDbEntity
  8
0
  6
Continuous
 62
     7
370
    25
100
AcDbSpline
210
0.0
220
0.0
230
1.0
 70
     8
 71
     3
 72
     9
 73
     5
 74
     0
 42
0.00000001
 43
0.00000001
 40
0.0
 40
0.0
 40
0.0
 40
0.0
 40
0.4587021472394355
 40
1.0
 40
1.0
 40
1.0
 40
1.0
 10
8116.36684917512
 20
5229.087887661727
 30
0.0
 10
8116.329392826136
 20
5229.072626318751
 30
0.0
 10
8116.247735591242
 20
5229.0393556156
 30
0.0
 10
8115.63513885306
 20
5229.004344034785
 30
0.0
 10
8115.303541554073
 20
5228.985392341267
 30
0.0
  0
SPLINE
  5
1FE
330
1F
100
AcDbEntity
  8
0
  6
Continuous
 62
     7
370
    25
100
AcDbSpline
210
0.0
220
0.0
230
1.0
 70
     8
 71
     3
 72
    10
 73
     6
 74
     0
 42
0.00000001
 43
0.00000001
 40
0.0
 40
0.0
 40
0.0
 40
0.0
 40
0.2790933748142834
 40
0.8157184065913748
 40
1.0
 40
1.0
 40
1.0
 40
1.0
 10
8102.603541554075
 20
5228.573551903056
 30
0.0
 10
8102.393269948769
 20
5228.563124790755
 30
0.0
 10
8101.778699936325
 20
5228.532649013832
 30
0.0
 10
8101.407928994028
 20
5228.494332765274
 30
0.0
 10
8101.479704830801
 20
5228.468430093072
 30
0.0
 10
8101.498052512882
 20
5228.461808728334
 30
0.0
  0
SPLINE
  5
1FF
330
1F
100
AcDbEntity
  8
0
  6
Continuous
 62
     7
370
    25
100
AcDbSpline
210
0.0
220
0.0
230
1.0
 70
     8
 71
     3
 72
     9
 73
     5
 74
     0
 42
0.00000001
 43
0.00000001
 40
0.0
 40
0.0
 40
0.0
 40
0.0
 40
0.4586749041875585
 40
1.0
 40
1.0
 40
1.0
 40
1.0
 10
8116.366824589831
 20
5227.817882598335
 30
0.0
 10
8116.329370139002
 20
5227.80262292251
 30
0.0
 10
8116.247712192411
 20
5227.769353877952
 30
0.0
 10
8115.635141462912
 20
5227.734344043342
 30
0.0
 10
8115.303541554073
 20
5227.715392341268
 30
0.0
  0
SPLINE
  5
200
330
1F
100
AcDbEntity
  8
0
  6
Continuous
 62
     7
370
    25
100
AcDbSpline
210
0.0
220
0.0
230
1.0
 70
     8
 71
     3
 72
    10
 73
     6
 74
     0
 42
0.00000001
 43
0.00000001
 40
0.0
 40
0.0
 40
0.0
 40
0.0
 40
0.2790933748142916
 40
0.8157184065913783
 40
1.0
 40
1.0
 40
1.0
 40
1.0
 10
8102.603541554075
 20
5227.303551903055
 30
0.0
 10
8102.393269948769
 20
5227.293124790755
 30
0.0
 10
8101.778699936325
 20
5227.262649013833
 30
0.0
 10
8101.407928994028
 20
5227.224332765274
 30
0.0
 10
8101.479704830801
 20
5227.198430093072
 30
0.0
 10
8101.498052512882
 20
5227.191808728335
 30
0.0
  0
SPLINE
  5
201
330
1F
100
AcDbEntity
  8
0
  6
Continuous
 62
     7
370
    25
100
AcDbSpline
210
0.0
220
0.0
230
1.0
 70
     8
 71
     3
 72
     9
 73
     5
 74
     0
 42
0.00000001
 43
0.00000001
 40
0.0
 40
0.0
 40
0.0
 40
0.0
 40
0.4586476464860664
 40
1.0
 40
1.0
 40
1.0
 40
1.0
 10
8116.366799993799
 20
5226.547877532729
 30
0.0
 10
8116.329347442216
 20
5226.532619524785
 30
0.0
 10
8116.247688783618
 20
5226.499352139545
 30
0.0
 10
8115.635144074167
 20
5226.464344051904
 30
0.0
 10
8115.303541554073
 20
5226.445392341268
 30
0.0
  0
SPLINE
  5
202
330
1F
100
AcDbEntity
  8
0
  6
Continuous
 62
     7
370
    25
100
AcDbSpline
210
0.0
220
0.0
230
1.0
 70
     8
 71
     3
 72
    10
 73
     6
 74
     0
 42
0.00000001
 43
0.00000001
 40
0.0
 40
0.0
 40
0.0
 40
0.0
 40
0.2790933748142932
 40
0.815718406591379
 40
1.0
 40
1.0
 40
1.0
 40
1.0
 10
8102.603541554075
 20
5226.033551903056
 30
0.0
 10
8102.393269948769
 20
5226.023124790755
 30
0.0
 10
8101.778699936325
 20
5225.992649013832
 30
0.0
 10
8101.407928994028
 20
5225.954332765273
 30
0.0
 10
8101.479704830801
 20
5225.928430093072
 30
0.0
 10
8101.498052512882
 20
5225.921808728334
 30
0.0
  0
SPLINE
  5
203
330
1F
100
AcDbEntity
  8
0
  6
Continuous
 62
     7
370
    25
100
AcDbSpline
210
0.0
220
0.0
230
1.0
 70
     8
 71
     3
 72
     9
 73
     5
 74
     0
 42
0.00000001
 43
0.00000001
 40
0.0
 40
0.0
 40
0.0
 40
0.0
 40
0.7281078029840944
 40
1.0
 40
1.0
 40
1.0
 40
1.0
 10
8102.603541554075
 20
5229.410450322953
 30
0.0
 10
8102.387175821402
 20
5229.391688908379
 30
0.0
 10
8102.09001414866
 20
5229.365921550173
 30
0.0
 10
8102.159904034531
 20
5229.341557821316
 30
0.0
 10
8102.178906549149
 20
5229.334933513551
 30
0.0
  0
SPLINE
  5
204
330
1F
100
AcDbEntity
  8
0
  6
Continuous
 62
     7
370
    25
100
AcDbSpline
210
0.0
220
0.0
230
1.0
 70
     8
 71
     3
 72
     9
 73
     5
 74
     0
 42
0.00000001
 43
0.00000001
 40
0.0
 40
0.0
 40
0.0
 40
0.0
 40
0.782238849092499
 40
1.0
 40
1.0
 40
1.0
 40
1.0
 10
8115.682645262022
 20
5228.690498509578
 30
0.0
 10
8115.672592497626
 20
5228.675492318214
 30
0.0
 10
8115.659741225402
 20
5228.656308674522
 30
0.0
 10
8115.367237501612
 20
5228.636115719907
 30
0.0
 10
8115.303541554073
 20
5228.63171847887
 30
0.0
  0
SPLINE
  5
205
330
1F
100
AcDbEntity
  8
0
  6
Continuous
 62
     7
370
    25
100
AcDbSpline
210
0.0
220
0.0
230
1.0
 70
     8
 71
     3
 72
     9
 73
     5
 74
     0
 42
0.00000001
 43
0.00000001
 40
0.0
 40
0.0
 40
0.0
 40
0.0
 40
0.7281077001741812
 40
1.0
 40
1.0
 40
1.0
 40
1.0
 10
8102.603541554075
 20
5228.140450322953
 30
0.0
 10
8102.387175830561
 20
5228.121688908414
 30
0.0
 10
8102.090014128437
 20
5228.095921546617
 30
0.0
 10
8102.159904036757
 20
5228.071557814369
 30
0.0
 10
8102.178906564664
 20
5228.064933503176
 30
0.0
  0
SPLINE
  5
206
330
1F
100
AcDbEntity
  8
0
  6
Continuous
 62
     7
370
    25
100
AcDbSpline
210
0.0
220
0.0
230
1.0
 70
     8
 71
     3
 72
     9
 73
     5
 74
     0
 42
0.00000001
 43
0.00000001
 40
0.0
 40
0.0
 40
0.0
 40
0.0
 40
0.7822106951676829
 40
1.0
 40
1.0
 40
1.0
 40
1.0
 10
8115.682611999354
 20
5227.420490967826
 30
0.0
 10
8115.672558843663
 20
5227.405487248951
 30
0.0
 10
8115.659706608639
 20
5227.386306075684
 30
0.0
 10
8115.367238073112
 20
5227.366115721969
 30
0.0
 10
8115.303541554073
 20
5227.361718478869
 30
0.0
  0
SPLINE
  5
207
330
1F
100
AcDbEntity
  8
0
  6
Continuous
 62
     7
370
    25
100
AcDbSpline
210
0.0
220
0.0
230
1.0
 70
     8
 71
     3
 72
     9
 73
     5
 74
     0
 42
0.00000001
 43
0.00000001
 40
0.0
 40
0.0
 40
0.0
 40
0.0
 40
0.7281077506448587
 40
1.0
 40
1.0
 40
1.0
 40
1.0
 10
8102.603541554075
 20
5226.870450322953
 30
0.0
 10
8102.387175826065
 20
5226.851688908398
 30
0.0
 10
8102.090014138365
 20
5226.825921548363
 30
0.0
 10
8102.159904035664
 20
5226.801557817779
 30
0.0
 10
8102.178906557048
 20
5226.794933508269
 30
0.0
  0
SPLINE
  5
208
330
1F
100
AcDbEntity
  8
0
  6
Continuous
 62
     7
370
    25
100
AcDbSpline
210
0.0
220
0.0
230
1.0
 70
     8
 71
     3
 72
     9
 73
     5
 74
     0
 42
0.00000001
 43
0.00000001
 40
0.0
 40
0.0
 40
0.0
 40
0.0
 40
0.7821825516023219
 40
1.0
 40
1.0
 40
1.0
 40
1.0
 10
8115.682578757518
 20
5226.1504834308
 30
0.0
 10
8115.672525210924
 20
5226.135482182864
 30
0.0
 10
8115.659672013708
 20
5226.116303478475
 30
0.0
 10
8115.367238644403
 20
5226.096115724032
 30
0.0
 10
8115.303541554073
 20
5226.09171847887
 30
0.0
  0
SPLINE
  5
209
330
1F
100
AcDbEntity
  8
0
  6
Continuous
 62
     7
370
    25
100
AcDbSpline
210
0.0
220
0.0
230
1.0
 70
     8
 71
     3
 72
     9
 73
     5
 74
     0
 42
0.00000001
 43
0.00000001
 40
0.0
 40
0.0
 40
0.0
 40
0.0
 40
0.8383123730596976
 40
1.0
 40
1.0
 40
1.0
 40
1.0
 10
8102.603541554075
 20
5229.09295032252
 30
0.0
 10
8102.377358320704
 20
5229.074151365679
 30
0.0
 10
8102.107550501279
 20
5229.051726602018
 30
0.0
 10
8102.156541620843
 20
5229.030520946558
 30
0.0
 10
8102.164462878706
 20
5229.027092254449
 30
0.0
  0
SPLINE
  5
20A
330
1F
100
AcDbEntity
  8
0
  6
Continuous
 62
     7
370
    25
100
AcDbSpline
210
0.0
220
0.0
230
1.0
 70
     8
 71
     3
 72
     9
 73
     5
 74
     0
 42
0.00000001
 43
0.00000001
 40
0.0
 40
0.0
 40
0.0
 40
0.0
 40
0.812873309137109
 40
1.0
 40
1.0
 40
1.0
 40
1.0
 10
8115.724769282887
 20
5228.382549426941
 30
0.0
 10
8115.715313963888
 20
5228.364412431536
 30
0.0
 10
8115.703681992591
 20
5228.342100227161
 30
0.0
 10
8115.366615661259
 20
5228.318613477387
 30
0.0
 10
8115.303541554073
 20
5228.314218479622
 30
0.0
  0
SPLINE
  5
20B
330
1F
100
AcDbEntity
  8
0
  6
Continuous
 62
     7
370
    25
100
AcDbSpline
210
0.0
220
0.0
230
1.0
 70
     8
 71
     3
 72
     9
 73
     5
 74
     0
 42
0.00000001
 43
0.00000001
 40
0.0
 40
0.0
 40
0.0
 40
0.0
 40
0.8382106928978452
 40
1.0
 40
1.0
 40
1.0
 40
1.0
 10
8102.603541554075
 20
5227.822950322519
 30
0.0
 10
8102.377367378816
 20
5227.804151400318
 30
0.0
 10
8102.107537636515
 20
5227.781723957718
 30
0.0
 10
8102.156545505492
 20
5227.760515771205
 30
0.0
 10
8102.164474454656
 20
5227.757084513404
 30
0.0
  0
SPLINE
  5
20C
330
1F
100
AcDbEntity
  8
0
  6
Continuous
 62
     7
370
    25
100
AcDbSpline
210
0.0
220
0.0
230
1.0
 70
     8
 71
     3
 72
     9
 73
     5
 74
     0
 42
0.00000001
 43
0.00000001
 40
0.0
 40
0.0
 40
0.0
 40
0.0
 40
0.8128107925156357
 40
1.0
 40
1.0
 40
1.0
 40
1.0
 10
8115.724669279642
 20
5227.112526752882
 30
0.0
 10
8115.715212335049
 20
5227.09439718932
 30
0.0
 10
8115.703577469127
 20
5227.072092412208
 30
0.0
 10
8115.366616930291
 20
5227.048613481967
 30
0.0
 10
8115.303541554073
 20
5227.044218479622
 30
0.0
  0
SPLINE
  5
20D
330
1F
100
AcDbEntity
  8
0
  6
Continuous
 62
     7
370
    25
100
AcDbSpline
210
0.0
220
0.0
230
1.0
 70
     8
 71
     3
 72
     9
 73
     5
 74
     0
 42
0.00000001
 43
0.00000001
 40
0.0
 40
0.0
 40
0.0
 40
0.0
 40
0.8381091094601256
 40
1.0
 40
1.0
 40
1.0
 40
1.0
 10
8102.603541554075
 20
5226.552950322519
 30
0.0
 10
8102.377376428311
 20
5226.534151434923
 30
0.0
 10
8102.107524778676
 20
5226.511721315284
 30
0.0
 10
8102.156549385192
 20
5226.490510599513
 30
0.0
 10
8102.1644860224
 20
5226.487076777848
 30
0.0
  0
LINE
  5
20E
330
1F
100
AcDbEntity
  8
0
  6
Continuous
 62
     7
370
    25
100
AcDbLine
 10
8118.1765452858
 20
5225.0494545927
 30
0.0
 11
8118.1765452858
 21
5222.4969027138
 31
0.0
  0
LINE
  5
20F
330
1F
100
AcDbEntity
  8
0
  6
Continuous
 62
     7
370
    25
100
AcDbLine
 10
8117.375809921
 20
5225.0494545927
 30
0.0
 11
8118.1765452858
 21
5225.0494545927
 31
0.0
  0
LINE
  5
210
330
1F
100
AcDbEntity
  8
0
  6
Continuous
 62
     7
370
    25
100
AcDbLine
 10
8118.1765452858
 20
5238.4494545927
 30
0.0
 11
8118.1765452858
 21
5230.0494545927
 31
0.0
  0
LINE
  5
211
330
1F
100
AcDbEntity
  8
0
  6
Continuous
 62
     7
370
    25
100
AcDbLine
 10
8117.375809921
 20
5230.0494545927
 30
0.0
 11
8118.1765452858
 21
5230.0494545927
 31
0.0
  0
LINE
  5
212
330
1F
100
AcDbEntity
  8
0
  6
Continuous
 62
     7
370
    25
100
AcDbLine
 10
8099.6765452858
 20
5222.4969027138
 30
0.0
 11
8099.6765452858
 21
5225.0494545927
 31
0.0
  0
LINE
  5
213
330
1F
100
AcDbEntity
  8
0
  6
Continuous
 62
     7
370
    25
100
AcDbLine
 10
8099.6765452858
 20
5225.0494545927
 30
0.0
 11
8100.4772806506
 21
5225.0494545927
 31
0.0
  0
LINE
  5
214
330
1F
100
AcDbEntity
  8
0
  6
Continuous
 62
     7
370
    25
100
AcDbLine
 10
8099.6765452858
 20
5230.0494545927
 30
0.0
 11
8099.6765452858
 21
5238.4494545927
 31
0.0
  0
LINE
  5
215
330
1F
100
AcDbEntity
  8
0
  6
Continuous
 62
     7
370
    25
100
AcDbLine
 10
8099.6765452858
 20
5230.0494545927
 30
0.0
 11
8100.4772806506
 21
5230.0494545927
 31
0.0
  0
LINE
  5
216
330
1F
100
AcDbEntity
  8
0
  6
Continuous
 62
     7
370
    25
100
AcDbLine
 10
8082.6265452858
 20
5220.0494545927
 30
0.0
 11
8124.6265452858
 21
5220.0494545927
 31
0.0
  0
LINE
  5
217
330
1F
100
AcDbEntity
  8
0
  6
Continuous
 62
     7
370
    25
100
AcDbLine
 10
8124.6265452858
 20
5220.0494545927
 30
0.0
 11
8124.6265452858
 21
5214.0494545927
 31
0.0
  0
LINE
  5
218
330
1F
100
AcDbEntity
  8
0
  6
Continuous
 62
     7
370
    25
100
AcDbLine
 10
8124.6265452858
 20
5214.0494545927
 30
0.0
 11
8082.6265452858
 21
5214.0494545927
 31
0.0
  0
LINE
  5
219
330
1F
100
AcDbEntity
  8
0
  6
Continuous
 62
     7
370
    25
100
AcDbLine
 10
8082.6265452858
 20
5146.0494545927
 30
0.0
 11
8124.6265452858
 21
5146.0494545927
 31
0.0
  0
LINE
  5
21A
330
1F
100
AcDbEntity
  8
0
  6
Continuous
 62
     7
370
    25
100
AcDbLine
 10
8124.6265452858
 20
5146.0494545927
 30
0.0
 11
8124.6265452858
 21
5214.0494545927
 31
0.0
  0
LINE
  5
21B
330
1F
100
AcDbEntity
  8
0
  6
Continuous
 62
     7
370
    25
100
AcDbLine
 10
8124.6265452858
 20
5146.0494545927
 30
0.0
 11
8124.6265452858
 21
5140.0494545927
 31
0.0
  0
LINE
  5
21C
330
1F
100
AcDbEntity
  8
0
  6
Continuous
 62
     7
370
    25
100
AcDbLine
 10
8124.6265452858
 20
5140.0494545927
 30
0.0
 11
8082.6265452858
 21
5140.0494545927
 31
0.0
  0
LINE
  5
21D
330
1F
100
AcDbEntity
  8
0
  6
Continuous
 62
     7
370
    25
100
AcDbLine
 10
7987.3265452858
 20
5071.8494545927
 30
0.0
 11
7987.8265452858
 21
5071.8494545927
 31
0.0
  0
LINE
  5
21E
330
1F
100
AcDbEntity
  8
0
  6
Continuous
 62
     7
370
    25
100
AcDbLine
 10
7967.8265452858
 20
5071.8494545927
 30
0.0
 11
7968.3265452858
 21
5071.8494545927
 31
0.0
  0
LINE
  5
21F
330
1F
100
AcDbEntity
  8
0
  6
Continuous
 62
     7
370
    25
100
AcDbLine
 10
8102.0535415541
 20
5225.8421183147
 30
0.0
 11
8115.8535415541
 21
5225.8421183147
 31
0.0
  0
LINE
  5
220
330
1F
100
AcDbEntity
  8
0
  6
Continuous
 62
     7
370
    25
100
AcDbLine
 10
8114.8563748659
 20
5246.4421183147
 30
0.0
 11
8114.8563748659
 21
5249.4421183147
 31
0.0
  0
LINE
  5
221
330
1F
100
AcDbEntity
  8
0
  6
Continuous
 62
     7
370
    25
100
AcDbLine
 10
8108.7637133661
 20
5246.4421183147
 30
0.0
 11
8114.8563748659
 21
5246.4421183147
 31
0.0
  0
LINE
  5
222
330
1F
100
AcDbEntity
  8
0
  6
Continuous
 62
     7
370
    25
100
AcDbLine
 10
8108.7637133661
 20
5246.4421183147
 30
0.0
 11
8108.7637133661
 21
5249.4421183147
 31
0.0
  0
LINE
  5
223
330
1F
100
AcDbEntity
  8
0
  6
Continuous
 62
     7
370
    25
100
AcDbLine
 10
8108.7637133661
 20
5249.4421183147
 30
0.0
 11
8114.8563748659
 21
5249.4421183147
 31
0.0
  0
LINE
  5
224
330
1F
100
AcDbEntity
  8
0
  6
Continuous
 62
     7
370
    25
100
AcDbLine
 10
8102.0535415541
 20
5235.3421183147
 30
0.0
 11
8115.8535415541
 21
5235.3421183147
 31
0.0
  0
LINE
  5
225
330
1F
100
AcDbEntity
  8
0
  6
Continuous
 62
     7
370
    25
100
AcDbLine
 10
8102.8608800542
 20
5246.4421183147
 30
0.0
 11
8102.8608800542
 21
5249.4421183147
 31
0.0
  0
LINE
  5
226
330
1F
100
AcDbEntity
  8
0
  6
Continuous
 62
     7
370
    25
100
AcDbLine
 10
8102.8608800542
 20
5246.4421183147
 30
0.0
 11
8108.7637133661
 21
5246.4421183147
 31
0.0
  0
LINE
  5
227
330
1F
100
AcDbEntity
  8
0
  6
Continuous
 62
     7
370
    25
100
AcDbLine
 10
8102.8608800542
 20
5249.4421183147
 30
0.0
 11
8108.7637133661
 21
5249.4421183147
 31
0.0
  0
LINE
  5
228
330
1F
100
AcDbEntity
  8
0
  6
Continuous
 62
     7
370
    25
100
AcDbLine
 10
8103.9535415541
 20
5241.3421183147
 30
0.0
 11
8113.9535415541
 21
5241.3421183147
 31
0.0
  0
LINE
  5
229
330
1F
100
AcDbEntity
  8
0
  6
Continuous
 62
     7
370
    25
100
AcDbLine
 10
8115.0462030539
 20
5246.4421183147
 30
0.0
 11
8115.0462030539
 21
5249.4421183147
 31
0.0
  0
LINE
  5
22A
330
1F
100
AcDbEntity
  8
0
  6
Continuous
 62
     7
370
    25
100
AcDbLine
 10
8114.8563748659
 20
5246.4421183147
 30
0.0
 11
8115.0462030539
 21
5246.4421183147
 31
0.0
  0
LINE
  5
22B
330
1F
100
AcDbEntity
  8
0
  6
Continuous
 62
     7
370
    25
100
AcDbLine
 10
8114.8563748659
 20
5249.4421183147
 30
0.0
 11
8115.0462030539
 21
5249.4421183147
 31
0.0
  0
SPLINE
  5
22C
330
1F
100
AcDbEntity
  8
0
  6
Continuous
 62
     7
370
    25
100
AcDbSpline
210
0.0
220
0.0
230
1.0
 70
     8
 71
     3
 72
    11
 73
     7
 74
     0
 42
0.00000001
 43
0.00000001
 40
0.0
 40
0.0
 40
0.0
 40
0.0
 40
0.2500000000000093
 40
0.5000000000000074
 40
0.7500000000000019
 40
1.0
 40
1.0
 40
1.0
 40
1.0
 10
7847.533652066994
 20
5081.549454592719
 30
0.0
 10
7847.55805983523
 20
5081.811528680332
 30
0.0
 10
7847.606875371698
 20
5082.335676855557
 30
0.0
 10
7847.680098676402
 20
5082.996766729751
 30
0.0
 10
7847.753321981105
 20
5083.459265155995
 30
0.0
 10
7847.802137517574
 20
5083.519391447145
 30
0.0
 10
7847.826545285808
 20
5083.549454592719
 30
0.0
  0
LINE
  5
22D
330
1F
100
AcDbEntity
  8
0
  6
Continuous
 62
     7
370
    25
100
AcDbLine
 10
7847.8265452858
 20
5083.5494545927
 30
0.0
 11
7867.8265452858
 21
5083.5494545927
 31
0.0
  0
LINE
  5
22E
330
1F
100
AcDbEntity
  8
0
  6
Continuous
 62
     7
370
    25
100
AcDbLine
 10
7867.8265452858
 20
5081.5494545927
 30
0.0
 11
7867.8265452858
 21
5083.5494545927
 31
0.0
  0
LINE
  5
22F
330
1F
100
AcDbEntity
  8
0
  6
Continuous
 62
     7
370
    25
100
AcDbLine
 10
7847.533652067
 20
5081.5494545927
 30
0.0
 11
7867.8265452858
 21
5081.5494545927
 31
0.0
  0
LINE
  5
230
330
1F
100
AcDbEntity
  8
0
  6
Continuous
 62
     7
370
    25
100
AcDbLine
 10
7867.8265452858
 20
5062.5494545927
 30
0.0
 11
7867.8265452858
 21
5081.5494545927
 31
0.0
  0
LINE
  5
231
330
1F
100
AcDbEntity
  8
0
  6
Continuous
 62
     7
370
    25
100
AcDbLine
 10
7847.533652067
 20
5062.5494545927
 30
0.0
 11
7847.533652067
 21
5081.5494545927
 31
0.0
  0
LINE
  5
232
330
1F
100
AcDbEntity
  8
0
  6
Continuous
 62
     7
370
    25
100
AcDbLine
 10
7887.8265452858
 20
5083.5494545927
 30
0.0
 11
7967.8265452858
 21
5083.5494545927
 31
0.0
  0
LINE
  5
233
330
1F
100
AcDbEntity
  8
0
  6
Continuous
 62
     7
370
    25
100
AcDbLine
 10
7967.8265452858
 20
5081.5494545927
 30
0.0
 11
7967.8265452858
 21
5083.5494545927
 31
0.0
  0
LINE
  5
234
330
1F
100
AcDbEntity
  8
0
  6
Continuous
 62
     7
370
    25
100
AcDbLine
 10
7887.8265452858
 20
5081.5494545927
 30
0.0
 11
7967.8265452858
 21
5081.5494545927
 31
0.0
  0
LINE
  5
235
330
1F
100
AcDbEntity
  8
0
  6
Continuous
 62
     7
370
    25
100
AcDbLine
 10
7887.8265452858
 20
5081.5494545927
 30
0.0
 11
7887.8265452858
 21
5083.5494545927
 31
0.0
  0
LINE
  5
236
330
1F
100
AcDbEntity
  8
0
  6
Continuous
 62
     7
370
    25
100
AcDbLine
 10
7967.8265452858
 20
5062.5494545927
 30
0.0
 11
7967.8265452858
 21
5081.5494545927
 31
0.0
  0
LINE
  5
237
330
1F
100
AcDbEntity
  8
0
  6
Continuous
 62
     7
370
    25
100
AcDbLine
 10
7887.8265452858
 20
5062.5494545927
 30
0.0
 11
7887.8265452858
 21
5081.5494545927
 31
0.0
  0
LINE
  5
238
330
1F
100
AcDbEntity
  8
0
  6
Continuous
 62
     7
370
    25
100
AcDbLine
 10
8067.8265452858
 20
5062.5494545927
 30
0.0
 11
8067.8265452858
 21
5081.5494545927
 31
0.0
  0
LINE
  5
239
330
1F
100
AcDbEntity
  8
0
  6
Continuous
 62
     7
370
    25
100
AcDbLine
 10
7987.8265452858
 20
5062.5494545927
 30
0.0
 11
7987.8265452858
 21
5081.5494545927
 31
0.0
  0
LINE
  5
23A
330
1F
100
AcDbEntity
  8
0
  6
Continuous
 62
     7
370
    25
100
AcDbLine
 10
7987.8265452858
 20
5081.5494545927
 30
0.0
 11
8067.8265452858
 21
5081.5494545927
 31
0.0
  0
LINE
  5
23B
330
1F
100
AcDbEntity
  8
0
  6
Continuous
 62
     7
370
    25
100
AcDbLine
 10
7987.8265452858
 20
5083.5494545927
 30
0.0
 11
8067.8265452858
 21
5083.5494545927
 31
0.0
  0
LINE
  5
23C
330
1F
100
AcDbEntity
  8
0
  6
Continuous
 62
     7
370
    25
100
AcDbLine
 10
8067.8265452858
 20
5081.5494545927
 30
0.0
 11
8067.8265452858
 21
5083.5494545927
 31
0.0
  0
LINE
  5
23D
330
1F
100
AcDbEntity
  8
0
  6
Continuous
 62
     7
370
    25
100
AcDbLine
 10
7987.8265452858
 20
5081.5494545927
 30
0.0
 11
7987.8265452858
 21
5083.5494545927
 31
0.0
  0
LINE
  5
23E
330
1F
100
AcDbEntity
  8
0
  6
Continuous
 62
     7
370
    25
100
AcDbLine
 10
8108.1194385046
 20
5081.5494545927
 30
0.0
 11
8108.1194385046
 21
5062.5494545927
 31
0.0
  0
LINE
  5
23F
330
1F
100
AcDbEntity
  8
0
  6
Continuous
 62
     7
370
    25
100
AcDbLine
 10
8087.8265452858
 20
5062.5494545927
 30
0.0
 11
8087.8265452858
 21
5081.5494545927
 31
0.0
  0
LINE
  5
240
330
1F
100
AcDbEntity
  8
0
  6
Continuous
 62
     7
370
    25
100
AcDbLine
 10
8087.8265452858
 20
5081.5494545927
 30
0.0
 11
8108.1194385046
 21
5081.5494545927
 31
0.0
  0
LINE
  5
241
330
1F
100
AcDbEntity
  8
0
  6
Continuous
 62
     7
370
    25
100
AcDbLine
 10
8087.8265452858
 20
5083.5494545927
 30
0.0
 11
8107.8265452858
 21
5083.5494545927
 31
0.0
  0
SPLINE
  5
242
330
1F
100
AcDbEntity
  8
0
  6
Continuous
 62
     7
370
    25
100
AcDbSpline
210
0.0
220
0.0
230
1.0
 70
     8
 71
     3
 72
    11
 73
     7
 74
     0
 42
0.00000001
 43
0.00000001
 40
0.0
 40
0.0
 40
0.0
 40
0.0
 40
0.2499999999999844
 40
0.4999999999999936
 40
0.7500000000000016
 40
1.0
 40
1.0
 40
1.0
 40
1.0
 10
8107.826545285809
 20
5083.549454592719
 30
0.0
 10
8107.850953054044
 20
5083.519391447145
 30
0.0
 10
8107.899768590511
 20
5083.459265155996
 30
0.0
 10
8107.972991895215
 20
5082.996766729751
 30
0.0
 10
8108.046215199918
 20
5082.335676855557
 30
0.0
 10
8108.095030736388
 20
5081.811528680332
 30
0.0
 10
8108.119438504621
 20
5081.549454592719
 30
0.0
  0
LINE
  5
243
330
1F
100
AcDbEntity
  8
0
  6
Continuous
 62
     7
370
    25
100
AcDbLine
 10
8087.8265452858
 20
5081.5494545927
 30
0.0
 11
8087.8265452858
 21
5083.5494545927
 31
0.0
  0
LINE
  5
244
330
1F
100
AcDbEntity
  8
0
  6
Continuous
 62
     7
370
    25
100
AcDbLine
 10
7845.8265452858
 20
5081.5494545927
 30
0.0
 11
7845.8265452858
 21
5062.5494545927
 31
0.0
  0
LINE
  5
245
330
1F
100
AcDbEntity
  8
0
  6
Continuous
 62
     7
370
    25
100
AcDbLine
 10
7846.8265452858
 20
5081.5494545927
 30
0.0
 11
7845.8265452858
 21
5081.5494545927
 31
0.0
  0
LINE
  5
246
330
1F
100
AcDbEntity
  8
0
  6
Continuous
 62
     7
370
    25
100
AcDbLine
 10
7846.8265452858
 20
5081.5494545927
 30
0.0
 11
7846.8265452858
 21
5062.5494545927
 31
0.0
  0
SPLINE
  5
247
330
1F
100
AcDbEntity
  8
0
  6
Continuous
 62
     7
370
    25
100
AcDbSpline
210
0.0
220
0.0
230
1.0
 70
     8
 71
     3
 72
    11
 73
     7
 74
     0
 42
0.00000001
 43
0.00000001
 40
0.0
 40
0.0
 40
0.0
 40
0.0
 40
0.1388156110511919
 40
0.4258770740341157
 40
0.7129385370170541
 40
1.0
 40
1.0
 40
1.0
 40
1.0
 10
7847.628917813066
 20
5082.510144044258
 30
0.0
 10
7847.566108795513
 20
5082.501217432242
 30
0.0
 10
7847.37341490168
 20
5082.473831179518
 30
0.0
 10
7847.103952756547
 20
5082.269946290848
 30
0.0
 10
7846.871374119357
 20
5081.943356816735
 30
0.0
 10
7846.841488230324
 20
5081.680755334058
 30
0.0
 10
7846.826545285809
 20
5081.549454592719
 30
0.0
  0
SPLINE
  5
248
330
1F
100
AcDbEntity
  8
0
  6
Continuous
 62
     7
370
    25
100
AcDbSpline
210
0.0
220
0.0
230
1.0
 70
     8
 71
     3
 72
    11
 73
     7
 74
     0
 42
0.00000001
 43
0.00000001
 40
0.0
 40
0.0
 40
0.0
 40
0.0
 40
0.2499999999999847
 40
0.499999999999989
 40
0.749999999999989
 40
0.9999999999999999
 40
0.9999999999999999
 40
0.9999999999999999
 40
0.9999999999999999
 10
7847.826545285808
 20
5083.549454592719
 30
0.0
 10
7847.564471198196
 20
5083.519391447145
 30
0.0
 10
7847.040323022971
 20
5083.459265155996
 30
0.0
 10
7846.379233148778
 20
5082.996766729751
 30
0.0
 10
7845.916734722532
 20
5082.335676855557
 30
0.0
 10
7845.856608431383
 20
5081.811528680332
 30
0.0
 10
7845.826545285809
 20
5081.549454592719
 30
0.0
  0
SPLINE
  5
249
330
1F
100
AcDbEntity
  8
0
  6
Continuous
 62
     7
370
    25
100
AcDbSpline
210
0.0
220
0.0
230
1.0
 70
     8
 71
     3
 72
    11
 73
     7
 74
     0
 42
0.00000001
 43
0.00000001
 40
0.0
 40
0.0
 40
0.0
 40
0.0
 40
0.249999999999999
 40
0.5000000000000024
 40
0.7500000000000092
 40
1.0
 40
1.0
 40
1.0
 40
1.0
 10
8109.826545285808
 20
5081.549454592719
 30
0.0
 10
8109.796482140233
 20
5081.811528680332
 30
0.0
 10
8109.736355849085
 20
5082.335676855557
 30
0.0
 10
8109.273857422841
 20
5082.996766729751
 30
0.0
 10
8108.612767548646
 20
5083.459265155996
 30
0.0
 10
8108.08861937342
 20
5083.519391447145
 30
0.0
 10
8107.826545285809
 20
5083.549454592719
 30
0.0
  0
LINE
  5
24A
330
1F
100
AcDbEntity
  8
0
  6
Continuous
 62
     7
370
    25
100
AcDbLine
 10
8108.8265452858
 20
5081.5494545927
 30
0.0
 11
8109.8265452858
 21
5081.5494545927
 31
0.0
  0
SPLINE
  5
24B
330
1F
100
AcDbEntity
  8
0
  6
Continuous
 62
     7
370
    25
100
AcDbSpline
210
0.0
220
0.0
230
1.0
 70
     8
 71
     3
 72
    11
 73
     7
 74
     0
 42
0.00000001
 43
0.00000001
 40
0.0
 40
0.0
 40
0.0
 40
0.0
 40
0.2870614629829462
 40
0.5741229259658821
 40
0.8611843889488299
 40
1.0
 40
1.0
 40
1.0
 40
1.0
 10
8108.826545285809
 20
5081.549454592719
 30
0.0
 10
8108.811602341292
 20
5081.680755334058
 30
0.0
 10
8108.781716452259
 20
5081.943356816735
 30
0.0
 10
8108.54913781507
 20
5082.269946290848
 30
0.0
 10
8108.279675669937
 20
5082.473831179518
 30
0.0
 10
8108.086981776104
 20
5082.501217432242
 30
0.0
 10
8108.024172758551
 20
5082.510144044258
 30
0.0
  0
LINE
  5
24C
330
1F
100
AcDbEntity
  8
0
  6
Continuous
 62
     7
370
    25
100
AcDbLine
 10
8109.8265452858
 20
5062.5494545927
 30
0.0
 11
8109.8265452858
 21
5081.5494545927
 31
0.0
  0
LINE
  5
24D
330
1F
100
AcDbEntity
  8
0
  6
Continuous
 62
     7
370
    25
100
AcDbLine
 10
8108.8265452858
 20
5062.5494545927
 30
0.0
 11
8108.8265452858
 21
5081.5494545927
 31
0.0
  0
LINE
  5
24E
330
1F
100
AcDbEntity
  8
0
  6
Continuous
 62
     7
370
    25
100
AcDbLine
 10
7887.8265452858
 20
5083.5494545927
 30
0.0
 11
7867.8265452858
 21
5083.5494545927
 31
0.0
  0
LINE
  5
24F
330
1F
100
AcDbEntity
  8
0
  6
Continuous
 62
     7
370
    25
100
AcDbLine
 10
7887.8265452858
 20
5082.5494545927
 30
0.0
 11
7867.8265452858
 21
5082.5494545927
 31
0.0
  0
LINE
  5
250
330
1F
100
AcDbEntity
  8
0
  6
Continuous
 62
     7
370
    25
100
AcDbLine
 10
7987.8265452858
 20
5082.5494545927
 30
0.0
 11
7967.8265452858
 21
5082.5494545927
 31
0.0
  0
LINE
  5
251
330
1F
100
AcDbEntity
  8
0
  6
Continuous
 62
     7
370
    25
100
AcDbLine
 10
8087.8265452858
 20
5083.5494545927
 30
0.0
 11
8067.8265452858
 21
5083.5494545927
 31
0.0
  0
LINE
  5
252
330
1F
100
AcDbEntity
  8
0
  6
Continuous
 62
     7
370
    25
100
AcDbLine
 10
8087.8265452858
 20
5082.5494545927
 30
0.0
 11
8067.8265452858
 21
5082.5494545927
 31
0.0
  0
LINE
  5
253
330
1F
100
AcDbEntity
  8
0
  6
Continuous
 62
     7
370
    25
100
AcDbLine
 10
7831.3265452858
 20
5052.5494545927
 30
0.0
 11
7831.3265452858
 21
5051.0494545927
 31
0.0
  0
LINE
  5
254
330
1F
100
AcDbEntity
  8
0
  6
Continuous
 62
     7
370
    25
100
AcDbLine
 10
7848.3265452858
 20
5052.5494545927
 30
0.0
 11
7848.3265452858
 21
5051.0494545927
 31
0.0
  0
LINE
  5
255
330
1F
100
AcDbEntity
  8
0
  6
Continuous
 62
     7
370
    25
100
AcDbLine
 10
7848.3265452858
 20
5051.0494545927
 30
0.0
 11
7831.3265452858
 21
5051.0494545927
 31
0.0
  0
LINE
  5
256
330
1F
100
AcDbEntity
  8
0
  6
Continuous
 62
     7
370
    25
100
AcDbLine
 10
8107.3265452858
 20
5052.5494545927
 30
0.0
 11
8107.3265452858
 21
5051.0494545927
 31
0.0
  0
LINE
  5
257
330
1F
100
AcDbEntity
  8
0
  6
Continuous
 62
     7
370
    25
100
AcDbLine
 10
8107.3265452858
 20
5051.0494545927
 30
0.0
 11
7848.3265452858
 21
5051.0494545927
 31
0.0
  0
LINE
  5
258
330
1F
100
AcDbEntity
  8
0
  6
Continuous
 62
     7
370
    25
100
AcDbLine
 10
8124.3265452858
 20
5052.5494545927
 30
0.0
 11
8124.3265452858
 21
5051.0494545927
 31
0.0
  0
LINE
  5
259
330
1F
100
AcDbEntity
  8
0
  6
Continuous
 62
     7
370
    25
100
AcDbLine
 10
8124.3265452858
 20
5051.0494545927
 30
0.0
 11
8107.3265452858
 21
5051.0494545927
 31
0.0
  0
LINE
  5
25A
330
1F
100
AcDbEntity
  8
0
  6
Continuous
 62
     7
370
    25
100
AcDbLine
 10
7840.1265452858
 20
5050.6694545927
 30
0.0
 11
7832.5265452858
 21
5050.6694545927
 31
0.0
  0
LINE
  5
25B
330
1F
100
AcDbEntity
  8
0
  6
Continuous
 62
     7
370
    25
100
AcDbLine
 10
7838.2265452858
 20
5048.8494545927
 30
0.0
 11
7834.4265452858
 21
5048.8494545927
 31
0.0
  0
LINE
  5
25C
330
1F
100
AcDbEntity
  8
0
  6
Continuous
 62
     7
370
    25
100
AcDbLine
 10
8121.2265452858
 20
5049.534782053
 30
0.0
 11
8117.4265452858
 21
5049.534782053
 31
0.0
  0
LINE
  5
25D
330
1F
100
AcDbEntity
  8
0
  6
Continuous
 62
     7
370
    25
100
AcDbLine
 10
7981.6265452858
 20
5050.6694545927
 30
0.0
 11
7974.0265452858
 21
5050.6694545927
 31
0.0
  0
LINE
  5
25E
330
1F
100
AcDbEntity
  8
0
  6
Continuous
 62
     7
370
    25
100
AcDbLine
 10
7979.7265452858
 20
5048.8494545927
 30
0.0
 11
7975.9265452858
 21
5048.8494545927
 31
0.0
  0
LINE
  5
25F
330
1F
100
AcDbEntity
  8
0
  6
Continuous
 62
     7
370
    25
100
AcDbLine
 10
8125.8265452858
 20
5054.5494545927
 30
0.0
 11
8125.8265452858
 21
5052.5494545927
 31
0.0
  0
LINE
  5
260
330
1F
100
AcDbEntity
  8
0
  6
Continuous
 62
     7
370
    25
100
AcDbLine
 10
8125.8265452858
 20
5052.5494545927
 30
0.0
 11
7829.8265452858
 21
5052.5494545927
 31
0.0
  0
LINE
  5
261
330
1F
100
AcDbEntity
  8
0
  6
Continuous
 62
     7
370
    25
100
AcDbLine
 10
8125.8265452858
 20
5054.5494545927
 30
0.0
 11
7829.8265452858
 21
5054.5494545927
 31
0.0
  0
LINE
  5
262
330
1F
100
AcDbEntity
  8
0
  6
Continuous
 62
     7
370
    25
100
AcDbLine
 10
7829.8265452858
 20
5054.5494545927
 30
0.0
 11
7829.8265452858
 21
5052.5494545927
 31
0.0
  0
LINE
  5
263
330
1F
100
AcDbEntity
  8
0
  6
Continuous
 62
     7
370
    25
100
AcDbLine
 10
8125.8265452858
 20
5062.5494545927
 30
0.0
 11
8125.8265452858
 21
5054.5494545927
 31
0.0
  0
LINE
  5
264
330
1F
100
AcDbEntity
  8
0
  6
Continuous
 62
     7
370
    25
100
AcDbLine
 10
8125.8265452858
 20
5062.5494545927
 30
0.0
 11
7829.8265452858
 21
5062.5494545927
 31
0.0
  0
LINE
  5
265
330
1F
100
AcDbEntity
  8
0
  6
Continuous
 62
     7
370
    25
100
AcDbLine
 10
7829.8265452858
 20
5062.5494545927
 30
0.0
 11
7829.8265452858
 21
5054.5494545927
 31
0.0
  0
LINE
  5
266
330
1F
100
AcDbEntity
  8
0
  6
Continuous
 62
     7
370
    25
100
AcDbLine
 10
7827.8265452858
 20
5102.5494545927
 30
0.0
 11
7828.8265452858
 21
5102.5494545927
 31
0.0
  0
LINE
  5
267
330
1F
100
AcDbEntity
  8
0
  6
Continuous
 62
     7
370
    25
100
AcDbLine
 10
7828.8265452858
 20
5102.5494545927
 30
0.0
 11
7828.8265452858
 21
5092.5494545927
 31
0.0
  0
LINE
  5
268
330
1F
100
AcDbEntity
  8
0
  6
Continuous
 62
     7
370
    25
100
AcDbLine
 10
7828.8265452858
 20
5092.5494545927
 30
0.0
 11
7827.8265452858
 21
5092.5494545927
 31
0.0
  0
LINE
  5
269
330
1F
100
AcDbEntity
  8
0
  6
Continuous
 62
     7
370
    25
100
AcDbLine
 10
7827.8265452858
 20
5092.5494545927
 30
0.0
 11
7827.8265452858
 21
5102.5494545927
 31
0.0
  0
LINE
  5
26A
330
1F
100
AcDbEntity
  8
0
  6
Continuous
 62
     7
370
    25
100
AcDbLine
 10
7828.8265452858
 20
5054.5494545927
 30
0.0
 11
7827.8265452858
 21
5054.5494545927
 31
0.0
  0
LINE
  5
26B
330
1F
100
AcDbEntity
  8
0
  6
Continuous
 62
     7
370
    25
100
AcDbLine
 10
7828.8265452858
 20
5092.5494545927
 30
0.0
 11
7828.8265452858
 21
5054.5494545927
 31
0.0
  0
LINE
  5
26C
330
1F
100
AcDbEntity
  8
0
  6
Continuous
 62
     7
370
    25
100
AcDbLine
 10
7827.8265452858
 20
5092.5494545927
 30
0.0
 11
7827.8265452858
 21
5054.5494545927
 31
0.0
  0
ARC
  5
26D
330
1F
100
AcDbEntity
  8
0
  6
Continuous
 62
     7
370
    25
100
AcDbCircle
 10
7829.8265452858
 20
5054.5494545927
 30
0.0
 40
1.000000000000909
100
AcDbArc
 50
180.0
 51
270.0
  0
ARC
  5
26E
330
1F
100
AcDbEntity
  8
0
  6
Continuous
 62
     7
370
    25
100
AcDbCircle
 10
7829.8265452858
 20
5054.5494545927
 30
0.0
 40
2.000000000000909
100
AcDbArc
 50
180.0
 51
270.0
  0
ARC
  5
26F
330
1F
100
AcDbEntity
  8
0
  6
Continuous
 62
     7
370
    25
100
AcDbCircle
 10
8125.8265452858
 20
5054.5494545927
 30
0.0
 40
2.0
100
AcDbArc
 50
270.0
 51
0.0
  0
ARC
  5
270
330
1F
100
AcDbEntity
  8
0
  6
Continuous
 62
     7
370
    25
100
AcDbCircle
 10
8125.8265452858
 20
5054.5494545927
 30
0.0
 40
0.9999999999990905
100
AcDbArc
 50
270.0
 51
0.0
  0
LINE
  5
271
330
1F
100
AcDbEntity
  8
0
  6
Continuous
 62
     7
370
    25
100
AcDbLine
 10
8126.8265452858
 20
5054.5494545927
 30
0.0
 11
8127.8265452858
 21
5054.5494545927
 31
0.0
  0
LINE
  5
272
330
1F
100
AcDbEntity
  8
0
  6
Continuous
 62
     7
370
    25
100
AcDbLine
 10
8127.8265452858
 20
5092.5494545927
 30
0.0
 11
8126.8265452858
 21
5092.5494545927
 31
0.0
  0
LINE
  5
273
330
1F
100
AcDbEntity
  8
0
  6
Continuous
 62
     7
370
    25
100
AcDbLine
 10
8126.8265452858
 20
5092.5494545927
 30
0.0
 11
8126.8265452858
 21
5102.5494545927
 31
0.0
  0
LINE
  5
274
330
1F
100
AcDbEntity
  8
0
  6
Continuous
 62
     7
370
    25
100
AcDbLine
 10
8126.8265452858
 20
5102.5494545927
 30
0.0
 11
8127.8265452858
 21
5102.5494545927
 31
0.0
  0
LINE
  5
275
330
1F
100
AcDbEntity
  8
0
  6
Continuous
 62
     7
370
    25
100
AcDbLine
 10
8127.8265452858
 20
5102.5494545927
 30
0.0
 11
8127.8265452858
 21
5092.5494545927
 31
0.0
  0
LINE
  5
276
330
1F
100
AcDbEntity
  8
0
  6
Continuous
 62
     7
370
    25
100
AcDbLine
 10
8127.8265452858
 20
5054.5494545927
 30
0.0
 11
8127.8265452858
 21
5092.5494545927
 31
0.0
  0
LINE
  5
277
330
1F
100
AcDbEntity
  8
0
  6
Continuous
 62
     7
370
    25
100
AcDbLine
 10
8126.8265452858
 20
5054.5494545927
 30
0.0
 11
8126.8265452858
 21
5092.5494545927
 31
0.0
  0
LINE
  5
278
330
1F
100
AcDbEntity
  8
0
  6
Continuous
 62
     7
370
    25
100
AcDbLine
 10
7827.8265452858
 20
5112.5494545927
 30
0.0
 11
7828.8265452858
 21
5112.5494545927
 31
0.0
  0
LINE
  5
279
330
1F
100
AcDbEntity
  8
0
  6
Continuous
 62
     7
370
    25
100
AcDbLine
 10
7828.8265452858
 20
5112.5494545927
 30
0.0
 11
7828.8265452858
 21
5102.5494545927
 31
0.0
  0
LINE
  5
27A
330
1F
100
AcDbEntity
  8
0
  6
Continuous
 62
     7
370
    25
100
AcDbLine
 10
7827.8265452858
 20
5102.5494545927
 30
0.0
 11
7827.8265452858
 21
5112.5494545927
 31
0.0
  0
LINE
  5
27B
330
1F
100
AcDbEntity
  8
0
  6
Continuous
 62
     7
370
    25
100
AcDbLine
 10
8126.8265452858
 20
5112.5494545927
 30
0.0
 11
8127.8265452858
 21
5112.5494545927
 31
0.0
  0
LINE
  5
27C
330
1F
100
AcDbEntity
  8
0
  6
Continuous
 62
     7
370
    25
100
AcDbLine
 10
8127.8265452858
 20
5112.5494545927
 30
0.0
 11
8127.8265452858
 21
5102.5494545927
 31
0.0
  0
LINE
  5
27D
330
1F
100
AcDbEntity
  8
0
  6
Continuous
 62
     7
370
    25
100
AcDbLine
 10
8126.8265452858
 20
5102.5494545927
 30
0.0
 11
8126.8265452858
 21
5112.5494545927
 31
0.0
  0
LINE
  5
27E
330
1F
100
AcDbEntity
  8
0
  6
Continuous
 62
     7
370
    25
100
AcDbLine
 10
7828.8265452858
 20
5209.0494545927
 30
0.0
 11
7827.8265452858
 21
5209.0494545927
 31
0.0
  0
LINE
  5
27F
330
1F
100
AcDbEntity
  8
0
  6
Continuous
 62
     7
370
    25
100
AcDbLine
 10
7828.8265452858
 20
5209.0494545927
 30
0.0
 11
7828.8265452858
 21
5112.5494545927
 31
0.0
  0
LINE
  5
280
330
1F
100
AcDbEntity
  8
0
  6
Continuous
 62
     7
370
    25
100
AcDbLine
 10
7827.8265452858
 20
5209.0494545927
 30
0.0
 11
7827.8265452858
 21
5112.5494545927
 31
0.0
  0
LINE
  5
281
330
1F
100
AcDbEntity
  8
0
  6
Continuous
 62
     7
370
    25
100
AcDbLine
 10
7827.8265452858
 20
5219.0494545927
 30
0.0
 11
7828.8265452858
 21
5219.0494545927
 31
0.0
  0
LINE
  5
282
330
1F
100
AcDbEntity
  8
0
  6
Continuous
 62
     7
370
    25
100
AcDbLine
 10
7828.8265452858
 20
5219.0494545927
 30
0.0
 11
7828.8265452858
 21
5209.0494545927
 31
0.0
  0
LINE
  5
283
330
1F
100
AcDbEntity
  8
0
  6
Continuous
 62
     7
370
    25
100
AcDbLine
 10
7827.8265452858
 20
5209.0494545927
 30
0.0
 11
7827.8265452858
 21
5219.0494545927
 31
0.0
  0
LINE
  5
284
330
1F
100
AcDbEntity
  8
0
  6
Continuous
 62
     7
370
    25
100
AcDbLine
 10
8127.8265452858
 20
5209.0494545927
 30
0.0
 11
8126.8265452858
 21
5209.0494545927
 31
0.0
  0
LINE
  5
285
330
1F
100
AcDbEntity
  8
0
  6
Continuous
 62
     7
370
    25
100
AcDbLine
 10
8126.8265452858
 20
5219.0494545927
 30
0.0
 11
8127.8265452858
 21
5219.0494545927
 31
0.0
  0
LINE
  5
286
330
1F
100
AcDbEntity
  8
0
  6
Continuous
 62
     7
370
    25
100
AcDbLine
 10
8127.8265452858
 20
5219.0494545927
 30
0.0
 11
8127.8265452858
 21
5209.0494545927
 31
0.0
  0
LINE
  5
287
330
1F
100
AcDbEntity
  8
0
  6
Continuous
 62
     7
370
    25
100
AcDbLine
 10
8126.8265452858
 20
5209.0494545927
 30
0.0
 11
8126.8265452858
 21
5219.0494545927
 31
0.0
  0
LINE
  5
288
330
1F
100
AcDbEntity
  8
0
  6
Continuous
 62
     7
370
    25
100
AcDbLine
 10
8127.8265452858
 20
5209.0494545927
 30
0.0
 11
8127.8265452858
 21
5112.5494545927
 31
0.0
  0
LINE
  5
289
330
1F
100
AcDbEntity
  8
0
  6
Continuous
 62
     7
370
    25
100
AcDbLine
 10
8126.8265452858
 20
5209.0494545927
 30
0.0
 11
8126.8265452858
 21
5112.5494545927
 31
0.0
  0
LINE
  5
28A
330
1F
100
AcDbEntity
  8
0
  6
Continuous
 62
     7
370
    25
100
AcDbLine
 10
7829.8265452858
 20
5219.0494545927
 30
0.0
 11
7828.8265452858
 21
5219.0494545927
 31
0.0
  0
SPLINE
  5
28B
330
1F
100
AcDbEntity
  8
0
  6
Continuous
 62
     7
370
    25
100
AcDbSpline
210
0.0
220
0.0
230
1.0
 70
     8
 71
     3
 72
    12
 73
     8
 74
     0
 42
0.00000001
 43
0.00000001
 40
0.0
 40
0.0
 40
0.0
 40
0.0
 40
0.2499999999999999
 40
0.2499999999999999
 40
0.4999999999999998
 40
0.4999999999999998
 40
1.0
 40
1.0
 40
1.0
 40
1.0
 10
7828.826545285807
 20
5054.549454592719
 30
0.0
 10
7828.826545285807
 20
5054.608915193965
 30
0.0
 10
7828.852274750445
 20
5054.666951510578
 30
0.0
 10
7828.953036260864
 20
5054.785486955649
 30
0.0
 10
7829.026528496324
 20
5054.843852462025
 30
0.0
 10
7829.305001724774
 20
5055.02115553428
 30
0.0
 10
7829.562368809171
 20
5055.137640177776
 30
0.0
 10
7829.826545285808
 20
5055.256561373905
 30
0.0
  0
LINE
  5
28C
330
1F
100
AcDbEntity
  8
0
  6
Continuous
 62
     7
370
    25
100
AcDbLine
 10
8126.8265452858
 20
5219.0494545927
 30
0.0
 11
8125.8265452858
 21
5219.0494545927
 31
0.0
  0
SPLINE
  5
28D
330
1F
100
AcDbEntity
  8
0
  6
Continuous
 62
     7
370
    25
100
AcDbSpline
210
0.0
220
0.0
230
1.0
 70
     8
 71
     3
 72
    12
 73
     8
 74
     0
 42
0.00000001
 43
0.00000001
 40
0.0
 40
0.0
 40
0.0
 40
0.0
 40
0.2500000000000078
 40
0.2500000000000078
 40
0.5000000000000155
 40
0.5000000000000155
 40
1.0
 40
1.0
 40
1.0
 40
1.0
 10
8125.826545285808
 20
5055.256561373905
 30
0.0
 10
8125.958633531191
 20
5055.19710077266
 30
0.0
 10
8126.087564861484
 20
5055.139064456047
 30
0.0
 10
8126.330843092964
 20
5055.020529010975
 30
0.0
 10
8126.440719570535
 20
5054.9621635046
 30
0.0
 10
8126.719260232383
 20
5054.784860432344
 30
0.0
 10
8126.826545285807
 20
5054.66837578885
 30
0.0
 10
8126.826545285807
 20
5054.549454592719
 30
0.0
  0
LINE
  5
28E
330
1F
100
AcDbEntity
  8
0
  6
Continuous
 62
     7
370
    25
100
AcDbLine
 10
7837.1194385046
 20
5062.5494545927
 30
0.0
 11
7845.8265452858
 21
5071.2565613739
 31
0.0
  0
LINE
  5
28F
330
1F
100
AcDbEntity
  8
0
  6
Continuous
 62
     7
370
    25
100
AcDbLine
 10
7846.8265452858
 20
5072.2565613739
 30
0.0
 11
7847.533652067
 21
5072.9636681551
 31
0.0
  0
LINE
  5
290
330
1F
100
AcDbEntity
  8
0
  6
Continuous
 62
     7
370
    25
100
AcDbLine
 10
7847.8265452858
 20
5219.0494545927
 30
0.0
 11
7829.8265452858
 21
5219.0494545927
 31
0.0
  0
ARC
  5
291
330
1F
100
AcDbEntity
  8
0
  6
Continuous
 62
     7
370
    25
100
AcDbCircle
 10
7847.8265452858
 20
5209.0494545927
 30
0.0
 40
10.0
100
AcDbArc
 50
0.0
 51
90.0
  0
LINE
  5
292
330
1F
100
AcDbEntity
  8
0
  6
Continuous
 62
     7
370
    25
100
AcDbLine
 10
7857.8265452858
 20
5083.5494545927
 30
0.0
 11
7857.8265452858
 21
5209.0494545927
 31
0.0
  0
CIRCLE
  5
293
330
1F
100
AcDbEntity
  8
0
  6
Continuous
 62
     7
370
    25
100
AcDbCircle
 10
7835.8265452858
 20
5207.5494545927
 30
0.0
 40
3.0
  0
CIRCLE
  5
294
330
1F
100
AcDbEntity
  8
0
  6
Continuous
 62
     7
370
    25
100
AcDbCircle
 10
7835.8265452858
 20
5092.5494545927
 30
0.0
 40
3.0
  0
LINE
  5
295
330
1F
100
AcDbEntity
  8
0
  6
Continuous
 62
     7
370
    25
100
AcDbLine
 10
8117.1194385046
 20
5062.5494545927
 30
0.0
 11
8109.8265452858
 21
5069.8423478115
 31
0.0
  0
LINE
  5
296
330
1F
100
AcDbEntity
  8
0
  6
Continuous
 62
     7
370
    25
100
AcDbLine
 10
8108.8265452858
 20
5070.8423478115
 30
0.0
 11
8108.1194385046
 21
5071.5494545927
 31
0.0
  0
LINE
  5
297
330
1F
100
AcDbEntity
  8
0
  6
Continuous
 62
     7
370
    25
100
AcDbLine
 10
7847.533652067
 20
5071.5494545927
 30
0.0
 11
7846.8265452858
 21
5070.8423478115
 31
0.0
  0
LINE
  5
298
330
1F
100
AcDbEntity
  8
0
  6
Continuous
 62
     7
370
    25
100
AcDbLine
 10
7845.8265452858
 20
5069.8423478115
 30
0.0
 11
7838.533652067
 21
5062.5494545927
 31
0.0
  0
LINE
  5
299
330
1F
100
AcDbEntity
  8
0
  6
Continuous
 62
     7
370
    25
100
AcDbLine
 10
8118.533652067
 20
5062.5494545927
 30
0.0
 11
8109.8265452858
 21
5071.2565613739
 31
0.0
  0
LINE
  5
29A
330
1F
100
AcDbEntity
  8
0
  6
Continuous
 62
     7
370
    25
100
AcDbLine
 10
8108.8265452858
 20
5072.2565613739
 30
0.0
 11
8108.1194385046
 21
5072.9636681551
 31
0.0
  0
LINE
  5
29B
330
1F
100
AcDbEntity
  8
0
  6
Continuous
 62
     7
370
    25
100
AcDbLine
 10
8097.8265452858
 20
5140.0494545927
 30
0.0
 11
8097.8265452858
 21
5083.5494545927
 31
0.0
  0
LINE
  5
29C
330
1F
100
AcDbEntity
  8
0
  6
Continuous
 62
     7
370
    25
100
AcDbLine
 10
8125.8265452858
 20
5219.0494545927
 30
0.0
 11
8124.6265452858
 21
5219.0494545927
 31
0.0
  0
CIRCLE
  5
29D
330
1F
100
AcDbEntity
  8
0
  6
Continuous
 62
     7
370
    25
100
AcDbCircle
 10
8119.8265452858
 20
5092.5494545927
 30
0.0
 40
3.0
  0
LINE
  5
29E
330
1F
100
AcDbEntity
  8
0
  6
Continuous
 62
     8
370
    25
100
AcDbLine
 10
8023.8265452858
 20
5372.5494545927
 30
0.0
 11
7978.8265452858
 21
5372.5494545927
 31
0.0
  0
LINE
  5
29F
330
1F
100
AcDbEntity
  8
0
  6
Continuous
 62
     8
370
    25
100
AcDbLine
 10
7966.3265452858
 20
5085.8494545927
 30
0.0
 11
7959.3265452858
 21
5085.8494545927
 31
0.0
  0
LINE
  5
2A0
330
1F
100
AcDbEntity
  8
0
  6
Continuous
 62
     8
370
    25
100
AcDbLine
 10
8125.3265452858
 20
5161.4679905809
 30
0.0
 11
8124.6265452858
 21
5161.4679905809
 31
0.0
  0
LINE
  5
2A1
330
1F
100
AcDbEntity
  8
0
  6
Continuous
 62
     8
370
    25
100
AcDbLine
 10
8125.3265452858
 20
5165.4679905809
 30
0.0
 11
8124.6265452858
 21
5165.4679905809
 31
0.0
  0
LINE
  5
2A2
330
1F
100
AcDbEntity
  8
0
  6
Continuous
 62
     8
370
    25
100
AcDbLine
 10
8125.3265452858
 20
5153.4679905809
 30
0.0
 11
8124.6265452858
 21
5153.4679905809
 31
0.0
  0
LINE
  5
2A3
330
1F
100
AcDbEntity
  8
0
  6
Continuous
 62
     8
370
    25
100
AcDbLine
 10
8125.3265452858
 20
5157.4679905809
 30
0.0
 11
8124.6265452858
 21
5157.4679905809
 31
0.0
  0
LINE
  5
2A4
330
1F
100
AcDbEntity
  8
0
  6
Continuous
 62
     8
370
    25
100
AcDbLine
 10
8125.3265452858
 20
5149.4679905809
 30
0.0
 11
8124.6265452858
 21
5149.4679905809
 31
0.0
  0
LINE
  5
2A5
330
1F
100
AcDbEntity
  8
0
  6
Continuous
 62
     8
370
    25
100
AcDbLine
 10
8125.3265452858
 20
5213.4679905809
 30
0.0
 11
8124.6265452858
 21
5213.4679905809
 31
0.0
  0
LINE
  5
2A6
330
1F
100
AcDbEntity
  8
0
  6
Continuous
 62
     8
370
    25
100
AcDbLine
 10
8125.3265452858
 20
5209.4679905809
 30
0.0
 11
8124.6265452858
 21
5209.4679905809
 31
0.0
  0
LINE
  5
2A7
330
1F
100
AcDbEntity
  8
0
  6
Continuous
 62
     8
370
    25
100
AcDbLine
 10
8125.3265452858
 20
5205.4679905809
 30
0.0
 11
8124.6265452858
 21
5205.4679905809
 31
0.0
  0
LINE
  5
2A8
330
1F
100
AcDbEntity
  8
0
  6
Continuous
 62
     8
370
    25
100
AcDbLine
 10
8125.3265452858
 20
5201.4679905809
 30
0.0
 11
8124.6265452858
 21
5201.4679905809
 31
0.0
  0
LINE
  5
2A9
330
1F
100
AcDbEntity
  8
0
  6
Continuous
 62
     8
370
    25
100
AcDbLine
 10
8125.3265452858
 20
5197.4679905809
 30
0.0
 11
8124.6265452858
 21
5197.4679905809
 31
0.0
  0
LINE
  5
2AA
330
1F
100
AcDbEntity
  8
0
  6
Continuous
 62
     8
370
    25
100
AcDbLine
 10
8044.7265452858
 20
5174.0494545927
 30
0.0
 11
8044.7265452858
 21
5182.0494545927
 31
0.0
  0
LINE
  5
2AB
330
1F
100
AcDbEntity
  8
0
  6
Continuous
 62
     8
370
    25
100
AcDbLine
 10
8045.7265452858
 20
5174.0494545927
 30
0.0
 11
8045.7265452858
 21
5182.0494545927
 31
0.0
  0
LINE
  5
2AC
330
1F
100
AcDbEntity
  8
0
  6
Continuous
 62
     8
370
    25
100
AcDbLine
 10
8044.3020169839
 20
5174.2853036493
 30
0.0
 11
8044.3020169839
 21
5181.8136055361
 31
0.0
  0
LINE
  5
2AD
330
1F
100
AcDbEntity
  8
0
  6
Continuous
 62
     8
370
    25
100
AcDbLine
 10
8048.2265452858
 20
5200.5994545927
 30
0.0
 11
8048.2265452858
 21
5182.3494545927
 31
0.0
  0
LINE
  5
2AE
330
1F
100
AcDbEntity
  8
0
  6
Continuous
 62
     8
370
    25
100
AcDbLine
 10
8043.7265452858
 20
5184.5494545927
 30
0.0
 11
8043.7265452858
 21
5180.6714767131
 31
0.0
  0
LINE
  5
2AF
330
1F
100
AcDbEntity
  8
0
  6
Continuous
 62
     8
370
    25
100
AcDbLine
 10
8043.7265452858
 20
5175.4274324723
 30
0.0
 11
8043.7265452858
 21
5171.5494545927
 31
0.0
  0
LINE
  5
2B0
330
1F
100
AcDbEntity
  8
0
  6
Continuous
 62
     8
370
    25
100
AcDbLine
 10
8094.9265452858
 20
5220.5494545927
 30
0.0
 11
8102.9265452858
 21
5220.5494545927
 31
0.0
  0
LINE
  5
2B1
330
1F
100
AcDbEntity
  8
0
  6
Continuous
 62
     8
370
    25
100
AcDbLine
 10
8102.9265452858
 20
5221.2432018777
 30
0.0
 11
8094.9265452858
 21
5221.2432018777
 31
0.0
  0
LINE
  5
2B2
330
1F
100
AcDbEntity
  8
0
  6
Continuous
 62
     8
370
    25
100
AcDbLine
 10
8095.2077952858
 20
5221.692811083
 30
0.0
 11
8102.6452952858
 21
5221.692811083
 31
0.0
  0
LINE
  5
2B3
330
1F
100
AcDbEntity
  8
0
  6
Continuous
 62
     8
370
    25
100
AcDbLine
 10
8117.8535415541
 20
5220.5494545927
 30
0.0
 11
8122.9265452858
 21
5220.5494545927
 31
0.0
  0
LINE
  5
2B4
330
1F
100
AcDbEntity
  8
0
  6
Continuous
 62
     8
370
    25
100
AcDbLine
 10
8122.9265452858
 20
5221.2432018777
 30
0.0
 11
8117.8535415541
 21
5221.2432018777
 31
0.0
  0
LINE
  5
2B5
330
1F
100
AcDbEntity
  8
0
  6
Continuous
 62
     8
370
    25
100
AcDbLine
 10
8117.8535415541
 20
5221.692811083
 30
0.0
 11
8122.6452952858
 21
5221.692811083
 31
0.0
  0
LINE
  5
2B6
330
1F
100
AcDbEntity
  8
0
  6
Continuous
 62
     8
370
    25
100
AcDbLine
 10
8099.9265452858
 20
5242.5494545927
 30
0.0
 11
8103.9535415541
 21
5242.5494545927
 31
0.0
  0
LINE
  5
2B7
330
1F
100
AcDbEntity
  8
0
  6
Continuous
 62
     8
370
    25
100
AcDbLine
 10
8113.9535415541
 20
5242.5494545927
 30
0.0
 11
8117.9265452858
 21
5242.5494545927
 31
0.0
  0
LINE
  5
2B8
330
1F
100
AcDbEntity
  8
0
  6
Continuous
 62
     8
370
    25
100
AcDbLine
 10
8100.0535415541
 20
5223.8421183147
 30
0.0
 11
8117.8535415541
 21
5223.8421183147
 31
0.0
  0
LINE
  5
2B9
330
1F
100
AcDbEntity
  8
0
  6
Continuous
 62
     8
370
    25
100
AcDbLine
 10
8102.0535415541
 20
5239.6678025341
 30
0.0
 11
8115.8535415541
 21
5239.6678025341
 31
0.0
  0
LINE
  5
2BA
330
1F
100
AcDbEntity
  8
0
  6
Continuous
 62
     8
370
    25
100
AcDbLine
 10
8102.5535415541
 20
5240.5338279378
 30
0.0
 11
8115.3535415541
 21
5240.5338279378
 31
0.0
  0
LINE
  5
2BB
330
1F
100
AcDbEntity
  8
0
  6
Continuous
 62
     8
370
    25
100
AcDbLine
 10
7867.8265452858
 20
5081.5494545927
 30
0.0
 11
7887.8265452858
 21
5081.5494545927
 31
0.0
  0
LINE
  5
2BC
330
1F
100
AcDbEntity
  8
0
  6
Continuous
 62
     8
370
    25
100
AcDbLine
 10
7967.8265452858
 20
5081.5494545927
 30
0.0
 11
7987.8265452858
 21
5081.5494545927
 31
0.0
  0
LINE
  5
2BD
330
1F
100
AcDbEntity
  8
0
  6
Continuous
 62
     8
370
    25
100
AcDbLine
 10
8067.8265452858
 20
5081.5494545927
 30
0.0
 11
8087.8265452858
 21
5081.5494545927
 31
0.0
  0
LINE
  5
2BE
330
1F
100
AcDbEntity
  8
0
  6
Continuous
 62
     8
370
    25
100
AcDbLine
 10
7829.8265452858
 20
5062.5494545927
 30
0.0
 11
7829.8265452858
 21
5219.0494545927
 31
0.0
  0
LINE
  5
2BF
330
1F
100
AcDbEntity
  8
0
  6
Continuous
 62
     8
370
    25
100
AcDbLine
 10
8125.8265452858
 20
5219.0494545927
 30
0.0
 11
8125.8265452858
 21
5214.0494545927
 31
0.0
  0
LINE
  5
2C0
330
1F
100
AcDbEntity
  8
0
  6
Continuous
 62
     8
370
    25
100
AcDbLine
 10
8125.8265452858
 20
5194.0494545927
 30
0.0
 11
8125.8265452858
 21
5166.0494545927
 31
0.0
  0
LINE
  5
2C1
330
1F
100
AcDbEntity
  8
0
  6
Continuous
 62
     8
370
    25
100
AcDbLine
 10
8125.8265452858
 20
5146.0494545927
 30
0.0
 11
8125.8265452858
 21
5062.5494545927
 31
0.0
  0
LINE
  5
2C2
330
1F
100
AcDbEntity
  8
0
  6
Continuous
 62
     7
370
    25
100
AcDbLine
 10
8411.7584769813
 20
5360.5494545927
 30
0.0
 11
8411.7584769813
 21
5372.5494545927
 31
0.0
  0
LINE
  5
2C3
330
1F
100
AcDbEntity
  8
0
  6
Continuous
 62
     7
370
    25
100
AcDbLine
 10
8366.7584769813
 20
5372.5494545927
 30
0.0
 11
8366.7584769813
 21
5360.5494545927
 31
0.0
  0
ARC
  5
2C4
330
1F
100
AcDbEntity
  8
0
  6
Continuous
 62
     7
370
    25
100
AcDbCircle
 10
8371.7584769813
 20
5372.5494545927
 30
0.0
 40
5.000000000000909
100
AcDbArc
 50
90.0
 51
180.0
  0
ARC
  5
2C5
330
1F
100
AcDbEntity
  8
0
  6
Continuous
 62
     7
370
    25
100
AcDbCircle
 10
8406.7584769813
 20
5372.5494545927
 30
0.0
 40
5.000000000001819
100
AcDbArc
 50
0.0
 51
90.0
  0
ARC
  5
2C6
330
1F
100
AcDbEntity
  8
0
  6
Continuous
 62
     7
370
    25
100
AcDbCircle
 10
8446.7584769813
 20
5052.734729318
 30
0.0
 40
4.324969328313803
100
AcDbArc
 50
296.059831153
 51
331.4762140417
  0
ARC
  5
2C7
330
1F
100
AcDbEntity
  8
0
  6
Continuous
 62
     7
370
    25
100
AcDbCircle
 10
8446.7584769813
 20
5052.734729318
 30
0.0
 40
4.324969328315401
100
AcDbArc
 50
208.5237859583
 51
243.940168847
  0
LINE
  5
2C8
330
1F
100
AcDbEntity
  8
0
  6
Continuous
 62
     7
370
    25
100
AcDbLine
 10
8450.5584769813
 20
5050.6694545927
 30
0.0
 11
8450.5584769813
 21
5051.0494545927
 31
0.0
  0
LINE
  5
2C9
330
1F
100
AcDbEntity
  8
0
  6
Continuous
 62
     7
370
    25
100
AcDbLine
 10
8442.9584769813
 20
5051.0494545927
 30
0.0
 11
8442.9584769813
 21
5050.6694545927
 31
0.0
  0
LINE
  5
2CA
330
1F
100
AcDbEntity
  8
0
  6
Continuous
 62
     7
370
    25
100
AcDbLine
 10
8386.0584769813
 20
5050.6694545927
 30
0.0
 11
8386.0584769813
 21
5051.0494545927
 31
0.0
  0
LINE
  5
2CB
330
1F
100
AcDbEntity
  8
0
  6
Continuous
 62
     7
370
    25
100
AcDbLine
 10
8378.4584769813
 20
5051.0494545927
 30
0.0
 11
8378.4584769813
 21
5050.6694545927
 31
0.0
  0
ARC
  5
2CC
330
1F
100
AcDbEntity
  8
0
  6
Continuous
 62
     7
370
    25
100
AcDbCircle
 10
8382.2584769813
 20
5052.734729318
 30
0.0
 40
4.324969328314234
100
AcDbArc
 50
296.059831153
 51
331.4762140417
  0
ARC
  5
2CD
330
1F
100
AcDbEntity
  8
0
  6
Continuous
 62
     7
370
    25
100
AcDbCircle
 10
8382.2584769813
 20
5052.734729318
 30
0.0
 40
4.324969328315401
100
AcDbArc
 50
208.5237859583
 51
243.940168847
  0
LINE
  5
2CE
330
1F
100
AcDbEntity
  8
0
  6
Continuous
 62
     7
370
    25
100
AcDbLine
 10
8515.0584769813
 20
5050.6694545927
 30
0.0
 11
8515.0584769813
 21
5051.0494545927
 31
0.0
  0
LINE
  5
2CF
330
1F
100
AcDbEntity
  8
0
  6
Continuous
 62
     7
370
    25
100
AcDbLine
 10
8507.4584769813
 20
5051.0494545927
 30
0.0
 11
8507.4584769813
 21
5050.6694545927
 31
0.0
  0
ARC
  5
2D0
330
1F
100
AcDbEntity
  8
0
  6
Continuous
 62
     7
370
    25
100
AcDbCircle
 10
8511.2584769813
 20
5052.734729318
 30
0.0
 40
4.324969328315033
100
AcDbArc
 50
296.059831153
 51
331.4762140417
  0
ARC
  5
2D1
330
1F
100
AcDbEntity
  8
0
  6
Continuous
 62
     7
370
    25
100
AcDbCircle
 10
8511.2584769813
 20
5052.734729318
 30
0.0
 40
4.324969328314234
100
AcDbArc
 50
208.5237859583
 51
243.940168847
  0
LINE
  5
2D2
330
1F
100
AcDbEntity
  8
0
  6
Continuous
 62
     7
370
    25
100
AcDbLine
 10
8326.7584769813
 20
5219.0494545927
 30
0.0
 11
8326.7584769813
 21
5299.5979960449
 31
0.0
  0
LINE
  5
2D3
330
1F
100
AcDbEntity
  8
0
  6
Continuous
 62
     7
370
    25
100
AcDbLine
 10
8351.7584769813
 20
5299.5979960449
 30
0.0
 11
8326.7584769813
 21
5299.5979960449
 31
0.0
  0
ARC
  5
2D4
330
1F
100
AcDbEntity
  8
0
  6
Continuous
 62
     7
370
    25
100
AcDbCircle
 10
8351.7584769813
 20
5299.5979960449
 30
0.0
 40
25.0
100
AcDbArc
 50
140.5993393365
 51
180.0
  0
LINE
  5
2D5
330
1F
100
AcDbEntity
  8
0
  6
Continuous
 62
     7
370
    25
100
AcDbLine
 10
8351.7584769813
 20
5299.5979960449
 30
0.0
 11
8332.4403206182
 21
5315.4664816289
 31
0.0
  0
ELLIPSE
  5
2D6
330
1F
100
AcDbEntity
  8
0
  6
Continuous
 62
     7
370
    25
100
AcDbEllipse
 10
8416.6114607884
 20
5378.5494545927
 30
0.0
 11
63.5357414936916
 21
67.99981620880044
 31
0.0
210
0.0
220
0.0
230
1.0
 40
0.2614906129
 41
1.856424584380387
 42
3.038198344477907
  0
LINE
  5
2D7
330
1F
100
AcDbEntity
  8
0
  6
Continuous
 62
     7
370
    25
100
AcDbLine
 10
8351.5798148659
 20
5312.6275207811
 30
0.0
 11
8355.5543927191
 21
5304.2191108561
 31
0.0
  0
LINE
  5
2D8
330
1F
100
AcDbEntity
  8
0
  6
Continuous
 62
     7
370
    25
100
AcDbLine
 10
8355.5543927191
 20
5304.2191108561
 30
0.0
 11
8351.7584769813
 21
5299.5979960449
 31
0.0
  0
LINE
  5
2D9
330
1F
100
AcDbEntity
  8
0
  6
Continuous
 62
     7
370
    25
100
AcDbLine
 10
8332.4403206182
 20
5315.4664816289
 30
0.0
 11
8382.803304934
 21
5376.777940796
 31
0.0
  0
LINE
  5
2DA
330
1F
100
AcDbEntity
  8
0
  6
Continuous
 62
     7
370
    25
100
AcDbLine
 10
8382.8059041939
 20
5376.7776724978
 30
0.0
 11
8382.803304934
 21
5376.777940796
 31
0.0
  0
LINE
  5
2DB
330
1F
100
AcDbEntity
  8
0
  6
Continuous
 62
     7
370
    25
100
AcDbLine
 10
8381.6487099693
 20
5375.3306861182
 30
0.0
 11
8382.8059041939
 21
5376.7776724978
 31
0.0
  0
LINE
  5
2DC
330
1F
100
AcDbEntity
  8
0
  6
Continuous
 62
     7
370
    25
100
AcDbLine
 10
8422.9625612435
 20
5304.2191108561
 30
0.0
 11
8355.5543927191
 21
5304.2191108561
 31
0.0
  0
LINE
  5
2DD
330
1F
100
AcDbEntity
  8
0
  6
Continuous
 62
     7
370
    25
100
AcDbLine
 10
8426.7584769813
 20
5299.5979960449
 30
0.0
 11
8422.9625612435
 21
5304.2191108561
 31
0.0
  0
LINE
  5
2DE
330
1F
100
AcDbEntity
  8
0
  6
Continuous
 62
     7
370
    25
100
AcDbLine
 10
8426.7584769813
 20
5108.5494545927
 30
0.0
 11
8426.7584769813
 21
5299.5979960449
 31
0.0
  0
LINE
  5
2DF
330
1F
100
AcDbEntity
  8
0
  6
Continuous
 62
     7
370
    25
100
AcDbLine
 10
8351.5798148659
 20
5312.6275207811
 30
0.0
 11
8426.9371390967
 21
5312.6275207811
 31
0.0
  0
LINE
  5
2E0
330
1F
100
AcDbEntity
  8
0
  6
Continuous
 62
     7
370
    25
100
AcDbLine
 10
8422.9625612435
 20
5304.2191108561
 30
0.0
 11
8426.9371390967
 21
5312.6275207811
 31
0.0
  0
LINE
  5
2E1
330
1F
100
AcDbEntity
  8
0
  6
Continuous
 62
     7
370
    25
100
AcDbLine
 10
8446.0766333444
 20
5315.4664816289
 30
0.0
 11
8426.7584769813
 21
5299.5979960449
 31
0.0
  0
ELLIPSE
  5
2E2
330
1F
100
AcDbEntity
  8
0
  6
Continuous
 62
     7
370
    25
100
AcDbEllipse
 10
8361.9054931742
 20
5378.5494545927
 30
0.0
 11
-63.5357414936916
 21
67.99981620880044
 31
0.0
210
0.0
220
0.0
230
1.0
 40
0.2614906129
 41
3.244986962701729
 42
4.426760722799199
  0
LINE
  5
2E3
330
1F
100
AcDbEntity
  8
0
  6
Continuous
 62
     7
370
    25
100
AcDbLine
 10
8395.7110497687
 20
5376.7776724978
 30
0.0
 11
8396.8682439933
 21
5375.3306861182
 31
0.0
  0
LINE
  5
2E4
330
1F
100
AcDbEntity
  8
0
  6
Continuous
 62
     7
370
    25
100
AcDbLine
 10
8395.7136490286
 20
5376.777940796
 30
0.0
 11
8395.7110497687
 21
5376.7776724978
 31
0.0
  0
LINE
  5
2E5
330
1F
100
AcDbEntity
  8
0
  6
Continuous
 62
     7
370
    25
100
AcDbLine
 10
8395.7136490286
 20
5376.777940796
 30
0.0
 11
8446.0766333444
 21
5315.4664816289
 31
0.0
  0
LINE
  5
2E6
330
1F
100
AcDbEntity
  8
0
  6
Continuous
 62
     7
370
    25
100
AcDbLine
 10
8451.7584769813
 20
5204.0737253188
 30
0.0
 11
8451.7584769813
 21
5108.5494545927
 31
0.0
  0
LINE
  5
2E7
330
1F
100
AcDbEntity
  8
0
  6
Continuous
 62
     7
370
    25
100
AcDbLine
 10
8451.7584769813
 20
5108.5494545927
 30
0.0
 11
8426.7584769813
 21
5108.5494545927
 31
0.0
  0
LINE
  5
2E8
330
1F
100
AcDbEntity
  8
0
  6
Continuous
 62
     7
370
    25
100
AcDbLine
 10
8451.7584769813
 20
5299.5979960449
 30
0.0
 11
8426.7584769813
 21
5299.5979960449
 31
0.0
  0
LINE
  5
2E9
330
1F
100
AcDbEntity
  8
0
  6
Continuous
 62
     7
370
    25
100
AcDbLine
 10
8451.7584769813
 20
5299.5979960449
 30
0.0
 11
8451.7584769813
 21
5204.0737253188
 31
0.0
  0
ARC
  5
2EA
330
1F
100
AcDbEntity
  8
0
  6
Continuous
 62
     7
370
    25
100
AcDbCircle
 10
8426.7584769813
 20
5108.5494545927
 30
0.0
 40
25.00000000000004
100
AcDbArc
 50
346.1134596374
 51
0.0
  0
ARC
  5
2EB
330
1F
100
AcDbEntity
  8
0
  6
Continuous
 62
     7
370
    25
100
AcDbCircle
 10
8426.7584769813
 20
5299.5979960449
 30
0.0
 40
25.0
100
AcDbArc
 50
0.0
 51
39.4006606635
  0
LINE
  5
2EC
330
1F
100
AcDbEntity
  8
0
  6
Continuous
 62
     7
370
    25
100
AcDbLine
 10
8396.8682439933
 20
5375.3306861182
 30
0.0
 11
8381.6487099693
 21
5375.3306861182
 31
0.0
  0
ARC
  5
2ED
330
1F
100
AcDbEntity
  8
0
  6
Continuous
 62
     7
370
    25
100
AcDbCircle
 10
8386.5510272685
 20
5373.6994545927
 30
0.0
 40
4.850000000000417
100
AcDbArc
 50
90.0
 51
134.8068628033
  0
LINE
  5
2EE
330
1F
100
AcDbEntity
  8
0
  6
Continuous
 62
     7
370
    25
100
AcDbLine
 10
8386.5510272685
 20
5378.5494545927
 30
0.0
 11
8391.9659266942
 21
5378.5494545927
 31
0.0
  0
ARC
  5
2EF
330
1F
100
AcDbEntity
  8
0
  6
Continuous
 62
     7
370
    25
100
AcDbCircle
 10
8391.9659266942
 20
5373.6994545927
 30
0.0
 40
4.850000000000417
100
AcDbArc
 50
45.1931371967
 51
90.0
  0
LINE
  5
2F0
330
1F
100
AcDbEntity
  8
0
  6
Continuous
 62
     7
370
    25
100
AcDbLine
 10
8395.7110497687
 20
5376.7776724978
 30
0.0
 11
8395.3838147959
 21
5377.1404633
 31
0.0
  0
LINE
  5
2F1
330
1F
100
AcDbEntity
  8
0
  6
Continuous
 62
     7
370
    25
100
AcDbLine
 10
8382.8059041939
 20
5376.7776724978
 30
0.0
 11
8383.1331391667
 21
5377.1404633
 31
0.0
  0
ARC
  5
2F2
330
1F
100
AcDbEntity
  8
0
  6
Continuous
 62
     7
370
    25
100
AcDbCircle
 10
8386.5510272685
 20
5373.6994545927
 30
0.0
 40
4.850000000000417
100
AcDbArc
 50
134.8068628033
 51
140.5993393365
  0
ARC
  5
2F3
330
1F
100
AcDbEntity
  8
0
  6
Continuous
 62
     7
370
    25
100
AcDbCircle
 10
8391.9659266942
 20
5373.6994545927
 30
0.0
 40
4.850000000000417
100
AcDbArc
 50
39.4006606635
 51
45.1931371967
  0
LINE
  5
2F4
330
1F
100
AcDbEntity
  8
0
  6
Continuous
 62
     7
370
    25
100
AcDbLine
 10
8367.8943763626
 20
5358.627940796
 30
0.0
 11
8371.642098697
 21
5355.5494545927
 31
0.0
  0
LINE
  5
2F5
330
1F
100
AcDbEntity
  8
0
  6
Continuous
 62
     7
370
    25
100
AcDbLine
 10
8371.642098697
 20
5355.5494545927
 30
0.0
 11
8359.4438844113
 21
5345.5494545927
 31
0.0
  0
LINE
  5
2F6
330
1F
100
AcDbEntity
  8
0
  6
Continuous
 62
     7
370
    25
100
AcDbLine
 10
8419.0730695513
 20
5345.5494545927
 30
0.0
 11
8406.8748552656
 21
5355.5494545927
 31
0.0
  0
LINE
  5
2F7
330
1F
100
AcDbEntity
  8
0
  6
Continuous
 62
     7
370
    25
100
AcDbLine
 10
8406.8748552656
 20
5355.5494545927
 30
0.0
 11
8410.6225776
 21
5358.627940796
 31
0.0
  0
LINE
  5
2F8
330
1F
100
AcDbEntity
  8
0
  6
Continuous
 62
     7
370
    25
100
AcDbLine
 10
8379.979598697
 20
5365.6994545927
 30
0.0
 11
8387.9474558399
 21
5370.5494545927
 31
0.0
  0
LINE
  5
2F9
330
1F
100
AcDbEntity
  8
0
  6
Continuous
 62
     7
370
    25
100
AcDbLine
 10
8379.979598697
 20
5365.6994545927
 30
0.0
 11
8376.2898814031
 21
5368.7302937984
 31
0.0
  0
LINE
  5
2FA
330
1F
100
AcDbEntity
  8
0
  6
Continuous
 62
     7
370
    25
100
AcDbLine
 10
8398.5373552656
 20
5365.6994545927
 30
0.0
 11
8379.979598697
 21
5365.6994545927
 31
0.0
  0
LINE
  5
2FB
330
1F
100
AcDbEntity
  8
0
  6
Continuous
 62
     7
370
    25
100
AcDbLine
 10
8398.5373552656
 20
5365.6994545927
 30
0.0
 11
8390.5694981227
 21
5370.5494545927
 31
0.0
  0
SPLINE
  5
2FC
330
1F
100
AcDbEntity
  8
0
  6
Continuous
 62
     7
370
    25
100
AcDbSpline
210
0.0
220
0.0
230
1.0
 70
     8
 71
     3
 72
    10
 73
     6
 74
     0
 42
0.00000001
 43
0.00000001
 40
0.0
 40
0.0
 40
0.0
 40
0.0
 40
0.0028417779881774
 40
0.4976795798451503
 40
1.0
 40
1.0
 40
1.0
 40
1.0
 10
8397.779184350124
 20
5374.263376056777
 30
0.0
 10
8397.783363916724
 20
5374.258287021643
 30
0.0
 10
8398.515329945536
 20
5373.367046088162
 30
0.0
 10
8399.971834198055
 20
5371.513319038914
 30
0.0
 10
8401.471575115653
 20
5369.662598113277
 30
0.0
 10
8402.227072559508
 20
5368.73029379844
 30
0.0
  0
LINE
  5
2FD
330
1F
100
AcDbEntity
  8
0
  6
Continuous
 62
     7
370
    25
100
AcDbLine
 10
8402.2270725595
 20
5368.7302937984
 30
0.0
 11
8398.5373552656
 21
5365.6994545927
 31
0.0
  0
SPLINE
  5
2FE
330
1F
100
AcDbEntity
  8
0
  6
Continuous
 62
     7
370
    25
100
AcDbSpline
210
0.0
220
0.0
230
1.0
 70
     8
 71
     3
 72
     9
 73
     5
 74
     0
 42
0.00000001
 43
0.00000001
 40
0.0
 40
0.0
 40
0.0
 40
0.0
 40
0.0094385256242291
 40
1.0
 40
1.0
 40
1.0
 40
1.0
 10
8395.713649028607
 20
5376.777940796016
 30
0.0
 10
8395.71236477797
 20
5376.779503175921
 30
0.0
 10
8395.576300027056
 20
5376.945035375356
 30
0.0
 10
8395.459176808017
 20
5377.056048649647
 30
0.0
 10
8395.343159059483
 20
5377.166014122302
 30
0.0
  0
LINE
  5
2FF
330
1F
100
AcDbEntity
  8
0
  6
Continuous
 62
     7
370
    25
100
AcDbLine
 10
8379.979598697
 20
5365.6994545927
 30
0.0
 11
8371.642098697
 21
5355.5494545927
 31
0.0
  0
LINE
  5
300
330
1F
100
AcDbEntity
  8
0
  6
Continuous
 62
     7
370
    25
100
AcDbLine
 10
8406.8748552656
 20
5355.5494545927
 30
0.0
 11
8398.5373552656
 21
5365.6994545927
 31
0.0
  0
LINE
  5
301
330
1F
100
AcDbEntity
  8
0
  6
Continuous
 62
     7
370
    25
100
AcDbLine
 10
8402.2270725595
 20
5368.7302937984
 30
0.0
 11
8404.1163582738
 21
5366.4302937984
 31
0.0
  0
LINE
  5
302
330
1F
100
AcDbEntity
  8
0
  6
Continuous
 62
     7
370
    25
100
AcDbLine
 10
8366.7584769813
 20
5360.5494545927
 30
0.0
 11
8369.4727626956
 21
5360.5494545927
 31
0.0
  0
LINE
  5
303
330
1F
100
AcDbEntity
  8
0
  6
Continuous
 62
     7
370
    25
100
AcDbLine
 10
8409.044191267
 20
5360.5494545927
 30
0.0
 11
8411.7584769813
 21
5360.5494545927
 31
0.0
  0
LINE
  5
304
330
1F
100
AcDbEntity
  8
0
  6
Continuous
 62
     7
370
    25
100
AcDbLine
 10
8371.7584769813
 20
5377.5494545927
 30
0.0
 11
8383.6014510277
 21
5377.5494545927
 31
0.0
  0
LINE
  5
305
330
1F
100
AcDbEntity
  8
0
  6
Continuous
 62
     7
370
    25
100
AcDbLine
 10
8394.9456237816
 20
5377.5494545927
 30
0.0
 11
8406.7584768822
 21
5377.5494545927
 31
0.0
  0
LINE
  5
306
330
1F
100
AcDbEntity
  8
0
  6
Continuous
 62
     7
370
    25
100
AcDbLine
 10
8377.2584769813
 20
5052.5494545927
 30
0.0
 11
8377.2584769813
 21
5051.0494545927
 31
0.0
  0
LINE
  5
307
330
1F
100
AcDbEntity
  8
0
  6
Continuous
 62
     7
370
    25
100
AcDbLine
 10
8394.2584769813
 20
5052.5494545927
 30
0.0
 11
8394.2584769813
 21
5051.0494545927
 31
0.0
  0
LINE
  5
308
330
1F
100
AcDbEntity
  8
0
  6
Continuous
 62
     7
370
    25
100
AcDbLine
 10
8394.2584769813
 20
5051.0494545927
 30
0.0
 11
8377.2584769813
 21
5051.0494545927
 31
0.0
  0
LINE
  5
309
330
1F
100
AcDbEntity
  8
0
  6
Continuous
 62
     7
370
    25
100
AcDbLine
 10
8499.2584769813
 20
5052.5494545927
 30
0.0
 11
8499.2584769813
 21
5051.0494545927
 31
0.0
  0
LINE
  5
30A
330
1F
100
AcDbEntity
  8
0
  6
Continuous
 62
     7
370
    25
100
AcDbLine
 10
8499.2584769813
 20
5051.0494545927
 30
0.0
 11
8394.2584769813
 21
5051.0494545927
 31
0.0
  0
LINE
  5
30B
330
1F
100
AcDbEntity
  8
0
  6
Continuous
 62
     7
370
    25
100
AcDbLine
 10
8516.2584769813
 20
5052.5494545927
 30
0.0
 11
8516.2584769813
 21
5051.0494545927
 31
0.0
  0
LINE
  5
30C
330
1F
100
AcDbEntity
  8
0
  6
Continuous
 62
     7
370
    25
100
AcDbLine
 10
8516.2584769813
 20
5051.0494545927
 30
0.0
 11
8499.2584769813
 21
5051.0494545927
 31
0.0
  0
LINE
  5
30D
330
1F
100
AcDbEntity
  8
0
  6
Continuous
 62
     7
370
    25
100
AcDbLine
 10
8448.6584769813
 20
5048.8494545927
 30
0.0
 11
8444.8584769813
 21
5048.8494545927
 31
0.0
  0
LINE
  5
30E
330
1F
100
AcDbEntity
  8
0
  6
Continuous
 62
     7
370
    25
100
AcDbLine
 10
8450.5584769813
 20
5050.6694545927
 30
0.0
 11
8442.9584769813
 21
5050.6694545927
 31
0.0
  0
LINE
  5
30F
330
1F
100
AcDbEntity
  8
0
  6
Continuous
 62
     7
370
    25
100
AcDbLine
 10
8386.0584769813
 20
5050.6694545927
 30
0.0
 11
8378.4584769813
 21
5050.6694545927
 31
0.0
  0
LINE
  5
310
330
1F
100
AcDbEntity
  8
0
  6
Continuous
 62
     7
370
    25
100
AcDbLine
 10
8384.1584769813
 20
5048.8494545927
 30
0.0
 11
8380.3584769813
 21
5048.8494545927
 31
0.0
  0
LINE
  5
311
330
1F
100
AcDbEntity
  8
0
  6
Continuous
 62
     7
370
    25
100
AcDbLine
 10
8507.5520019632
 20
5050.6694545927
 30
0.0
 11
8507.4584769813
 21
5050.6694545927
 31
0.0
  0
LINE
  5
312
330
1F
100
AcDbEntity
  8
0
  6
Continuous
 62
     7
370
    25
100
AcDbLine
 10
8515.0584769813
 20
5050.6694545927
 30
0.0
 11
8507.5520019632
 21
5050.6694545927
 31
0.0
  0
LINE
  5
313
330
1F
100
AcDbEntity
  8
0
  6
Continuous
 62
     7
370
    25
100
AcDbLine
 10
8509.4052394723
 20
5048.8494545927
 30
0.0
 11
8509.3584769813
 21
5048.8494545927
 31
0.0
  0
LINE
  5
314
330
1F
100
AcDbEntity
  8
0
  6
Continuous
 62
     7
370
    25
100
AcDbLine
 10
8513.1584769813
 20
5048.8494545927
 30
0.0
 11
8509.4052394723
 21
5048.8494545927
 31
0.0
  0
LINE
  5
315
330
1F
100
AcDbEntity
  8
0
  6
Continuous
 62
     7
370
    25
100
AcDbLine
 10
8519.7584769813
 20
5054.5494545927
 30
0.0
 11
8323.7584769813
 21
5054.5494545927
 31
0.0
  0
LINE
  5
316
330
1F
100
AcDbEntity
  8
0
  6
Continuous
 62
     7
370
    25
100
AcDbLine
 10
8323.7584769813
 20
5054.5494545927
 30
0.0
 11
8323.7584769813
 21
5219.0494545927
 31
0.0
  0
ARC
  5
317
330
1F
100
AcDbEntity
  8
0
  6
Continuous
 62
     7
370
    25
100
AcDbCircle
 10
8398.7584769813
 20
5209.0494545927
 30
0.0
 40
10.0
100
AcDbArc
 50
0.0
 51
90.0
  0
LINE
  5
318
330
1F
100
AcDbEntity
  8
0
  6
Continuous
 62
     7
370
    25
100
AcDbLine
 10
8408.7584769813
 20
5209.0494545927
 30
0.0
 11
8408.7584769813
 21
5112.5494545927
 31
0.0
  0
ARC
  5
319
330
1F
100
AcDbEntity
  8
0
  6
Continuous
 62
     7
370
    25
100
AcDbCircle
 10
8418.7584769813
 20
5112.5494545927
 30
0.0
 40
10.00000000000091
100
AcDbArc
 50
180.0
 51
270.0
  0
LINE
  5
31A
330
1F
100
AcDbEntity
  8
0
  6
Continuous
 62
     7
370
    25
100
AcDbLine
 10
8418.7584769813
 20
5102.5494545927
 30
0.0
 11
8509.7584769813
 21
5102.5494545927
 31
0.0
  0
ARC
  5
31B
330
1F
100
AcDbEntity
  8
0
  6
Continuous
 62
     7
370
    25
100
AcDbCircle
 10
8509.7584769813
 20
5092.5494545927
 30
0.0
 40
10.00000000000182
100
AcDbArc
 50
0.0
 51
90.0
  0
LINE
  5
31C
330
1F
100
AcDbEntity
  8
0
  6
Continuous
 62
     7
370
    25
100
AcDbLine
 10
8519.7584769813
 20
5092.5494545927
 30
0.0
 11
8519.7584769813
 21
5054.5494545927
 31
0.0
  0
CIRCLE
  5
31D
330
1F
100
AcDbEntity
  8
0
  6
Continuous
 62
     7
370
    25
100
AcDbCircle
 10
8496.7584769813
 20
5064.5494545927
 30
0.0
 40
3.249999999999091
  0
CIRCLE
  5
31E
330
1F
100
AcDbEntity
  8
0
  6
Continuous
 62
     7
370
    25
100
AcDbCircle
 10
8346.7584769813
 20
5064.5494545927
 30
0.0
 40
3.249999999999091
  0
LINE
  5
31F
330
1F
100
AcDbEntity
  8
0
  6
Continuous
 62
     7
370
    25
100
AcDbLine
 10
8323.7584769813
 20
5219.0494545927
 30
0.0
 11
8398.7584769813
 21
5219.0494545927
 31
0.0
  0
LINE
  5
320
330
1F
100
AcDbEntity
  8
0
  6
Continuous
 62
     7
370
    25
100
AcDbLine
 10
8321.7584769813
 20
5219.0494545927
 30
0.0
 11
8321.7584769813
 21
5055.2565613739
 31
0.0
  0
LINE
  5
321
330
1F
100
AcDbEntity
  8
0
  6
Continuous
 62
     7
370
    25
100
AcDbLine
 10
8321.7584769813
 20
5219.0494545927
 30
0.0
 11
8323.7584769813
 21
5219.0494545927
 31
0.0
  0
SPLINE
  5
322
330
1F
100
AcDbEntity
  8
0
  6
Continuous
 62
     7
370
    25
100
AcDbSpline
210
0.0
220
0.0
230
1.0
 70
     8
 71
     3
 72
    20
 73
    16
 74
     0
 42
0.00000001
 43
0.00000001
 40
0.0
 40
0.0
 40
0.0
 40
0.0
 40
0.125000000000003
 40
0.125000000000003
 40
0.250000000000006
 40
0.250000000000006
 40
0.3750000000000089
 40
0.3750000000000089
 40
0.5000000000000118
 40
0.5000000000000118
 40
0.6250000000000147
 40
0.6250000000000147
 40
0.7500000000000175
 40
0.7500000000000175
 40
1.0
 40
1.0
 40
1.0
 40
1.0
 10
8323.758476981315
 20
5054.549454592719
 30
0.0
 10
8323.62642773157
 20
5054.579176116239
 30
0.0
 10
8323.496531378403
 20
5054.60841750917
 30
0.0
 10
8323.24110387311
 20
5054.66702927564
 30
0.0
 10
8323.114357028113
 20
5054.696693067996
 30
0.0
 10
8322.871990122952
 20
5054.75573858803
 30
0.0
 10
8322.757125013157
 20
5054.784916120318
 30
0.0
 10
8322.540043703319
 20
5054.843647770653
 30
0.0
 10
8322.437089841354
 20
5054.873470186576
 30
0.0
 10
8322.252377213848
 20
5054.932246549203
 30
0.0
 10
8322.169658119774
 20
5054.961417880219
 30
0.0
 10
8322.023845894106
 20
5055.020391770938
 30
0.0
 10
8321.961263898445
 20
5055.050112051561
 30
0.0
 10
8321.811451322543
 20
5055.13805735014
 30
0.0
 10
8321.758476981317
 20
5055.197118324996
 30
0.0
 10
8321.758476981317
 20
5055.256561373905
 30
0.0
  0
LINE
  5
323
330
1F
100
AcDbEntity
  8
0
  6
Continuous
 62
     7
370
    25
100
AcDbLine
 10
8323.7584769813
 20
5052.5494545927
 30
0.0
 11
8323.7584769813
 21
5054.5494545927
 31
0.0
  0
LINE
  5
324
330
1F
100
AcDbEntity
  8
0
  6
Continuous
 62
     7
370
    25
100
AcDbLine
 10
8519.7584769813
 20
5054.5494545927
 30
0.0
 11
8519.7584769813
 21
5052.5494545927
 31
0.0
  0
LINE
  5
325
330
1F
100
AcDbEntity
  8
0
  6
Continuous
 62
     7
370
    25
100
AcDbLine
 10
8519.7584769813
 20
5052.5494545927
 30
0.0
 11
8323.7584769813
 21
5052.5494545927
 31
0.0
  0
SPLINE
  5
326
330
1F
100
AcDbEntity
  8
0
  6
Continuous
 62
     7
370
    25
100
AcDbSpline
210
0.0
220
0.0
230
1.0
 70
     8
 71
     3
 72
    20
 73
    16
 74
     0
 42
0.00000001
 43
0.00000001
 40
0.0
 40
0.0
 40
0.0
 40
0.0
 40
0.1250000000000007
 40
0.1250000000000007
 40
0.2500000000000014
 40
0.2500000000000014
 40
0.3750000000000021
 40
0.3750000000000021
 40
0.5000000000000028
 40
0.5000000000000028
 40
0.6250000000000034
 40
0.6250000000000034
 40
0.7500000000000042
 40
0.7500000000000042
 40
1.0
 40
1.0
 40
1.0
 40
1.0
 10
8321.758476981317
 20
5054.549454592719
 30
0.0
 10
8321.758476981317
 20
5054.417405342974
 30
0.0
 10
8321.77143423698
 20
5054.287508989807
 30
0.0
 10
8321.822171366595
 20
5054.032081484514
 30
0.0
 10
8321.860500678275
 20
5053.905334639517
 30
0.0
 10
8321.96088258575
 20
5053.662967734355
 30
0.0
 10
8322.0222978264
 20
5053.54810262456
 30
0.0
 10
8322.167111476734
 20
5053.331021314722
 30
0.0
 10
8322.251498523776
 20
5053.228067452758
 30
0.0
 10
8322.436088409231
 20
5053.043354825252
 30
0.0
 10
8322.536667189555
 20
5052.960635731179
 30
0.0
 10
8322.754375625218
 20
5052.81482350551
 30
0.0
 10
8322.871353277895
 20
5052.752241509849
 30
0.0
 10
8323.232221904653
 20
5052.602428933947
 30
0.0
 10
8323.494378473519
 20
5052.549454592719
 30
0.0
 10
8323.758476981315
 20
5052.549454592719
 30
0.0
  0
LINE
  5
327
330
1F
100
AcDbEntity
  8
0
  6
Continuous
 62
     7
370
    25
100
AcDbLine
 10
8321.7584769813
 20
5054.5494545927
 30
0.0
 11
8322.7584769813
 21
5054.5494545927
 31
0.0
  0
SPLINE
  5
328
330
1F
100
AcDbEntity
  8
0
  6
Continuous
 62
     7
370
    25
100
AcDbSpline
210
0.0
220
0.0
230
1.0
 70
     8
 71
     3
 72
    12
 73
     8
 74
     0
 42
0.00000001
 43
0.00000001
 40
0.0
 40
0.0
 40
0.0
 40
0.0
 40
0.2499999999999951
 40
0.2499999999999951
 40
0.4999999999999902
 40
0.4999999999999902
 40
1.0
 40
1.0
 40
1.0
 40
1.0
 10
8322.758476981315
 20
5054.549454592719
 30
0.0
 10
8322.758476981315
 20
5054.417366347336
 30
0.0
 10
8322.784206445955
 20
5054.288435017043
 30
0.0
 10
8322.884967956372
 20
5054.045156785563
 30
0.0
 10
8322.958460191832
 20
5053.935280307991
 30
0.0
 10
8323.236933420283
 20
5053.656739646142
 30
0.0
 10
8323.494300504679
 20
5053.549454592719
 30
0.0
 10
8323.758476981315
 20
5053.549454592719
 30
0.0
  0
ARC
  5
329
330
1F
100
AcDbEntity
  8
0
  6
Continuous
 62
     7
370
    25
100
AcDbCircle
 10
8519.7584769813
 20
5054.5494545927
 30
0.0
 40
0.9999999999990905
100
AcDbArc
 50
270.0
 51
0.0
  0
LINE
  5
32A
330
1F
100
AcDbEntity
  8
0
  6
Continuous
 62
     7
370
    25
100
AcDbLine
 10
8520.7584769813
 20
5054.5494545927
 30
0.0
 11
8521.7584769813
 21
5054.5494545927
 31
0.0
  0
ARC
  5
32B
330
1F
100
AcDbEntity
  8
0
  6
Continuous
 62
     7
370
    25
100
AcDbCircle
 10
8519.7584769813
 20
5054.5494545927
 30
0.0
 40
2.0
100
AcDbArc
 50
270.0
 51
0.0
  0
LINE
  5
32C
330
1F
100
AcDbEntity
  8
0
  6
Continuous
 62
     7
370
    25
100
AcDbLine
 10
8521.7584769813
 20
5062.5494545927
 30
0.0
 11
8521.7584769813
 21
5054.5494545927
 31
0.0
  0
LINE
  5
32D
330
1F
100
AcDbEntity
  8
0
  6
Continuous
 62
     7
370
    25
100
AcDbLine
 10
8520.7584769813
 20
5062.5494545927
 30
0.0
 11
8521.7584769813
 21
5062.5494545927
 31
0.0
  0
LINE
  5
32E
330
1F
100
AcDbEntity
  8
0
  6
Continuous
 62
     7
370
    25
100
AcDbLine
 10
8520.7584769813
 20
5062.5494545927
 30
0.0
 11
8520.7584769813
 21
5054.5494545927
 31
0.0
  0
LINE
  5
32F
330
1F
100
AcDbEntity
  8
0
  6
Continuous
 62
     7
370
    25
100
AcDbLine
 10
8321.7584769813
 20
5055.2565613739
 30
0.0
 11
8321.7584769813
 21
5054.5494545927
 31
0.0
  0
LINE
  5
330
330
1F
100
AcDbEntity
  8
0
  6
Continuous
 62
     7
370
    25
100
AcDbLine
 10
8322.7584769813
 20
5054.7890164022
 30
0.0
 11
8322.7584769813
 21
5054.5494545927
 31
0.0
  0
LINE
  5
331
330
1F
100
AcDbEntity
  8
0
  6
Continuous
 62
     8
370
    25
100
AcDbLine
 10
8351.7584769813
 20
5299.5979960449
 30
0.0
 11
8351.7584769813
 21
5219.0494545927
 31
0.0
  0
LINE
  5
332
330
1F
100
AcDbEntity
  8
0
  6
Continuous
 62
     8
370
    25
100
AcDbLine
 10
8409.5933255914
 20
5108.5494545927
 30
0.0
 11
8426.7584769813
 21
5108.5494545927
 31
0.0
  0
LINE
  5
333
330
1F
100
AcDbEntity
  8
0
  6
Continuous
 62
     8
370
    25
100
AcDbLine
 10
8426.7584769813
 20
5108.5494545927
 30
0.0
 11
8426.7584769813
 21
5102.5494545927
 31
0.0
  0
LINE
  5
334
330
1F
100
AcDbEntity
  8
0
  6
Continuous
 62
     8
370
    25
100
AcDbLine
 10
8411.7584769813
 20
5372.5494545927
 30
0.0
 11
8399.1870484099
 21
5372.5494545927
 31
0.0
  0
LINE
  5
335
330
1F
100
AcDbEntity
  8
0
  6
Continuous
 62
     8
370
    25
100
AcDbLine
 10
8379.3299055527
 20
5372.5494545927
 30
0.0
 11
8366.7584769813
 21
5372.5494545927
 31
0.0
  0
SPLINE
  5
336
330
1F
100
AcDbEntity
  8
0
  6
Continuous
 62
     7
370
    25
100
AcDbSpline
210
0.0
220
0.0
230
1.0
 70
     8
 71
     3
 72
    16
 73
    12
 74
     0
 42
0.00000001
 43
0.00000001
 40
0.0
 40
0.0
 40
0.0
 40
0.0
 40
0.0373674362904612
 40
0.1161359577605993
 40
0.2006044153849669
 40
0.2948490884946289
 40
0.4024557355648355
 40
0.5262771565454594
 40
0.6691103382889025
 40
0.835283548512307
 40
1.0
 40
1.0
 40
1.0
 40
1.0
 10
7955.976545285807
 20
4779.290762534652
 30
0.0
 10
7956.13121129749
 20
4779.287634800497
 30
0.0
 10
7956.611904842001
 20
4779.277913973006
 30
0.0
 10
7957.414932829879
 20
4779.160875144444
 30
0.0
 10
7958.302935116039
 20
4778.903469100014
 30
0.0
 10
7959.0913785885
 20
4778.538593198003
 30
0.0
 10
7959.753914562184
 20
4778.090896653466
 30
0.0
 10
7960.266793647576
 20
4777.590097350214
 30
0.0
 10
7960.614075540378
 20
4777.072968715593
 30
0.0
 10
7960.797222346464
 20
4776.599687036829
 30
0.0
 10
7960.816799702799
 20
4776.314747786912
 30
0.0
 10
7960.826545285808
 20
4776.172905391796
 30
0.0
  0
SPLINE
  5
337
330
1F
100
AcDbEntity
  8
0
  6
Continuous
 62
     7
370
    25
100
AcDbSpline
210
0.0
220
0.0
230
1.0
 70
     8
 71
     3
 72
    16
 73
    12
 74
     0
 42
0.00000001
 43
0.00000001
 40
0.0
 40
0.0
 40
0.0
 40
0.0
 40
0.0373893288464361
 40
0.1162039986327723
 40
0.2007219440095862
 40
0.2950218324881964
 40
0.4026915233413956
 40
0.5265854878962835
 40
0.6695023516831503
 40
0.835772918232475
 40
1.0
 40
1.0
 40
1.0
 40
1.0
 10
7903.147188344087
 20
4791.612804817486
 30
0.0
 10
7902.992522342299
 20
4791.61593255001
 30
0.0
 10
7902.511828828538
 20
4791.625653372425
 30
0.0
 10
7901.708800398546
 20
4791.742692273963
 30
0.0
 10
7900.820800179465
 20
4792.00009797719
 30
0.0
 10
7900.032347623303
 20
4792.364975378609
 30
0.0
 10
7899.36985308237
 20
4792.812665084028
 30
0.0
 10
7898.856782605817
 20
4793.313495979356
 30
0.0
 10
7898.510390894886
 20
4793.830477675663
 30
0.0
 10
7898.323536028009
 20
4794.303823809392
 30
0.0
 10
7898.313771940482
 20
4794.586693760147
 30
0.0
 10
7898.308920082659
 20
4794.727254235444
 30
0.0
  0
SPLINE
  5
338
330
1F
100
AcDbEntity
  8
0
  6
Continuous
 62
     7
370
    25
100
AcDbSpline
210
0.0
220
0.0
230
1.0
 70
     8
 71
     3
 72
    16
 73
    12
 74
     0
 42
0.00000001
 43
0.00000001
 40
0.0
 40
0.0
 40
0.0
 40
0.0
 40
0.0738190231261688
 40
0.2648011233774233
 40
0.4197752219822249
 40
0.551207170962625
 40
0.6639477518437089
 40
0.7614960747787043
 40
0.8553742092662584
 40
0.9383147308015712
 40
1.0
 40
1.0
 40
1.0
 40
1.0
 10
7960.826545285808
 20
4794.730661960344
 30
0.0
 10
7960.82432476135
 20
4794.667153032716
 30
0.0
 10
7960.816359370508
 20
4794.43933593804
 30
0.0
 10
7960.718785374286
 20
4794.055285539785
 30
0.0
 10
7960.428014837495
 20
4793.521919376018
 30
0.0
 10
7959.975469808651
 20
4793.00616580927
 30
0.0
 10
7959.37313890963
 20
4792.536442821263
 30
0.0
 10
7958.625868784394
 20
4792.130636056364
 30
0.0
 10
7957.749980731521
 20
4791.822008409196
 30
0.0
 10
7956.831849567512
 20
4791.64100112516
 30
0.0
 10
7956.232274061961
 20
4791.621235275989
 30
0.0
 10
7955.976545285807
 20
4791.612804817486
 30
0.0
  0
SPLINE
  5
339
330
1F
100
AcDbEntity
  8
0
  6
Continuous
 62
     7
370
    25
100
AcDbSpline
210
0.0
220
0.0
230
1.0
 70
     8
 71
     3
 72
    16
 73
    12
 74
     0
 42
0.00000001
 43
0.00000001
 40
0.0
 40
0.0
 40
0.0
 40
0.0
 40
0.0905403743867458
 40
0.27805759217207
 40
0.4309423800266791
 40
0.5607399591266095
 40
0.6721576607029355
 40
0.7686376972970185
 40
0.8615532102077337
 40
0.9439209331381652
 40
1.0
 40
1.0
 40
1.0
 40
1.0
 10
7898.321930572456
 20
4776.171384174126
 30
0.0
 10
7898.315454191631
 20
4776.249853869004
 30
0.0
 10
7898.29556464655
 20
4776.490841324201
 30
0.0
 10
7898.426241127356
 20
4776.890141176008
 30
0.0
 10
7898.724702951517
 20
4777.423283999237
 30
0.0
 10
7899.190834693681
 20
4777.93660017899
 30
0.0
 10
7899.803813182183
 20
4778.401358663545
 30
0.0
 10
7900.559814179142
 20
4778.799816049253
 30
0.0
 10
7901.441679505996
 20
4779.099574791407
 30
0.0
 10
7902.341063965187
 20
4779.266562342483
 30
0.0
 10
7902.914794030442
 20
4779.283785959826
 30
0.0
 10
7903.147188344087
 20
4779.290762534652
 30
0.0
  0
LINE
  5
33A
330
1F
100
AcDbEntity
  8
0
  6
Continuous
 62
     7
370
    25
100
AcDbLine
 10
7955.9765452858
 20
4791.6128048175
 30
0.0
 11
7903.1471883441
 21
4791.6128048175
 31
0.0
  0
LINE
  5
33B
330
1F
100
AcDbEntity
  8
0
  6
Continuous
 62
     7
370
    25
100
AcDbLine
 10
7903.1471883441
 20
4779.2907625347
 30
0.0
 11
7955.9765452858
 21
4779.2907625347
 31
0.0
  0
LINE
  5
33C
330
1F
100
AcDbEntity
  8
0
  6
Continuous
 62
     7
370
    25
100
AcDbLine
 10
8066.7265452858
 20
4786.7817738396
 30
0.0
 11
8067.4265452858
 21
4786.7817738396
 31
0.0
  0
LINE
  5
33D
330
1F
100
AcDbEntity
  8
0
  6
Continuous
 62
     7
370
    25
100
AcDbLine
 10
8067.4265452858
 20
4843.1217935125
 30
0.0
 11
8066.7265452858
 21
4843.1217935125
 31
0.0
  0
ARC
  5
33E
330
1F
100
AcDbEntity
  8
0
  6
Continuous
 62
     7
370
    25
100
AcDbCircle
 10
8045.7265452858
 20
4835.3017836761
 30
0.0
 40
0.5000000000009095
100
AcDbArc
 50
270.0
 51
359.9999999999
  0
ARC
  5
33F
330
1F
100
AcDbEntity
  8
0
  6
Continuous
 62
     7
370
    25
100
AcDbCircle
 10
8045.7265452858
 20
4842.3017836761
 30
0.0
 40
0.4999999999990905
100
AcDbArc
 50
0.0
 51
90.0
  0
LINE
  5
340
330
1F
100
AcDbEntity
  8
0
  6
Continuous
 62
     7
370
    25
100
AcDbLine
 10
8044.7265452858
 20
4834.8017836761
 30
0.0
 11
8045.7265452858
 21
4834.8017836761
 31
0.0
  0
LINE
  5
341
330
1F
100
AcDbEntity
  8
0
  6
Continuous
 62
     7
370
    25
100
AcDbLine
 10
8045.7265452858
 20
4842.8017836761
 30
0.0
 11
8044.7265452858
 21
4842.8017836761
 31
0.0
  0
ARC
  5
342
330
1F
100
AcDbEntity
  8
0
  6
Continuous
 62
     7
370
    25
100
AcDbCircle
 10
8044.7265452858
 20
4835.3017836761
 30
0.0
 40
0.5
100
AcDbArc
 50
211.8907918019
 51
270.0
  0
ARC
  5
343
330
1F
100
AcDbEntity
  8
0
  6
Continuous
 62
     7
370
    25
100
AcDbCircle
 10
8044.7265452858
 20
4842.3017836761
 30
0.0
 40
0.5
100
AcDbArc
 50
90.0
 51
148.1092081981
  0
ARC
  5
344
330
1F
100
AcDbEntity
  8
0
  6
Continuous
 62
     7
370
    25
100
AcDbCircle
 10
8050.3515452858
 20
4838.8017836761
 30
0.0
 40
7.125
100
AcDbArc
 50
187.4380473866
 51
211.8907918019
  0
ARC
  5
345
330
1F
100
AcDbEntity
  8
0
  6
Continuous
 62
     7
370
    25
100
AcDbCircle
 10
8050.3515452858
 20
4838.8017836761
 30
0.0
 40
7.124999999999585
100
AcDbArc
 50
148.1092081982
 51
172.5619526134
  0
ARC
  5
346
330
1F
100
AcDbEntity
  8
0
  6
Continuous
 62
     7
370
    25
100
AcDbCircle
 10
8045.7265452858
 20
4787.6017836761
 30
0.0
 40
0.5
100
AcDbArc
 50
270.0
 51
0.0
  0
ARC
  5
347
330
1F
100
AcDbEntity
  8
0
  6
Continuous
 62
     7
370
    25
100
AcDbCircle
 10
8045.7265452858
 20
4794.6017836761
 30
0.0
 40
0.5
100
AcDbArc
 50
0.0000000001
 51
90.0
  0
LINE
  5
348
330
1F
100
AcDbEntity
  8
0
  6
Continuous
 62
     7
370
    25
100
AcDbLine
 10
8044.7265452858
 20
4787.1017836761
 30
0.0
 11
8045.7265452858
 21
4787.1017836761
 31
0.0
  0
LINE
  5
349
330
1F
100
AcDbEntity
  8
0
  6
Continuous
 62
     7
370
    25
100
AcDbLine
 10
8045.7265452858
 20
4795.1017836761
 30
0.0
 11
8044.7265452858
 21
4795.1017836761
 31
0.0
  0
ARC
  5
34A
330
1F
100
AcDbEntity
  8
0
  6
Continuous
 62
     7
370
    25
100
AcDbCircle
 10
8044.7265452858
 20
4787.6017836761
 30
0.0
 40
0.5
100
AcDbArc
 50
211.8907918019
 51
270.0
  0
ARC
  5
34B
330
1F
100
AcDbEntity
  8
0
  6
Continuous
 62
     7
370
    25
100
AcDbCircle
 10
8044.7265452858
 20
4794.6017836761
 30
0.0
 40
0.4999999999995195
100
AcDbArc
 50
90.0
 51
148.1092081981
  0
ARC
  5
34C
330
1F
100
AcDbEntity
  8
0
  6
Continuous
 62
     7
370
    25
100
AcDbCircle
 10
8050.3515452858
 20
4791.1017836761
 30
0.0
 40
7.125
100
AcDbArc
 50
187.4380473866
 51
211.8907918019
  0
ARC
  5
34D
330
1F
100
AcDbEntity
  8
0
  6
Continuous
 62
     7
370
    25
100
AcDbCircle
 10
8050.3515452858
 20
4791.1017836761
 30
0.0
 40
7.124999999999585
100
AcDbArc
 50
148.1092081982
 51
172.5619526134
  0
LINE
  5
34E
330
1F
100
AcDbEntity
  8
0
  6
Continuous
 62
     7
370
    25
100
AcDbLine
 10
8066.7265452858
 20
4810.0517836761
 30
0.0
 11
8067.4265452858
 21
4810.0517836761
 31
0.0
  0
LINE
  5
34F
330
1F
100
AcDbEntity
  8
0
  6
Continuous
 62
     7
370
    25
100
AcDbLine
 10
8067.4265452858
 20
4819.8517836761
 30
0.0
 11
8066.7265452858
 21
4819.8517836761
 31
0.0
  0
LINE
  5
350
330
1F
100
AcDbEntity
  8
0
  6
Continuous
 62
     7
370
    25
100
AcDbLine
 10
8070.6265452858
 20
4845.8017836761
 30
0.0
 11
8067.4265452858
 21
4845.8017836761
 31
0.0
  0
LINE
  5
351
330
1F
100
AcDbEntity
  8
0
  6
Continuous
 62
     7
370
    25
100
AcDbLine
 10
8066.7265452858
 20
4813.7017836761
 30
0.0
 11
8067.4265452858
 21
4813.7017836761
 31
0.0
  0
LINE
  5
352
330
1F
100
AcDbEntity
  8
0
  6
Continuous
 62
     7
370
    25
100
AcDbLine
 10
8067.4265452858
 20
4816.2017836761
 30
0.0
 11
8066.7265452858
 21
4816.2017836761
 31
0.0
  0
LINE
  5
353
330
1F
100
AcDbEntity
  8
0
  6
Continuous
 62
     7
370
    25
100
AcDbLine
 10
8066.7265452858
 20
4832.4517836761
 30
0.0
 11
8067.4265452858
 21
4832.4517836761
 31
0.0
  0
LINE
  5
354
330
1F
100
AcDbEntity
  8
0
  6
Continuous
 62
     7
370
    25
100
AcDbLine
 10
8067.4265452858
 20
4834.9517836761
 30
0.0
 11
8066.7265452858
 21
4834.9517836761
 31
0.0
  0
LINE
  5
355
330
1F
100
AcDbEntity
  8
0
  6
Continuous
 62
     7
370
    25
100
AcDbLine
 10
8066.7265452858
 20
4794.9517836761
 30
0.0
 11
8067.4265452858
 21
4794.9517836761
 31
0.0
  0
LINE
  5
356
330
1F
100
AcDbEntity
  8
0
  6
Continuous
 62
     7
370
    25
100
AcDbLine
 10
8067.4265452858
 20
4797.4517836761
 30
0.0
 11
8066.7265452858
 21
4797.4517836761
 31
0.0
  0
ARC
  5
357
330
1F
100
AcDbEntity
  8
0
  6
Continuous
 62
     7
370
    25
100
AcDbCircle
 10
8043.7265452858
 20
4808.9517836761
 30
0.0
 40
0.5000000000009095
100
AcDbArc
 50
180.0
 51
270.0
  0
ARC
  5
358
330
1F
100
AcDbEntity
  8
0
  6
Continuous
 62
     7
370
    25
100
AcDbCircle
 10
8043.7265452858
 20
4820.9517836761
 30
0.0
 40
0.5000000000009095
100
AcDbArc
 50
90.0
 51
180.0
  0
LINE
  5
359
330
1F
100
AcDbEntity
  8
0
  6
Continuous
 62
     7
370
    25
100
AcDbLine
 10
8046.2265452858
 20
4821.4517836761
 30
0.0
 11
8043.7265452858
 21
4821.4517836761
 31
0.0
  0
LINE
  5
35A
330
1F
100
AcDbEntity
  8
0
  6
Continuous
 62
     7
370
    25
100
AcDbLine
 10
8043.7265452858
 20
4808.4517836761
 30
0.0
 11
8046.2265452858
 21
4808.4517836761
 31
0.0
  0
LINE
  5
35B
330
1F
100
AcDbEntity
  8
0
  6
Continuous
 62
     7
370
    25
100
AcDbLine
 10
8066.7265452858
 20
4843.1017836761
 30
0.0
 11
8046.2265452858
 21
4843.1017836761
 31
0.0
  0
LINE
  5
35C
330
1F
100
AcDbEntity
  8
0
  6
Continuous
 62
     7
370
    25
100
AcDbLine
 10
8046.2265452858
 20
4786.8017836761
 30
0.0
 11
8066.7265452858
 21
4786.8017836761
 31
0.0
  0
LINE
  5
35D
330
1F
100
AcDbEntity
  8
0
  6
Continuous
 62
     7
370
    25
100
AcDbLine
 10
8070.4265452858
 20
4775.0517836761
 30
0.0
 11
8070.6265452858
 21
4775.0517836761
 31
0.0
  0
LINE
  5
35E
330
1F
100
AcDbEntity
  8
0
  6
Continuous
 62
     7
370
    25
100
AcDbLine
 10
8070.6265452858
 20
4792.8517836761
 30
0.0
 11
8070.4265452858
 21
4792.8517836761
 31
0.0
  0
ARC
  5
35F
330
1F
100
AcDbEntity
  8
0
  6
Continuous
 62
     7
370
    25
100
AcDbCircle
 10
8081.6523517374
 20
4783.9517836761
 30
0.0
 40
14.32580645161324
100
AcDbArc
 50
204.760401104
 51
218.407947011
  0
ARC
  5
360
330
1F
100
AcDbEntity
  8
0
  6
Continuous
 62
     7
370
    25
100
AcDbCircle
 10
8081.6523517374
 20
4783.9517836761
 30
0.0
 40
14.32580645161324
100
AcDbArc
 50
141.592052989
 51
155.239598896
  0
LINE
  5
361
330
1F
100
AcDbEntity
  8
0
  6
Continuous
 62
     7
370
    25
100
AcDbLine
 10
8068.553163576
 20
4778.1517836761
 30
0.0
 11
8068.6435573856
 21
4778.1517836761
 31
0.0
  0
LINE
  5
362
330
1F
100
AcDbEntity
  8
0
  6
Continuous
 62
     7
370
    25
100
AcDbLine
 10
8068.6435573856
 20
4789.7517836761
 30
0.0
 11
8068.553163576
 21
4789.7517836761
 31
0.0
  0
ARC
  5
363
330
1F
100
AcDbEntity
  8
0
  6
Continuous
 62
     7
370
    25
100
AcDbCircle
 10
8081.6523517374
 20
4783.9517836761
 30
0.0
 40
14.32580645161291
100
AcDbArc
 50
156.1174094853
 51
203.8825905147
  0
LINE
  5
364
330
1F
100
AcDbEntity
  8
0
  6
Continuous
 62
     7
370
    25
100
AcDbLine
 10
8070.4265452858
 20
4775.0517836761
 30
0.0
 11
8070.6265452858
 21
4775.0517836761
 31
0.0
  0
LINE
  5
365
330
1F
100
AcDbEntity
  8
0
  6
Continuous
 62
     7
370
    25
100
AcDbLine
 10
8070.6265452858
 20
4792.8517836761
 30
0.0
 11
8070.4265452858
 21
4792.8517836761
 31
0.0
  0
LINE
  5
366
330
1F
100
AcDbEntity
  8
0
  6
Continuous
 62
     7
370
    25
100
AcDbLine
 10
8068.553163576
 20
4778.1517836761
 30
0.0
 11
8068.6435573856
 21
4778.1517836761
 31
0.0
  0
LINE
  5
367
330
1F
100
AcDbEntity
  8
0
  6
Continuous
 62
     7
370
    25
100
AcDbLine
 10
8068.6435573856
 20
4789.7517836761
 30
0.0
 11
8068.553163576
 21
4789.7517836761
 31
0.0
  0
LINE
  5
368
330
1F
100
AcDbEntity
  8
0
  6
Continuous
 62
     7
370
    25
100
AcDbLine
 10
8082.7612039467
 20
4845.0605537586
 30
0.0
 11
8082.7018885961
 21
4845.1545320133
 31
0.0
  0
SPLINE
  5
369
330
1F
100
AcDbEntity
  8
0
  6
Continuous
 62
     7
370
    25
100
AcDbSpline
210
0.0
220
0.0
230
1.0
 70
     8
 71
     3
 72
     9
 73
     5
 74
     0
 42
0.00000001
 43
0.00000001
 40
0.0
 40
0.0
 40
0.0
 40
0.0
 40
0.6110569497214863
 40
1.0
 40
1.0
 40
1.0
 40
1.0
 10
8082.513331179997
 20
4773.184224779913
 30
0.0
 10
8082.568807860605
 20
4773.092664883336
 30
0.0
 10
8082.65959592976
 20
4772.942826318174
 30
0.0
 10
8082.749009720665
 20
4772.791426793329
 30
0.0
 10
8082.783786593236
 20
4772.732541000325
 30
0.0
  0
CIRCLE
  5
36A
330
1F
100
AcDbEntity
  8
0
  6
Continuous
 62
     7
370
    25
100
AcDbCircle
 10
7977.8265452858
 20
4663.4517836761
 30
0.0
 40
3.999999999999881
  0
CIRCLE
  5
36B
330
1F
100
AcDbEntity
  8
0
  6
Continuous
 62
     7
370
    25
100
AcDbCircle
 10
7836.3265452858
 20
4727.9517836761
 30
0.0
 40
3.999999999999881
  0
CIRCLE
  5
36C
330
1F
100
AcDbEntity
  8
0
  6
Continuous
 62
     7
370
    25
100
AcDbCircle
 10
8119.3265452858
 20
4727.9517836761
 30
0.0
 40
3.999999999999722
  0
LINE
  5
36D
330
1F
100
AcDbEntity
  8
0
  6
Continuous
 62
     7
370
    25
100
AcDbLine
 10
7888.8265452858
 20
4791.5771214907
 30
0.0
 11
7892.2444333876
 21
4788.1592333889
 31
0.0
  0
LINE
  5
36E
330
1F
100
AcDbEntity
  8
0
  6
Continuous
 62
     7
370
    25
100
AcDbLine
 10
7892.2444333876
 20
4788.1592333889
 30
0.0
 11
7892.2444333876
 21
4782.7443339632
 31
0.0
  0
LINE
  5
36F
330
1F
100
AcDbEntity
  8
0
  6
Continuous
 62
     7
370
    25
100
AcDbLine
 10
7888.8265452858
 20
4779.3264458615
 30
0.0
 11
7892.2444333876
 21
4782.7443339632
 31
0.0
  0
LINE
  5
370
330
1F
100
AcDbEntity
  8
0
  6
Continuous
 62
     7
370
    25
100
AcDbLine
 10
7888.4964906814
 20
4778.9992108887
 30
0.0
 11
7888.8265452858
 21
4779.3264458615
 31
0.0
  0
LINE
  5
371
330
1F
100
AcDbEntity
  8
0
  6
Continuous
 62
     7
370
    25
100
AcDbLine
 10
7888.4964906814
 20
4778.9992108887
 30
0.0
 11
7887.6769851163
 21
4777.8420166641
 31
0.0
  0
LINE
  5
372
330
1F
100
AcDbEntity
  8
0
  6
Continuous
 62
     7
370
    25
100
AcDbLine
 10
7887.6769851163
 20
4777.8420166641
 30
0.0
 11
7887.6769851163
 21
4793.0615506881
 31
0.0
  0
LINE
  5
373
330
1F
100
AcDbEntity
  8
0
  6
Continuous
 62
     7
370
    25
100
AcDbLine
 10
7887.6769851163
 20
4793.0615506881
 30
0.0
 11
7888.4964906814
 21
4791.9043564635
 31
0.0
  0
LINE
  5
374
330
1F
100
AcDbEntity
  8
0
  6
Continuous
 62
     7
370
    25
100
AcDbLine
 10
7888.4964906814
 20
4791.9043564635
 30
0.0
 11
7888.8265452858
 21
4791.5771214907
 31
0.0
  0
ARC
  5
375
330
1F
100
AcDbEntity
  8
0
  6
Continuous
 62
     7
370
    25
100
AcDbCircle
 10
7964.4650544252
 20
4787.5270442579
 30
0.0
 40
4.407069959135631
100
AcDbArc
 50
8.2474660103
 51
96.3641261118
  0
LINE
  5
376
330
1F
100
AcDbEntity
  8
0
  6
Continuous
 62
     7
370
    25
100
AcDbLine
 10
7963.9765452858
 20
4788.1592333889
 30
0.0
 11
7968.8265452858
 21
4788.1592333889
 31
0.0
  0
LINE
  5
377
330
1F
100
AcDbEntity
  8
0
  6
Continuous
 62
     7
370
    25
100
AcDbLine
 10
7963.9765452858
 20
4791.9069557234
 30
0.0
 11
7963.9765452858
 21
4788.1592333889
 31
0.0
  0
LINE
  5
378
330
1F
100
AcDbEntity
  8
0
  6
Continuous
 62
     7
370
    25
100
AcDbLine
 10
7892.2444333876
 20
4782.7443339632
 30
0.0
 11
7963.9765452858
 21
4782.7443339632
 31
0.0
  0
LINE
  5
379
330
1F
100
AcDbEntity
  8
0
  6
Continuous
 62
     7
370
    25
100
AcDbLine
 10
7963.9765452858
 20
4788.1592333889
 30
0.0
 11
7892.2444333876
 21
4788.1592333889
 31
0.0
  0
LINE
  5
37A
330
1F
100
AcDbEntity
  8
0
  6
Continuous
 62
     7
370
    25
100
AcDbLine
 10
7963.9765452858
 20
4782.7443339632
 30
0.0
 11
7963.9765452858
 21
4788.1592333889
 31
0.0
  0
LINE
  5
37B
330
1F
100
AcDbEntity
  8
0
  6
Continuous
 62
     7
370
    25
100
AcDbLine
 10
7897.6617530833
 20
4778.9966116288
 30
0.0
 11
7888.8265452858
 21
4778.9966116288
 31
0.0
  0
LINE
  5
37C
330
1F
100
AcDbEntity
  8
0
  6
Continuous
 62
     7
370
    25
100
AcDbLine
 10
7888.8265452858
 20
4779.3264458615
 30
0.0
 11
7888.8265452858
 21
4778.9966116288
 31
0.0
  0
LINE
  5
37D
330
1F
100
AcDbEntity
  8
0
  6
Continuous
 62
     7
370
    25
100
AcDbLine
 10
7963.9765452858
 20
4782.7443339632
 30
0.0
 11
7963.9765452858
 21
4778.9966116288
 31
0.0
  0
LINE
  5
37E
330
1F
100
AcDbEntity
  8
0
  6
Continuous
 62
     7
370
    25
100
AcDbLine
 10
7963.9765452858
 20
4778.9966116288
 30
0.0
 11
7961.4619805466
 21
4778.9966116288
 31
0.0
  0
SPLINE
  5
37F
330
1F
100
AcDbEntity
  8
0
  6
Continuous
 62
     7
370
    25
100
AcDbSpline
210
0.0
220
0.0
230
1.0
 70
     8
 71
     3
 72
    11
 73
     7
 74
     0
 42
0.00000001
 43
0.00000001
 40
0.0
 40
0.0
 40
0.0
 40
0.0
 40
0.003040762220887
 40
0.435301005581913
 40
0.8771347137164315
 40
1.0
 40
1.0
 40
1.0
 40
1.0
 10
7961.461980546568
 20
4778.996611628777
 30
0.0
 10
7961.456652316767
 20
4778.997895445104
 30
0.0
 10
7960.69388837076
 20
4779.18168046265
 30
0.0
 10
7959.122318102627
 20
4779.536131434364
 30
0.0
 10
7957.265225266647
 20
4779.77492825735
 30
0.0
 10
7956.206827805156
 20
4779.789352063207
 30
0.0
 10
7955.976545285807
 20
4779.792490345821
 30
0.0
  0
LINE
  5
380
330
1F
100
AcDbEntity
  8
0
  6
Continuous
 62
     7
370
    25
100
AcDbLine
 10
7903.1471883441
 20
4779.7924903458
 30
0.0
 11
7955.9765452858
 21
4779.7924903458
 31
0.0
  0
SPLINE
  5
381
330
1F
100
AcDbEntity
  8
0
  6
Continuous
 62
     7
370
    25
100
AcDbSpline
210
0.0
220
0.0
230
1.0
 70
     8
 71
     3
 72
    11
 73
     7
 74
     0
 42
0.00000001
 43
0.00000001
 40
0.0
 40
0.0
 40
0.0
 40
0.0
 40
0.0030404284712747
 40
0.2105148033642626
 40
0.6009628919773842
 40
0.9999999999999999
 40
0.9999999999999999
 40
0.9999999999999999
 40
0.9999999999999999
 10
7897.661753083326
 20
4778.996611628777
 30
0.0
 10
7897.667081320647
 20
4778.997895496206
 30
0.0
 10
7898.036000649783
 20
4779.086788592051
 30
0.0
 10
7899.100322288507
 20
4779.333194338516
 30
0.0
 10
7900.917335454914
 20
4779.69669277053
 30
0.0
 10
7902.398532601814
 20
4779.760327055953
 30
0.0
 10
7903.147188344099
 20
4779.792490345821
 30
0.0
  0
SPLINE
  5
382
330
1F
100
AcDbEntity
  8
0
  6
Continuous
 62
     7
370
    25
100
AcDbSpline
210
0.0
220
0.0
230
1.0
 70
     8
 71
     3
 72
    11
 73
     7
 74
     0
 42
0.00000001
 43
0.00000001
 40
0.0
 40
0.0
 40
0.0
 40
0.0
 40
0.3899134273432304
 40
0.7897956597024567
 40
0.9969595945199905
 40
1.0
 40
1.0
 40
1.0
 40
1.0
 10
7955.976545285796
 20
4791.111077006319
 30
0.0
 10
7956.708057910832
 20
4791.141831651286
 30
0.0
 10
7958.189785534855
 20
4791.204127236429
 30
0.0
 10
7960.007836018494
 20
4791.566711184736
 30
0.0
 10
7961.0882742131
 20
4791.816909251913
 30
0.0
 10
7961.456652308445
 20
4791.905671856864
 30
0.0
 10
7961.461980546568
 20
4791.906955723362
 30
0.0
  0
LINE
  5
383
330
1F
100
AcDbEntity
  8
0
  6
Continuous
 62
     7
370
    25
100
AcDbLine
 10
7961.4619805466
 20
4791.9069557234
 30
0.0
 11
7963.9765452858
 21
4791.9069557234
 31
0.0
  0
LINE
  5
384
330
1F
100
AcDbEntity
  8
0
  6
Continuous
 62
     7
370
    25
100
AcDbLine
 10
7888.8265452858
 20
4791.9069557234
 30
0.0
 11
7888.8265452858
 21
4791.5771214907
 31
0.0
  0
LINE
  5
385
330
1F
100
AcDbEntity
  8
0
  6
Continuous
 62
     7
370
    25
100
AcDbLine
 10
7888.8265452858
 20
4791.9069557234
 30
0.0
 11
7897.6617530833
 21
4791.9069557234
 31
0.0
  0
SPLINE
  5
386
330
1F
100
AcDbEntity
  8
0
  6
Continuous
 62
     7
370
    25
100
AcDbSpline
210
0.0
220
0.0
230
1.0
 70
     8
 71
     3
 72
    11
 73
     7
 74
     0
 42
0.00000001
 43
0.00000001
 40
0.0
 40
0.0
 40
0.0
 40
0.0
 40
0.1228639682883523
 40
0.5542332396236416
 40
0.9969592703982133
 40
1.0
 40
1.0
 40
1.0
 40
1.0
 10
7903.147188344087
 20
4791.111077006319
 30
0.0
 10
7902.916905122232
 20
4791.11421379795
 30
0.0
 10
7901.878108981604
 20
4791.128363708718
 30
0.0
 10
7900.020855026571
 20
4791.363363177763
 30
0.0
 10
7898.448192162386
 20
4791.717466240986
 30
0.0
 10
7897.667081311222
 20
4791.90567190727
 30
0.0
 10
7897.661753083326
 20
4791.906955723362
 30
0.0
  0
LINE
  5
387
330
1F
100
AcDbEntity
  8
0
  6
Continuous
 62
     7
370
    25
100
AcDbLine
 10
7903.1471883441
 20
4791.1110770063
 30
0.0
 11
7955.9765452858
 21
4791.1110770063
 31
0.0
  0
ARC
  5
388
330
1F
100
AcDbEntity
  8
0
  6
Continuous
 62
     7
370
    25
100
AcDbCircle
 10
7964.4650544252
 20
4783.3765230943
 30
0.0
 40
4.407069959135631
100
AcDbArc
 50
263.6358738882
 51
351.7525339897
  0
LINE
  5
389
330
1F
100
AcDbEntity
  8
0
  6
Continuous
 62
     7
370
    25
100
AcDbLine
 10
7963.9765452858
 20
4782.7443339632
 30
0.0
 11
7968.8265452858
 21
4782.7443339632
 31
0.0
  0
LINE
  5
38A
330
1F
100
AcDbEntity
  8
0
  6
Continuous
 62
     7
370
    25
100
AcDbLine
 10
7968.8265452858
 20
4788.1592333889
 30
0.0
 11
7968.8265452858
 21
4782.7443339632
 31
0.0
  0
ELLIPSE
  5
38B
330
1F
100
AcDbEntity
  8
0
  6
Continuous
 62
     7
370
    25
100
AcDbEllipse
 10
7955.9765452858
 20
4772.4251830573
 30
0.0
 11
9.700000000000728
 21
0.0
 31
0.0
210
0.0
220
0.0
230
1.0
 40
0.8214285714
 41
0.6010500307935178
 42
0.9697462960011028
  0
SPLINE
  5
38C
330
1F
100
AcDbEntity
  8
0
  6
Continuous
 62
     7
370
    25
100
AcDbSpline
210
0.0
220
0.0
230
1.0
 70
     8
 71
     3
 72
    10
 73
     6
 74
     0
 42
0.00000001
 43
0.00000001
 40
0.0
 40
0.0
 40
0.0
 40
0.0
 40
0.0028417779881774
 40
0.4976795798451503
 40
1.0
 40
1.0
 40
1.0
 40
1.0
 10
7963.976545285807
 20
4776.931076307259
 30
0.0
 10
7963.978180263218
 20
4776.926896740661
 30
0.0
 10
7964.264513282168
 20
4776.194930711848
 30
0.0
 10
7964.707674245076
 20
4774.738426459328
 30
0.0
 10
7964.786723877589
 20
4773.238685541731
 30
0.0
 10
7964.826545285807
 20
4772.483188097875
 30
0.0
  0
ARC
  5
38D
330
1F
100
AcDbEntity
  8
0
  6
Continuous
 62
     7
370
    25
100
AcDbCircle
 10
7964.976426496
 20
4776.6587198441
 30
0.0
 40
4.178220882243824
100
AcDbArc
 50
186.6770576052
 51
267.9442437751
  0
ELLIPSE
  5
38E
330
1F
100
AcDbEntity
  8
0
  6
Continuous
 62
     7
370
    25
100
AcDbEllipse
 10
7903.1471883441
 20
4798.4783842948
 30
0.0
 11
9.699999999999818
 21
0.0
 31
0.0
210
0.0
220
0.0
230
1.0
 40
0.8214285714
 41
2.879793265790641
 42
4.111338949591037
  0
ARC
  5
38F
330
1F
100
AcDbEntity
  8
0
  6
Continuous
 62
     7
370
    25
100
AcDbCircle
 10
7893.3471003266
 20
4795.2004696424
 30
0.0
 40
5.357480906524509
100
AcDbArc
 50
17.2915464275
 51
85.3898792061
  0
ARC
  5
390
330
1F
100
AcDbEntity
  8
0
  6
Continuous
 62
     7
370
    25
100
AcDbCircle
 10
7964.976426496
 20
4794.244847508
 30
0.0
 40
4.178220882244766
100
AcDbArc
 50
92.055756225
 51
173.3229423948
  0
SPLINE
  5
391
330
1F
100
AcDbEntity
  8
0
  6
Continuous
 62
     7
370
    25
100
AcDbSpline
210
0.0
220
0.0
230
1.0
 70
     8
 71
     3
 72
    10
 73
     6
 74
     0
 42
0.00000001
 43
0.00000001
 40
0.0
 40
0.0
 40
0.0
 40
0.0
 40
0.4949838820651957
 40
0.9971582189568388
 40
1.0
 40
1.0
 40
1.0
 40
1.0
 10
7964.826545285807
 20
4798.420379254265
 30
0.0
 10
7964.787794438996
 20
4797.67583314344
 30
0.0
 10
7964.709729825602
 20
4796.175925165218
 30
0.0
 10
7964.268734150893
 20
4794.719425913954
 30
0.0
 10
7963.97818026437
 20
4793.976670610376
 30
0.0
 10
7963.976545285807
 20
4793.97249104488
 30
0.0
  0
ELLIPSE
  5
392
330
1F
100
AcDbEntity
  8
0
  6
Continuous
 62
     7
370
    25
100
AcDbEllipse
 10
7955.9765452858
 20
4798.4783842948
 30
0.0
 11
9.700000000000728
 21
0.0
 31
0.0
210
0.0
220
0.0
230
1.0
 40
0.8214285714
 41
5.313439011178326
 42
5.682135276385883
  0
ARC
  5
393
330
1F
100
AcDbEntity
  8
0
  6
Continuous
 62
     7
370
    25
100
AcDbCircle
 10
7893.3471003266
 20
4775.7030977098
 30
0.0
 40
5.357480906524787
100
AcDbArc
 50
274.6101207939
 51
342.7084535725
  0
ELLIPSE
  5
394
330
1F
100
AcDbEntity
  8
0
  6
Continuous
 62
     7
370
    25
100
AcDbEllipse
 10
7903.1471883441
 20
4772.4251830573
 30
0.0
 11
9.699999999999818
 21
0.0
 31
0.0
210
0.0
220
0.0
230
1.0
 40
0.8214285714
 41
2.171846357588734
 42
3.403392041389015
  0
CIRCLE
  5
395
330
1F
100
AcDbEntity
  8
0
  6
Continuous
 62
     7
370
    25
100
AcDbCircle
 10
8001.3265452858
 20
4785.4517836761
 30
0.0
 40
17.5
  0
CIRCLE
  5
396
330
1F
100
AcDbEntity
  8
0
  6
Continuous
 62
     7
370
    25
100
AcDbCircle
 10
8001.3265452858
 20
4785.4517836761
 30
0.0
 40
22.5
  0
ELLIPSE
  5
397
330
1F
100
AcDbEntity
  8
0
  6
Continuous
 62
     7
370
    25
100
AcDbEllipse
 10
7888.8265452858
 20
4762.0827284404
 30
0.0
 11
0.0
 21
29.82422728299571
 31
0.0
210
0.0
220
0.0
230
1.0
 40
0.8382446849
 41
0.0
 42
0.0132025677244082
  0
ELLIPSE
  5
398
330
1F
100
AcDbEntity
  8
0
  6
Continuous
 62
     7
370
    25
100
AcDbEllipse
 10
7888.8265452858
 20
4808.8208389118
 30
0.0
 11
0.0
 21
29.82422728299571
 31
0.0
210
0.0
220
0.0
230
1.0
 40
0.8382446849
 41
3.128390085865385
 42
3.141592653589793
  0
ELLIPSE
  5
399
330
1F
100
AcDbEntity
  8
0
  6
Continuous
 62
     7
370
    25
100
AcDbEllipse
 10
7888.8265452858
 20
4758.0987998689
 30
0.0
 11
-22.44934772756005
 21
65.87038824617684
 31
0.0
210
0.0
220
0.0
230
1.0
 40
0.1670130965
 41
5.214040512790822
 42
6.395814272888331
  0
ELLIPSE
  5
39A
330
1F
100
AcDbEntity
  8
0
  6
Continuous
 62
     7
370
    25
100
AcDbEllipse
 10
7888.8265452858
 20
4819.1558679383
 30
0.0
 11
25.0
 21
0.0
 31
0.0
210
0.0
220
0.0
230
1.0
 40
0.4726907809
 41
2.798568713169068
 42
3.141592653589793
  0
LINE
  5
39B
330
1F
100
AcDbEntity
  8
0
  6
Continuous
 62
     7
370
    25
100
AcDbLine
 10
7863.8265452858
 20
4819.1558679383
 30
0.0
 11
7863.8265452858
 21
4822.9517836761
 31
0.0
  0
LWPOLYLINE
  5
39C
330
1F
100
AcDbEntity
  8
0
  6
Continuous
 62
     7
370
    25
100
AcDbPolyline
 90
       14
 70
   128
 43
0.0
 10
7863.8265452858
 20
4822.9517836761
 10
7864.0088234334
 20
4825.2803301127
 10
7864.5529998502
 20
4827.5749210989
 10
7865.4511392187
 20
4829.8020963311
 10
7866.6901446445
 20
4831.9293785792
 10
7868.2519486385
 20
4833.9257472778
 10
7870.1137765815
 20
4835.7620908759
 10
7872.2484788298
 20
4837.4116313487
 10
7874.6249266175
 20
4838.8503146817
 10
7877.2084659847
 20
4840.0571616323
 10
7879.9614231097
 20
4841.0145736543
 10
7882.8436536786
 20
4841.7085895246
 10
7885.8131282794
 20
4842.129088929
 10
7888.8265452858
 20
4842.2699400392
  0
LINE
  5
39D
330
1F
100
AcDbEntity
  8
0
  6
Continuous
 62
     7
370
    25
100
AcDbLine
 10
7888.8265452858
 20
4842.2699400392
 30
0.0
 11
7888.8265452858
 21
4791.9069557234
 31
0.0
  0
LINE
  5
39E
330
1F
100
AcDbEntity
  8
0
  6
Continuous
 62
     7
370
    25
100
AcDbLine
 10
7965.6765452858
 20
4806.8158842948
 30
0.0
 11
7965.6765452858
 21
4804.873563259
 31
0.0
  0
ELLIPSE
  5
39F
330
1F
100
AcDbEntity
  8
0
  6
Continuous
 62
     7
370
    25
100
AcDbEllipse
 10
7950.8265452858
 20
4806.8158842948
 30
0.0
 11
14.85000000000036
 21
0.0
 31
0.0
210
0.0
220
0.0
230
1.0
 40
0.8214285714
 41
0.0
 42
1.570796326794897
  0
LINE
  5
3A0
330
1F
100
AcDbEntity
  8
0
  6
Continuous
 62
     7
370
    25
100
AcDbLine
 10
7911.1985449764
 20
4819.0140985805
 30
0.0
 11
7950.8265452858
 21
4819.0140985805
 31
0.0
  0
ELLIPSE
  5
3A1
330
1F
100
AcDbEntity
  8
0
  6
Continuous
 62
     7
370
    25
100
AcDbEllipse
 10
7911.1985449764
 20
4806.8158842948
 30
0.0
 11
14.84999999999945
 21
0.0
 31
0.0
210
0.0
220
0.0
230
1.0
 40
0.8214285714
 41
1.570796326794897
 42
2.879793265790622
  0
LINE
  5
3A2
330
1F
100
AcDbEntity
  8
0
  6
Continuous
 62
     7
370
    25
100
AcDbLine
 10
7893.7777078291
 20
4800.540617472
 30
0.0
 11
7896.854546456
 21
4809.9730144682
 31
0.0
  0
LINE
  5
3A3
330
1F
100
AcDbEntity
  8
0
  6
Continuous
 62
     7
370
    25
100
AcDbLine
 10
8013.8265452858
 20
4842.2699400392
 30
0.0
 11
7888.8265452858
 21
4842.2699400392
 31
0.0
  0
LINE
  5
3A4
330
1F
100
AcDbEntity
  8
0
  6
Continuous
 62
     7
370
    25
100
AcDbLine
 10
8013.8265452858
 20
4808.3355271519
 30
0.0
 11
8013.8265452858
 21
4842.2699400392
 31
0.0
  0
LINE
  5
3A5
330
1F
100
AcDbEntity
  8
0
  6
Continuous
 62
     7
370
    25
100
AcDbLine
 10
7973.6765452858
 20
4808.3355271519
 30
0.0
 11
8013.8265452858
 21
4808.3355271519
 31
0.0
  0
ELLIPSE
  5
3A6
330
1F
100
AcDbEntity
  8
0
  6
Continuous
 62
     7
370
    25
100
AcDbEllipse
 10
7973.6765452858
 20
4800.3676700091
 30
0.0
 11
9.699999999999818
 21
0.0
 31
0.0
210
0.0
220
0.0
230
1.0
 40
0.8214285714
 41
1.570796326794897
 42
2.540542622796024
  0
ARC
  5
3A7
330
1F
100
AcDbEntity
  8
0
  6
Continuous
 62
     7
370
    25
100
AcDbCircle
 10
7964.6766640756
 20
4796.1341332223
 30
0.0
 40
4.178220882249343
100
AcDbArc
 50
6.6770576052
 51
87.944243775
  0
LINE
  5
3A8
330
1F
100
AcDbEntity
  8
0
  6
Continuous
 62
     7
370
    25
100
AcDbLine
 10
7968.8265452858
 20
4796.6199476746
 30
0.0
 11
7968.8265452858
 21
4788.1592333889
 31
0.0
  0
LINE
  5
3A9
330
1F
100
AcDbEntity
  8
0
  6
Continuous
 62
     7
370
    25
100
AcDbLine
 10
7963.9765452858
 20
4791.9069557234
 30
0.0
 11
7963.9765452858
 21
4793.9724910449
 31
0.0
  0
LINE
  5
3AA
330
1F
100
AcDbEntity
  8
0
  6
Continuous
 62
     7
370
    25
100
AcDbLine
 10
7964.8265452858
 20
4798.4203792543
 30
0.0
 11
7964.8265452858
 21
4800.3096649686
 31
0.0
  0
LWPOLYLINE
  5
3AB
330
1F
100
AcDbEntity
  8
0
  6
Continuous
 62
     7
370
    25
100
AcDbPolyline
 90
       14
 70
   128
 43
0.0
 10
7888.8265452858
 20
4728.6336273129
 10
7885.8131282794
 20
4728.7744784232
 10
7882.8436536786
 20
4729.1949778275
 10
7879.9614231097
 20
4729.8889936978
 10
7877.2084659847
 20
4730.8464057198
 10
7874.6249266175
 20
4732.0532526704
 10
7872.2484788298
 20
4733.4919360034
 10
7870.1137765815
 20
4735.1414764762
 10
7868.2519486385
 20
4736.9778200743
 10
7866.6901446445
 20
4738.974188773
 10
7865.4511392187
 20
4741.1014710211
 10
7864.5529998502
 20
4743.3286462532
 10
7864.0088234334
 20
4745.6232372394
 10
7863.8265452858
 20
4747.9517836761
  0
LINE
  5
3AC
330
1F
100
AcDbEntity
  8
0
  6
Continuous
 62
     7
370
    25
100
AcDbLine
 10
7863.8265452858
 20
4747.9517836761
 30
0.0
 11
7863.8265452858
 21
4751.7476994139
 31
0.0
  0
ELLIPSE
  5
3AD
330
1F
100
AcDbEntity
  8
0
  6
Continuous
 62
     7
370
    25
100
AcDbEllipse
 10
7888.8265452858
 20
4751.7476994139
 30
0.0
 11
25.0
 21
0.0
 31
0.0
210
0.0
220
0.0
230
1.0
 40
0.4726907809
 41
3.141592653589793
 42
3.484616594010545
  0
ELLIPSE
  5
3AE
330
1F
100
AcDbEntity
  8
0
  6
Continuous
 62
     7
370
    25
100
AcDbEllipse
 10
7888.8265452858
 20
4812.8047674832
 30
0.0
 11
22.44934772755914
 21
65.87038824617684
 31
0.0
210
0.0
220
0.0
230
1.0
 40
0.1670130965
 41
3.028963687880976
 42
4.21073744797858
  0
LINE
  5
3AF
330
1F
100
AcDbEntity
  8
0
  6
Continuous
 62
     7
370
    25
100
AcDbLine
 10
7888.8265452858
 20
4778.9966116288
 30
0.0
 11
7888.8265452858
 21
4728.6336273129
 31
0.0
  0
LINE
  5
3B0
330
1F
100
AcDbEntity
  8
0
  6
Continuous
 62
     7
370
    25
100
AcDbLine
 10
7963.9765452858
 20
4776.9310763073
 30
0.0
 11
7963.9765452858
 21
4778.9966116288
 31
0.0
  0
LINE
  5
3B1
330
1F
100
AcDbEntity
  8
0
  6
Continuous
 62
     7
370
    25
100
AcDbLine
 10
7968.8265452858
 20
4782.7443339632
 30
0.0
 11
7968.8265452858
 21
4774.2836196775
 31
0.0
  0
ARC
  5
3B2
330
1F
100
AcDbEntity
  8
0
  6
Continuous
 62
     7
370
    25
100
AcDbCircle
 10
7964.6766640756
 20
4774.7694341298
 30
0.0
 40
4.178220882247062
100
AcDbArc
 50
272.055756225
 51
353.3229423948
  0
LINE
  5
3B3
330
1F
100
AcDbEntity
  8
0
  6
Continuous
 62
     7
370
    25
100
AcDbLine
 10
7964.8265452858
 20
4772.4831880979
 30
0.0
 11
7964.8265452858
 21
4770.5939023836
 31
0.0
  0
LINE
  5
3B4
330
1F
100
AcDbEntity
  8
0
  6
Continuous
 62
     7
370
    25
100
AcDbLine
 10
7896.854546456
 20
4760.930552884
 30
0.0
 11
7893.7777078291
 21
4770.3629498801
 31
0.0
  0
ELLIPSE
  5
3B5
330
1F
100
AcDbEntity
  8
0
  6
Continuous
 62
     7
370
    25
100
AcDbEllipse
 10
7911.1985449764
 20
4764.0876830573
 30
0.0
 11
14.84999999999945
 21
0.0
 31
0.0
210
0.0
220
0.0
230
1.0
 40
0.8214285714
 41
3.403392041388963
 42
4.712388980384701
  0
LINE
  5
3B6
330
1F
100
AcDbEntity
  8
0
  6
Continuous
 62
     7
370
    25
100
AcDbLine
 10
7950.8265452858
 20
4751.8894687716
 30
0.0
 11
7911.1985449764
 21
4751.8894687716
 31
0.0
  0
ELLIPSE
  5
3B7
330
1F
100
AcDbEntity
  8
0
  6
Continuous
 62
     7
370
    25
100
AcDbEllipse
 10
7950.8265452858
 20
4764.0876830573
 30
0.0
 11
14.85000000000036
 21
0.0
 31
0.0
210
0.0
220
0.0
230
1.0
 40
0.8214285714
 41
4.712388980384701
 42
6.283185307179586
  0
LINE
  5
3B8
330
1F
100
AcDbEntity
  8
0
  6
Continuous
 62
     7
370
    25
100
AcDbLine
 10
7965.6765452858
 20
4766.0300040932
 30
0.0
 11
7965.6765452858
 21
4764.0876830573
 31
0.0
  0
ELLIPSE
  5
3B9
330
1F
100
AcDbEntity
  8
0
  6
Continuous
 62
     7
370
    25
100
AcDbEllipse
 10
7973.6765452858
 20
4770.5358973431
 30
0.0
 11
9.699999999999818
 21
0.0
 31
0.0
210
0.0
220
0.0
230
1.0
 40
0.8214285714
 41
3.74264268438343
 42
4.712388980384701
  0
LINE
  5
3BA
330
1F
100
AcDbEntity
  8
0
  6
Continuous
 62
     7
370
    25
100
AcDbLine
 10
8013.8265452858
 20
4762.5680402002
 30
0.0
 11
7973.6765452858
 21
4762.5680402002
 31
0.0
  0
LINE
  5
3BB
330
1F
100
AcDbEntity
  8
0
  6
Continuous
 62
     7
370
    25
100
AcDbLine
 10
8013.8265452858
 20
4728.6336273129
 30
0.0
 11
8013.8265452858
 21
4762.5680402002
 31
0.0
  0
LINE
  5
3BC
330
1F
100
AcDbEntity
  8
0
  6
Continuous
 62
     7
370
    25
100
AcDbLine
 10
7888.8265452858
 20
4728.6336273129
 30
0.0
 11
8013.8265452858
 21
4728.6336273129
 31
0.0
  0
LINE
  5
3BD
330
1F
100
AcDbEntity
  8
0
  6
Continuous
 62
     7
370
    25
100
AcDbLine
 10
7865.2829974959
 20
4823.1304457915
 30
0.0
 11
7865.2829974959
 21
4747.7731215607
 31
0.0
  0
LINE
  5
3BE
330
1F
100
AcDbEntity
  8
0
  6
Continuous
 62
     7
370
    25
100
AcDbLine
 10
7960.8265452858
 20
4794.7306619603
 30
0.0
 11
7960.8265452858
 21
4803.0681619603
 31
0.0
  0
ARC
  5
3BF
330
1F
100
AcDbEntity
  8
0
  6
Continuous
 62
     7
370
    25
100
AcDbCircle
 10
7965.1880361464
 20
4802.4359728293
 30
0.0
 40
4.407069959133925
100
AcDbArc
 50
83.6358738882
 51
171.7525339897
  0
SPLINE
  5
3C0
330
1F
100
AcDbEntity
  8
0
  6
Continuous
 62
     7
370
    25
100
AcDbSpline
210
0.0
220
0.0
230
1.0
 70
     8
 71
     3
 72
    10
 73
     6
 74
     0
 42
0.00000001
 43
0.00000001
 40
0.0
 40
0.0
 40
0.0
 40
0.0
 40
0.0028417779884158
 40
0.4976795798506831
 40
1.0
 40
1.0
 40
1.0
 40
1.0
 10
7965.676545285808
 20
4804.873563258988
 30
0.0
 10
7965.674910308396
 20
4804.869382841798
 30
0.0
 10
7965.388577289234
 20
4804.137267849453
 30
0.0
 10
7964.945416326627
 20
4802.601706649839
 30
0.0
 10
7964.866366694056
 20
4801.077491403667
 30
0.0
 10
7964.826545285807
 20
4800.309664968551
 30
0.0
  0
SPLINE
  5
3C1
330
1F
100
AcDbEntity
  8
0
  6
Continuous
 62
     7
370
    25
100
AcDbSpline
210
0.0
220
0.0
230
1.0
 70
     8
 71
     3
 72
    10
 73
     6
 74
     0
 42
0.00000001
 43
0.00000001
 40
0.0
 40
0.0
 40
0.0
 40
0.0
 40
0.4949838820654033
 40
0.9971582189568455
 40
1.0
 40
1.0
 40
1.0
 40
1.0
 10
7964.826545285807
 20
4770.593902383589
 30
0.0
 10
7964.865296132748
 20
4769.837420712561
 30
0.0
 10
7964.943360746403
 20
4768.313468230293
 30
0.0
 10
7965.384356419797
 20
4766.77709129659
 30
0.0
 10
7965.674910307239
 20
4766.034184511054
 30
0.0
 10
7965.676545285808
 20
4766.030004093152
 30
0.0
  0
ARC
  5
3C2
330
1F
100
AcDbEntity
  8
0
  6
Continuous
 62
     7
370
    25
100
AcDbCircle
 10
7965.1880361464
 20
4768.4675945228
 30
0.0
 40
4.407069959135303
100
AcDbArc
 50
188.2474660103
 51
276.3641261118
  0
LINE
  5
3C3
330
1F
100
AcDbEntity
  8
0
  6
Continuous
 62
     7
370
    25
100
AcDbLine
 10
7960.8265452858
 20
4767.8354053918
 30
0.0
 11
7960.8265452858
 21
4776.1729053918
 31
0.0
  0
LINE
  5
3C4
330
1F
100
AcDbEntity
  8
0
  6
Continuous
 62
     7
370
    25
100
AcDbLine
 10
7973.6765452858
 20
4808.3355271519
 30
0.0
 11
7973.6765452858
 21
4804.5878048175
 31
0.0
  0
ELLIPSE
  5
3C5
330
1F
100
AcDbEntity
  8
0
  6
Continuous
 62
     7
370
    25
100
AcDbEllipse
 10
7973.6765452858
 20
4796.6199476746
 30
0.0
 11
0.0
 21
7.96785714285761
 31
0.0
210
0.0
220
0.0
230
1.0
 40
0.6086956522
 41
0.0
 42
1.570796326794897
  0
ELLIPSE
  5
3C6
330
1F
100
AcDbEntity
  8
0
  6
Continuous
 62
     7
370
    25
100
AcDbEllipse
 10
7973.6765452858
 20
4774.2836196775
 30
0.0
 11
0.0
 21
7.967857142856701
 31
0.0
210
0.0
220
0.0
230
1.0
 40
0.6086956522
 41
1.570796326794897
 42
3.141592653589793
  0
LINE
  5
3C7
330
1F
100
AcDbEntity
  8
0
  6
Continuous
 62
     7
370
    25
100
AcDbLine
 10
7973.6765452858
 20
4762.5680402002
 30
0.0
 11
7973.6765452858
 21
4766.3157625347
 31
0.0
  0
ARC
  5
3C8
330
1F
100
AcDbEntity
  8
0
  6
Continuous
 62
     7
370
    25
100
AcDbCircle
 10
7896.4239389535
 20
4804.6328666385
 30
0.0
 40
5.35748090652157
100
AcDbArc
 50
17.2915464275
 51
85.3898792061
  0
LINE
  5
3C9
330
1F
100
AcDbEntity
  8
0
  6
Continuous
 62
     7
370
    25
100
AcDbLine
 10
7901.5392867135
 20
4806.2252921337
 30
0.0
 11
7898.4624480866
 21
4796.7928951376
 31
0.0
  0
LINE
  5
3CA
330
1F
100
AcDbEntity
  8
0
  6
Continuous
 62
     7
370
    25
100
AcDbLine
 10
7898.4624480866
 20
4774.1106722146
 30
0.0
 11
7901.5392867135
 21
4764.6782752184
 31
0.0
  0
ARC
  5
3CB
330
1F
100
AcDbEntity
  8
0
  6
Continuous
 62
     7
370
    25
100
AcDbCircle
 10
7896.4239389535
 20
4766.2707007136
 30
0.0
 40
5.357480906524509
100
AcDbArc
 50
274.6101207939
 51
342.7084535725
  0
LINE
  5
3CC
330
1F
100
AcDbEntity
  8
0
  6
Continuous
 62
     7
370
    25
100
AcDbLine
 10
7973.6765452858
 20
4804.5878048175
 30
0.0
 11
7973.6765452858
 21
4766.3157625347
 31
0.0
  0
ELLIPSE
  5
3CD
330
1F
100
AcDbEntity
  8
0
  6
Continuous
 62
     7
370
    25
100
AcDbEllipse
 10
7950.8265452858
 20
4803.0681619603
 30
0.0
 11
0.0
 21
12.19821428571413
 31
0.0
210
0.0
220
0.0
230
1.0
 40
0.8197921241
 41
4.712388980384701
 42
6.283185307179586
  0
LINE
  5
3CE
330
1F
100
AcDbEntity
  8
0
  6
Continuous
 62
     7
370
    25
100
AcDbLine
 10
7950.8265452858
 20
4819.0140985805
 30
0.0
 11
7950.8265452858
 21
4815.2663762461
 31
0.0
  0
ELLIPSE
  5
3CF
330
1F
100
AcDbEntity
  8
0
  6
Continuous
 62
     7
370
    25
100
AcDbEllipse
 10
7950.8265452858
 20
4767.8354053918
 30
0.0
 11
0.0
 21
12.19821428571413
 31
0.0
210
0.0
220
0.0
230
1.0
 40
0.8197921241
 41
3.141592653589793
 42
4.712388980384701
  0
LINE
  5
3D0
330
1F
100
AcDbEntity
  8
0
  6
Continuous
 62
     7
370
    25
100
AcDbLine
 10
7950.8265452858
 20
4755.6371911061
 30
0.0
 11
7950.8265452858
 21
4751.8894687716
 31
0.0
  0
LINE
  5
3D1
330
1F
100
AcDbEntity
  8
0
  6
Continuous
 62
     7
370
    25
100
AcDbLine
 10
8013.8265452858
 20
4808.3355271519
 30
0.0
 11
8013.8265452858
 21
4804.5878048175
 31
0.0
  0
ELLIPSE
  5
3D2
330
1F
100
AcDbEntity
  8
0
  6
Continuous
 62
     7
370
    25
100
AcDbEllipse
 10
8013.8265452858
 20
4778.5112998689
 30
0.0
 11
0.0
 21
26.07650494854806
 31
0.0
210
0.0
220
0.0
230
1.0
 40
0.7727262545
 41
6.097253879991444
 42
6.283185307179586
  0
ELLIPSE
  5
3D3
330
1F
100
AcDbEntity
  8
0
  6
Continuous
 62
     7
370
    25
100
AcDbEllipse
 10
8013.8265452858
 20
4778.5112998689
 30
0.0
 11
0.0
 21
29.82422728299571
 31
0.0
210
0.0
220
0.0
230
1.0
 40
0.8382446849
 41
5.974825829391563
 42
6.283185307179586
  0
SPLINE
  5
3D4
330
1F
100
AcDbEntity
  8
0
  6
Continuous
 62
     7
370
    25
100
AcDbSpline
210
0.0
220
0.0
230
1.0
 70
     8
 71
     3
 72
    11
 73
     7
 74
     0
 42
0.00000001
 43
0.00000001
 40
0.0
 40
0.0
 40
0.0
 40
0.0
 40
0.0026844614327522
 40
0.228038617945841
 40
0.5815325421171709
 40
1.0
 40
1.0
 40
1.0
 40
1.0
 10
8017.551514326915
 20
4804.138362994173
 30
0.0
 10
8017.555218167234
 20
4804.141272831904
 30
0.0
 10
8017.86985059851
 20
4804.388456630748
 30
0.0
 10
8018.676876696805
 20
4805.007585643747
 30
0.0
 10
8020.078120287005
 20
4806.024433793571
 30
0.0
 10
8020.944365619344
 20
4806.610891295271
 30
0.0
 10
8021.413942842447
 20
4806.928800177241
 30
0.0
  0
ELLIPSE
  5
3D5
330
1F
100
AcDbEntity
  8
0
  6
Continuous
 62
     7
370
    25
100
AcDbEllipse
 10
8013.8265452858
 20
4792.3922674832
 30
0.0
 11
0.0
 21
26.07650494854897
 31
0.0
210
0.0
220
0.0
230
1.0
 40
0.7727262545
 41
3.141592653589793
 42
3.327524080777989
  0
LINE
  5
3D6
330
1F
100
AcDbEntity
  8
0
  6
Continuous
 62
     7
370
    25
100
AcDbLine
 10
8021.4139428424
 20
4806.9288001772
 30
0.0
 11
8022.1189625981
 21
4807.6927143989
 31
0.0
  0
SPLINE
  5
3D7
330
1F
100
AcDbEntity
  8
0
  6
Continuous
 62
     7
370
    25
100
AcDbSpline
210
0.0
220
0.0
230
1.0
 70
     8
 71
     3
 72
    11
 73
     7
 74
     0
 42
0.00000001
 43
0.00000001
 40
0.0
 40
0.0
 40
0.0
 40
0.0
 40
0.0026827818619616
 40
0.2818347853737596
 40
0.6399773422072036
 40
1.0
 40
1.0
 40
1.0
 40
1.0
 10
8017.551514326915
 20
4766.765204357967
 30
0.0
 10
8017.555218148897
 20
4766.76229453334
 30
0.0
 10
8017.944316453386
 20
4766.456608181829
 30
0.0
 10
8018.83559603529
 20
4765.776773224884
 30
0.0
 10
8020.223412909484
 20
4764.779563826377
 30
0.0
 10
8021.01640753194
 20
4764.243500516146
 30
0.0
 10
8021.413942842447
 20
4763.974767174898
 30
0.0
  0
LINE
  5
3D8
330
1F
100
AcDbEntity
  8
0
  6
Continuous
 62
     7
370
    25
100
AcDbLine
 10
8022.1189625981
 20
4763.2108529532
 30
0.0
 11
8021.4139428424
 21
4763.9747671749
 31
0.0
  0
ELLIPSE
  5
3D9
330
1F
100
AcDbEntity
  8
0
  6
Continuous
 62
     7
370
    25
100
AcDbEllipse
 10
8013.8265452858
 20
4792.3922674832
 30
0.0
 11
0.0
 21
29.82422728299571
 31
0.0
210
0.0
220
0.0
230
1.0
 40
0.8382446849
 41
3.141592653589793
 42
3.449952131377857
  0
LINE
  5
3DA
330
1F
100
AcDbEntity
  8
0
  6
Continuous
 62
     7
370
    25
100
AcDbLine
 10
8013.8265452858
 20
4766.3157625347
 30
0.0
 11
8013.8265452858
 21
4762.5680402002
 31
0.0
  0
LWPOLYLINE
  5
3DB
330
1F
100
AcDbEntity
  8
0
  6
Continuous
 62
     7
370
    25
100
AcDbPolyline
 90
       14
 70
   128
 43
0.0
 10
8038.8265452858
 20
4822.9517836761
 10
8038.6442671383
 20
4825.2803301127
 10
8038.1000907215
 20
4827.5749210989
 10
8037.2019513529
 20
4829.8020963311
 10
8035.9629459271
 20
4831.9293785792
 10
8034.4011419331
 20
4833.9257472778
 10
8032.5393139901
 20
4835.7620908759
 10
8030.4046117418
 20
4837.4116313487
 10
8028.0281639541
 20
4838.8503146817
 10
8025.4446245869
 20
4840.0571616323
 10
8022.6916674619
 20
4841.0145736543
 10
8019.809436893
 20
4841.7085895246
 10
8016.8399622922
 20
4842.129088929
 10
8013.8265452858
 20
4842.2699400392
  0
LINE
  5
3DC
330
1F
100
AcDbEntity
  8
0
  6
Continuous
 62
     7
370
    25
100
AcDbLine
 10
8038.8265452858
 20
4822.9517836761
 30
0.0
 11
8038.8265452858
 21
4819.1558679383
 31
0.0
  0
ELLIPSE
  5
3DD
330
1F
100
AcDbEntity
  8
0
  6
Continuous
 62
     7
370
    25
100
AcDbEllipse
 10
8013.8265452858
 20
4819.1558679383
 30
0.0
 11
25.0
 21
0.0
 31
0.0
210
0.0
220
0.0
230
1.0
 40
0.4726907809
 41
0.0
 42
0.3430239404207494
  0
ELLIPSE
  5
3DE
330
1F
100
AcDbEntity
  8
0
  6
Continuous
 62
     7
370
    25
100
AcDbEllipse
 10
8013.8265452858
 20
4758.0987998689
 30
0.0
 11
22.44934772756005
 21
65.87038824617684
 31
0.0
210
0.0
220
0.0
230
1.0
 40
0.1670130965
 41
6.170556341471072
 42
7.060227206640437
  0
ELLIPSE
  5
3DF
330
1F
100
AcDbEntity
  8
0
  6
Continuous
 62
     7
370
    25
100
AcDbEllipse
 10
8013.8265452858
 20
4812.8047674832
 30
0.0
 11
-22.44934772756005
 21
65.87038824617684
 31
0.0
210
0.0
220
0.0
230
1.0
 40
0.1670130965
 41
2.364550754128923
 42
3.25422161929847
  0
ELLIPSE
  5
3E0
330
1F
100
AcDbEntity
  8
0
  6
Continuous
 62
     7
370
    25
100
AcDbEllipse
 10
8013.8265452858
 20
4751.7476994139
 30
0.0
 11
25.0
 21
0.0
 31
0.0
210
0.0
220
0.0
230
1.0
 40
0.4726907809
 41
5.940161366758863
 42
6.283185307179586
  0
LINE
  5
3E1
330
1F
100
AcDbEntity
  8
0
  6
Continuous
 62
     7
370
    25
100
AcDbLine
 10
8038.8265452858
 20
4751.7476994139
 30
0.0
 11
8038.8265452858
 21
4747.9517836761
 31
0.0
  0
LWPOLYLINE
  5
3E2
330
1F
100
AcDbEntity
  8
0
  6
Continuous
 62
     7
370
    25
100
AcDbPolyline
 90
       14
 70
   128
 43
0.0
 10
8038.8265452858
 20
4747.9517836761
 10
8038.6442671383
 20
4745.6232372394
 10
8038.1000907215
 20
4743.3286462532
 10
8037.2019513529
 20
4741.1014710211
 10
8035.9629459271
 20
4738.974188773
 10
8034.4011419331
 20
4736.9778200743
 10
8032.5393139901
 20
4735.1414764762
 10
8030.4046117418
 20
4733.4919360034
 10
8028.0281639541
 20
4732.0532526704
 10
8025.4446245869
 20
4730.8464057198
 10
8022.6916674619
 20
4729.8889936978
 10
8019.809436893
 20
4729.1949778275
 10
8016.8399622922
 20
4728.7744784232
 10
8013.8265452858
 20
4728.6336273129
  0
LINE
  5
3E3
330
1F
100
AcDbEntity
  8
0
  6
Continuous
 62
     7
370
    25
100
AcDbLine
 10
8037.3700930757
 20
4747.7731215607
 30
0.0
 11
8037.3700930757
 21
4823.1304457915
 31
0.0
  0
LINE
  5
3E4
330
1F
100
AcDbEntity
  8
0
  6
Continuous
 62
     7
370
    25
100
AcDbLine
 10
7911.1985449764
 20
4819.0140985805
 30
0.0
 11
7911.1985449764
 21
4815.2663762461
 31
0.0
  0
ELLIPSE
  5
3E5
330
1F
100
AcDbEntity
  8
0
  6
Continuous
 62
     7
370
    25
100
AcDbEllipse
 10
7911.1985449764
 20
4803.0681619603
 30
0.0
 11
0.0
 21
12.19821428571413
 31
0.0
210
0.0
220
0.0
230
1.0
 40
0.8197921241
 41
0.0
 42
1.30899693899573
  0
ELLIPSE
  5
3E6
330
1F
100
AcDbEntity
  8
0
  6
Continuous
 62
     7
370
    25
100
AcDbEllipse
 10
7911.1985449764
 20
4767.8354053918
 30
0.0
 11
0.0
 21
12.19821428571413
 31
0.0
210
0.0
220
0.0
230
1.0
 40
0.8197921241
 41
1.832595714594063
 42
3.141592653589793
  0
LINE
  5
3E7
330
1F
100
AcDbEntity
  8
0
  6
Continuous
 62
     7
370
    25
100
AcDbLine
 10
7911.1985449764
 20
4755.6371911061
 30
0.0
 11
7911.1985449764
 21
4751.8894687716
 31
0.0
  0
LINE
  5
3E8
330
1F
100
AcDbEntity
  8
0
  6
Continuous
 62
     7
370
    25
100
AcDbLine
 10
7950.8265452858
 20
4815.2663762461
 30
0.0
 11
7911.1985449764
 21
4815.2663762461
 31
0.0
  0
LINE
  5
3E9
330
1F
100
AcDbEntity
  8
0
  6
Continuous
 62
     7
370
    25
100
AcDbLine
 10
7911.1985449764
 20
4755.6371911061
 30
0.0
 11
7950.8265452858
 21
4755.6371911061
 31
0.0
  0
LINE
  5
3EA
330
1F
100
AcDbEntity
  8
0
  6
Continuous
 62
     7
370
    25
100
AcDbLine
 10
7888.8265452858
 20
4847.9517836761
 30
0.0
 11
7888.8265452858
 21
4842.2699400392
 31
0.0
  0
ARC
  5
3EB
330
1F
100
AcDbEntity
  8
0
  6
Continuous
 62
     7
370
    25
100
AcDbCircle
 10
7888.8265452858
 20
4822.9517836761
 30
0.0
 40
25.00000000000091
100
AcDbArc
 50
90.0
 51
180.0
  0
LINE
  5
3EC
330
1F
100
AcDbEntity
  8
0
  6
Continuous
 62
     7
370
    25
100
AcDbLine
 10
7888.8265452858
 20
4847.9517836761
 30
0.0
 11
8013.8265452858
 21
4847.9517836761
 31
0.0
  0
LINE
  5
3ED
330
1F
100
AcDbEntity
  8
0
  6
Continuous
 62
     7
370
    25
100
AcDbLine
 10
8013.8265452858
 20
4847.9517836761
 30
0.0
 11
8013.8265452858
 21
4842.2699400392
 31
0.0
  0
ARC
  5
3EE
330
1F
100
AcDbEntity
  8
0
  6
Continuous
 62
     7
370
    25
100
AcDbCircle
 10
8013.8265452858
 20
4822.9517836761
 30
0.0
 40
25.0
100
AcDbArc
 50
0.0
 51
90.0
  0
LINE
  5
3EF
330
1F
100
AcDbEntity
  8
0
  6
Continuous
 62
     7
370
    25
100
AcDbLine
 10
7888.8265452858
 20
4728.6336273129
 30
0.0
 11
7888.8265452858
 21
4722.9517836761
 31
0.0
  0
ARC
  5
3F0
330
1F
100
AcDbEntity
  8
0
  6
Continuous
 62
     7
370
    25
100
AcDbCircle
 10
7888.8265452858
 20
4747.9517836761
 30
0.0
 40
25.00000000000091
100
AcDbArc
 50
180.0
 51
270.0
  0
ARC
  5
3F1
330
1F
100
AcDbEntity
  8
0
  6
Continuous
 62
     7
370
    25
100
AcDbCircle
 10
8013.8265452858
 20
4747.9517836761
 30
0.0
 40
25.0
100
AcDbArc
 50
270.0
 51
0.0
  0
LINE
  5
3F2
330
1F
100
AcDbEntity
  8
0
  6
Continuous
 62
     7
370
    25
100
AcDbLine
 10
8013.8265452858
 20
4728.6336273129
 30
0.0
 11
8013.8265452858
 21
4722.9517836761
 31
0.0
  0
LINE
  5
3F3
330
1F
100
AcDbEntity
  8
0
  6
Continuous
 62
     7
370
    25
100
AcDbLine
 10
8013.8265452858
 20
4722.9517836761
 30
0.0
 11
7888.8265452858
 21
4722.9517836761
 31
0.0
  0
LINE
  5
3F4
330
1F
100
AcDbEntity
  8
0
  6
Continuous
 62
     7
370
    25
100
AcDbLine
 10
7863.8265452858
 20
4751.7476994139
 30
0.0
 11
7863.8265452858
 21
4819.1558679383
 31
0.0
  0
LINE
  5
3F5
330
1F
100
AcDbEntity
  8
0
  6
Continuous
 62
     7
370
    25
100
AcDbLine
 10
8038.8265452858
 20
4819.1558679383
 30
0.0
 11
8038.8265452858
 21
4751.7476994139
 31
0.0
  0
CIRCLE
  5
3F6
330
1F
100
AcDbEntity
  8
0
  6
Continuous
 62
     7
370
    25
100
AcDbCircle
 10
7977.8265452858
 20
4683.4517836761
 30
0.0
 40
2.25
  0
LINE
  5
3F7
330
1F
100
AcDbEntity
  8
0
  6
Continuous
 62
     7
370
    25
100
AcDbLine
 10
7980.0743219651
 20
4683.5517836761
 30
0.0
 11
7975.5787686065
 21
4683.5517836761
 31
0.0
  0
LINE
  5
3F8
330
1F
100
AcDbEntity
  8
0
  6
Continuous
 62
     7
370
    25
100
AcDbLine
 10
7980.0743219651
 20
4683.3517836761
 30
0.0
 11
7975.5787686065
 21
4683.3517836761
 31
0.0
  0
CIRCLE
  5
3F9
330
1F
100
AcDbEntity
  8
0
  6
Continuous
 62
     7
370
    25
100
AcDbCircle
 10
7962.8265452858
 20
4693.4517836761
 30
0.0
 40
2.999999999999411
  0
CIRCLE
  5
3FA
330
1F
100
AcDbEntity
  8
0
  6
Continuous
 62
     7
370
    25
100
AcDbCircle
 10
7962.8265452858
 20
4693.4517836761
 30
0.0
 40
3.499999999999759
  0
LINE
  5
3FB
330
1F
100
AcDbEntity
  8
0
  6
Continuous
 62
     7
370
    25
100
AcDbLine
 10
7963.6552047841
 20
4694.6335860154
 30
0.0
 11
7962.2174041868
 21
4694.7603250223
 31
0.0
  0
LINE
  5
3FC
330
1F
100
AcDbEntity
  8
0
  6
Continuous
 62
     7
370
    25
100
AcDbLine
 10
7962.2174041868
 20
4694.7603250223
 30
0.0
 11
7961.3887446886
 21
4693.578522683
 31
0.0
  0
LINE
  5
3FD
330
1F
100
AcDbEntity
  8
0
  6
Continuous
 62
     7
370
    25
100
AcDbLine
 10
7961.3887446886
 20
4693.578522683
 30
0.0
 11
7961.9978857875
 21
4692.2699813367
 31
0.0
  0
LINE
  5
3FE
330
1F
100
AcDbEntity
  8
0
  6
Continuous
 62
     7
370
    25
100
AcDbLine
 10
7961.9978857875
 20
4692.2699813367
 30
0.0
 11
7963.4356863848
 21
4692.1432423298
 31
0.0
  0
LINE
  5
3FF
330
1F
100
AcDbEntity
  8
0
  6
Continuous
 62
     7
370
    25
100
AcDbLine
 10
7963.4356863848
 20
4692.1432423298
 30
0.0
 11
7964.2643458831
 21
4693.3250446692
 31
0.0
  0
LINE
  5
400
330
1F
100
AcDbEntity
  8
0
  6
Continuous
 62
     7
370
    25
100
AcDbLine
 10
7964.2643458831
 20
4693.3250446692
 30
0.0
 11
7963.6552047841
 21
4694.6335860154
 31
0.0
  0
LINE
  5
401
330
1F
100
AcDbEntity
  8
0
  6
Continuous
 62
     7
370
    25
100
AcDbLine
 10
7967.8265452858
 20
4671.4517836761
 30
0.0
 11
7987.8265452858
 21
4671.4517836761
 31
0.0
  0
CIRCLE
  5
402
330
1F
100
AcDbEntity
  8
0
  6
Continuous
 62
     7
370
    25
100
AcDbCircle
 10
7977.8265452858
 20
4683.4517836761
 30
0.0
 40
9.25
  0
CIRCLE
  5
403
330
1F
100
AcDbEntity
  8
0
  6
Continuous
 62
     7
370
    25
100
AcDbCircle
 10
7977.8265452858
 20
4683.4517836761
 30
0.0
 40
7.75
  0
LINE
  5
404
330
1F
100
AcDbEntity
  8
0
  6
Continuous
 62
     7
370
    25
100
AcDbLine
 10
8125.3265452858
 20
4847.8052311401
 30
0.0
 11
8124.6265452858
 21
4847.8052311401
 31
0.0
  0
LINE
  5
405
330
1F
100
AcDbEntity
  8
0
  6
Continuous
 62
     7
370
    25
100
AcDbLine
 10
8125.3265452858
 20
4849.9517836761
 30
0.0
 11
8124.6265452858
 21
4849.9517836761
 31
0.0
  0
LINE
  5
406
330
1F
100
AcDbEntity
  8
0
  6
Continuous
 62
     7
370
    25
100
AcDbLine
 10
8125.3265452858
 20
4824.9517836761
 30
0.0
 11
8126.8265452858
 21
4824.9517836761
 31
0.0
  0
LINE
  5
407
330
1F
100
AcDbEntity
  8
0
  6
Continuous
 62
     7
370
    25
100
AcDbLine
 10
8125.3265452858
 20
4827.7133691539
 30
0.0
 11
8125.3265452858
 21
4824.9517836761
 31
0.0
  0
LINE
  5
408
330
1F
100
AcDbEntity
  8
0
  6
Continuous
 62
     7
370
    25
100
AcDbLine
 10
8124.6265452858
 20
4827.7133691539
 30
0.0
 11
8125.3265452858
 21
4827.7133691539
 31
0.0
  0
LINE
  5
409
330
1F
100
AcDbEntity
  8
0
  6
Continuous
 62
     7
370
    25
100
AcDbLine
 10
8125.3265452858
 20
4833.9094189258
 30
0.0
 11
8124.6265452858
 21
4833.9094189258
 31
0.0
  0
LINE
  5
40A
330
1F
100
AcDbEntity
  8
0
  6
Continuous
 62
     7
370
    25
100
AcDbLine
 10
8125.3265452858
 20
4838.8175569396
 30
0.0
 11
8125.3265452858
 21
4833.9094189258
 31
0.0
  0
LINE
  5
40B
330
1F
100
AcDbEntity
  8
0
  6
Continuous
 62
     7
370
    25
100
AcDbLine
 10
8124.6265452858
 20
4838.8175569396
 30
0.0
 11
8125.3265452858
 21
4838.8175569396
 31
0.0
  0
LINE
  5
40C
330
1F
100
AcDbEntity
  8
0
  6
Continuous
 62
     7
370
    25
100
AcDbLine
 10
8125.3265452858
 20
4849.9517836761
 30
0.0
 11
8126.8265452858
 21
4849.9517836761
 31
0.0
  0
LINE
  5
40D
330
1F
100
AcDbEntity
  8
0
  6
Continuous
 62
     7
370
    25
100
AcDbLine
 10
8125.3265452858
 20
4849.9517836761
 30
0.0
 11
8125.3265452858
 21
4847.8052311401
 31
0.0
  0
LINE
  5
40E
330
1F
100
AcDbEntity
  8
0
  6
Continuous
 62
     7
370
    25
100
AcDbLine
 10
8125.3265452858
 20
4824.9517836761
 30
0.0
 11
8124.6265452858
 21
4824.9517836761
 31
0.0
  0
LINE
  5
40F
330
1F
100
AcDbEntity
  8
0
  6
Continuous
 62
     7
370
    25
100
AcDbLine
 10
8125.3265452858
 20
4767.9517836761
 30
0.0
 11
8126.8265452858
 21
4767.9517836761
 31
0.0
  0
LINE
  5
410
330
1F
100
AcDbEntity
  8
0
  6
Continuous
 62
     7
370
    25
100
AcDbLine
 10
8125.3265452858
 20
4770.7133691539
 30
0.0
 11
8125.3265452858
 21
4767.9517836761
 31
0.0
  0
LINE
  5
411
330
1F
100
AcDbEntity
  8
0
  6
Continuous
 62
     7
370
    25
100
AcDbLine
 10
8124.6265452858
 20
4770.7133691539
 30
0.0
 11
8125.3265452858
 21
4770.7133691539
 31
0.0
  0
LINE
  5
412
330
1F
100
AcDbEntity
  8
0
  6
Continuous
 62
     7
370
    25
100
AcDbLine
 10
8125.3265452858
 20
4776.9094189258
 30
0.0
 11
8124.6265452858
 21
4776.9094189258
 31
0.0
  0
LINE
  5
413
330
1F
100
AcDbEntity
  8
0
  6
Continuous
 62
     7
370
    25
100
AcDbLine
 10
8125.3265452858
 20
4781.8175569396
 30
0.0
 11
8125.3265452858
 21
4776.9094189258
 31
0.0
  0
LINE
  5
414
330
1F
100
AcDbEntity
  8
0
  6
Continuous
 62
     7
370
    25
100
AcDbLine
 10
8124.6265452858
 20
4781.8175569396
 30
0.0
 11
8125.3265452858
 21
4781.8175569396
 31
0.0
  0
LINE
  5
415
330
1F
100
AcDbEntity
  8
0
  6
Continuous
 62
     7
370
    25
100
AcDbLine
 10
8125.3265452858
 20
4790.8052311401
 30
0.0
 11
8124.6265452858
 21
4790.8052311401
 31
0.0
  0
LINE
  5
416
330
1F
100
AcDbEntity
  8
0
  6
Continuous
 62
     7
370
    25
100
AcDbLine
 10
8125.3265452858
 20
4792.9517836761
 30
0.0
 11
8125.3265452858
 21
4790.8052311401
 31
0.0
  0
LINE
  5
417
330
1F
100
AcDbEntity
  8
0
  6
Continuous
 62
     7
370
    25
100
AcDbLine
 10
8125.3265452858
 20
4792.9517836761
 30
0.0
 11
8126.8265452858
 21
4792.9517836761
 31
0.0
  0
LINE
  5
418
330
1F
100
AcDbEntity
  8
0
  6
Continuous
 62
     7
370
    25
100
AcDbLine
 10
8125.3265452858
 20
4792.9517836761
 30
0.0
 11
8124.6265452858
 21
4792.9517836761
 31
0.0
  0
LINE
  5
419
330
1F
100
AcDbEntity
  8
0
  6
Continuous
 62
     7
370
    25
100
AcDbLine
 10
8125.3265452858
 20
4767.9517836761
 30
0.0
 11
8124.6265452858
 21
4767.9517836761
 31
0.0
  0
LINE
  5
41A
330
1F
100
AcDbEntity
  8
0
  6
Continuous
 62
     7
370
    25
100
AcDbLine
 10
8066.7265452858
 20
4792.7539849339
 30
0.0
 11
8066.7265452858
 21
4786.7817738396
 31
0.0
  0
LINE
  5
41B
330
1F
100
AcDbEntity
  8
0
  6
Continuous
 62
     7
370
    25
100
AcDbLine
 10
8066.7265452858
 20
4843.1217935125
 30
0.0
 11
8066.7265452858
 21
4837.1495824182
 31
0.0
  0
ARC
  5
41C
330
1F
100
AcDbEntity
  8
0
  6
Continuous
 62
     7
370
    25
100
AcDbCircle
 10
8048.3081796898
 20
4838.5267165619
 30
0.0
 40
5.06425607008606
100
AcDbArc
 50
169.0003887848
 51
175.1952497107
  0
LWPOLYLINE
  5
41D
330
1F
100
AcDbEntity
  8
0
  6
Continuous
 62
     7
370
    25
100
AcDbPolyline
 90
        3
 70
   128
 43
0.0
 10
8043.2617198296
 20
4838.9509009822
 10
8043.2844066027
 20
4838.8122557407
 10
8043.2864991915
 20
4838.8017836761
  0
ARC
  5
41E
330
1F
100
AcDbEntity
  8
0
  6
Continuous
 62
     7
370
    25
100
AcDbCircle
 10
8048.41607427
 20
4838.5525061361
 30
0.0
 40
5.173264865757638
100
AcDbArc
 50
184.9004764201
 51
204.2234485089
  0
ARC
  5
41F
330
1F
100
AcDbEntity
  8
0
  6
Continuous
 62
     7
370
    25
100
AcDbCircle
 10
8045.6478976221
 20
4836.7009784948
 30
0.0
 40
1.968344882185223
100
AcDbArc
 50
172.0851454826
 51
187.9148545174
  0
ARC
  5
420
330
1F
100
AcDbEntity
  8
0
  6
Continuous
 62
     7
370
    25
100
AcDbCircle
 10
8048.41607427
 20
4839.0945935963
 30
0.0
 40
5.17326486574757
100
AcDbArc
 50
184.9004764201
 51
204.2234485089
  0
ARC
  5
421
330
1F
100
AcDbEntity
  8
0
  6
Continuous
 62
     7
370
    25
100
AcDbCircle
 10
8045.7006186154
 20
4838.3005430302
 30
0.0
 40
2.464187114253884
100
AcDbArc
 50
144.3474136847
 51
171.7845197172
  0
ARC
  5
422
330
1F
100
AcDbEntity
  8
0
  6
Continuous
 62
     7
370
    25
100
AcDbCircle
 10
8048.3941345659
 20
4840.1570023265
 30
0.0
 40
4.714590523717042
100
AcDbArc
 50
174.8870565455
 51
185.1129434545
  0
ARC
  5
423
330
1F
100
AcDbEntity
  8
0
  6
Continuous
 62
     7
370
    25
100
AcDbCircle
 10
8045.7006186154
 20
4839.1408651027
 30
0.0
 40
2.464187114255944
100
AcDbArc
 50
144.3474136847
 51
171.7845197171
  0
LINE
  5
424
330
1F
100
AcDbEntity
  8
0
  6
Continuous
 62
     7
370
    25
100
AcDbLine
 10
8043.2617198296
 20
4839.4929884424
 30
0.0
 11
8043.546218646
 21
4839.4929884424
 31
0.0
  0
LINE
  5
425
330
1F
100
AcDbEntity
  8
0
  6
Continuous
 62
     7
370
    25
100
AcDbLine
 10
8043.2617198296
 20
4838.1105789097
 30
0.0
 11
8043.3369617106
 21
4838.1105789097
 31
0.0
  0
LINE
  5
426
330
1F
100
AcDbEntity
  8
0
  6
Continuous
 62
     7
370
    25
100
AcDbLine
 10
8043.3221221341
 20
4838.9509009822
 30
0.0
 11
8043.2617198296
 21
4838.9509009822
 31
0.0
  0
ARC
  5
427
330
1F
100
AcDbEntity
  8
0
  6
Continuous
 62
     7
370
    25
100
AcDbCircle
 10
8048.3081796899
 20
4790.8267165619
 30
0.0
 40
5.064256070204221
100
AcDbArc
 50
169.0003887849
 51
175.1952497106
  0
LWPOLYLINE
  5
428
330
1F
100
AcDbEntity
  8
0
  6
Continuous
 62
     7
370
    25
100
AcDbPolyline
 90
        3
 70
   128
 43
0.0
 10
8043.2617198296
 20
4791.2509009822
 10
8043.2844066027
 20
4791.1122557407
 10
8043.2864991915
 20
4791.1017836761
  0
ARC
  5
429
330
1F
100
AcDbEntity
  8
0
  6
Continuous
 62
     7
370
    25
100
AcDbCircle
 10
8048.41607427
 20
4790.8525061361
 30
0.0
 40
5.173264865738142
100
AcDbArc
 50
184.9004764201
 51
204.223448509
  0
ARC
  5
42A
330
1F
100
AcDbEntity
  8
0
  6
Continuous
 62
     7
370
    25
100
AcDbCircle
 10
8045.6478976221
 20
4789.0009784948
 30
0.0
 40
1.968344882181494
100
AcDbArc
 50
172.0851454826
 51
187.9148545174
  0
ARC
  5
42B
330
1F
100
AcDbEntity
  8
0
  6
Continuous
 62
     7
370
    25
100
AcDbCircle
 10
8048.41607427
 20
4791.3945935963
 30
0.0
 40
5.173264865752464
100
AcDbArc
 50
184.9004764201
 51
204.2234485089
  0
ARC
  5
42C
330
1F
100
AcDbEntity
  8
0
  6
Continuous
 62
     7
370
    25
100
AcDbCircle
 10
8045.7006186154
 20
4790.6005430302
 30
0.0
 40
2.464187114263405
100
AcDbArc
 50
144.3474136847
 51
171.7845197171
  0
ARC
  5
42D
330
1F
100
AcDbEntity
  8
0
  6
Continuous
 62
     7
370
    25
100
AcDbCircle
 10
8048.3941345659
 20
4792.4570023265
 30
0.0
 40
4.714590523715311
100
AcDbArc
 50
174.8870565455
 51
185.1129434546
  0
ARC
  5
42E
330
1F
100
AcDbEntity
  8
0
  6
Continuous
 62
     7
370
    25
100
AcDbCircle
 10
8045.7006186154
 20
4791.4408651027
 30
0.0
 40
2.464187114259935
100
AcDbArc
 50
144.3474136847
 51
171.7845197171
  0
LINE
  5
42F
330
1F
100
AcDbEntity
  8
0
  6
Continuous
 62
     7
370
    25
100
AcDbLine
 10
8043.2617198296
 20
4791.7929884424
 30
0.0
 11
8043.546218646
 21
4791.7929884424
 31
0.0
  0
LINE
  5
430
330
1F
100
AcDbEntity
  8
0
  6
Continuous
 62
     7
370
    25
100
AcDbLine
 10
8043.2617198296
 20
4790.4105789097
 30
0.0
 11
8043.3369617106
 21
4790.4105789097
 31
0.0
  0
LINE
  5
431
330
1F
100
AcDbEntity
  8
0
  6
Continuous
 62
     7
370
    25
100
AcDbLine
 10
8043.3221221341
 20
4791.2509009822
 30
0.0
 11
8043.2617198296
 21
4791.2509009822
 31
0.0
  0
LINE
  5
432
330
1F
100
AcDbEntity
  8
0
  6
Continuous
 62
     7
370
    25
100
AcDbLine
 10
8067.4265452858
 20
4790.6879471981
 30
0.0
 11
8067.4265452858
 21
4839.2156201541
 31
0.0
  0
LINE
  5
433
330
1F
100
AcDbEntity
  8
0
  6
Continuous
 62
     7
370
    25
100
AcDbLine
 10
8070.6265452858
 20
4839.2156201541
 30
0.0
 11
8067.4265452858
 21
4839.2156201541
 31
0.0
  0
LINE
  5
434
330
1F
100
AcDbEntity
  8
0
  6
Continuous
 62
     7
370
    25
100
AcDbLine
 10
8069.0090597811
 20
4790.6879471981
 30
0.0
 11
8067.4265452858
 21
4790.6879471981
 31
0.0
  0
LINE
  5
435
330
1F
100
AcDbEntity
  8
0
  6
Continuous
 62
     7
370
    25
100
AcDbLine
 10
8067.4265452858
 20
4839.2156201541
 30
0.0
 11
8067.4265452858
 21
4845.8017836761
 31
0.0
  0
LINE
  5
436
330
1F
100
AcDbEntity
  8
0
  6
Continuous
 62
     7
370
    25
100
AcDbLine
 10
8067.4265452858
 20
4785.6415059285
 30
0.0
 11
8067.4265452858
 21
4790.6879471981
 31
0.0
  0
LINE
  5
437
330
1F
100
AcDbEntity
  8
0
  6
Continuous
 62
     7
370
    25
100
AcDbLine
 10
8066.7265452858
 20
4837.1495824182
 30
0.0
 11
8066.7265452858
 21
4792.7539849339
 31
0.0
  0
LINE
  5
438
330
1F
100
AcDbEntity
  8
0
  6
Continuous
 62
     7
370
    25
100
AcDbLine
 10
8066.7265452858
 20
4792.7539849339
 30
0.0
 11
8048.2265452858
 21
4792.7539849339
 31
0.0
  0
LINE
  5
439
330
1F
100
AcDbEntity
  8
0
  6
Continuous
 62
     7
370
    25
100
AcDbLine
 10
8048.2265452858
 20
4837.1495824182
 30
0.0
 11
8048.2265452858
 21
4792.7539849339
 31
0.0
  0
LINE
  5
43A
330
1F
100
AcDbEntity
  8
0
  6
Continuous
 62
     7
370
    25
100
AcDbLine
 10
8066.7265452858
 20
4837.1495824182
 30
0.0
 11
8048.2265452858
 21
4837.1495824182
 31
0.0
  0
SPLINE
  5
43B
330
1F
100
AcDbEntity
  8
0
  6
Continuous
 62
     7
370
    25
100
AcDbSpline
210
0.0
220
0.0
230
1.0
 70
     8
 71
     3
 72
    13
 73
     9
 74
     0
 42
0.00000001
 43
0.00000001
 40
0.0
 40
0.0
 40
0.0
 40
0.0
 40
0.1900666749358619
 40
0.3802201545062158
 40
0.5678515339364716
 40
0.7532346919603644
 40
0.9506919043308366
 40
1.0
 40
1.0
 40
1.0
 40
1.0
 10
8048.226545285807
 20
4792.753984933931
 30
0.0
 10
8048.008542910816
 20
4792.773690771254
 30
0.0
 10
8047.572438597794
 20
4792.813111445678
 30
0.0
 10
8046.993902653986
 20
4793.115031635115
 30
0.0
 10
8046.559166676811
 20
4793.535575000408
 30
0.0
 10
8046.299787920296
 20
4794.015782115045
 30
0.0
 10
8046.230784670927
 20
4794.357079364314
 30
0.0
 10
8046.22725131345
 20
4794.527133064025
 30
0.0
 10
8046.226545285806
 20
4794.561112816531
 30
0.0
  0
LINE
  5
43C
330
1F
100
AcDbEntity
  8
0
  6
Continuous
 62
     7
370
    25
100
AcDbLine
 10
8046.2265452858
 20
4794.5611128165
 30
0.0
 11
8046.2265452858
 21
4835.3424545356
 31
0.0
  0
SPLINE
  5
43D
330
1F
100
AcDbEntity
  8
0
  6
Continuous
 62
     7
370
    25
100
AcDbSpline
210
0.0
220
0.0
230
1.0
 70
     8
 71
     3
 72
    12
 73
     8
 74
     0
 42
0.00000001
 43
0.00000001
 40
0.0
 40
0.0
 40
0.0
 40
0.0
 40
0.2404492875713252
 40
0.4368960623415772
 40
0.6338730180294455
 40
0.8195287951235952
 40
1.0
 40
1.0
 40
1.0
 40
1.0
 10
8046.226545285806
 20
4835.342454535608
 30
0.0
 10
8046.242080148081
 20
4835.518984325478
 30
0.0
 10
8046.270306973892
 20
4835.83973873843
 30
0.0
 10
8046.565722615609
 20
4836.381478572844
 30
0.0
 10
8047.020309945784
 20
4836.80810652122
 30
0.0
 10
8047.600342514592
 20
4837.095894406182
 30
0.0
 10
8048.019790906927
 20
4837.131856160692
 30
0.0
 10
8048.226545285807
 20
4837.149582418208
 30
0.0
  0
LINE
  5
43E
330
1F
100
AcDbEntity
  8
0
  6
Continuous
 62
     7
370
    25
100
AcDbLine
 10
8043.2265452858
 20
4814.9517836761
 30
0.0
 11
8043.2265452858
 21
4820.9517836761
 31
0.0
  0
LINE
  5
43F
330
1F
100
AcDbEntity
  8
0
  6
Continuous
 62
     7
370
    25
100
AcDbLine
 10
8043.2265452858
 20
4808.9517836761
 30
0.0
 11
8043.2265452858
 21
4814.9517836761
 31
0.0
  0
LINE
  5
440
330
1F
100
AcDbEntity
  8
0
  6
Continuous
 62
     7
370
    25
100
AcDbLine
 10
8046.2265452858
 20
4843.1017836761
 30
0.0
 11
8046.2265452858
 21
4835.3424545356
 31
0.0
  0
LINE
  5
441
330
1F
100
AcDbEntity
  8
0
  6
Continuous
 62
     7
370
    25
100
AcDbLine
 10
8046.2265452858
 20
4794.5611128165
 30
0.0
 11
8046.2265452858
 21
4786.8017836761
 31
0.0
  0
LINE
  5
442
330
1F
100
AcDbEntity
  8
0
  6
Continuous
 62
     7
370
    25
100
AcDbLine
 10
8070.4265452858
 20
4783.9517836761
 30
0.0
 11
8070.4265452858
 21
4792.8517836761
 31
0.0
  0
LINE
  5
443
330
1F
100
AcDbEntity
  8
0
  6
Continuous
 62
     7
370
    25
100
AcDbLine
 10
8070.4265452858
 20
4775.0517836761
 30
0.0
 11
8070.4265452858
 21
4783.9517836761
 31
0.0
  0
LINE
  5
444
330
1F
100
AcDbEntity
  8
0
  6
Continuous
 62
     7
370
    25
100
AcDbLine
 10
8068.6435573856
 20
4783.9517836761
 30
0.0
 11
8068.6435573856
 21
4789.9517836761
 31
0.0
  0
LINE
  5
445
330
1F
100
AcDbEntity
  8
0
  6
Continuous
 62
     7
370
    25
100
AcDbLine
 10
8068.6435573856
 20
4777.9517836761
 30
0.0
 11
8068.6435573856
 21
4783.9517836761
 31
0.0
  0
LINE
  5
446
330
1F
100
AcDbEntity
  8
0
  6
Continuous
 62
     7
370
    25
100
AcDbLine
 10
8068.553163576
 20
4783.9517836761
 30
0.0
 11
8068.553163576
 21
4789.7517836761
 31
0.0
  0
LINE
  5
447
330
1F
100
AcDbEntity
  8
0
  6
Continuous
 62
     7
370
    25
100
AcDbLine
 10
8068.553163576
 20
4778.1517836761
 30
0.0
 11
8068.553163576
 21
4783.9517836761
 31
0.0
  0
LINE
  5
448
330
1F
100
AcDbEntity
  8
0
  6
Continuous
 62
     7
370
    25
100
AcDbLine
 10
8068.6435573856
 20
4789.9004117442
 30
0.0
 11
8068.6435573856
 21
4789.9517836761
 31
0.0
  0
LINE
  5
449
330
1F
100
AcDbEntity
  8
0
  6
Continuous
 62
     7
370
    25
100
AcDbLine
 10
8068.6435573856
 20
4777.9517836761
 30
0.0
 11
8068.6435573856
 21
4789.9004117442
 31
0.0
  0
LINE
  5
44A
330
1F
100
AcDbEntity
  8
0
  6
Continuous
 62
     7
370
    25
100
AcDbLine
 10
8070.4265452858
 20
4792.7755819772
 30
0.0
 11
8070.4265452858
 21
4792.8517836761
 31
0.0
  0
LINE
  5
44B
330
1F
100
AcDbEntity
  8
0
  6
Continuous
 62
     7
370
    25
100
AcDbLine
 10
8070.4265452858
 20
4775.0517836761
 30
0.0
 11
8070.4265452858
 21
4792.7755819772
 31
0.0
  0
LINE
  5
44C
330
1F
100
AcDbEntity
  8
0
  6
Continuous
 62
     7
370
    25
100
AcDbLine
 10
8068.553163576
 20
4789.702124142
 30
0.0
 11
8068.553163576
 21
4789.7517836761
 31
0.0
  0
LINE
  5
44D
330
1F
100
AcDbEntity
  8
0
  6
Continuous
 62
     7
370
    25
100
AcDbLine
 10
8068.553163576
 20
4778.1517836761
 30
0.0
 11
8068.553163576
 21
4789.702124142
 31
0.0
  0
LINE
  5
44E
330
1F
100
AcDbEntity
  8
0
  6
Continuous
 62
     7
370
    25
100
AcDbLine
 10
8082.6265452858
 20
4849.9517836761
 30
0.0
 11
8082.6265452858
 21
4843.9517836761
 31
0.0
  0
LINE
  5
44F
330
1F
100
AcDbEntity
  8
0
  6
Continuous
 62
     7
370
    25
100
AcDbLine
 10
8082.6265452858
 20
4843.9517836761
 30
0.0
 11
8072.833652067
 21
4843.9517836761
 31
0.0
  0
LINE
  5
450
330
1F
100
AcDbEntity
  8
0
  6
Continuous
 62
     7
370
    25
100
AcDbLine
 10
8072.833652067
 20
4849.9517836761
 30
0.0
 11
8072.833652067
 21
4843.9517836761
 31
0.0
  0
LINE
  5
451
330
1F
100
AcDbEntity
  8
0
  6
Continuous
 62
     7
370
    25
100
AcDbLine
 10
8072.833652067
 20
4849.9517836761
 30
0.0
 11
8082.6265452858
 21
4849.9517836761
 31
0.0
  0
LINE
  5
452
330
1F
100
AcDbEntity
  8
0
  6
Continuous
 62
     7
370
    25
100
AcDbLine
 10
8072.833652067
 20
4843.9517836761
 30
0.0
 11
8072.4800986764
 21
4843.9517836761
 31
0.0
  0
LINE
  5
453
330
1F
100
AcDbEntity
  8
0
  6
Continuous
 62
     7
370
    25
100
AcDbLine
 10
8072.4800986764
 20
4843.9517836761
 30
0.0
 11
8072.4800986764
 21
4849.8053370667
 31
0.0
  0
ARC
  5
454
330
1F
100
AcDbEntity
  8
0
  6
Continuous
 62
     7
370
    25
100
AcDbCircle
 10
8072.833652067
 20
4849.4517836761
 30
0.0
 40
0.5000000000009095
100
AcDbArc
 50
90.0
 51
135.0000000001
  0
LINE
  5
455
330
1F
100
AcDbEntity
  8
0
  6
Continuous
 62
     7
370
    25
100
AcDbLine
 10
8082.6265452858
 20
4843.9517836761
 30
0.0
 11
8082.6265452858
 21
4773.9517836761
 31
0.0
  0
LINE
  5
456
330
1F
100
AcDbEntity
  8
0
  6
Continuous
 62
     7
370
    25
100
AcDbLine
 10
8072.833652067
 20
4773.9517836761
 30
0.0
 11
8082.6265452858
 21
4773.9517836761
 31
0.0
  0
LINE
  5
457
330
1F
100
AcDbEntity
  8
0
  6
Continuous
 62
     7
370
    25
100
AcDbLine
 10
8072.833652067
 20
4843.9517836761
 30
0.0
 11
8072.833652067
 21
4773.9517836761
 31
0.0
  0
LINE
  5
458
330
1F
100
AcDbEntity
  8
0
  6
Continuous
 62
     7
370
    25
100
AcDbLine
 10
8072.833652067
 20
4773.9517836761
 30
0.0
 11
8072.4800986764
 21
4773.9517836761
 31
0.0
  0
LINE
  5
459
330
1F
100
AcDbEntity
  8
0
  6
Continuous
 62
     7
370
    25
100
AcDbLine
 10
8072.4800986764
 20
4773.9517836761
 30
0.0
 11
8072.4800986764
 21
4843.9517836761
 31
0.0
  0
LINE
  5
45A
330
1F
100
AcDbEntity
  8
0
  6
Continuous
 62
     7
370
    25
100
AcDbLine
 10
8072.833652067
 20
4773.9517836761
 30
0.0
 11
8072.833652067
 21
4767.9517836761
 31
0.0
  0
ARC
  5
45B
330
1F
100
AcDbEntity
  8
0
  6
Continuous
 62
     7
370
    25
100
AcDbCircle
 10
8072.833652067
 20
4768.4517836761
 30
0.0
 40
0.5000000000009095
100
AcDbArc
 50
224.9999999999
 51
270.0
  0
LINE
  5
45C
330
1F
100
AcDbEntity
  8
0
  6
Continuous
 62
     7
370
    25
100
AcDbLine
 10
8072.4800986764
 20
4768.0982302855
 30
0.0
 11
8072.4800986764
 21
4773.9517836761
 31
0.0
  0
LINE
  5
45D
330
1F
100
AcDbEntity
  8
0
  6
Continuous
 62
     7
370
    25
100
AcDbLine
 10
8082.6265452858
 20
4767.9517836761
 30
0.0
 11
8072.833652067
 21
4767.9517836761
 31
0.0
  0
LINE
  5
45E
330
1F
100
AcDbEntity
  8
0
  6
Continuous
 62
     7
370
    25
100
AcDbLine
 10
8082.6265452858
 20
4773.9517836761
 30
0.0
 11
8082.6265452858
 21
4767.9517836761
 31
0.0
  0
LINE
  5
45F
330
1F
100
AcDbEntity
  8
0
  6
Continuous
 62
     7
370
    25
100
AcDbLine
 10
8072.4800986764
 20
4843.9517836761
 30
0.0
 11
8070.7729918952
 21
4843.9517836761
 31
0.0
  0
LINE
  5
460
330
1F
100
AcDbEntity
  8
0
  6
Continuous
 62
     7
370
    25
100
AcDbLine
 10
8070.7729918952
 20
4848.0982302855
 30
0.0
 11
8070.7729918952
 21
4843.9517836761
 31
0.0
  0
LINE
  5
461
330
1F
100
AcDbEntity
  8
0
  6
Continuous
 62
     7
370
    25
100
AcDbLine
 10
8072.4800986764
 20
4849.8053370667
 30
0.0
 11
8070.7729918952
 21
4848.0982302855
 31
0.0
  0
LINE
  5
462
330
1F
100
AcDbEntity
  8
0
  6
Continuous
 62
     7
370
    25
100
AcDbLine
 10
8072.4800986764
 20
4773.9517836761
 30
0.0
 11
8070.7729918952
 21
4773.9517836761
 31
0.0
  0
LINE
  5
463
330
1F
100
AcDbEntity
  8
0
  6
Continuous
 62
     7
370
    25
100
AcDbLine
 10
8070.7729918952
 20
4843.9517836761
 30
0.0
 11
8070.7729918952
 21
4773.9517836761
 31
0.0
  0
LINE
  5
464
330
1F
100
AcDbEntity
  8
0
  6
Continuous
 62
     7
370
    25
100
AcDbLine
 10
8070.7729918952
 20
4769.8053370667
 30
0.0
 11
8072.4800986764
 21
4768.0982302855
 31
0.0
  0
LINE
  5
465
330
1F
100
AcDbEntity
  8
0
  6
Continuous
 62
     7
370
    25
100
AcDbLine
 10
8070.7729918952
 20
4773.9517836761
 30
0.0
 11
8070.7729918952
 21
4769.8053370667
 31
0.0
  0
LINE
  5
466
330
1F
100
AcDbEntity
  8
0
  6
Continuous
 62
     7
370
    25
100
AcDbLine
 10
8070.6265452858
 20
4843.9517836761
 30
0.0
 11
8070.6265452858
 21
4847.7446768949
 31
0.0
  0
ARC
  5
467
330
1F
100
AcDbEntity
  8
0
  6
Continuous
 62
     7
370
    25
100
AcDbCircle
 10
8071.1265452858
 20
4847.7446768949
 30
0.0
 40
0.4999999999994413
100
AcDbArc
 50
134.9999999999
 51
180.0
  0
LINE
  5
468
330
1F
100
AcDbEntity
  8
0
  6
Continuous
 62
     7
370
    25
100
AcDbLine
 10
8070.6265452858
 20
4843.9517836761
 30
0.0
 11
8070.7729918952
 21
4843.9517836761
 31
0.0
  0
LINE
  5
469
330
1F
100
AcDbEntity
  8
0
  6
Continuous
 62
     7
370
    25
100
AcDbLine
 10
8070.6265452858
 20
4773.9517836761
 30
0.0
 11
8070.6265452858
 21
4843.9517836761
 31
0.0
  0
LINE
  5
46A
330
1F
100
AcDbEntity
  8
0
  6
Continuous
 62
     7
370
    25
100
AcDbLine
 10
8070.6265452858
 20
4773.9517836761
 30
0.0
 11
8070.7729918952
 21
4773.9517836761
 31
0.0
  0
LINE
  5
46B
330
1F
100
AcDbEntity
  8
0
  6
Continuous
 62
     7
370
    25
100
AcDbLine
 10
8070.6265452858
 20
4770.1588904573
 30
0.0
 11
8070.6265452858
 21
4773.9517836761
 31
0.0
  0
ARC
  5
46C
330
1F
100
AcDbEntity
  8
0
  6
Continuous
 62
     7
370
    25
100
AcDbCircle
 10
8071.1265452858
 20
4770.1588904573
 30
0.0
 40
0.4999999999994413
100
AcDbArc
 50
180.0
 51
225.0000000001
  0
LINE
  5
46D
330
1F
100
AcDbEntity
  8
0
  6
Continuous
 62
     7
370
    25
100
AcDbLine
 10
8096.4265452858
 20
4785.6517836761
 30
0.0
 11
8096.4265452858
 21
4786.6517836761
 31
0.0
  0
LINE
  5
46E
330
1F
100
AcDbEntity
  8
0
  6
Continuous
 62
     7
370
    25
100
AcDbLine
 10
8096.4265452858
 20
4785.6517836761
 30
0.0
 11
8097.9265452858
 21
4785.6517836761
 31
0.0
  0
LINE
  5
46F
330
1F
100
AcDbEntity
  8
0
  6
Continuous
 62
     7
370
    25
100
AcDbLine
 10
8098.4265452858
 20
4783.6517836761
 30
0.0
 11
8098.4265452858
 21
4785.1517836761
 31
0.0
  0
LINE
  5
470
330
1F
100
AcDbEntity
  8
0
  6
Continuous
 62
     7
370
    25
100
AcDbLine
 10
8099.4265452858
 20
4783.6517836761
 30
0.0
 11
8098.4265452858
 21
4783.6517836761
 31
0.0
  0
LINE
  5
471
330
1F
100
AcDbEntity
  8
0
  6
Continuous
 62
     7
370
    25
100
AcDbLine
 10
8099.4265452858
 20
4783.6517836761
 30
0.0
 11
8099.4265452858
 21
4785.1517836761
 31
0.0
  0
LINE
  5
472
330
1F
100
AcDbEntity
  8
0
  6
Continuous
 62
     7
370
    25
100
AcDbLine
 10
8099.9265452858
 20
4785.6517836761
 30
0.0
 11
8101.4265452858
 21
4785.6517836761
 31
0.0
  0
LINE
  5
473
330
1F
100
AcDbEntity
  8
0
  6
Continuous
 62
     7
370
    25
100
AcDbLine
 10
8101.4265452858
 20
4785.6517836761
 30
0.0
 11
8101.4265452858
 21
4786.6517836761
 31
0.0
  0
LINE
  5
474
330
1F
100
AcDbEntity
  8
0
  6
Continuous
 62
     7
370
    25
100
AcDbLine
 10
8099.9265452858
 20
4786.6517836761
 30
0.0
 11
8101.4265452858
 21
4786.6517836761
 31
0.0
  0
LINE
  5
475
330
1F
100
AcDbEntity
  8
0
  6
Continuous
 62
     7
370
    25
100
AcDbLine
 10
8099.4265452858
 20
4787.1517836761
 30
0.0
 11
8099.4265452858
 21
4788.6517836761
 31
0.0
  0
LINE
  5
476
330
1F
100
AcDbEntity
  8
0
  6
Continuous
 62
     7
370
    25
100
AcDbLine
 10
8099.4265452858
 20
4788.6517836761
 30
0.0
 11
8098.4265452858
 21
4788.6517836761
 31
0.0
  0
LINE
  5
477
330
1F
100
AcDbEntity
  8
0
  6
Continuous
 62
     7
370
    25
100
AcDbLine
 10
8098.4265452858
 20
4787.1517836761
 30
0.0
 11
8098.4265452858
 21
4788.6517836761
 31
0.0
  0
SPLINE
  5
478
330
1F
100
AcDbEntity
  8
0
  6
Continuous
 62
     7
370
    25
100
AcDbSpline
210
0.0
220
0.0
230
1.0
 70
     8
 71
     3
 72
    12
 73
     8
 74
     0
 42
0.00000001
 43
0.00000001
 40
0.0
 40
0.0
 40
0.0
 40
0.0
 40
0.2135413414436541
 40
0.4271558781179524
 40
0.6391534182107038
 40
0.8504463930752532
 40
1.0
 40
1.0
 40
1.0
 40
1.0
 10
8097.926545285807
 20
4786.651783676069
 30
0.0
 10
8097.982285261265
 20
4786.657202423907
 30
0.0
 10
8098.093784318083
 20
4786.668041776959
 30
0.0
 10
8098.243094473645
 20
4786.753153817802
 30
0.0
 10
8098.355867224715
 20
4786.878353819884
 30
0.0
 10
8098.417380651214
 20
4787.01899351137
 30
0.0
 10
8098.423859933822
 20
4787.112874505317
 30
0.0
 10
8098.426545285807
 20
4787.151783676069
 30
0.0
  0
LINE
  5
479
330
1F
100
AcDbEntity
  8
0
  6
Continuous
 62
     7
370
    25
100
AcDbLine
 10
8096.4265452858
 20
4786.6517836761
 30
0.0
 11
8097.9265452858
 21
4786.6517836761
 31
0.0
  0
CIRCLE
  5
47A
330
1F
100
AcDbEntity
  8
0
  6
Continuous
 62
     7
370
    25
100
AcDbCircle
 10
8098.9265452858
 20
4786.1517836761
 30
0.0
 40
3.718749999999091
  0
SPLINE
  5
47B
330
1F
100
AcDbEntity
  8
0
  6
Continuous
 62
     7
370
    25
100
AcDbSpline
210
0.0
220
0.0
230
1.0
 70
     8
 71
     3
 72
    12
 73
     8
 74
     0
 42
0.00000001
 43
0.00000001
 40
0.0
 40
0.0
 40
0.0
 40
0.0
 40
0.2135413414436615
 40
0.4271558781179424
 40
0.6391534182107156
 40
0.8504463930752613
 40
1.0
 40
1.0
 40
1.0
 40
1.0
 10
8099.926545285807
 20
4785.651783676069
 30
0.0
 10
8099.870805310351
 20
4785.646364928231
 30
0.0
 10
8099.759306253533
 20
4785.635525575179
 30
0.0
 10
8099.609996097969
 20
4785.550413534337
 30
0.0
 10
8099.4972233469
 20
4785.425213532254
 30
0.0
 10
8099.435709920403
 20
4785.284573840768
 30
0.0
 10
8099.429230637792
 20
4785.190692846822
 30
0.0
 10
8099.426545285807
 20
4785.151783676069
 30
0.0
  0
SPLINE
  5
47C
330
1F
100
AcDbEntity
  8
0
  6
Continuous
 62
     7
370
    25
100
AcDbSpline
210
0.0
220
0.0
230
1.0
 70
     8
 71
     3
 72
    12
 73
     8
 74
     0
 42
0.00000001
 43
0.00000001
 40
0.0
 40
0.0
 40
0.0
 40
0.0
 40
0.213541341443669
 40
0.4271558781179493
 40
0.6391534182107101
 40
0.8504463930752569
 40
1.0
 40
1.0
 40
1.0
 40
1.0
 10
8098.426545285807
 20
4785.151783676069
 30
0.0
 10
8098.42112653797
 20
4785.207523651527
 30
0.0
 10
8098.410287184917
 20
4785.319022708344
 30
0.0
 10
8098.325175144074
 20
4785.468332863908
 30
0.0
 10
8098.199975141993
 20
4785.581105614977
 30
0.0
 10
8098.059335450505
 20
4785.642619041474
 30
0.0
 10
8097.96545445656
 20
4785.649098324085
 30
0.0
 10
8097.926545285807
 20
4785.651783676069
 30
0.0
  0
SPLINE
  5
47D
330
1F
100
AcDbEntity
  8
0
  6
Continuous
 62
     7
370
    25
100
AcDbSpline
210
0.0
220
0.0
230
1.0
 70
     8
 71
     3
 72
    12
 73
     8
 74
     0
 42
0.00000001
 43
0.00000001
 40
0.0
 40
0.0
 40
0.0
 40
0.0
 40
0.2135413414436466
 40
0.4271558781179454
 40
0.6391534182107093
 40
0.8504463930752574
 40
1.0
 40
1.0
 40
1.0
 40
1.0
 10
8099.426545285807
 20
4787.151783676069
 30
0.0
 10
8099.431964033645
 20
4787.096043700612
 30
0.0
 10
8099.442803386697
 20
4786.984544643795
 30
0.0
 10
8099.52791542754
 20
4786.835234488231
 30
0.0
 10
8099.653115429624
 20
4786.722461737161
 30
0.0
 10
8099.793755121109
 20
4786.660948310664
 30
0.0
 10
8099.887636115055
 20
4786.654469028054
 30
0.0
 10
8099.926545285807
 20
4786.651783676069
 30
0.0
  0
CIRCLE
  5
47E
330
1F
100
AcDbEntity
  8
0
  6
Continuous
 62
     7
370
    25
100
AcDbCircle
 10
8098.9265452858
 20
4786.1517836761
 30
0.0
 40
4.0
  0
LINE
  5
47F
330
1F
100
AcDbEntity
  8
0
  6
Continuous
 62
     7
370
    25
100
AcDbLine
 10
8116.4265452858
 20
4805.6517836761
 30
0.0
 11
8116.4265452858
 21
4806.6517836761
 31
0.0
  0
LINE
  5
480
330
1F
100
AcDbEntity
  8
0
  6
Continuous
 62
     7
370
    25
100
AcDbLine
 10
8116.4265452858
 20
4805.6517836761
 30
0.0
 11
8117.9265452858
 21
4805.6517836761
 31
0.0
  0
SPLINE
  5
481
330
1F
100
AcDbEntity
  8
0
  6
Continuous
 62
     7
370
    25
100
AcDbSpline
210
0.0
220
0.0
230
1.0
 70
     8
 71
     3
 72
    12
 73
     8
 74
     0
 42
0.00000001
 43
0.00000001
 40
0.0
 40
0.0
 40
0.0
 40
0.0
 40
0.2135413414436504
 40
0.4271558781179343
 40
0.6391534182106984
 40
0.8504463930752412
 40
1.0
 40
1.0
 40
1.0
 40
1.0
 10
8118.426545285807
 20
4805.151783676069
 30
0.0
 10
8118.421126537969
 20
4805.207523651526
 30
0.0
 10
8118.410287184918
 20
4805.319022708344
 30
0.0
 10
8118.325175144076
 20
4805.468332863908
 30
0.0
 10
8118.199975141993
 20
4805.581105614976
 30
0.0
 10
8118.059335450505
 20
4805.642619041474
 30
0.0
 10
8117.965454456559
 20
4805.649098324085
 30
0.0
 10
8117.926545285808
 20
4805.651783676069
 30
0.0
  0
LINE
  5
482
330
1F
100
AcDbEntity
  8
0
  6
Continuous
 62
     7
370
    25
100
AcDbLine
 10
8118.4265452858
 20
4803.6517836761
 30
0.0
 11
8118.4265452858
 21
4805.1517836761
 31
0.0
  0
LINE
  5
483
330
1F
100
AcDbEntity
  8
0
  6
Continuous
 62
     7
370
    25
100
AcDbLine
 10
8119.4265452858
 20
4803.6517836761
 30
0.0
 11
8118.4265452858
 21
4803.6517836761
 31
0.0
  0
LINE
  5
484
330
1F
100
AcDbEntity
  8
0
  6
Continuous
 62
     7
370
    25
100
AcDbLine
 10
8119.4265452858
 20
4803.6517836761
 30
0.0
 11
8119.4265452858
 21
4805.1517836761
 31
0.0
  0
SPLINE
  5
485
330
1F
100
AcDbEntity
  8
0
  6
Continuous
 62
     7
370
    25
100
AcDbSpline
210
0.0
220
0.0
230
1.0
 70
     8
 71
     3
 72
    12
 73
     8
 74
     0
 42
0.00000001
 43
0.00000001
 40
0.0
 40
0.0
 40
0.0
 40
0.0
 40
0.2135413414436343
 40
0.4271558781179522
 40
0.6391534182107013
 40
0.850446393075253
 40
1.0
 40
1.0
 40
1.0
 40
1.0
 10
8119.926545285807
 20
4805.651783676069
 30
0.0
 10
8119.870805310351
 20
4805.646364928231
 30
0.0
 10
8119.759306253532
 20
4805.63552557518
 30
0.0
 10
8119.609996097969
 20
4805.550413534337
 30
0.0
 10
8119.497223346901
 20
4805.425213532254
 30
0.0
 10
8119.435709920403
 20
4805.284573840767
 30
0.0
 10
8119.429230637792
 20
4805.190692846822
 30
0.0
 10
8119.426545285808
 20
4805.151783676069
 30
0.0
  0
LINE
  5
486
330
1F
100
AcDbEntity
  8
0
  6
Continuous
 62
     7
370
    25
100
AcDbLine
 10
8119.9265452858
 20
4805.6517836761
 30
0.0
 11
8121.4265452858
 21
4805.6517836761
 31
0.0
  0
LINE
  5
487
330
1F
100
AcDbEntity
  8
0
  6
Continuous
 62
     7
370
    25
100
AcDbLine
 10
8121.4265452858
 20
4805.6517836761
 30
0.0
 11
8121.4265452858
 21
4806.6517836761
 31
0.0
  0
LINE
  5
488
330
1F
100
AcDbEntity
  8
0
  6
Continuous
 62
     7
370
    25
100
AcDbLine
 10
8119.9265452858
 20
4806.6517836761
 30
0.0
 11
8121.4265452858
 21
4806.6517836761
 31
0.0
  0
SPLINE
  5
489
330
1F
100
AcDbEntity
  8
0
  6
Continuous
 62
     7
370
    25
100
AcDbSpline
210
0.0
220
0.0
230
1.0
 70
     8
 71
     3
 72
    12
 73
     8
 74
     0
 42
0.00000001
 43
0.00000001
 40
0.0
 40
0.0
 40
0.0
 40
0.0
 40
0.2135413414436612
 40
0.4271558781179552
 40
0.6391534182107219
 40
0.8504463930752729
 40
1.0
 40
1.0
 40
1.0
 40
1.0
 10
8119.426545285808
 20
4807.151783676069
 30
0.0
 10
8119.431964033646
 20
4807.096043700612
 30
0.0
 10
8119.442803386697
 20
4806.984544643794
 30
0.0
 10
8119.527915427539
 20
4806.835234488231
 30
0.0
 10
8119.653115429623
 20
4806.722461737162
 30
0.0
 10
8119.79375512111
 20
4806.660948310665
 30
0.0
 10
8119.887636115056
 20
4806.654469028053
 30
0.0
 10
8119.926545285807
 20
4806.651783676069
 30
0.0
  0
LINE
  5
48A
330
1F
100
AcDbEntity
  8
0
  6
Continuous
 62
     7
370
    25
100
AcDbLine
 10
8119.4265452858
 20
4807.1517836761
 30
0.0
 11
8119.4265452858
 21
4808.6517836761
 31
0.0
  0
LINE
  5
48B
330
1F
100
AcDbEntity
  8
0
  6
Continuous
 62
     7
370
    25
100
AcDbLine
 10
8119.4265452858
 20
4808.6517836761
 30
0.0
 11
8118.4265452858
 21
4808.6517836761
 31
0.0
  0
LINE
  5
48C
330
1F
100
AcDbEntity
  8
0
  6
Continuous
 62
     7
370
    25
100
AcDbLine
 10
8118.4265452858
 20
4807.1517836761
 30
0.0
 11
8118.4265452858
 21
4808.6517836761
 31
0.0
  0
SPLINE
  5
48D
330
1F
100
AcDbEntity
  8
0
  6
Continuous
 62
     7
370
    25
100
AcDbSpline
210
0.0
220
0.0
230
1.0
 70
     8
 71
     3
 72
    12
 73
     8
 74
     0
 42
0.00000001
 43
0.00000001
 40
0.0
 40
0.0
 40
0.0
 40
0.0
 40
0.2135413414436668
 40
0.4271558781179463
 40
0.6391534182107195
 40
0.8504463930752574
 40
1.0
 40
1.0
 40
1.0
 40
1.0
 10
8117.926545285808
 20
4806.651783676069
 30
0.0
 10
8117.982285261265
 20
4806.657202423908
 30
0.0
 10
8118.093784318083
 20
4806.668041776958
 30
0.0
 10
8118.243094473646
 20
4806.753153817802
 30
0.0
 10
8118.355867224715
 20
4806.878353819884
 30
0.0
 10
8118.417380651213
 20
4807.018993511371
 30
0.0
 10
8118.423859933822
 20
4807.112874505317
 30
0.0
 10
8118.426545285807
 20
4807.151783676069
 30
0.0
  0
LINE
  5
48E
330
1F
100
AcDbEntity
  8
0
  6
Continuous
 62
     7
370
    25
100
AcDbLine
 10
8116.4265452858
 20
4806.6517836761
 30
0.0
 11
8117.9265452858
 21
4806.6517836761
 31
0.0
  0
CIRCLE
  5
48F
330
1F
100
AcDbEntity
  8
0
  6
Continuous
 62
     7
370
    25
100
AcDbCircle
 10
8118.9265452858
 20
4806.1517836761
 30
0.0
 40
3.718749999999091
  0
CIRCLE
  5
490
330
1F
100
AcDbEntity
  8
0
  6
Continuous
 62
     7
370
    25
100
AcDbCircle
 10
8118.9265452858
 20
4806.1517836761
 30
0.0
 40
3.999999999999091
  0
CIRCLE
  5
491
330
1F
100
AcDbEntity
  8
0
  6
Continuous
 62
     7
370
    25
100
AcDbCircle
 10
8108.9265452858
 20
4822.4517836761
 30
0.0
 40
9.00000000000091
  0
CIRCLE
  5
492
330
1F
100
AcDbEntity
  8
0
  6
Continuous
 62
     7
370
    25
100
AcDbCircle
 10
8108.9265452858
 20
4822.4517836761
 30
0.0
 40
5.900000000000546
  0
CIRCLE
  5
493
330
1F
100
AcDbEntity
  8
0
  6
Continuous
 62
     7
370
    25
100
AcDbCircle
 10
8108.9265452858
 20
4822.4517836761
 30
0.0
 40
4.300000000000182
  0
ARC
  5
494
330
1F
100
AcDbEntity
  8
0
  6
Continuous
 62
     7
370
    25
100
AcDbCircle
 10
8108.9265452858
 20
4822.4517836761
 30
0.0
 40
10.24999999999974
100
AcDbArc
 50
265.5194584909
 51
274.4805415091
  0
SPLINE
  5
495
330
1F
100
AcDbEntity
  8
0
  6
Continuous
 62
     7
370
    25
100
AcDbSpline
210
0.0
220
0.0
230
1.0
 70
    24
 71
     3
 72
    12
 73
     8
 74
     0
 42
0.00000001
 43
0.00000001
 40
0.0
 40
0.0
 40
0.0
 40
0.0
 40
0.1767972012049092
 40
0.3529840119466719
 40
0.5942434150712543
 40
0.8347931705747844
 40
1.0
 40
1.0
 40
1.0
 40
1.0
 10
8108.125809921003
 20
4812.233108474482
 30
0.0
 10
8107.709605234099
 20
4812.473404362504
 30
0.0
 10
8106.878632802561
 20
4812.953166519543
 30
0.0
 10
8105.33912223455
 20
4813.842003360402
 30
0.0
 10
8103.52070528565
 20
4814.891866875349
 30
0.0
 10
8101.818172539174
 20
4815.874824614832
 30
0.0
 10
8100.865264349643
 20
4816.424986414571
 30
0.0
 10
8100.477280650613
 20
4816.648988907647
 30
0.0
  0
ARC
  5
496
330
1F
100
AcDbEntity
  8
0
  6
Continuous
 62
     7
370
    25
100
AcDbCircle
 10
8108.9265452858
 20
4822.4517836761
 30
0.0
 40
10.2499999999999
100
AcDbArc
 50
205.5194584909
 51
214.4805415091
  0
SPLINE
  5
497
330
1F
100
AcDbEntity
  8
0
  6
Continuous
 62
     7
370
    25
100
AcDbSpline
210
0.0
220
0.0
230
1.0
 70
    24
 71
     3
 72
    11
 73
     7
 74
     0
 42
0.00000001
 43
0.00000001
 40
0.0
 40
0.0
 40
0.0
 40
0.0
 40
0.3168781007113883
 40
0.5575328342363975
 40
0.7979547440599656
 40
1.0
 40
1.0
 40
1.0
 40
1.0
 10
8099.676545285808
 20
4818.035903242906
 30
0.0
 10
8099.676545285808
 20
4818.914717610975
 30
0.0
 10
8099.676545285808
 20
4820.460952154473
 30
0.0
 10
8099.676545285808
 20
4823.009520525823
 30
0.0
 10
8099.676545285808
 20
4825.112843061427
 30
0.0
 10
8099.676545285808
 20
4826.317553272276
 30
0.0
 10
8099.676545285808
 20
4826.867664109234
 30
0.0
  0
ARC
  5
498
330
1F
100
AcDbEntity
  8
0
  6
Continuous
 62
     7
370
    25
100
AcDbCircle
 10
8108.9265452858
 20
4822.4517836761
 30
0.0
 40
10.2500000000005
100
AcDbArc
 50
145.5194584909
 51
154.4805415091
  0
SPLINE
  5
499
330
1F
100
AcDbEntity
  8
0
  6
Continuous
 62
     7
370
    25
100
AcDbSpline
210
0.0
220
0.0
230
1.0
 70
    24
 71
     3
 72
    12
 73
     8
 74
     0
 42
0.00000001
 43
0.00000001
 40
0.0
 40
0.0
 40
0.0
 40
0.0
 40
0.1767972012049097
 40
0.3529840119466717
 40
0.5942434150712534
 40
0.8347931705747855
 40
1.0
 40
1.0
 40
1.0
 40
1.0
 10
8100.477280650613
 20
4828.254578444495
 30
0.0
 10
8100.893485337519
 20
4828.494874332517
 30
0.0
 10
8101.724457769057
 20
4828.974636489554
 30
0.0
 10
8103.263968337067
 20
4829.863473330415
 30
0.0
 10
8105.082385285966
 20
4830.913336845361
 30
0.0
 10
8106.784918032442
 20
4831.896294584843
 30
0.0
 10
8107.737826221975
 20
4832.446456384582
 30
0.0
 10
8108.125809921003
 20
4832.670458877657
 30
0.0
  0
ARC
  5
49A
330
1F
100
AcDbEntity
  8
0
  6
Continuous
 62
     7
370
    25
100
AcDbCircle
 10
8108.9265452858
 20
4822.4517836761
 30
0.0
 40
10.24999999999974
100
AcDbArc
 50
85.5194584909
 51
94.4805415091
  0
SPLINE
  5
49B
330
1F
100
AcDbEntity
  8
0
  6
Continuous
 62
     7
370
    25
100
AcDbSpline
210
0.0
220
0.0
230
1.0
 70
    24
 71
     3
 72
    12
 73
     8
 74
     0
 42
0.00000001
 43
0.00000001
 40
0.0
 40
0.0
 40
0.0
 40
0.0
 40
0.1767972012049078
 40
0.3529840119466726
 40
0.5942434150712554
 40
0.8347931705747865
 40
1.0
 40
1.0
 40
1.0
 40
1.0
 10
8109.727280650613
 20
4832.670458877657
 30
0.0
 10
8110.143485337519
 20
4832.430162989635
 30
0.0
 10
8110.974457769057
 20
4831.950400832598
 30
0.0
 10
8112.513968337067
 20
4831.061563991737
 30
0.0
 10
8114.332385285966
 20
4830.011700476791
 30
0.0
 10
8116.034918032442
 20
4829.028742737309
 30
0.0
 10
8116.987826221975
 20
4828.47858093757
 30
0.0
 10
8117.375809921004
 20
4828.254578444495
 30
0.0
  0
ARC
  5
49C
330
1F
100
AcDbEntity
  8
0
  6
Continuous
 62
     7
370
    25
100
AcDbCircle
 10
8108.9265452858
 20
4822.4517836761
 30
0.0
 40
10.250000000002
100
AcDbArc
 50
25.5194584909
 51
34.4805415091
  0
SPLINE
  5
49D
330
1F
100
AcDbEntity
  8
0
  6
Continuous
 62
     7
370
    25
100
AcDbSpline
210
0.0
220
0.0
230
1.0
 70
    24
 71
     3
 72
    11
 73
     7
 74
     0
 42
0.00000001
 43
0.00000001
 40
0.0
 40
0.0
 40
0.0
 40
0.0
 40
0.3168781007113894
 40
0.5575328342363985
 40
0.7979547440599654
 40
1.0
 40
1.0
 40
1.0
 40
1.0
 10
8118.17654528581
 20
4826.867664109233
 30
0.0
 10
8118.17654528581
 20
4825.988849741164
 30
0.0
 10
8118.176545285808
 20
4824.442615197669
 30
0.0
 10
8118.176545285808
 20
4821.894046826317
 30
0.0
 10
8118.176545285808
 20
4819.790724290713
 30
0.0
 10
8118.176545285808
 20
4818.586014079864
 30
0.0
 10
8118.176545285808
 20
4818.035903242906
 30
0.0
  0
ARC
  5
49E
330
1F
100
AcDbEntity
  8
0
  6
Continuous
 62
     7
370
    25
100
AcDbCircle
 10
8108.9265452858
 20
4822.4517836761
 30
0.0
 40
10.24999999999999
100
AcDbArc
 50
325.5194584909
 51
334.4805415091
  0
SPLINE
  5
49F
330
1F
100
AcDbEntity
  8
0
  6
Continuous
 62
     7
370
    25
100
AcDbSpline
210
0.0
220
0.0
230
1.0
 70
    24
 71
     3
 72
    12
 73
     8
 74
     0
 42
0.00000001
 43
0.00000001
 40
0.0
 40
0.0
 40
0.0
 40
0.0
 40
0.1767972012049104
 40
0.3529840119466733
 40
0.5942434150712549
 40
0.8347931705747843
 40
1.0
 40
1.0
 40
1.0
 40
1.0
 10
8117.375809921003
 20
4816.648988907646
 30
0.0
 10
8116.959605234098
 20
4816.408693019624
 30
0.0
 10
8116.128632802561
 20
4815.928930862586
 30
0.0
 10
8114.58912223455
 20
4815.040094021724
 30
0.0
 10
8112.770705285651
 20
4813.990230506779
 30
0.0
 10
8111.068172539175
 20
4813.007272767297
 30
0.0
 10
8110.115264349643
 20
4812.457110967557
 30
0.0
 10
8109.727280650613
 20
4812.233108474482
 30
0.0
  0
CIRCLE
  5
4A0
330
1F
100
AcDbEntity
  8
0
  6
Continuous
 62
     7
370
    25
100
AcDbCircle
 10
8108.9265452858
 20
4796.1517836761
 30
0.0
 40
9.250000000001819
  0
LINE
  5
4A1
330
1F
100
AcDbEntity
  8
0
  6
Continuous
 62
     7
370
    25
100
AcDbLine
 10
8082.6265452858
 20
4773.9517836761
 30
0.0
 11
8124.6265452858
 21
4773.9517836761
 31
0.0
  0
LINE
  5
4A2
330
1F
100
AcDbEntity
  8
0
  6
Continuous
 62
     7
370
    25
100
AcDbLine
 10
8124.6265452858
 20
4843.9517836761
 30
0.0
 11
8082.6265452858
 21
4843.9517836761
 31
0.0
  0
LINE
  5
4A3
330
1F
100
AcDbEntity
  8
0
  6
Continuous
 62
     7
370
    25
100
AcDbLine
 10
8124.6265452858
 20
4773.9517836761
 30
0.0
 11
8124.6265452858
 21
4843.9517836761
 31
0.0
  0
CIRCLE
  5
4A4
330
1F
100
AcDbEntity
  8
0
  6
Continuous
 62
     7
370
    25
100
AcDbCircle
 10
8108.9265452858
 20
4796.1517836761
 30
0.0
 40
10.0
  0
LINE
  5
4A5
330
1F
100
AcDbEntity
  8
0
  6
Continuous
 62
     7
370
    25
100
AcDbLine
 10
8082.6265452858
 20
4849.9517836761
 30
0.0
 11
8124.6265452858
 21
4849.9517836761
 31
0.0
  0
LINE
  5
4A6
330
1F
100
AcDbEntity
  8
0
  6
Continuous
 62
     7
370
    25
100
AcDbLine
 10
8124.6265452858
 20
4849.9517836761
 30
0.0
 11
8124.6265452858
 21
4843.9517836761
 31
0.0
  0
LINE
  5
4A7
330
1F
100
AcDbEntity
  8
0
  6
Continuous
 62
     7
370
    25
100
AcDbLine
 10
8124.6265452858
 20
4773.9517836761
 30
0.0
 11
8124.6265452858
 21
4767.9517836761
 31
0.0
  0
LINE
  5
4A8
330
1F
100
AcDbEntity
  8
0
  6
Continuous
 62
     7
370
    25
100
AcDbLine
 10
8124.6265452858
 20
4767.9517836761
 30
0.0
 11
8082.6265452858
 21
4767.9517836761
 31
0.0
  0
ARC
  5
4A9
330
1F
100
AcDbEntity
  8
0
  6
Continuous
 62
     7
370
    25
100
AcDbCircle
 10
7991.8265452858
 20
4676.4517836761
 30
0.0
 40
4.499999999999788
100
AcDbArc
 50
152.7339555492
 51
207.2660444508
  0
ARC
  5
4AA
330
1F
100
AcDbEntity
  8
0
  6
Continuous
 62
     7
370
    25
100
AcDbCircle
 10
7963.8265452858
 20
4676.4517836761
 30
0.0
 40
4.499999999999713
100
AcDbArc
 50
332.7339555493
 51
27.2660444507
  0
LINE
  5
4AB
330
1F
100
AcDbEntity
  8
0
  6
Continuous
 62
     7
370
    25
100
AcDbLine
 10
8108.7637133661
 20
4789.0920721213
 30
0.0
 11
8114.8563748659
 21
4792.3904771674
 31
0.0
  0
LINE
  5
4AC
330
1F
100
AcDbEntity
  8
0
  6
Continuous
 62
     7
370
    25
100
AcDbLine
 10
8102.8608800542
 20
4792.7192692337
 30
0.0
 11
8108.7637133661
 21
4789.0920721213
 31
0.0
  0
LINE
  5
4AD
330
1F
100
AcDbEntity
  8
0
  6
Continuous
 62
     7
370
    25
100
AcDbLine
 10
8103.0507082422
 20
4799.6448713923
 30
0.0
 11
8102.8608800542
 21
4792.7192692337
 31
0.0
  0
LINE
  5
4AE
330
1F
100
AcDbEntity
  8
0
  6
Continuous
 62
     7
370
    25
100
AcDbLine
 10
8109.143369742
 20
4802.9432764384
 30
0.0
 11
8103.0507082422
 21
4799.6448713923
 31
0.0
  0
LINE
  5
4AF
330
1F
100
AcDbEntity
  8
0
  6
Continuous
 62
     7
370
    25
100
AcDbLine
 10
8115.0462030539
 20
4799.316079326
 30
0.0
 11
8109.143369742
 21
4802.9432764384
 31
0.0
  0
LINE
  5
4B0
330
1F
100
AcDbEntity
  8
0
  6
Continuous
 62
     7
370
    25
100
AcDbLine
 10
8114.8563748659
 20
4792.3904771674
 30
0.0
 11
8115.0462030539
 21
4799.316079326
 31
0.0
  0
CIRCLE
  5
4B1
330
1F
100
AcDbEntity
  8
0
  6
Continuous
 62
     7
370
    25
100
AcDbCircle
 10
8108.9535415541
 20
4796.0176742798
 30
0.0
 40
3.000000000000391
  0
CIRCLE
  5
4B2
330
1F
100
AcDbEntity
  8
0
  6
Continuous
 62
     7
370
    25
100
AcDbCircle
 10
8108.9535415541
 20
4796.0176742798
 30
0.0
 40
6.899999999998887
  0
CIRCLE
  5
4B3
330
1F
100
AcDbEntity
  8
0
  6
Continuous
 62
     7
370
    25
100
AcDbCircle
 10
8108.9535415541
 20
4796.0176742798
 30
0.0
 40
8.89999999999854
  0
SPLINE
  5
4B4
330
1F
100
AcDbEntity
  8
0
  6
Continuous
 62
     7
370
    25
100
AcDbSpline
210
0.0
220
0.0
230
1.0
 70
     8
 71
     3
 72
    11
 73
     7
 74
     0
 42
0.00000001
 43
0.00000001
 40
0.0
 40
0.0
 40
0.0
 40
0.0
 40
0.2499999999999955
 40
0.5000000000000064
 40
0.7500000000000178
 40
1.0
 40
1.0
 40
1.0
 40
1.0
 10
7847.826545285808
 20
4835.45178367607
 30
0.0
 10
7847.802137517574
 20
4835.713857763682
 30
0.0
 10
7847.753321981105
 20
4836.238005938908
 30
0.0
 10
7847.680098676402
 20
4836.899095813102
 30
0.0
 10
7847.606875371698
 20
4837.361594239346
 30
0.0
 10
7847.55805983523
 20
4837.421720530496
 30
0.0
 10
7847.533652066994
 20
4837.451783676071
 30
0.0
  0
LINE
  5
4B5
330
1F
100
AcDbEntity
  8
0
  6
Continuous
 62
     7
370
    25
100
AcDbLine
 10
7847.533652067
 20
4837.4517836761
 30
0.0
 11
7868.4611334314
 21
4837.4517836761
 31
0.0
  0
LINE
  5
4B6
330
1F
100
AcDbEntity
  8
0
  6
Continuous
 62
     7
370
    25
100
AcDbLine
 10
8034.1919571402
 20
4837.4517836761
 30
0.0
 11
8043.3556089653
 21
4837.4517836761
 31
0.0
  0
SPLINE
  5
4B7
330
1F
100
AcDbEntity
  8
0
  6
Continuous
 62
     7
370
    25
100
AcDbSpline
210
0.0
220
0.0
230
1.0
 70
     8
 71
     3
 72
    11
 73
     7
 74
     0
 42
0.00000001
 43
0.00000001
 40
0.0
 40
0.0
 40
0.0
 40
0.0
 40
0.2499999999999718
 40
0.4999999999999937
 40
0.7500000000000232
 40
1.0
 40
1.0
 40
1.0
 40
1.0
 10
7847.826545285808
 20
4835.45178367607
 30
0.0
 10
7847.802137517574
 20
4835.582820719877
 30
0.0
 10
7847.753321981105
 20
4835.844894807488
 30
0.0
 10
7847.680098676402
 20
4836.175439744586
 30
0.0
 10
7847.606875371698
 20
4836.406688957708
 30
0.0
 10
7847.55805983523
 20
4836.436752103283
 30
0.0
 10
7847.533652066994
 20
4836.45178367607
 30
0.0
  0
LINE
  5
4B8
330
1F
100
AcDbEntity
  8
0
  6
Continuous
 62
     7
370
    25
100
AcDbLine
 10
7847.533652067
 20
4836.4517836761
 30
0.0
 11
7847.533652067
 21
4837.4517836761
 31
0.0
  0
SPLINE
  5
4B9
330
1F
100
AcDbEntity
  8
0
  6
Continuous
 62
     7
370
    25
100
AcDbSpline
210
0.0
220
0.0
230
1.0
 70
     8
 71
     3
 72
    11
 73
     7
 74
     0
 42
0.00000001
 43
0.00000001
 40
0.0
 40
0.0
 40
0.0
 40
0.0
 40
0.2499999999999847
 40
0.499999999999989
 40
0.749999999999989
 40
0.9999999999999999
 40
0.9999999999999999
 40
0.9999999999999999
 40
0.9999999999999999
 10
7847.826545285808
 20
4665.45178367607
 30
0.0
 10
7847.564471198196
 20
4665.427375907836
 30
0.0
 10
7847.040323022971
 20
4665.378560371367
 30
0.0
 10
7846.379233148778
 20
4665.305337066664
 30
0.0
 10
7845.916734722532
 20
4665.23211376196
 30
0.0
 10
7845.856608431383
 20
4665.183298225491
 30
0.0
 10
7845.826545285809
 20
4665.158890457256
 30
0.0
  0
LINE
  5
4BA
330
1F
100
AcDbEntity
  8
0
  6
Continuous
 62
     7
370
    25
100
AcDbLine
 10
7845.8265452858
 20
4835.7446768949
 30
0.0
 11
7845.8265452858
 21
4665.1588904573
 31
0.0
  0
SPLINE
  5
4BB
330
1F
100
AcDbEntity
  8
0
  6
Continuous
 62
     7
370
    25
100
AcDbSpline
210
0.0
220
0.0
230
1.0
 70
     8
 71
     3
 72
    11
 73
     7
 74
     0
 42
0.00000001
 43
0.00000001
 40
0.0
 40
0.0
 40
0.0
 40
0.0
 40
0.2499999999999955
 40
0.4999999999999959
 40
0.7500000000000016
 40
1.0
 40
1.0
 40
1.0
 40
1.0
 10
7845.826545285809
 20
4835.744676894883
 30
0.0
 10
7845.856608431383
 20
4835.720269126649
 30
0.0
 10
7845.916734722532
 20
4835.67145359018
 30
0.0
 10
7846.379233148778
 20
4835.598230285477
 30
0.0
 10
7847.040323022971
 20
4835.525006980773
 30
0.0
 10
7847.564471198196
 20
4835.476191444305
 30
0.0
 10
7847.826545285808
 20
4835.45178367607
 30
0.0
  0
LINE
  5
4BC
330
1F
100
AcDbEntity
  8
0
  6
Continuous
 62
     7
370
    25
100
AcDbLine
 10
7847.8265452858
 20
4835.4517836761
 30
0.0
 11
7847.8265452858
 21
4665.4517836761
 31
0.0
  0
LINE
  5
4BD
330
1F
100
AcDbEntity
  8
0
  6
Continuous
 62
     7
370
    25
100
AcDbLine
 10
7846.8265452858
 20
4835.7446768949
 30
0.0
 11
7845.8265452858
 21
4835.7446768949
 31
0.0
  0
SPLINE
  5
4BE
330
1F
100
AcDbEntity
  8
0
  6
Continuous
 62
     7
370
    25
100
AcDbSpline
210
0.0
220
0.0
230
1.0
 70
     8
 71
     3
 72
    11
 73
     7
 74
     0
 42
0.00000001
 43
0.00000001
 40
0.0
 40
0.0
 40
0.0
 40
0.0
 40
0.2499999999999979
 40
0.5000000000000214
 40
0.7500000000000354
 40
0.9999999999999999
 40
0.9999999999999999
 40
0.9999999999999999
 40
0.9999999999999999
 10
7846.826545285809
 20
4835.744676894883
 30
0.0
 10
7846.841576858596
 20
4835.720269126649
 30
0.0
 10
7846.87164000417
 20
4835.67145359018
 30
0.0
 10
7847.102889217293
 20
4835.598230285477
 30
0.0
 10
7847.433434154389
 20
4835.525006980773
 30
0.0
 10
7847.695508242002
 20
4835.476191444305
 30
0.0
 10
7847.826545285808
 20
4835.45178367607
 30
0.0
  0
CIRCLE
  5
4BF
330
1F
100
AcDbEntity
  8
0
  6
Continuous
 62
     7
370
    25
100
AcDbCircle
 10
8062.8265452858
 20
4693.4517836761
 30
0.0
 40
2.499999999999091
  0
LINE
  5
4C0
330
1F
100
AcDbEntity
  8
0
  6
Continuous
 62
     7
370
    25
100
AcDbLine
 10
7987.8265452858
 20
4665.4517836761
 30
0.0
 11
8067.8265452858
 21
4665.4517836761
 31
0.0
  0
LINE
  5
4C1
330
1F
100
AcDbEntity
  8
0
  6
Continuous
 62
     7
370
    25
100
AcDbLine
 10
7987.8265452858
 20
4665.4517836761
 30
0.0
 11
7987.8265452858
 21
4719.5771975879
 31
0.0
  0
ARC
  5
4C2
330
1F
100
AcDbEntity
  8
0
  6
Continuous
 62
     7
370
    25
100
AcDbCircle
 10
7997.8265452858
 20
4719.5771975879
 30
0.0
 40
10.00000000000045
100
AcDbArc
 50
160.2778857837
 51
180.0
  0
ARC
  5
4C3
330
1F
100
AcDbEntity
  8
0
  6
Continuous
 62
     7
370
    25
100
AcDbCircle
 10
7957.8265452858
 20
4719.5771975879
 30
0.0
 40
9.999999999999593
100
AcDbArc
 50
0.0
 51
19.7221142163
  0
LINE
  5
4C4
330
1F
100
AcDbEntity
  8
0
  6
Continuous
 62
     7
370
    25
100
AcDbLine
 10
7967.8265452858
 20
4665.4517836761
 30
0.0
 11
7967.8265452858
 21
4719.5771975879
 31
0.0
  0
LINE
  5
4C5
330
1F
100
AcDbEntity
  8
0
  6
Continuous
 62
     7
370
    25
100
AcDbLine
 10
7887.8265452858
 20
4665.4517836761
 30
0.0
 11
7967.8265452858
 21
4665.4517836761
 31
0.0
  0
LINE
  5
4C6
330
1F
100
AcDbEntity
  8
0
  6
Continuous
 62
     7
370
    25
100
AcDbLine
 10
7887.8265452858
 20
4665.4517836761
 30
0.0
 11
7887.8265452858
 21
4719.5771975879
 31
0.0
  0
ARC
  5
4C7
330
1F
100
AcDbEntity
  8
0
  6
Continuous
 62
     7
370
    25
100
AcDbCircle
 10
7897.8265452858
 20
4719.5771975879
 30
0.0
 40
10.0
100
AcDbArc
 50
160.2572011664
 51
180.0
  0
ARC
  5
4C8
330
1F
100
AcDbEntity
  8
0
  6
Continuous
 62
     7
370
    25
100
AcDbCircle
 10
7877.8265452858
 20
4738.4517836761
 30
0.0
 40
17.50000000000085
100
AcDbArc
 50
143.1301023542
 51
223.3417582272
  0
ARC
  5
4C9
330
1F
100
AcDbEntity
  8
0
  6
Continuous
 62
     7
370
    25
100
AcDbCircle
 10
7857.8265452858
 20
4719.5771975879
 30
0.0
 40
10.00000000000002
100
AcDbArc
 50
0.0
 51
43.3417582272
  0
LINE
  5
4CA
330
1F
100
AcDbEntity
  8
0
  6
Continuous
 62
     7
370
    25
100
AcDbLine
 10
7867.8265452858
 20
4665.4517836761
 30
0.0
 11
7867.8265452858
 21
4719.5771975879
 31
0.0
  0
LINE
  5
4CB
330
1F
100
AcDbEntity
  8
0
  6
Continuous
 62
     7
370
    25
100
AcDbLine
 10
7847.8265452858
 20
4665.4517836761
 30
0.0
 11
7867.8265452858
 21
4665.4517836761
 31
0.0
  0
LINE
  5
4CC
330
1F
100
AcDbEntity
  8
0
  6
Continuous
 62
     7
370
    25
100
AcDbLine
 10
8087.8265452858
 20
4665.4517836761
 30
0.0
 11
8107.8265452858
 21
4665.4517836761
 31
0.0
  0
LINE
  5
4CD
330
1F
100
AcDbEntity
  8
0
  6
Continuous
 62
     7
370
    25
100
AcDbLine
 10
8087.8265452858
 20
4665.4517836761
 30
0.0
 11
8087.8265452858
 21
4719.5771975879
 31
0.0
  0
ARC
  5
4CE
330
1F
100
AcDbEntity
  8
0
  6
Continuous
 62
     7
370
    25
100
AcDbCircle
 10
8097.8265452858
 20
4719.5771975879
 30
0.0
 40
10.00000000000002
100
AcDbArc
 50
136.6582417728
 51
180.0
  0
ARC
  5
4CF
330
1F
100
AcDbEntity
  8
0
  6
Continuous
 62
     7
370
    25
100
AcDbCircle
 10
8077.8265452858
 20
4738.4517836761
 30
0.0
 40
17.50000000000151
100
AcDbArc
 50
316.6582417728
 51
223.3417582272
  0
ARC
  5
4D0
330
1F
100
AcDbEntity
  8
0
  6
Continuous
 62
     7
370
    25
100
AcDbCircle
 10
8057.8265452858
 20
4719.5771975879
 30
0.0
 40
10.00000000000069
100
AcDbArc
 50
0.0
 51
43.3417582272
  0
LINE
  5
4D1
330
1F
100
AcDbEntity
  8
0
  6
Continuous
 62
     7
370
    25
100
AcDbLine
 10
8067.8265452858
 20
4665.4517836761
 30
0.0
 11
8067.8265452858
 21
4719.5771975879
 31
0.0
  0
CIRCLE
  5
4D2
330
1F
100
AcDbEntity
  8
0
  6
Continuous
 62
     7
370
    25
100
AcDbCircle
 10
7862.8265452858
 20
4693.4517836761
 30
0.0
 40
2.499999999999091
  0
LINE
  5
4D3
330
1F
100
AcDbEntity
  8
0
  6
Continuous
 62
     7
370
    25
100
AcDbLine
 10
8109.8265452858
 20
4665.1588904573
 30
0.0
 11
8109.8265452858
 21
4767.9517836761
 31
0.0
  0
SPLINE
  5
4D4
330
1F
100
AcDbEntity
  8
0
  6
Continuous
 62
     7
370
    25
100
AcDbSpline
210
0.0
220
0.0
230
1.0
 70
     8
 71
     3
 72
    11
 73
     7
 74
     0
 42
0.00000001
 43
0.00000001
 40
0.0
 40
0.0
 40
0.0
 40
0.0
 40
0.249999999999999
 40
0.5000000000000024
 40
0.7500000000000092
 40
1.0
 40
1.0
 40
1.0
 40
1.0
 10
8109.826545285808
 20
4665.158890457256
 30
0.0
 10
8109.796482140233
 20
4665.183298225491
 30
0.0
 10
8109.736355849085
 20
4665.23211376196
 30
0.0
 10
8109.273857422841
 20
4665.305337066664
 30
0.0
 10
8108.612767548646
 20
4665.378560371367
 30
0.0
 10
8108.08861937342
 20
4665.427375907836
 30
0.0
 10
8107.826545285809
 20
4665.45178367607
 30
0.0
  0
SPLINE
  5
4D5
330
1F
100
AcDbEntity
  8
0
  6
Continuous
 62
     7
370
    25
100
AcDbSpline
210
0.0
220
0.0
230
1.0
 70
     8
 71
     3
 72
    11
 73
     7
 74
     0
 42
0.00000001
 43
0.00000001
 40
0.0
 40
0.0
 40
0.0
 40
0.0
 40
0.2499999999999787
 40
0.4999999999999751
 40
0.7499999999999843
 40
0.9999999999999999
 40
0.9999999999999999
 40
0.9999999999999999
 40
0.9999999999999999
 10
7847.826545285808
 20
4665.45178367607
 30
0.0
 10
7847.695508242002
 20
4665.427375907836
 30
0.0
 10
7847.433434154389
 20
4665.378560371367
 30
0.0
 10
7847.102889217293
 20
4665.305337066664
 30
0.0
 10
7846.87164000417
 20
4665.23211376196
 30
0.0
 10
7846.841576858596
 20
4665.183298225491
 30
0.0
 10
7846.826545285809
 20
4665.158890457256
 30
0.0
  0
LINE
  5
4D6
330
1F
100
AcDbEntity
  8
0
  6
Continuous
 62
     7
370
    25
100
AcDbLine
 10
7846.8265452858
 20
4665.1588904573
 30
0.0
 11
7845.8265452858
 21
4665.1588904573
 31
0.0
  0
LINE
  5
4D7
330
1F
100
AcDbEntity
  8
0
  6
Continuous
 62
     7
370
    25
100
AcDbLine
 10
7987.8265452858
 20
4663.4517836761
 30
0.0
 11
8067.8265452858
 21
4663.4517836761
 31
0.0
  0
LINE
  5
4D8
330
1F
100
AcDbEntity
  8
0
  6
Continuous
 62
     7
370
    25
100
AcDbLine
 10
7987.8265452858
 20
4663.4517836761
 30
0.0
 11
7987.8265452858
 21
4665.4517836761
 31
0.0
  0
LINE
  5
4D9
330
1F
100
AcDbEntity
  8
0
  6
Continuous
 62
     7
370
    25
100
AcDbLine
 10
8067.8265452858
 20
4663.4517836761
 30
0.0
 11
8067.8265452858
 21
4665.4517836761
 31
0.0
  0
SPLINE
  5
4DA
330
1F
100
AcDbEntity
  8
0
  6
Continuous
 62
     7
370
    25
100
AcDbSpline
210
0.0
220
0.0
230
1.0
 70
     8
 71
     3
 72
    11
 73
     7
 74
     0
 42
0.00000001
 43
0.00000001
 40
0.0
 40
0.0
 40
0.0
 40
0.0
 40
0.2499999999999844
 40
0.4999999999999936
 40
0.7500000000000016
 40
1.0
 40
1.0
 40
1.0
 40
1.0
 10
8107.826545285809
 20
4665.45178367607
 30
0.0
 10
8107.850953054044
 20
4665.189709588458
 30
0.0
 10
8107.899768590511
 20
4664.665561413232
 30
0.0
 10
8107.972991895215
 20
4664.00447153904
 30
0.0
 10
8108.046215199918
 20
4663.541973112794
 30
0.0
 10
8108.095030736388
 20
4663.481846821644
 30
0.0
 10
8108.119438504621
 20
4663.45178367607
 30
0.0
  0
LINE
  5
4DB
330
1F
100
AcDbEntity
  8
0
  6
Continuous
 62
     7
370
    25
100
AcDbLine
 10
8087.8265452858
 20
4663.4517836761
 30
0.0
 11
8108.1194385046
 21
4663.4517836761
 31
0.0
  0
LINE
  5
4DC
330
1F
100
AcDbEntity
  8
0
  6
Continuous
 62
     7
370
    25
100
AcDbLine
 10
8087.8265452858
 20
4663.4517836761
 30
0.0
 11
8087.8265452858
 21
4665.4517836761
 31
0.0
  0
SPLINE
  5
4DD
330
1F
100
AcDbEntity
  8
0
  6
Continuous
 62
     7
370
    25
100
AcDbSpline
210
0.0
220
0.0
230
1.0
 70
     8
 71
     3
 72
    11
 73
     7
 74
     0
 42
0.00000001
 43
0.00000001
 40
0.0
 40
0.0
 40
0.0
 40
0.0
 40
0.2500000000000093
 40
0.5000000000000074
 40
0.7500000000000019
 40
1.0
 40
1.0
 40
1.0
 40
1.0
 10
7847.533652066994
 20
4663.45178367607
 30
0.0
 10
7847.55805983523
 20
4663.481846821644
 30
0.0
 10
7847.606875371698
 20
4663.541973112794
 30
0.0
 10
7847.680098676402
 20
4664.00447153904
 30
0.0
 10
7847.753321981105
 20
4664.665561413232
 30
0.0
 10
7847.802137517574
 20
4665.189709588457
 30
0.0
 10
7847.826545285808
 20
4665.45178367607
 30
0.0
  0
LINE
  5
4DE
330
1F
100
AcDbEntity
  8
0
  6
Continuous
 62
     7
370
    25
100
AcDbLine
 10
7847.533652067
 20
4664.4517836761
 30
0.0
 11
7847.533652067
 21
4663.4517836761
 31
0.0
  0
SPLINE
  5
4DF
330
1F
100
AcDbEntity
  8
0
  6
Continuous
 62
     7
370
    25
100
AcDbSpline
210
0.0
220
0.0
230
1.0
 70
     8
 71
     3
 72
    11
 73
     7
 74
     0
 42
0.00000001
 43
0.00000001
 40
0.0
 40
0.0
 40
0.0
 40
0.0
 40
0.2500000000000096
 40
0.5000000000000047
 40
0.749999999999995
 40
1.0
 40
1.0
 40
1.0
 40
1.0
 10
7847.533652066994
 20
4664.451783676071
 30
0.0
 10
7847.55805983523
 20
4664.466815248858
 30
0.0
 10
7847.606875371698
 20
4664.496878394432
 30
0.0
 10
7847.680098676402
 20
4664.728127607554
 30
0.0
 10
7847.753321981105
 20
4665.058672544651
 30
0.0
 10
7847.802137517574
 20
4665.320746632264
 30
0.0
 10
7847.826545285808
 20
4665.45178367607
 30
0.0
  0
LINE
  5
4E0
330
1F
100
AcDbEntity
  8
0
  6
Continuous
 62
     7
370
    25
100
AcDbLine
 10
7847.533652067
 20
4663.4517836761
 30
0.0
 11
7867.8265452858
 21
4663.4517836761
 31
0.0
  0
LINE
  5
4E1
330
1F
100
AcDbEntity
  8
0
  6
Continuous
 62
     7
370
    25
100
AcDbLine
 10
7867.8265452858
 20
4663.4517836761
 30
0.0
 11
7867.8265452858
 21
4665.4517836761
 31
0.0
  0
LINE
  5
4E2
330
1F
100
AcDbEntity
  8
0
  6
Continuous
 62
     7
370
    25
100
AcDbLine
 10
7967.8265452858
 20
4663.4517836761
 30
0.0
 11
7967.8265452858
 21
4665.4517836761
 31
0.0
  0
LINE
  5
4E3
330
1F
100
AcDbEntity
  8
0
  6
Continuous
 62
     7
370
    25
100
AcDbLine
 10
7887.8265452858
 20
4663.4517836761
 30
0.0
 11
7967.8265452858
 21
4663.4517836761
 31
0.0
  0
LINE
  5
4E4
330
1F
100
AcDbEntity
  8
0
  6
Continuous
 62
     7
370
    25
100
AcDbLine
 10
7887.8265452858
 20
4663.4517836761
 30
0.0
 11
7887.8265452858
 21
4665.4517836761
 31
0.0
  0
SPLINE
  5
4E5
330
1F
100
AcDbEntity
  8
0
  6
Continuous
 62
     7
370
    25
100
AcDbSpline
210
0.0
220
0.0
230
1.0
 70
     8
 71
     3
 72
    11
 73
     7
 74
     0
 42
0.00000001
 43
0.00000001
 40
0.0
 40
0.0
 40
0.0
 40
0.0
 40
0.2499999999999786
 40
0.4999999999999847
 40
0.7499999999999927
 40
1.0
 40
1.0
 40
1.0
 40
1.0
 10
8107.826545285809
 20
4665.45178367607
 30
0.0
 10
8107.850953054042
 20
4665.320746632264
 30
0.0
 10
8107.899768590511
 20
4665.058672544651
 30
0.0
 10
8107.972991895215
 20
4664.728127607555
 30
0.0
 10
8108.046215199918
 20
4664.496878394432
 30
0.0
 10
8108.095030736388
 20
4664.466815248858
 30
0.0
 10
8108.119438504621
 20
4664.451783676071
 30
0.0
  0
LINE
  5
4E6
330
1F
100
AcDbEntity
  8
0
  6
Continuous
 62
     7
370
    25
100
AcDbLine
 10
8108.1194385046
 20
4664.4517836761
 30
0.0
 11
8108.1194385046
 21
4663.4517836761
 31
0.0
  0
LINE
  5
4E7
330
1F
100
AcDbEntity
  8
0
  6
Continuous
 62
     7
370
    25
100
AcDbLine
 10
8108.8265452858
 20
4665.1588904573
 30
0.0
 11
8109.8265452858
 21
4665.1588904573
 31
0.0
  0
SPLINE
  5
4E8
330
1F
100
AcDbEntity
  8
0
  6
Continuous
 62
     7
370
    25
100
AcDbSpline
210
0.0
220
0.0
230
1.0
 70
     8
 71
     3
 72
    11
 73
     7
 74
     0
 42
0.00000001
 43
0.00000001
 40
0.0
 40
0.0
 40
0.0
 40
0.0
 40
0.2500000000000031
 40
0.4999999999999973
 40
0.7500000000000018
 40
1.0
 40
1.0
 40
1.0
 40
1.0
 10
8108.826545285809
 20
4665.158890457256
 30
0.0
 10
8108.811513713022
 20
4665.183298225491
 30
0.0
 10
8108.781450567447
 20
4665.23211376196
 30
0.0
 10
8108.550201354325
 20
4665.305337066664
 30
0.0
 10
8108.219656417226
 20
4665.378560371367
 30
0.0
 10
8107.957582329615
 20
4665.427375907836
 30
0.0
 10
8107.826545285809
 20
4665.45178367607
 30
0.0
  0
SPLINE
  5
4E9
330
1F
100
AcDbEntity
  8
0
  6
Continuous
 62
     7
370
    25
100
AcDbSpline
210
0.0
220
0.0
230
1.0
 70
     8
 71
     3
 72
     9
 73
     5
 74
     0
 42
0.00000001
 43
0.00000001
 40
0.0
 40
0.0
 40
0.0
 40
0.0
 40
0.529211240093874
 40
1.0
 40
1.0
 40
1.0
 40
1.0
 10
8064.769602011271
 20
4749.851836333412
 30
0.0
 10
8064.878072943724
 20
4749.762109981392
 30
0.0
 10
8065.083040117951
 20
4749.592562652796
 30
0.0
 10
8065.192968439488
 20
4749.350909072311
 30
0.0
 10
8065.244721457663
 20
4749.237141282828
 30
0.0
  0
SPLINE
  5
4EA
330
1F
100
AcDbEntity
  8
0
  6
Continuous
 62
     7
370
    25
100
AcDbSpline
210
0.0
220
0.0
230
1.0
 70
     8
 71
     3
 72
    16
 73
    12
 74
     0
 42
0.00000001
 43
0.00000001
 40
0.0
 40
0.0
 40
0.0
 40
0.0
 40
0.0707785697039021
 40
0.2299612641626659
 40
0.3505631623708723
 40
0.4751531268124013
 40
0.599895939289244
 40
0.7204284868751536
 40
0.8459748526480471
 40
0.9692026813127896
 40
1.0
 40
1.0
 40
1.0
 40
1.0
 10
8064.939218708314
 20
4750.044967396507
 30
0.0
 10
8065.066662225451
 20
4749.971062489229
 30
0.0
 10
8065.480729257781
 20
4749.730943679584
 30
0.0
 10
8065.802081039681
 20
4749.017428921041
 30
0.0
 10
8065.858640735493
 20
4748.180515082831
 30
0.0
 10
8065.608255855847
 20
4747.436660042111
 30
0.0
 10
8065.100381866966
 20
4746.847462286248
 30
0.0
 10
8064.403398755057
 20
4746.482442932342
 30
0.0
 10
8063.640985319903
 20
4746.425133072009
 30
0.0
 10
8063.038463525048
 20
4746.543454658405
 30
0.0
 10
8062.803388634668
 20
4746.758804688692
 30
0.0
 10
8062.756385424875
 20
4746.801863913929
 30
0.0
  0
LINE
  5
4EB
330
1F
100
AcDbEntity
  8
0
  6
Continuous
 62
     7
370
    25
100
AcDbLine
 10
8062.5658664783
 20
4746.8991443283
 30
0.0
 11
8062.5210688198
 21
4746.9366166237
 31
0.0
  0
SPLINE
  5
4EC
330
1F
100
AcDbEntity
  8
0
  6
Continuous
 62
     7
370
    25
100
AcDbSpline
210
0.0
220
0.0
230
1.0
 70
     8
 71
     3
 72
    10
 73
     6
 74
     0
 42
0.00000001
 43
0.00000001
 40
0.0
 40
0.0
 40
0.0
 40
0.0
 40
0.1365640451848152
 40
0.5607146701167665
 40
1.0
 40
1.0
 40
1.0
 40
1.0
 10
8065.244721457663
 20
4749.237141282828
 30
0.0
 10
8065.271205112566
 20
4749.185124809012
 30
0.0
 10
8065.379943644741
 20
4748.971551756774
 30
0.0
 10
8065.484917821216
 20
4748.54156719197
 30
0.0
 10
8065.415566638492
 20
4748.175515261433
 30
0.0
 10
8065.380283237321
 20
4747.989281132355
 30
0.0
  0
SPLINE
  5
4ED
330
1F
100
AcDbEntity
  8
0
  6
Continuous
 62
     7
370
    25
100
AcDbSpline
210
0.0
220
0.0
230
1.0
 70
     8
 71
     3
 72
    14
 73
    10
 74
     0
 42
0.00000001
 43
0.00000001
 40
0.0
 40
0.0
 40
0.0
 40
0.0
 40
0.1388146753979025
 40
0.2948412674713184
 40
0.4510573962514446
 40
0.6177667029050061
 40
0.7929805626351605
 40
0.9682834222363021
 40
1.0
 40
1.0
 40
1.0
 40
1.0
 10
8065.380283237321
 20
4747.989281132355
 30
0.0
 10
8065.338192282661
 20
4747.828608804621
 30
0.0
 10
8065.248791429434
 20
4747.487342057278
 30
0.0
 10
8064.914092831317
 20
4747.049610058985
 30
0.0
 10
8064.438452693327
 20
4746.724112694796
 30
0.0
 10
8063.861318040424
 20
4746.551559371512
 30
0.0
 10
8063.236060312038
 20
4746.576108143551
 30
0.0
 10
8062.804482419983
 20
4746.745974483423
 30
0.0
 10
8062.597567104016
 20
4746.878795394819
 30
0.0
 10
8062.565866478254
 20
4746.899144328323
 30
0.0
  0
ARC
  5
4EE
330
1F
100
AcDbEntity
  8
0
  6
Continuous
 62
     7
370
    25
100
AcDbCircle
 10
8063.8265452858
 20
4748.4517836761
 30
0.0
 40
2.750000000000032
100
AcDbArc
 50
232.834822332
 51
56.089822084
  0
LINE
  5
4EF
330
1F
100
AcDbEntity
  8
0
  6
Continuous
 62
     7
370
    25
100
AcDbLine
 10
8090.2551166916
 20
4749.6889627954
 30
0.0
 11
8090.7293439148
 21
4750.0387345561
 31
0.0
  0
LINE
  5
4F0
330
1F
100
AcDbEntity
  8
0
  6
Continuous
 62
     7
370
    25
100
AcDbLine
 10
8090.2551166916
 20
4749.6889627954
 30
0.0
 11
8090.6973770724
 21
4750.0721556359
 31
0.0
  0
SPLINE
  5
4F1
330
1F
100
AcDbEntity
  8
0
  6
Continuous
 62
     7
370
    25
100
AcDbSpline
210
0.0
220
0.0
230
1.0
 70
     8
 71
     3
 72
    11
 73
     7
 74
     0
 42
0.00000001
 43
0.00000001
 40
0.0
 40
0.0
 40
0.0
 40
0.0
 40
0.2793157813908842
 40
0.6029513460624795
 40
0.920610146200995
 40
1.0
 40
1.0
 40
1.0
 40
1.0
 10
8092.995726352737
 20
4746.844707992374
 30
0.0
 10
8092.803143703778
 20
4746.725281037683
 30
0.0
 10
8092.387420801049
 20
4746.467477333475
 30
0.0
 10
8091.638335860692
 20
4746.428913121952
 30
0.0
 10
8091.03859479839
 20
4746.543267367434
 30
0.0
 10
8090.803410508995
 20
4746.758773480042
 30
0.0
 10
8090.756385424875
 20
4746.801863913929
 30
0.0
  0
ARC
  5
4F2
330
1F
100
AcDbEntity
  8
0
  6
Continuous
 62
     7
370
    25
100
AcDbCircle
 10
8091.8265452858
 20
4748.4517836761
 30
0.0
 40
1.999999999999373
100
AcDbArc
 50
141.786790355
 51
230.9248324276
  0
SPLINE
  5
4F3
330
1F
100
AcDbEntity
  8
0
  6
Continuous
 62
     7
370
    25
100
AcDbSpline
210
0.0
220
0.0
230
1.0
 70
     8
 71
     3
 72
    12
 73
     8
 74
     0
 42
0.00000001
 43
0.00000001
 40
0.0
 40
0.0
 40
0.0
 40
0.0
 40
0.2161191728180857
 40
0.4541772654240218
 40
0.7043797171213604
 40
0.9547092591410976
 40
1.0
 40
1.0
 40
1.0
 40
1.0
 10
8092.880371483327
 20
4747.062617253466
 30
0.0
 10
8092.737966237012
 20
4746.950669433583
 30
0.0
 10
8092.438699751257
 20
4746.715409627424
 30
0.0
 10
8091.859577481847
 20
4746.553632740795
 30
0.0
 10
8091.236557524834
 20
4746.575515859126
 30
0.0
 10
8090.804465125811
 20
4746.745995084401
 30
0.0
 10
8090.59756480645
 20
4746.878798131702
 30
0.0
 10
8090.565866478254
 20
4746.899144328323
 30
0.0
  0
ARC
  5
4F4
330
1F
100
AcDbEntity
  8
0
  6
Continuous
 62
     7
370
    25
100
AcDbCircle
 10
8091.8265452858
 20
4748.4517836761
 30
0.0
 40
2.750000000000134
100
AcDbArc
 50
123.910177916
 51
307.165177668
  0
SPLINE
  5
4F5
330
1F
100
AcDbEntity
  8
0
  6
Continuous
 62
     7
370
    25
100
AcDbSpline
210
0.0
220
0.0
230
1.0
 70
     8
 71
     3
 72
    10
 73
     6
 74
     0
 42
0.00000001
 43
0.00000001
 40
0.0
 40
0.0
 40
0.0
 40
0.0
 40
0.2589568544140859
 40
0.8518284688705224
 40
1.0
 40
1.0
 40
1.0
 40
1.0
 10
7863.961188139003
 20
4746.493535803966
 30
0.0
 10
7863.851759170377
 20
4746.478188531844
 30
0.0
 10
7863.491796847673
 20
4746.427704279005
 30
0.0
 10
7863.038098406755
 20
4746.54533848283
 30
0.0
 10
7862.803327794313
 20
4746.759118593935
 30
0.0
 10
7862.756385424876
 20
4746.801863913929
 30
0.0
  0
LINE
  5
4F6
330
1F
100
AcDbEntity
  8
0
  6
Continuous
 62
     7
370
    25
100
AcDbLine
 10
7862.5658664783
 20
4746.8991443283
 30
0.0
 11
7862.5210688198
 21
4746.9366166237
 31
0.0
  0
SPLINE
  5
4F7
330
1F
100
AcDbEntity
  8
0
  6
Continuous
 62
     7
370
    25
100
AcDbSpline
210
0.0
220
0.0
230
1.0
 70
     8
 71
     3
 72
    11
 73
     7
 74
     0
 42
0.00000001
 43
0.00000001
 40
0.0
 40
0.0
 40
0.0
 40
0.0
 40
0.0599398110496631
 40
0.4908587690171371
 40
0.9219966122470226
 40
1.0
 40
1.0
 40
1.0
 40
1.0
 10
7863.950309407341
 20
4746.611357782044
 30
0.0
 10
7863.922668661945
 20
4746.602567346058
 30
0.0
 10
7863.696313222683
 20
4746.53058075632
 30
0.0
 10
7863.232938269388
 20
4746.588368643423
 30
0.0
 10
7862.804591011611
 20
4746.745548035808
 30
0.0
 10
7862.597581530641
 20
4746.878738740364
 30
0.0
 10
7862.565866478254
 20
4746.899144328323
 30
0.0
  0
ARC
  5
4F8
330
1F
100
AcDbEntity
  8
0
  6
Continuous
 62
     7
370
    25
100
AcDbCircle
 10
7863.8265452858
 20
4748.4517836761
 30
0.0
 40
2.75000000000005
100
AcDbArc
 50
232.834822332
 51
272.1107813767
  0
ARC
  5
4F9
330
1F
100
AcDbEntity
  8
0
  6
Continuous
 62
     7
370
    25
100
AcDbCircle
 10
8077.8265452858
 20
4683.4517836761
 30
0.0
 40
11.60000000000085
100
AcDbArc
 50
210.4503140214
 51
329.5496859787
  0
ARC
  5
4FA
330
1F
100
AcDbEntity
  8
0
  6
Continuous
 62
     7
370
    25
100
AcDbCircle
 10
8077.8265452858
 20
4683.4517836761
 30
0.0
 40
11.60000000000085
100
AcDbArc
 50
30.4503140213
 51
149.5496859786
  0
ARC
  5
4FB
330
1F
100
AcDbEntity
  8
0
  6
Continuous
 62
     7
370
    25
100
AcDbCircle
 10
8077.8265452858
 20
4714.9517836761
 30
0.0
 40
11.400000000001
100
AcDbArc
 50
208.6944135268
 51
331.3055864732
  0
ARC
  5
4FC
330
1F
100
AcDbEntity
  8
0
  6
Continuous
 62
     7
370
    25
100
AcDbCircle
 10
8077.8265452858
 20
4714.9517836761
 30
0.0
 40
11.39999999999982
100
AcDbArc
 50
28.3650423665
 51
151.6349576335
  0
ARC
  5
4FD
330
1F
100
AcDbEntity
  8
0
  6
Continuous
 62
     7
370
    25
100
AcDbCircle
 10
7877.8265452858
 20
4683.4517836761
 30
0.0
 40
11.59999999999988
100
AcDbArc
 50
210.4503140214
 51
329.5496859787
  0
ARC
  5
4FE
330
1F
100
AcDbEntity
  8
0
  6
Continuous
 62
     7
370
    25
100
AcDbCircle
 10
7877.8265452858
 20
4683.4517836761
 30
0.0
 40
11.59999999999988
100
AcDbArc
 50
30.4503140213
 51
149.5496859786
  0
ARC
  5
4FF
330
1F
100
AcDbEntity
  8
0
  6
Continuous
 62
     7
370
    25
100
AcDbCircle
 10
7877.8265452858
 20
4714.9517836761
 30
0.0
 40
11.39999999999991
100
AcDbArc
 50
208.6944135268
 51
331.3055864732
  0
ARC
  5
500
330
1F
100
AcDbEntity
  8
0
  6
Continuous
 62
     7
370
    25
100
AcDbCircle
 10
7877.8265452858
 20
4714.9517836761
 30
0.0
 40
11.40000000000017
100
AcDbArc
 50
97.2122749127
 51
151.6349576335
  0
ARC
  5
501
330
1F
100
AcDbEntity
  8
0
  6
Continuous
 62
     7
370
    25
100
AcDbCircle
 10
7877.8265452858
 20
4714.9517836761
 30
0.0
 40
11.40000000000017
100
AcDbArc
 50
28.3650423664
 51
45.9178274414
  0
CIRCLE
  5
502
330
1F
100
AcDbEntity
  8
0
  6
Continuous
 62
     7
370
    25
100
AcDbCircle
 10
7836.3265452858
 20
4727.9517836761
 30
0.0
 40
1.750000000000155
  0
CIRCLE
  5
503
330
1F
100
AcDbEntity
  8
0
  6
Continuous
 62
     7
370
    25
100
AcDbCircle
 10
7836.3265452858
 20
4727.9517836761
 30
0.0
 40
2.000000000000276
  0
CIRCLE
  5
504
330
1F
100
AcDbEntity
  8
0
  6
Continuous
 62
     7
370
    25
100
AcDbCircle
 10
8119.3265452858
 20
4727.9517836761
 30
0.0
 40
1.750000000000451
  0
CIRCLE
  5
505
330
1F
100
AcDbEntity
  8
0
  6
Continuous
 62
     7
370
    25
100
AcDbCircle
 10
8119.3265452858
 20
4727.9517836761
 30
0.0
 40
1.999999999999756
  0
CIRCLE
  5
506
330
1F
100
AcDbEntity
  8
0
  6
Continuous
 62
     7
370
    25
100
AcDbCircle
 10
7977.8265452858
 20
4663.4517836761
 30
0.0
 40
1.749999999999943
  0
CIRCLE
  5
507
330
1F
100
AcDbEntity
  8
0
  6
Continuous
 62
     7
370
    25
100
AcDbCircle
 10
7977.8265452858
 20
4663.4517836761
 30
0.0
 40
2.000000000000356
  0
CIRCLE
  5
508
330
1F
100
AcDbEntity
  8
0
  6
Continuous
 62
     7
370
    25
100
AcDbCircle
 10
7977.8265452858
 20
4663.4517836761
 30
0.0
 40
3.000000000000095
  0
CIRCLE
  5
509
330
1F
100
AcDbEntity
  8
0
  6
Continuous
 62
     7
370
    25
100
AcDbCircle
 10
7836.3265452858
 20
4727.9517836761
 30
0.0
 40
2.999999999999358
  0
CIRCLE
  5
50A
330
1F
100
AcDbEntity
  8
0
  6
Continuous
 62
     7
370
    25
100
AcDbCircle
 10
8119.3265452858
 20
4727.9517836761
 30
0.0
 40
3.00000000000099
  0
LINE
  5
50B
330
1F
100
AcDbEntity
  8
0
  6
Continuous
 62
     7
370
    25
100
AcDbLine
 10
7857.8265452858
 20
4852.9517836761
 30
0.0
 11
7857.8265452858
 21
4851.9517836761
 31
0.0
  0
LINE
  5
50C
330
1F
100
AcDbEntity
  8
0
  6
Continuous
 62
     7
370
    25
100
AcDbLine
 10
7857.8265452858
 20
4851.9517836761
 30
0.0
 11
7847.8265452858
 21
4851.9517836761
 31
0.0
  0
LINE
  5
50D
330
1F
100
AcDbEntity
  8
0
  6
Continuous
 62
     7
370
    25
100
AcDbLine
 10
7847.8265452858
 20
4851.9517836761
 30
0.0
 11
7847.8265452858
 21
4852.9517836761
 31
0.0
  0
LINE
  5
50E
330
1F
100
AcDbEntity
  8
0
  6
Continuous
 62
     7
370
    25
100
AcDbLine
 10
7847.8265452858
 20
4852.9517836761
 30
0.0
 11
7857.8265452858
 21
4852.9517836761
 31
0.0
  0
LINE
  5
50F
330
1F
100
AcDbEntity
  8
0
  6
Continuous
 62
     7
370
    25
100
AcDbLine
 10
7829.8265452858
 20
4851.9517836761
 30
0.0
 11
7829.8265452858
 21
4852.9517836761
 31
0.0
  0
LINE
  5
510
330
1F
100
AcDbEntity
  8
0
  6
Continuous
 62
     7
370
    25
100
AcDbLine
 10
7847.8265452858
 20
4851.9517836761
 30
0.0
 11
7829.8265452858
 21
4851.9517836761
 31
0.0
  0
LINE
  5
511
330
1F
100
AcDbEntity
  8
0
  6
Continuous
 62
     7
370
    25
100
AcDbLine
 10
7847.8265452858
 20
4852.9517836761
 30
0.0
 11
7829.8265452858
 21
4852.9517836761
 31
0.0
  0
LINE
  5
512
330
1F
100
AcDbEntity
  8
0
  6
Continuous
 62
     7
370
    25
100
AcDbLine
 10
8125.8265452858
 20
4851.9517836761
 30
0.0
 11
8125.8265452858
 21
4852.9517836761
 31
0.0
  0
LINE
  5
513
330
1F
100
AcDbEntity
  8
0
  6
Continuous
 62
     7
370
    25
100
AcDbLine
 10
8107.8265452858
 20
4852.9517836761
 30
0.0
 11
8107.8265452858
 21
4851.9517836761
 31
0.0
  0
LINE
  5
514
330
1F
100
AcDbEntity
  8
0
  6
Continuous
 62
     7
370
    25
100
AcDbLine
 10
8125.8265452858
 20
4852.9517836761
 30
0.0
 11
8107.8265452858
 21
4852.9517836761
 31
0.0
  0
LINE
  5
515
330
1F
100
AcDbEntity
  8
0
  6
Continuous
 62
     7
370
    25
100
AcDbLine
 10
8125.8265452858
 20
4851.9517836761
 30
0.0
 11
8107.8265452858
 21
4851.9517836761
 31
0.0
  0
LINE
  5
516
330
1F
100
AcDbEntity
  8
0
  6
Continuous
 62
     7
370
    25
100
AcDbLine
 10
8097.8265452858
 20
4851.9517836761
 30
0.0
 11
8097.8265452858
 21
4852.9517836761
 31
0.0
  0
LINE
  5
517
330
1F
100
AcDbEntity
  8
0
  6
Continuous
 62
     7
370
    25
100
AcDbLine
 10
8097.8265452858
 20
4852.9517836761
 30
0.0
 11
8107.8265452858
 21
4852.9517836761
 31
0.0
  0
LINE
  5
518
330
1F
100
AcDbEntity
  8
0
  6
Continuous
 62
     7
370
    25
100
AcDbLine
 10
8107.8265452858
 20
4851.9517836761
 30
0.0
 11
8097.8265452858
 21
4851.9517836761
 31
0.0
  0
LINE
  5
519
330
1F
100
AcDbEntity
  8
0
  6
Continuous
 62
     7
370
    25
100
AcDbLine
 10
7827.8265452858
 20
4850.9517836761
 30
0.0
 11
7828.8265452858
 21
4850.9517836761
 31
0.0
  0
ARC
  5
51A
330
1F
100
AcDbEntity
  8
0
  6
Continuous
 62
     7
370
    25
100
AcDbCircle
 10
7829.8265452858
 20
4850.9517836761
 30
0.0
 40
2.0
100
AcDbArc
 50
90.0
 51
180.0
  0
ARC
  5
51B
330
1F
100
AcDbEntity
  8
0
  6
Continuous
 62
     7
370
    25
100
AcDbCircle
 10
7829.8265452858
 20
4850.9517836761
 30
0.0
 40
1.000000000000909
100
AcDbArc
 50
90.0
 51
180.0
  0
LINE
  5
51C
330
1F
100
AcDbEntity
  8
0
  6
Continuous
 62
     7
370
    25
100
AcDbLine
 10
7828.8265452858
 20
4850.9517836761
 30
0.0
 11
7828.8265452858
 21
4775.9517836761
 31
0.0
  0
LINE
  5
51D
330
1F
100
AcDbEntity
  8
0
  6
Continuous
 62
     7
370
    25
100
AcDbLine
 10
7827.8265452858
 20
4775.9517836761
 30
0.0
 11
7828.8265452858
 21
4775.9517836761
 31
0.0
  0
LINE
  5
51E
330
1F
100
AcDbEntity
  8
0
  6
Continuous
 62
     7
370
    25
100
AcDbLine
 10
7827.8265452858
 20
4850.9517836761
 30
0.0
 11
7827.8265452858
 21
4775.9517836761
 31
0.0
  0
ARC
  5
51F
330
1F
100
AcDbEntity
  8
0
  6
Continuous
 62
     7
370
    25
100
AcDbCircle
 10
8125.8265452858
 20
4850.9517836761
 30
0.0
 40
2.000000000000909
100
AcDbArc
 50
0.0
 51
90.0
  0
LINE
  5
520
330
1F
100
AcDbEntity
  8
0
  6
Continuous
 62
     7
370
    25
100
AcDbLine
 10
8127.8265452858
 20
4850.9517836761
 30
0.0
 11
8126.8265452858
 21
4850.9517836761
 31
0.0
  0
ARC
  5
521
330
1F
100
AcDbEntity
  8
0
  6
Continuous
 62
     7
370
    25
100
AcDbCircle
 10
8125.8265452858
 20
4850.9517836761
 30
0.0
 40
1.0
100
AcDbArc
 50
0.0
 51
90.0
  0
LINE
  5
522
330
1F
100
AcDbEntity
  8
0
  6
Continuous
 62
     7
370
    25
100
AcDbLine
 10
8127.8265452858
 20
4850.9517836761
 30
0.0
 11
8127.8265452858
 21
4775.9517836761
 31
0.0
  0
LINE
  5
523
330
1F
100
AcDbEntity
  8
0
  6
Continuous
 62
     7
370
    25
100
AcDbLine
 10
8126.8265452858
 20
4775.9517836761
 30
0.0
 11
8127.8265452858
 21
4775.9517836761
 31
0.0
  0
LINE
  5
524
330
1F
100
AcDbEntity
  8
0
  6
Continuous
 62
     7
370
    25
100
AcDbLine
 10
8126.8265452858
 20
4850.9517836761
 30
0.0
 11
8126.8265452858
 21
4775.9517836761
 31
0.0
  0
LINE
  5
525
330
1F
100
AcDbEntity
  8
0
  6
Continuous
 62
     7
370
    25
100
AcDbLine
 10
7828.8265452858
 20
4765.9517836761
 30
0.0
 11
7827.8265452858
 21
4765.9517836761
 31
0.0
  0
LINE
  5
526
330
1F
100
AcDbEntity
  8
0
  6
Continuous
 62
     7
370
    25
100
AcDbLine
 10
7828.8265452858
 20
4775.9517836761
 30
0.0
 11
7828.8265452858
 21
4765.9517836761
 31
0.0
  0
LINE
  5
527
330
1F
100
AcDbEntity
  8
0
  6
Continuous
 62
     7
370
    25
100
AcDbLine
 10
7827.8265452858
 20
4765.9517836761
 30
0.0
 11
7827.8265452858
 21
4775.9517836761
 31
0.0
  0
LINE
  5
528
330
1F
100
AcDbEntity
  8
0
  6
Continuous
 62
     7
370
    25
100
AcDbLine
 10
8127.8265452858
 20
4765.9517836761
 30
0.0
 11
8126.8265452858
 21
4765.9517836761
 31
0.0
  0
LINE
  5
529
330
1F
100
AcDbEntity
  8
0
  6
Continuous
 62
     7
370
    25
100
AcDbLine
 10
8126.8265452858
 20
4765.9517836761
 30
0.0
 11
8126.8265452858
 21
4775.9517836761
 31
0.0
  0
LINE
  5
52A
330
1F
100
AcDbEntity
  8
0
  6
Continuous
 62
     7
370
    25
100
AcDbLine
 10
8127.8265452858
 20
4775.9517836761
 30
0.0
 11
8127.8265452858
 21
4765.9517836761
 31
0.0
  0
LINE
  5
52B
330
1F
100
AcDbEntity
  8
0
  6
Continuous
 62
     7
370
    25
100
AcDbLine
 10
8127.8265452858
 20
4755.9517836761
 30
0.0
 11
8126.8265452858
 21
4755.9517836761
 31
0.0
  0
LINE
  5
52C
330
1F
100
AcDbEntity
  8
0
  6
Continuous
 62
     7
370
    25
100
AcDbLine
 10
8126.8265452858
 20
4755.9517836761
 30
0.0
 11
8126.8265452858
 21
4765.9517836761
 31
0.0
  0
LINE
  5
52D
330
1F
100
AcDbEntity
  8
0
  6
Continuous
 62
     7
370
    25
100
AcDbLine
 10
8127.8265452858
 20
4765.9517836761
 30
0.0
 11
8127.8265452858
 21
4755.9517836761
 31
0.0
  0
LINE
  5
52E
330
1F
100
AcDbEntity
  8
0
  6
Continuous
 62
     7
370
    25
100
AcDbLine
 10
7828.8265452858
 20
4755.9517836761
 30
0.0
 11
7827.8265452858
 21
4755.9517836761
 31
0.0
  0
LINE
  5
52F
330
1F
100
AcDbEntity
  8
0
  6
Continuous
 62
     7
370
    25
100
AcDbLine
 10
7828.8265452858
 20
4765.9517836761
 30
0.0
 11
7828.8265452858
 21
4755.9517836761
 31
0.0
  0
LINE
  5
530
330
1F
100
AcDbEntity
  8
0
  6
Continuous
 62
     7
370
    25
100
AcDbLine
 10
7827.8265452858
 20
4755.9517836761
 30
0.0
 11
7827.8265452858
 21
4765.9517836761
 31
0.0
  0
LINE
  5
531
330
1F
100
AcDbEntity
  8
0
  6
Continuous
 62
     7
370
    25
100
AcDbLine
 10
8126.8265452858
 20
4664.9517836761
 30
0.0
 11
8127.8265452858
 21
4664.9517836761
 31
0.0
  0
LINE
  5
532
330
1F
100
AcDbEntity
  8
0
  6
Continuous
 62
     7
370
    25
100
AcDbLine
 10
8126.8265452858
 20
4664.9517836761
 30
0.0
 11
8126.8265452858
 21
4755.9517836761
 31
0.0
  0
LINE
  5
533
330
1F
100
AcDbEntity
  8
0
  6
Continuous
 62
     7
370
    25
100
AcDbLine
 10
8127.8265452858
 20
4664.9517836761
 30
0.0
 11
8127.8265452858
 21
4755.9517836761
 31
0.0
  0
LINE
  5
534
330
1F
100
AcDbEntity
  8
0
  6
Continuous
 62
     7
370
    25
100
AcDbLine
 10
7827.8265452858
 20
4664.9517836761
 30
0.0
 11
7828.8265452858
 21
4664.9517836761
 31
0.0
  0
LINE
  5
535
330
1F
100
AcDbEntity
  8
0
  6
Continuous
 62
     7
370
    25
100
AcDbLine
 10
7828.8265452858
 20
4755.9517836761
 30
0.0
 11
7828.8265452858
 21
4664.9517836761
 31
0.0
  0
LINE
  5
536
330
1F
100
AcDbEntity
  8
0
  6
Continuous
 62
     7
370
    25
100
AcDbLine
 10
7827.8265452858
 20
4755.9517836761
 30
0.0
 11
7827.8265452858
 21
4664.9517836761
 31
0.0
  0
LINE
  5
537
330
1F
100
AcDbEntity
  8
0
  6
Continuous
 62
     7
370
    25
100
AcDbLine
 10
8127.8265452858
 20
4654.9517836761
 30
0.0
 11
8126.8265452858
 21
4654.9517836761
 31
0.0
  0
LINE
  5
538
330
1F
100
AcDbEntity
  8
0
  6
Continuous
 62
     7
370
    25
100
AcDbLine
 10
8126.8265452858
 20
4654.9517836761
 30
0.0
 11
8126.8265452858
 21
4664.9517836761
 31
0.0
  0
LINE
  5
539
330
1F
100
AcDbEntity
  8
0
  6
Continuous
 62
     7
370
    25
100
AcDbLine
 10
8127.8265452858
 20
4664.9517836761
 30
0.0
 11
8127.8265452858
 21
4654.9517836761
 31
0.0
  0
LINE
  5
53A
330
1F
100
AcDbEntity
  8
0
  6
Continuous
 62
     7
370
    25
100
AcDbLine
 10
7828.8265452858
 20
4654.9517836761
 30
0.0
 11
7827.8265452858
 21
4654.9517836761
 31
0.0
  0
LINE
  5
53B
330
1F
100
AcDbEntity
  8
0
  6
Continuous
 62
     7
370
    25
100
AcDbLine
 10
7828.8265452858
 20
4664.9517836761
 30
0.0
 11
7828.8265452858
 21
4654.9517836761
 31
0.0
  0
LINE
  5
53C
330
1F
100
AcDbEntity
  8
0
  6
Continuous
 62
     7
370
    25
100
AcDbLine
 10
7827.8265452858
 20
4654.9517836761
 30
0.0
 11
7827.8265452858
 21
4664.9517836761
 31
0.0
  0
LINE
  5
53D
330
1F
100
AcDbEntity
  8
0
  6
Continuous
 62
     7
370
    25
100
AcDbLine
 10
8097.1194385046
 20
4851.9517836761
 30
0.0
 11
8097.1194385046
 21
4852.9517836761
 31
0.0
  0
LINE
  5
53E
330
1F
100
AcDbEntity
  8
0
  6
Continuous
 62
     7
370
    25
100
AcDbLine
 10
8097.8265452858
 20
4852.9517836761
 30
0.0
 11
8097.1194385046
 21
4852.9517836761
 31
0.0
  0
LINE
  5
53F
330
1F
100
AcDbEntity
  8
0
  6
Continuous
 62
     7
370
    25
100
AcDbLine
 10
8097.8265452858
 20
4851.9517836761
 30
0.0
 11
8097.1194385046
 21
4851.9517836761
 31
0.0
  0
LINE
  5
540
330
1F
100
AcDbEntity
  8
0
  6
Continuous
 62
     7
370
    25
100
AcDbLine
 10
8097.1194385046
 20
4851.9517836761
 30
0.0
 11
7858.533652067
 21
4851.9517836761
 31
0.0
  0
LINE
  5
541
330
1F
100
AcDbEntity
  8
0
  6
Continuous
 62
     7
370
    25
100
AcDbLine
 10
7858.533652067
 20
4852.9517836761
 30
0.0
 11
7858.533652067
 21
4851.9517836761
 31
0.0
  0
LINE
  5
542
330
1F
100
AcDbEntity
  8
0
  6
Continuous
 62
     7
370
    25
100
AcDbLine
 10
8097.1194385046
 20
4852.9517836761
 30
0.0
 11
7858.533652067
 21
4852.9517836761
 31
0.0
  0
LINE
  5
543
330
1F
100
AcDbEntity
  8
0
  6
Continuous
 62
     7
370
    25
100
AcDbLine
 10
7858.533652067
 20
4851.9517836761
 30
0.0
 11
7857.8265452858
 21
4851.9517836761
 31
0.0
  0
LINE
  5
544
330
1F
100
AcDbEntity
  8
0
  6
Continuous
 62
     7
370
    25
100
AcDbLine
 10
7858.533652067
 20
4852.9517836761
 30
0.0
 11
7857.8265452858
 21
4852.9517836761
 31
0.0
  0
LINE
  5
545
330
1F
100
AcDbEntity
  8
0
  6
Continuous
 62
     7
370
    25
100
AcDbLine
 10
8125.8265452858
 20
4652.9517836761
 30
0.0
 11
7829.8265452858
 21
4652.9517836761
 31
0.0
  0
LINE
  5
546
330
1F
100
AcDbEntity
  8
0
  6
Continuous
 62
     7
370
    25
100
AcDbLine
 10
8125.8265452858
 20
4653.9517836761
 30
0.0
 11
7829.8265452858
 21
4653.9517836761
 31
0.0
  0
LINE
  5
547
330
1F
100
AcDbEntity
  8
0
  6
Continuous
 62
     7
370
    25
100
AcDbLine
 10
8125.8265452858
 20
4653.9517836761
 30
0.0
 11
8125.8265452858
 21
4652.9517836761
 31
0.0
  0
LINE
  5
548
330
1F
100
AcDbEntity
  8
0
  6
Continuous
 62
     7
370
    25
100
AcDbLine
 10
7829.8265452858
 20
4653.9517836761
 30
0.0
 11
7829.8265452858
 21
4652.9517836761
 31
0.0
  0
SPLINE
  5
549
330
1F
100
AcDbEntity
  8
0
  6
Continuous
 62
     7
370
    25
100
AcDbSpline
210
0.0
220
0.0
230
1.0
 70
     8
 71
     3
 72
     9
 73
     5
 74
     0
 42
0.00000001
 43
0.00000001
 40
0.0
 40
0.0
 40
0.0
 40
0.0
 40
0.6100801294302122
 40
1.0
 40
1.0
 40
1.0
 40
1.0
 10
7830.043300475797
 20
4851.872096492953
 30
0.0
 10
7829.999118340306
 20
4851.693076722325
 30
0.0
 10
7829.926698123094
 20
4851.399640234242
 30
0.0
 10
7829.854641568319
 20
4851.07742269663
 30
0.0
 10
7829.826545285808
 20
4850.95178367607
 30
0.0
  0
SPLINE
  5
54A
330
1F
100
AcDbEntity
  8
0
  6
Continuous
 62
     7
370
    25
100
AcDbSpline
210
0.0
220
0.0
230
1.0
 70
     8
 71
     3
 72
    12
 73
     8
 74
     0
 42
0.00000001
 43
0.00000001
 40
0.0
 40
0.0
 40
0.0
 40
0.0
 40
0.2499999999999951
 40
0.2499999999999951
 40
0.4999999999999902
 40
0.4999999999999902
 40
1.0
 40
1.0
 40
1.0
 40
1.0
 10
7830.533652066993
 20
4851.95178367607
 30
0.0
 10
7830.474191465748
 20
4851.95178367607
 30
0.0
 10
7830.416155149135
 20
4851.926054211432
 30
0.0
 10
7830.297619704063
 20
4851.825292701013
 30
0.0
 10
7830.239254197688
 20
4851.751800465552
 30
0.0
 10
7830.061951125432
 20
4851.473327237102
 30
0.0
 10
7829.945466481937
 20
4851.215960152706
 30
0.0
 10
7829.826545285808
 20
4850.95178367607
 30
0.0
  0
SPLINE
  5
54B
330
1F
100
AcDbEntity
  8
0
  6
Continuous
 62
     7
370
    25
100
AcDbSpline
210
0.0
220
0.0
230
1.0
 70
     8
 71
     3
 72
     9
 73
     5
 74
     0
 42
0.00000001
 43
0.00000001
 40
0.0
 40
0.0
 40
0.0
 40
0.0
 40
0.6498557117260091
 40
1.0
 40
1.0
 40
1.0
 40
1.0
 10
8125.826545285808
 20
4850.95178367607
 30
0.0
 10
8125.774651759947
 20
4851.186468711767
 30
0.0
 10
8125.694797840188
 20
4851.547602778086
 30
0.0
 10
8125.614943883249
 20
4851.846964040059
 30
0.0
 10
8125.58698347633
 20
4851.951783676069
 30
0.0
  0
SPLINE
  5
54C
330
1F
100
AcDbEntity
  8
0
  6
Continuous
 62
     7
370
    25
100
AcDbSpline
210
0.0
220
0.0
230
1.0
 70
     8
 71
     3
 72
    12
 73
     8
 74
     0
 42
0.00000001
 43
0.00000001
 40
0.0
 40
0.0
 40
0.0
 40
0.0
 40
0.2499999999999999
 40
0.2499999999999999
 40
0.4999999999999998
 40
0.4999999999999998
 40
1.0
 40
1.0
 40
1.0
 40
1.0
 10
8125.826545285808
 20
4850.95178367607
 30
0.0
 10
8125.767084684561
 20
4851.083871921453
 30
0.0
 10
8125.709048367949
 20
4851.212803251746
 30
0.0
 10
8125.590512922877
 20
4851.456081483226
 30
0.0
 10
8125.532147416502
 20
4851.565957960797
 30
0.0
 10
8125.354844344246
 20
4851.844498622646
 30
0.0
 10
8125.23835970075
 20
4851.95178367607
 30
0.0
 10
8125.119438504621
 20
4851.95178367607
 30
0.0
  0
LINE
  5
54D
330
1F
100
AcDbEntity
  8
0
  6
Continuous
 62
     7
370
    25
100
AcDbLine
 10
8125.8265452858
 20
4850.9517836761
 30
0.0
 11
7829.8265452858
 21
4850.9517836761
 31
0.0
  0
LINE
  5
54E
330
1F
100
AcDbEntity
  8
0
  6
Continuous
 62
     7
370
    25
100
AcDbLine
 10
8125.8265452858
 20
4654.9517836761
 30
0.0
 11
8126.8265452858
 21
4654.9517836761
 31
0.0
  0
LINE
  5
54F
330
1F
100
AcDbEntity
  8
0
  6
Continuous
 62
     7
370
    25
100
AcDbLine
 10
8126.8265452858
 20
4850.9517836761
 30
0.0
 11
8125.8265452858
 21
4850.9517836761
 31
0.0
  0
LINE
  5
550
330
1F
100
AcDbEntity
  8
0
  6
Continuous
 62
     7
370
    25
100
AcDbLine
 10
7828.8265452858
 20
4654.9517836761
 30
0.0
 11
7829.8265452858
 21
4654.9517836761
 31
0.0
  0
LINE
  5
551
330
1F
100
AcDbEntity
  8
0
  6
Continuous
 62
     7
370
    25
100
AcDbLine
 10
7829.8265452858
 20
4654.9517836761
 30
0.0
 11
7829.8265452858
 21
4850.9517836761
 31
0.0
  0
LINE
  5
552
330
1F
100
AcDbEntity
  8
0
  6
Continuous
 62
     7
370
    25
100
AcDbLine
 10
7829.8265452858
 20
4850.9517836761
 30
0.0
 11
7828.8265452858
 21
4850.9517836761
 31
0.0
  0
LINE
  5
553
330
1F
100
AcDbEntity
  8
0
  6
Continuous
 62
     7
370
    25
100
AcDbLine
 10
7829.8265452858
 20
4653.9517836761
 30
0.0
 11
7829.8265452858
 21
4654.9517836761
 31
0.0
  0
LINE
  5
554
330
1F
100
AcDbEntity
  8
0
  6
Continuous
 62
     7
370
    25
100
AcDbLine
 10
8125.8265452858
 20
4654.9517836761
 30
0.0
 11
7829.8265452858
 21
4654.9517836761
 31
0.0
  0
LINE
  5
555
330
1F
100
AcDbEntity
  8
0
  6
Continuous
 62
     7
370
    25
100
AcDbLine
 10
8125.8265452858
 20
4653.9517836761
 30
0.0
 11
8125.8265452858
 21
4654.9517836761
 31
0.0
  0
LINE
  5
556
330
1F
100
AcDbEntity
  8
0
  6
Continuous
 62
     7
370
    25
100
AcDbLine
 10
7842.8265452858
 20
4669.9517836761
 30
0.0
 11
7845.8265452858
 21
4669.9517836761
 31
0.0
  0
LINE
  5
557
330
1F
100
AcDbEntity
  8
0
  6
Continuous
 62
     7
370
    25
100
AcDbLine
 10
7867.8265452858
 20
4669.9517836761
 30
0.0
 11
7887.8265452858
 21
4669.9517836761
 31
0.0
  0
LINE
  5
558
330
1F
100
AcDbEntity
  8
0
  6
Continuous
 62
     7
370
    25
100
AcDbLine
 10
7967.8265452858
 20
4669.9517836761
 30
0.0
 11
7987.8265452858
 21
4669.9517836761
 31
0.0
  0
LINE
  5
559
330
1F
100
AcDbEntity
  8
0
  6
Continuous
 62
     7
370
    25
100
AcDbLine
 10
8067.8265452858
 20
4669.9517836761
 30
0.0
 11
8087.8265452858
 21
4669.9517836761
 31
0.0
  0
LINE
  5
55A
330
1F
100
AcDbEntity
  8
0
  6
Continuous
 62
     7
370
    25
100
AcDbLine
 10
8109.8265452858
 20
4669.9517836761
 30
0.0
 11
8112.8265452858
 21
4669.9517836761
 31
0.0
  0
LINE
  5
55B
330
1F
100
AcDbEntity
  8
0
  6
Continuous
 62
     7
370
    25
100
AcDbLine
 10
8112.8265452858
 20
4669.9517836761
 30
0.0
 11
8112.8265452858
 21
4767.9517836761
 31
0.0
  0
LINE
  5
55C
330
1F
100
AcDbEntity
  8
0
  6
Continuous
 62
     7
370
    25
100
AcDbLine
 10
7845.8265452858
 20
4785.9517836761
 30
0.0
 11
7842.8265452858
 21
4785.9517836761
 31
0.0
  0
LINE
  5
55D
330
1F
100
AcDbEntity
  8
0
  6
Continuous
 62
     7
370
    25
100
AcDbLine
 10
7842.8265452858
 20
4785.9517836761
 30
0.0
 11
7842.8265452858
 21
4669.9517836761
 31
0.0
  0
LINE
  5
55E
330
1F
100
AcDbEntity
  8
0
  6
Continuous
 62
     8
370
    25
100
AcDbLine
 10
7955.9765452858
 20
4779.7924903458
 30
0.0
 11
7955.9765452858
 21
4779.290766134
 31
0.0
  0
ELLIPSE
  5
55F
330
1F
100
AcDbEntity
  8
0
  6
Continuous
 62
     8
370
    25
100
AcDbEllipse
 10
7903.1471883441
 20
4794.7306619603
 30
0.0
 11
0.0
 21
7.967857142856701
 31
0.0
210
0.0
220
0.0
230
1.0
 40
0.6086956522
 41
1.308996938995856
 42
1.571129001666468
  0
LINE
  5
560
330
1F
100
AcDbEntity
  8
0
  6
Continuous
 62
     8
370
    25
100
AcDbLine
 10
7903.1471883441
 20
4791.6128003707
 30
0.0
 11
7903.1471883441
 21
4791.1110770063
 31
0.0
  0
LINE
  5
561
330
1F
100
AcDbEntity
  8
0
  6
Continuous
 62
     8
370
    25
100
AcDbLine
 10
7955.9765452858
 20
4791.6127903923
 30
0.0
 11
7955.9765452858
 21
4791.1110770063
 31
0.0
  0
LINE
  5
562
330
1F
100
AcDbEntity
  8
0
  6
Continuous
 62
     8
370
    25
100
AcDbLine
 10
7903.1471883441
 20
4779.7924903458
 30
0.0
 11
7903.1471883441
 21
4779.2907727625
 31
0.0
  0
ELLIPSE
  5
563
330
1F
100
AcDbEntity
  8
0
  6
Continuous
 62
     8
370
    25
100
AcDbEllipse
 10
7903.1471883441
 20
4776.1729053918
 30
0.0
 11
0.0
 21
7.967857142856701
 31
0.0
210
0.0
220
0.0
230
1.0
 40
0.6086956522
 41
1.571315778947334
 42
1.832595714594001
  0
LINE
  5
564
330
1F
100
AcDbEntity
  8
0
  6
Continuous
 62
     8
370
    25
100
AcDbLine
 10
7898.4624480866
 20
4796.7928951376
 30
0.0
 11
7898.4624480866
 21
4794.022164975
 31
0.0
  0
LINE
  5
565
330
1F
100
AcDbEntity
  8
0
  6
Continuous
 62
     8
370
    25
100
AcDbLine
 10
7898.4624480866
 20
4776.9146180326
 30
0.0
 11
7898.4624480866
 21
4774.1106722146
 31
0.0
  0
LINE
  5
566
330
1F
100
AcDbEntity
  8
0
  6
Continuous
 62
     8
370
    25
100
AcDbLine
 10
7901.5392867135
 20
4764.6782752184
 30
0.0
 11
7901.5392867135
 21
4779.0979147948
 31
0.0
  0
LINE
  5
567
330
1F
100
AcDbEntity
  8
0
  6
Continuous
 62
     8
370
    25
100
AcDbLine
 10
7901.5392867135
 20
4791.8155246986
 30
0.0
 11
7901.5392867135
 21
4806.2252921337
 31
0.0
  0
LINE
  5
568
330
1F
100
AcDbEntity
  8
0
  6
Continuous
 62
     8
370
    25
100
AcDbLine
 10
8013.8265452858
 20
4804.5878048175
 30
0.0
 11
8013.1613538975
 21
4804.5878048175
 31
0.0
  0
LINE
  5
569
330
1F
100
AcDbEntity
  8
0
  6
Continuous
 62
     8
370
    25
100
AcDbLine
 10
7989.4917366741
 20
4804.5878048175
 30
0.0
 11
7973.6765452858
 21
4804.5878048175
 31
0.0
  0
LINE
  5
56A
330
1F
100
AcDbEntity
  8
0
  6
Continuous
 62
     8
370
    25
100
AcDbLine
 10
8017.5515143269
 20
4766.765204358
 30
0.0
 11
8017.5515143269
 21
4769.8633142318
 31
0.0
  0
LINE
  5
56B
330
1F
100
AcDbEntity
  8
0
  6
Continuous
 62
     8
370
    25
100
AcDbLine
 10
7973.6765452858
 20
4766.3157625347
 30
0.0
 11
7989.4917366741
 21
4766.3157625347
 31
0.0
  0
LINE
  5
56C
330
1F
100
AcDbEntity
  8
0
  6
Continuous
 62
     8
370
    25
100
AcDbLine
 10
8013.1613538975
 20
4766.3157625347
 30
0.0
 11
8013.8265452858
 21
4766.3157625347
 31
0.0
  0
LINE
  5
56D
330
1F
100
AcDbEntity
  8
0
  6
Continuous
 62
     8
370
    25
100
AcDbLine
 10
8017.5515143269
 20
4801.0402531203
 30
0.0
 11
8017.5515143269
 21
4804.1383629942
 31
0.0
  0
LINE
  5
56E
330
1F
100
AcDbEntity
  8
0
  6
Continuous
 62
     8
370
    25
100
AcDbLine
 10
8022.1189625981
 20
4807.6927143989
 30
0.0
 11
8022.1189625981
 21
4794.0497707841
 31
0.0
  0
LINE
  5
56F
330
1F
100
AcDbEntity
  8
0
  6
Continuous
 62
     8
370
    25
100
AcDbLine
 10
8022.1189625981
 20
4776.8537965681
 30
0.0
 11
8022.1189625981
 21
4763.2108529532
 31
0.0
  0
LINE
  5
570
330
1F
100
AcDbEntity
  8
0
  6
Continuous
 62
     8
370
    25
100
AcDbLine
 10
7950.8265452858
 20
4755.6371911061
 30
0.0
 11
7950.8265452858
 21
4779.2907625347
 31
0.0
  0
LINE
  5
571
330
1F
100
AcDbEntity
  8
0
  6
Continuous
 62
     8
370
    25
100
AcDbLine
 10
7950.8265452858
 20
4791.6128048175
 30
0.0
 11
7950.8265452858
 21
4815.2663762461
 31
0.0
  0
LINE
  5
572
330
1F
100
AcDbEntity
  8
0
  6
Continuous
 62
     8
370
    25
100
AcDbLine
 10
7911.1985449764
 20
4755.6371911061
 30
0.0
 11
7911.1985449764
 21
4779.2907625347
 31
0.0
  0
LINE
  5
573
330
1F
100
AcDbEntity
  8
0
  6
Continuous
 62
     8
370
    25
100
AcDbLine
 10
7911.1985449764
 20
4791.6128048175
 30
0.0
 11
7911.1985449764
 21
4815.2663762461
 31
0.0
  0
LINE
  5
574
330
1F
100
AcDbEntity
  8
0
  6
Continuous
 62
     8
370
    25
100
AcDbLine
 10
8125.3265452858
 20
4837.4517828577
 30
0.0
 11
8124.6265452858
 21
4837.4517828577
 31
0.0
  0
LINE
  5
575
330
1F
100
AcDbEntity
  8
0
  6
Continuous
 62
     8
370
    25
100
AcDbLine
 10
8125.3265452858
 20
4780.4517828577
 30
0.0
 11
8124.6265452858
 21
4780.4517828577
 31
0.0
  0
LINE
  5
576
330
1F
100
AcDbEntity
  8
0
  6
Continuous
 62
     8
370
    25
100
AcDbLine
 10
8045.7265452858
 20
4840.9701335168
 30
0.0
 11
8045.7265452858
 21
4842.8017836761
 31
0.0
  0
LINE
  5
577
330
1F
100
AcDbEntity
  8
0
  6
Continuous
 62
     8
370
    25
100
AcDbLine
 10
8045.7265452858
 20
4834.8017836761
 30
0.0
 11
8045.7265452858
 21
4840.9701335168
 31
0.0
  0
LINE
  5
578
330
1F
100
AcDbEntity
  8
0
  6
Continuous
 62
     8
370
    25
100
AcDbLine
 10
8044.7265452858
 20
4840.9701335168
 30
0.0
 11
8044.7265452858
 21
4842.8017836761
 31
0.0
  0
LINE
  5
579
330
1F
100
AcDbEntity
  8
0
  6
Continuous
 62
     8
370
    25
100
AcDbLine
 10
8044.7265452858
 20
4834.8017836761
 30
0.0
 11
8044.7265452858
 21
4840.9701335168
 31
0.0
  0
LINE
  5
57A
330
1F
100
AcDbEntity
  8
0
  6
Continuous
 62
     8
370
    25
100
AcDbLine
 10
8044.3020169839
 20
4840.8422827007
 30
0.0
 11
8044.3020169839
 21
4842.5659346195
 31
0.0
  0
LINE
  5
57B
330
1F
100
AcDbEntity
  8
0
  6
Continuous
 62
     8
370
    25
100
AcDbLine
 10
8044.3020169839
 20
4835.0376327327
 30
0.0
 11
8044.3020169839
 21
4840.8422827007
 31
0.0
  0
LINE
  5
57C
330
1F
100
AcDbEntity
  8
0
  6
Continuous
 62
     8
370
    25
100
AcDbLine
 10
8045.7265452858
 20
4793.2701335168
 30
0.0
 11
8045.7265452858
 21
4795.1017836761
 31
0.0
  0
LINE
  5
57D
330
1F
100
AcDbEntity
  8
0
  6
Continuous
 62
     8
370
    25
100
AcDbLine
 10
8045.7265452858
 20
4787.1017836761
 30
0.0
 11
8045.7265452858
 21
4793.2701335168
 31
0.0
  0
LINE
  5
57E
330
1F
100
AcDbEntity
  8
0
  6
Continuous
 62
     8
370
    25
100
AcDbLine
 10
8044.7265452858
 20
4793.2701335168
 30
0.0
 11
8044.7265452858
 21
4795.1017836761
 31
0.0
  0
LINE
  5
57F
330
1F
100
AcDbEntity
  8
0
  6
Continuous
 62
     8
370
    25
100
AcDbLine
 10
8044.7265452858
 20
4787.1017836761
 30
0.0
 11
8044.7265452858
 21
4793.2701335168
 31
0.0
  0
LINE
  5
580
330
1F
100
AcDbEntity
  8
0
  6
Continuous
 62
     8
370
    25
100
AcDbLine
 10
8044.3020169839
 20
4793.1422827007
 30
0.0
 11
8044.3020169839
 21
4794.8659346195
 31
0.0
  0
LINE
  5
581
330
1F
100
AcDbEntity
  8
0
  6
Continuous
 62
     8
370
    25
100
AcDbLine
 10
8044.3020169839
 20
4787.3376327327
 30
0.0
 11
8044.3020169839
 21
4793.1422827007
 31
0.0
  0
LINE
  5
582
330
1F
100
AcDbEntity
  8
0
  6
Continuous
 62
     8
370
    25
100
AcDbLine
 10
8043.7265452858
 20
4814.9517836761
 30
0.0
 11
8043.7265452858
 21
4808.4517836761
 31
0.0
  0
LINE
  5
583
330
1F
100
AcDbEntity
  8
0
  6
Continuous
 62
     8
370
    25
100
AcDbLine
 10
8043.7265452858
 20
4821.4517836761
 30
0.0
 11
8043.7265452858
 21
4814.9517836761
 31
0.0
  0
LWPOLYLINE
  5
584
330
1F
100
AcDbEntity
  8
0
  6
Continuous
 62
     8
370
    25
100
AcDbPolyline
 90
        3
 70
   128
 43
0.0
 10
8102.5559443212
 20
4796.1930300485
 10
8102.6879525593
 20
4794.7129158546
 10
8102.8947729233
 20
4793.9558006954
  0
ARC
  5
585
330
1F
100
AcDbEntity
  8
0
  6
Continuous
 62
     8
370
    25
100
AcDbCircle
 10
8108.9535415541
 20
4796.0176742798
 30
0.0
 40
6.400000000000691
100
AcDbArc
 50
218.0658022268
 51
258.7940718394
  0
ARC
  5
586
330
1F
100
AcDbEntity
  8
0
  6
Continuous
 62
     8
370
    25
100
AcDbCircle
 10
8108.9535415541
 20
4796.0176742798
 30
0.0
 40
6.400000000000794
100
AcDbArc
 50
278.0658022268
 51
318.7940718394
  0
ARC
  5
587
330
1F
100
AcDbEntity
  8
0
  6
Continuous
 62
     8
370
    25
100
AcDbCircle
 10
8108.9535415541
 20
4796.0176742798
 30
0.0
 40
6.400000000000373
100
AcDbArc
 50
338.0658022267
 51
18.7940718394
  0
ARC
  5
588
330
1F
100
AcDbEntity
  8
0
  6
Continuous
 62
     8
370
    25
100
AcDbCircle
 10
8108.9535415541
 20
4796.0176742798
 30
0.0
 40
6.400000000000515
100
AcDbArc
 50
38.0658022267
 51
78.7940718394
  0
ARC
  5
589
330
1F
100
AcDbEntity
  8
0
  6
Continuous
 62
     8
370
    25
100
AcDbCircle
 10
8108.9535415541
 20
4796.0176742798
 30
0.0
 40
6.39999999999992
100
AcDbArc
 50
98.0658022267
 51
138.7940718394
  0
LWPOLYLINE
  5
58A
330
1F
100
AcDbEntity
  8
0
  6
Continuous
 62
     8
370
    25
100
AcDbPolyline
 90
        3
 70
   128
 43
0.0
 10
8103.0168153732
 20
4798.4083399305
 10
8102.7688322059
 20
4797.6636907676
 10
8102.5559443212
 20
4796.1930300485
  0
LINE
  5
58B
330
1F
100
AcDbEntity
  8
0
  6
Continuous
 62
     8
370
    25
100
AcDbLine
 10
8044.0632128359
 20
4835.4517836761
 30
0.0
 11
8035.4771803804
 21
4835.4517836761
 31
0.0
  0
LINE
  5
58C
330
1F
100
AcDbEntity
  8
0
  6
Continuous
 62
     8
370
    25
100
AcDbLine
 10
7867.1759101912
 20
4835.4517836761
 30
0.0
 11
7847.8265452858
 21
4835.4517836761
 31
0.0
  0
LINE
  5
58D
330
1F
100
AcDbEntity
  8
0
  6
Continuous
 62
     8
370
    25
100
AcDbLine
 10
8107.8265452858
 20
4665.4517836761
 30
0.0
 11
8107.8265452858
 21
4767.9517836761
 31
0.0
  0
LINE
  5
58E
330
1F
100
AcDbEntity
  8
0
  6
Continuous
 62
     8
370
    25
100
AcDbLine
 10
8125.8265452858
 20
4654.9517836761
 30
0.0
 11
8125.8265452858
 21
4767.9517836761
 31
0.0
  0
LINE
  5
58F
330
1F
100
AcDbEntity
  8
0
  6
Continuous
 62
     8
370
    25
100
AcDbLine
 10
8125.8265452858
 20
4792.9517836761
 30
0.0
 11
8125.8265452858
 21
4824.9517836761
 31
0.0
  0
LINE
  5
590
330
1F
100
AcDbEntity
  8
0
  6
Continuous
 62
     8
370
    25
100
AcDbLine
 10
8125.8265452858
 20
4849.9517836761
 30
0.0
 11
8125.8265452858
 21
4850.9517836761
 31
0.0
  0
ENDSEC
  0
SECTION
  2
OBJECTS
  0
DICTIONARY
  5
C
330
0
100
AcDbDictionary
281
     1
  3
ACAD_GROUP
350
D
  3
ACAD_LAYOUT
350
1A
  3
ACAD_MLINESTYLE
350
17
  3
ACAD_PLOTSETTINGS
350
19
  3
ACAD_PLOTSTYLENAME
350
E
  3
ACAD_SCALELIST
350
47
  3
DWGPROPS
350
591
  0
DICTIONARY
  5
D
102
{ACAD_REACTORS
330
C
102
}
330
C
100
AcDbDictionary
281
     1
  0
DICTIONARY
  5
1A
102
{ACAD_REACTORS
330
C
102
}
330
C
100
AcDbDictionary
281
     1
  3
Layout1
350
1E
  3
Layout2
350
26
  3
Model
350
22
  0
DICTIONARY
  5
17
102
{ACAD_REACTORS
330
C
102
}
330
C
100
AcDbDictionary
281
     1
  3
Standard
350
18
  0
DICTIONARY
  5
19
102
{ACAD_REACTORS
330
C
102
}
330
C
100
AcDbDictionary
281
     1
  0
ACDBDICTIONARYWDFLT
  5
E
102
{ACAD_REACTORS
330
C
102
}
330
C
100
AcDbDictionary
281
     1
  3
Normal
350
F
100
AcDbDictionaryWithDefault
340
F
  0
DICTIONARY
  5
47
102
{ACAD_REACTORS
330
C
102
}
330
C
100
AcDbDictionary
281
     1
  3
A0
350
48
  3
A1
350
49
  3
A2
350
4A
  3
A3
350
4B
  3
A4
350
4C
  3
A5
350
4D
  3
A6
350
4E
  3
A7
350
4F
  3
A8
350
50
  3
A9
350
51
  3
B0
350
52
  3
B1
350
53
  3
B2
350
54
  3
B3
350
55
  3
B4
350
56
  3
B5
350
57
  3
B6
350
58
  3
B7
350
59
  3
B8
350
5A
  3
B9
350
5B
  3
C0
350
5C
  3
C1
350
5D
  3
C2
350
5E
  3
C3
350
5F
  3
C4
350
60
  3
C5
350
61
  3
C6
350
62
  3
C7
350
63
  3
C8
350
64
  3
C9
350
65
  3
D0
350
66
  3
D1
350
67
  3
D2
350
68
  0
XRECORD
  5
591
102
{ACAD_REACTORS
330
C
102
}
330
C
100
AcDbXrecord
280
     1
  1
DWGPROPS COOKIE
  2

  3

  4

  6

  7

  8
radek.stransky
  9

300
=
301
=
302
=
303
=
304
=
305
=
306
=
307
=
308
=
309
=
 40
0.0
 41
2460362.528174977
 42
2460362.528176562
  1

 90
        0
  0
LAYOUT
  5
1E
102
{ACAD_REACTORS
330
1A
102
}
330
1A
100
AcDbPlotSettings
  1

  2
none_device
  4

  6

 40
0.0
 41
0.0
 42
0.0
 43
0.0
 44
0.0
 45
0.0
 46
0.0
 47
0.0
 48
0.0
 49
0.0
140
0.0
141
0.0
142
1.0
143
1.0
 70
   688
 72
     1
 73
     0
 74
     5
  7

 75
    16
147
1.0
148
0.0
149
0.0
100
AcDbLayout
  1
Layout1
 70
     1
 71
     1
 10
0.0
 20
0.0
 11
420.0
 21
297.0
 12
0.0
 22
0.0
 32
0.0
 14
1.0000000000E+20
 24
1.0000000000E+20
 34
1.0000000000E+20
 15
-1.0000000000E+20
 25
-1.0000000000E+20
 35
-1.0000000000E+20
146
0.0
 13
0.0
 23
0.0
 33
0.0
 16
1.0
 26
0.0
 36
0.0
 17
0.0
 27
1.0
 37
0.0
 76
     0
330
1B
  0
LAYOUT
  5
26
102
{ACAD_REACTORS
330
1A
102
}
330
1A
100
AcDbPlotSettings
  1

  2
none_device
  4

  6

 40
0.0
 41
0.0
 42
0.0
 43
0.0
 44
0.0
 45
0.0
 46
0.0
 47
0.0
 48
0.0
 49
0.0
140
0.0
141
0.0
142
1.0
143
1.0
 70
   688
 72
     1
 73
     0
 74
     5
  7

 75
    16
147
1.0
148
0.0
149
0.0
100
AcDbLayout
  1
Layout2
 70
     1
 71
     2
 10
0.0
 20
0.0
 11
0.0
 21
0.0
 12
0.0
 22
0.0
 32
0.0
 14
0.0
 24
0.0
 34
0.0
 15
0.0
 25
0.0
 35
0.0
146
0.0
 13
0.0
 23
0.0
 33
0.0
 16
1.0
 26
0.0
 36
0.0
 17
0.0
 27
1.0
 37
0.0
 76
     0
330
23
  0
LAYOUT
  5
22
102
{ACAD_REACTORS
330
1A
102
}
330
1A
100
AcDbPlotSettings
  1

  2
none_device
  4
Letter_(8.50_x_11.00_Inches)
  6

 40
6.35
 41
6.35
 42
6.35000508
 43
6.35000508
 44
215.9
 45
279.4
 46
0.0
 47
0.0
 48
0.0
 49
0.0
140
0.0
141
0.0
142
1.0
143
1.0
 70
  1712
 72
     1
 73
     0
 74
     0
  7

 75
     0
147
1.0
148
0.0
149
0.0
100
AcDbLayout
  1
Model
 70
     1
 71
     0
 10
0.0
 20
0.0
 11
20000.0
 21
10000.0
 12
0.0
 22
0.0
 32
0.0
 14
0.0
 24
0.0
 34
0.0
 15
20000.0
 25
10000.0
 35
0.0
146
0.0
 13
0.0
 23
0.0
 33
0.0
 16
1.0
 26
0.0
 36
0.0
 17
0.0
 27
1.0
 37
0.0
 76
     0
330
1F
331
29
  0
MLINESTYLE
  5
18
102
{ACAD_REACTORS
330
17
102
}
330
17
100
AcDbMlineStyle
  2
Standard
 70
     0
  3

 62
   256
 51
90.0
 52
90.0
 71
     2
 49
0.5
 62
   256
  6
BYLAYER
 49
-0.5
 62
   256
  6
BYLAYER
  0
ACDBPLACEHOLDER
  5
F
102
{ACAD_REACTORS
330
E
102
}
330
E
  0
SCALE
  5
48
102
{ACAD_REACTORS
330
47
102
}
330
47
100
AcDbScale
 70
     0
300
1:1
140
1.0
141
1.0
290
     1
  0
SCALE
  5
49
102
{ACAD_REACTORS
330
47
102
}
330
47
100
AcDbScale
 70
     0
300
1:2
140
1.0
141
2.0
290
     0
  0
SCALE
  5
4A
102
{ACAD_REACTORS
330
47
102
}
330
47
100
AcDbScale
 70
     0
300
1:4
140
1.0
141
4.0
290
     0
  0
SCALE
  5
4B
102
{ACAD_REACTORS
330
47
102
}
330
47
100
AcDbScale
 70
     0
300
1:5
140
1.0
141
5.0
290
     0
  0
SCALE
  5
4C
102
{ACAD_REACTORS
330
47
102
}
330
47
100
AcDbScale
 70
     0
300
1:8
140
1.0
141
8.0
290
     0
  0
SCALE
  5
4D
102
{ACAD_REACTORS
330
47
102
}
330
47
100
AcDbScale
 70
     0
300
1:10
140
1.0
141
10.0
290
     0
  0
SCALE
  5
4E
102
{ACAD_REACTORS
330
47
102
}
330
47
100
AcDbScale
 70
     0
300
1:16
140
1.0
141
16.0
290
     0
  0
SCALE
  5
4F
102
{ACAD_REACTORS
330
47
102
}
330
47
100
AcDbScale
 70
     0
300
1:20
140
1.0
141
20.0
290
     0
  0
SCALE
  5
50
102
{ACAD_REACTORS
330
47
102
}
330
47
100
AcDbScale
 70
     0
300
1:30
140
1.0
141
30.0
290
     0
  0
SCALE
  5
51
102
{ACAD_REACTORS
330
47
102
}
330
47
100
AcDbScale
 70
     0
300
1:40
140
1.0
141
40.0
290
     0
  0
SCALE
  5
52
102
{ACAD_REACTORS
330
47
102
}
330
47
100
AcDbScale
 70
     0
300
1:50
140
1.0
141
50.0
290
     0
  0
SCALE
  5
53
102
{ACAD_REACTORS
330
47
102
}
330
47
100
AcDbScale
 70
     0
300
1:100
140
1.0
141
100.0
290
     0
  0
SCALE
  5
54
102
{ACAD_REACTORS
330
47
102
}
330
47
100
AcDbScale
 70
     0
300
2:1
140
2.0
141
1.0
290
     0
  0
SCALE
  5
55
102
{ACAD_REACTORS
330
47
102
}
330
47
100
AcDbScale
 70
     0
300
4:1
140
4.0
141
1.0
290
     0
  0
SCALE
  5
56
102
{ACAD_REACTORS
330
47
102
}
330
47
100
AcDbScale
 70
     0
300
8:1
140
8.0
141
1.0
290
     0
  0
SCALE
  5
57
102
{ACAD_REACTORS
330
47
102
}
330
47
100
AcDbScale
 70
     0
300
10:1
140
10.0
141
1.0
290
     0
  0
SCALE
  5
58
102
{ACAD_REACTORS
330
47
102
}
330
47
100
AcDbScale
 70
     0
300
100:1
140
100.0
141
1.0
290
     0
  0
SCALE
  5
59
102
{ACAD_REACTORS
330
47
102
}
330
47
100
AcDbScale
 70
     0
300
1/128" = 1'-0"
140
0.0078125
141
12.0
290
     0
  0
SCALE
  5
5A
102
{ACAD_REACTORS
330
47
102
}
330
47
100
AcDbScale
 70
     0
300
1/64" = 1'-0"
140
0.015625
141
12.0
290
     0
  0
SCALE
  5
5B
102
{ACAD_REACTORS
330
47
102
}
330
47
100
AcDbScale
 70
     0
300
1/32" = 1'-0"
140
0.03125
141
12.0
290
     0
  0
SCALE
  5
5C
102
{ACAD_REACTORS
330
47
102
}
330
47
100
AcDbScale
 70
     0
300
1/16" = 1'-0"
140
0.0625
141
12.0
290
     0
  0
SCALE
  5
5D
102
{ACAD_REACTORS
330
47
102
}
330
47
100
AcDbScale
 70
     0
300
3/32" = 1'-0"
140
0.09375
141
12.0
290
     0
  0
SCALE
  5
5E
102
{ACAD_REACTORS
330
47
102
}
330
47
100
AcDbScale
 70
     0
300
1/8" = 1'-0"
140
0.125
141
12.0
290
     0
  0
SCALE
  5
5F
102
{ACAD_REACTORS
330
47
102
}
330
47
100
AcDbScale
 70
     0
300
3/16" = 1'-0"
140
0.1875
141
12.0
290
     0
  0
SCALE
  5
60
102
{ACAD_REACTORS
330
47
102
}
330
47
100
AcDbScale
 70
     0
300
1/4" = 1'-0"
140
0.25
141
12.0
290
     0
  0
SCALE
  5
61
102
{ACAD_REACTORS
330
47
102
}
330
47
100
AcDbScale
 70
     0
300
3/8" = 1'-0"
140
0.375
141
12.0
290
     0
  0
SCALE
  5
62
102
{ACAD_REACTORS
330
47
102
}
330
47
100
AcDbScale
 70
     0
300
1/2" = 1'-0"
140
0.5
141
12.0
290
     0
  0
SCALE
  5
63
102
{ACAD_REACTORS
330
47
102
}
330
47
100
AcDbScale
 70
     0
300
3/4" = 1'-0"
140
0.75
141
12.0
290
     0
  0
SCALE
  5
64
102
{ACAD_REACTORS
330
47
102
}
330
47
100
AcDbScale
 70
     0
300
1" = 1'-0"
140
1.0
141
12.0
290
     0
  0
SCALE
  5
65
102
{ACAD_REACTORS
330
47
102
}
330
47
100
AcDbScale
 70
     0
300
1-1/2" = 1'-0"
140
1.5
141
12.0
290
     0
  0
SCALE
  5
66
102
{ACAD_REACTORS
330
47
102
}
330
47
100
AcDbScale
 70
     0
300
3" = 1'-0"
140
3.0
141
12.0
290
     0
  0
SCALE
  5
67
102
{ACAD_REACTORS
330
47
102
}
330
47
100
AcDbScale
 70
     0
300
6" = 1'-0"
140
6.0
141
12.0
290
     0
  0
SCALE
  5
68
102
{ACAD_REACTORS
330
47
102
}
330
47
100
AcDbScale
 70
     0
300
1'-0" = 1'-0"
140
12.0
141
12.0
290
     0
  0
ENDSEC
  0
EOF
