  0
SECTION
  2
HEADER
  9
$ACADVER
  1
AC1015
  9
$ACADMAINTVER
 70
     6
  9
$DWGCODEPAGE
  3
ANSI_1250
  9
$INSBASE
 10
0.0
 20
0.0
 30
0.0
  9
$EXTMIN
 10
0.0
 20
0.0
 30
0.0
  9
$EXTMAX
 10
20000.0
 20
10000.0
 30
0.0
  9
$LIMMIN
 10
0.0
 20
0.0
  9
$LIMMAX
 10
20000.0
 20
10000.0
  9
$ORTHOMODE
 70
     0
  9
$REGENMODE
 70
     1
  9
$FILLMODE
 70
     1
  9
$QTEXTMODE
 70
     0
  9
$MIRRTEXT
 70
     1
  9
$LTSCALE
 40
1.0
  9
$ATTMODE
 70
     1
  9
$TEXTSIZE
 40
2.0
  9
$TRACEWID
 40
1.0
  9
$TEXTSTYLE
  7
Standard
  9
$CLAYER
  8
0
  9
$CELTYPE
  6
ByLayer
  9
$CECOLOR
 62
   256
  9
$CELTSCALE
 40
1.0
  9
$DISPSILH
 70
     0
  9
$DIMSCALE
 40
1.0
  9
$DIMASZ
 40
2.0
  9
$DIMEXO
 40
1.0
  9
$DIMDLI
 40
3.75
  9
$DIMRND
 40
0.0
  9
$DIMDLE
 40
0.0
  9
$DIMEXE
 40
1.0
  9
$DIMTP
 40
0.0
  9
$DIMTM
 40
0.0
  9
$DIMTXT
 40
2.0
  9
$DIMCEN
 40
2.5
  9
$DIMTSZ
 40
0.0
  9
$DIMTOL
 70
     0
  9
$DIMLIM
 70
     0
  9
$DIMTIH
 70
     1
  9
$DIMTOH
 70
     1
  9
$DIMSE1
 70
     0
  9
$DIMSE2
 70
     0
  9
$DIMTAD
 70
     1
  9
$DIMZIN
 70
     0
  9
$DIMBLK
  1

  9
$DIMASO
 70
     1
  9
$DIMSHO
 70
     1
  9
$DIMPOST
  1

  9
$DIMAPOST
  1

  9
$DIMALT
 70
     0
  9
$DIMALTD
 70
     3
  9
$DIMALTF
 40
0.0393700787
  9
$DIMLFAC
 40
1.0
  9
$DIMTOFL
 70
     1
  9
$DIMTVP
 40
0.0
  9
$DIMTIX
 70
     0
  9
$DIMSOXD
 70
     0
  9
$DIMSAH
 70
     0
  9
$DIMBLK1
  1

  9
$DIMBLK2
  1

  9
$DIMSTYLE
  2
ISO-25
  9
$DIMCLRD
 70
     0
  9
$DIMCLRE
 70
     0
  9
$DIMCLRT
 70
     0
  9
$DIMTFAC
 40
1.0
  9
$DIMGAP
 40
1.524
  9
$DIMJUST
 70
     0
  9
$DIMSD1
 70
     0
  9
$DIMSD2
 70
     0
  9
$DIMTOLJ
 70
     0
  9
$DIMTZIN
 70
     0
  9
$DIMALTZ
 70
     0
  9
$DIMALTTZ
 70
     0
  9
$DIMUPT
 70
     0
  9
$DIMDEC
 70
     2
  9
$DIMTDEC
 70
     0
  9
$DIMALTU
 70
     2
  9
$DIMALTTD
 70
     3
  9
$DIMTXSTY
  7
Standard
  9
$DIMAUNIT
 70
     0
  9
$DIMADEC
 70
     2
  9
$DIMALTRND
 40
0.0
  9
$DIMAZIN
 70
     0
  9
$DIMDSEP
 70
    44
  9
$DIMATFIT
 70
     3
  9
$DIMFRAC
 70
     0
  9
$DIMLDRBLK
  1

  9
$DIMLUNIT
 70
     2
  9
$DIMLWD
 70
    -2
  9
$DIMLWE
 70
    -2
  9
$DIMTMOVE
 70
     0
  9
$LUNITS
 70
     2
  9
$LUPREC
 70
     3
  9
$SKETCHINC
 40
1.0
  9
$FILLETRAD
 40
10.0
  9
$AUNITS
 70
     0
  9
$AUPREC
 70
     2
  9
$MENU
  1
.
  9
$ELEVATION
 40
0.0
  9
$PELEVATION
 40
0.0
  9
$THICKNESS
 40
0.0
  9
$LIMCHECK
 70
     0
  9
$CHAMFERA
 40
0.0
  9
$CHAMFERB
 40
0.0
  9
$CHAMFERC
 40
0.0
  9
$CHAMFERD
 40
0.0
  9
$SKPOLY
 70
     0
  9
$TDCREATE
 40
2459123.414488438
  9
$TDUCREATE
 40
2459123.331155104
  9
$TDUPDATE
 40
2459123.414488669
  9
$TDUUPDATE
 40
2459123.331155336
  9
$TDINDWG
 40
0.0000000116
  9
$TDUSRTIMER
 40
0.0000000116
  9
$USRTIMER
 70
     1
  9
$ANGBASE
 50
0.0
  9
$ANGDIR
 70
     0
  9
$PDMODE
 70
     0
  9
$PDSIZE
 40
-1.0
  9
$PLINEWID
 40
0.0
  9
$SPLFRAME
 70
     0
  9
$SPLINETYPE
 70
     6
  9
$SPLINESEGS
 70
     8
  9
$HANDSEED
  5
3F7
  9
$SURFTAB1
 70
     6
  9
$SURFTAB2
 70
     6
  9
$SURFTYPE
 70
     6
  9
$SURFU
 70
     6
  9
$SURFV
 70
     6
  9
$UCSBASE
  2

  9
$UCSNAME
  2

  9
$UCSORG
 10
0.0
 20
0.0
 30
0.0
  9
$UCSXDIR
 10
1.0
 20
0.0
 30
0.0
  9
$UCSYDIR
 10
0.0
 20
1.0
 30
0.0
  9
$UCSORTHOREF
  2

  9
$UCSORTHOVIEW
 70
     0
  9
$UCSORGTOP
 10
0.0
 20
0.0
 30
0.0
  9
$UCSORGBOTTOM
 10
0.0
 20
0.0
 30
0.0
  9
$UCSORGLEFT
 10
0.0
 20
0.0
 30
0.0
  9
$UCSORGRIGHT
 10
0.0
 20
0.0
 30
0.0
  9
$UCSORGFRONT
 10
0.0
 20
0.0
 30
0.0
  9
$UCSORGBACK
 10
0.0
 20
0.0
 30
0.0
  9
$PUCSBASE
  2

  9
$PUCSNAME
  2

  9
$PUCSORG
 10
0.0
 20
0.0
 30
0.0
  9
$PUCSXDIR
 10
1.0
 20
0.0
 30
0.0
  9
$PUCSYDIR
 10
0.0
 20
1.0
 30
0.0
  9
$PUCSORTHOREF
  2

  9
$PUCSORTHOVIEW
 70
     0
  9
$PUCSORGTOP
 10
0.0
 20
0.0
 30
0.0
  9
$PUCSORGBOTTOM
 10
0.0
 20
0.0
 30
0.0
  9
$PUCSORGLEFT
 10
0.0
 20
0.0
 30
0.0
  9
$PUCSORGRIGHT
 10
0.0
 20
0.0
 30
0.0
  9
$PUCSORGFRONT
 10
0.0
 20
0.0
 30
0.0
  9
$PUCSORGBACK
 10
0.0
 20
0.0
 30
0.0
  9
$USERI1
 70
     0
  9
$USERI2
 70
     0
  9
$USERI3
 70
     0
  9
$USERI4
 70
     0
  9
$USERI5
 70
     0
  9
$USERR1
 40
0.0
  9
$USERR2
 40
0.0
  9
$USERR3
 40
0.0
  9
$USERR4
 40
0.0
  9
$USERR5
 40
0.0
  9
$WORLDVIEW
 70
     1
  9
$SHADEDGE
 70
     3
  9
$SHADEDIF
 70
    70
  9
$TILEMODE
 70
     1
  9
$MAXACTVP
 70
    64
  9
$PINSBASE
 10
0.0
 20
0.0
 30
0.0
  9
$PLIMCHECK
 70
     0
  9
$PEXTMIN
 10
1.0000000000E+20
 20
1.0000000000E+20
 30
1.0000000000E+20
  9
$PEXTMAX
 10
-1.0000000000E+20
 20
-1.0000000000E+20
 30
-1.0000000000E+20
  9
$PLIMMIN
 10
0.0
 20
0.0
  9
$PLIMMAX
 10
420.0
 20
297.0
  9
$UNITMODE
 70
     0
  9
$VISRETAIN
 70
     1
  9
$PLINEGEN
 70
     0
  9
$PSLTSCALE
 70
     1
  9
$TREEDEPTH
 70
  3020
  9
$CMLSTYLE
  2
Standard
  9
$CMLJUST
 70
     0
  9
$CMLSCALE
 40
20.0
  9
$PROXYGRAPHICS
 70
     1
  9
$MEASUREMENT
 70
     1
  9
$CELWEIGHT
370
    -1
  9
$ENDCAPS
280
     0
  9
$JOINSTYLE
280
     0
  9
$LWDISPLAY
290
     1
  9
$INSUNITS
 70
     4
  9
$HYPERLINKBASE
  1

  9
$STYLESHEET
  1

  9
$XEDIT
290
     1
  9
$CEPSNTYPE
380
     0
  9
$PSTYLEMODE
290
     1
  9
$FINGERPRINTGUID
  2
{74e26274-a776-4e5c-8486-e2d6c32adef6}
  9
$VERSIONGUID
  2
{FAEB1C32-E019-11D5-929B-00C0DF256EC4}
  9
$EXTNAMES
290
     1
  9
$PSVPSCALE
 40
0.0
  9
$OLESTARTUP
290
     0
  0
ENDSEC
  0
SECTION
  2
CLASSES
  0
CLASS
  1
ACDBDICTIONARYWDFLT
  2
AcDbDictionaryWithDefault
  3
ObjectDBX Classes
 90
        0
280
     0
281
     0
  0
CLASS
  1
VISUALSTYLE
  2
AcDbVisualStyle
  3
ObjectDBX Classes
 90
     4095
280
     0
281
     0
  0
CLASS
  1
MATERIAL
  2
AcDbMaterial
  3
ObjectDBX Classes
 90
     1153
280
     0
281
     0
  0
CLASS
  1
SCALE
  2
AcDbScale
  3
ObjectDBX Classes
 90
     1153
280
     0
281
     0
  0
CLASS
  1
TABLESTYLE
  2
AcDbTableStyle
  3
ObjectDBX Classes
 90
     4095
280
     0
281
     0
  0
CLASS
  1
MLEADERSTYLE
  2
AcDbMLeaderStyle
  3
ACDB_MLEADERSTYLE_CLASS
 90
     4095
280
     0
281
     0
  0
CLASS
  1
SUN
  2
AcDbSun
  3
SCENEOE
 90
     1153
280
     0
281
     0
  0
CLASS
  1
ACDBPLACEHOLDER
  2
AcDbPlaceHolder
  3
ObjectDBX Classes
 90
        0
280
     0
281
     0
  0
CLASS
  1
LAYOUT
  2
AcDbLayout
  3
ObjectDBX Classes
 90
        0
280
     0
281
     0
  0
ENDSEC
  0
SECTION
  2
TABLES
  0
TABLE
  2
VPORT
  5
8
330
0
100
AcDbSymbolTable
 70
     1
  0
VPORT
  5
29
330
8
100
AcDbSymbolTableRecord
100
AcDbViewportTableRecord
  2
*Active
 70
     0
 10
0.0
 20
0.0
 11
1.0
 21
1.0
 12
10000.0
 22
5000.0
 13
0.0
 23
0.0
 14
10.0
 24
10.0
 15
10.0
 25
10.0
 16
0.0
 26
0.0
 36
1.0
 17
0.0
 27
0.0
 37
0.0
 40
10000.0
 41
2.0
 42
50.0
 43
0.0
 44
0.0
 50
0.0
 51
0.0
 71
     0
 72
  2000
 73
     1
 74
     3
 75
     0
 76
     0
 77
     0
 78
     0
281
     0
 65
     1
110
0.0
120
0.0
130
0.0
111
1.0
121
0.0
131
0.0
112
0.0
122
1.0
132
0.0
 79
     0
146
0.0
  0
ENDTAB
  0
TABLE
  2
LTYPE
  5
5
330
0
100
AcDbSymbolTable
 70
     6
  0
LTYPE
  5
14
330
5
100
AcDbSymbolTableRecord
100
AcDbLinetypeTableRecord
  2
ByBlock
 70
     0
  3

 72
    65
 73
     0
 40
0.0
  0
LTYPE
  5
15
330
5
100
AcDbSymbolTableRecord
100
AcDbLinetypeTableRecord
  2
ByLayer
 70
     0
  3

 72
    65
 73
     0
 40
0.0
  0
LTYPE
  5
16
330
5
100
AcDbSymbolTableRecord
100
AcDbLinetypeTableRecord
  2
Continuous
 70
     0
  3
Solid line
 72
    65
 73
     0
 40
0.0
  0
LTYPE
  5
6E
330
5
100
AcDbSymbolTableRecord
100
AcDbLinetypeTableRecord
  2
HIDDEN
 70
     0
  3
Hidden __ __ __ __ __ __ __ __ __ __ __ __ __ __
 72
    65
 73
     2
 40
1.905
 49
1.27
 74
     0
 49
-0.635
 74
     0
  0
LTYPE
  5
6F
330
5
100
AcDbSymbolTableRecord
100
AcDbLinetypeTableRecord
  2
PHANTOM
 70
     0
  3
Phantom ______  __  __  ______  __  __  ______
 72
    65
 73
     6
 40
12.7
 49
6.35
 74
     0
 49
-1.27
 74
     0
 49
1.27
 74
     0
 49
-1.27
 74
     0
 49
1.27
 74
     0
 49
-1.27
 74
     0
  0
LTYPE
  5
70
330
5
100
AcDbSymbolTableRecord
100
AcDbLinetypeTableRecord
  2
CENTER
 70
     0
  3
Center ____ _ ____ _ ____ _ ____ _ ____ _ ____
 72
    65
 73
     4
 40
10.16
 49
6.35
 74
     0
 49
-1.27
 74
     0
 49
1.27
 74
     0
 49
-1.27
 74
     0
  0
LTYPE
  5
71
330
5
100
AcDbSymbolTableRecord
100
AcDbLinetypeTableRecord
  2
CENTERX2
 70
     0
  3
Center (2x) ________  __  ________  __  _____
 72
    65
 73
     4
 40
20.32
 49
12.7
 74
     0
 49
-2.54
 74
     0
 49
2.54
 74
     0
 49
-2.54
 74
     0
  0
LTYPE
  5
72
330
5
100
AcDbSymbolTableRecord
100
AcDbLinetypeTableRecord
  2
DOT2
 70
     0
  3
Dot (.5x) ........................................
 72
    65
 73
     2
 40
0.635
 49
0.0
 74
     0
 49
-0.635
 74
     0
  0
ENDTAB
  0
TABLE
  2
LAYER
  5
2
330
0
100
AcDbSymbolTable
 70
    13
  0
LAYER
  5
10
330
2
100
AcDbSymbolTableRecord
100
AcDbLayerTableRecord
  2
0
 70
     0
 62
     7
  6
Continuous
370
    -3
390
F
  0
LAYER
  5
73
330
2
100
AcDbSymbolTableRecord
100
AcDbLayerTableRecord
  2
FORMAT
 70
     0
 62
     7
  6
Continuous
370
    -3
390
F
  0
LAYER
  5
74
330
2
100
AcDbSymbolTableRecord
100
AcDbLayerTableRecord
  2
OSA
 70
     0
 62
     7
  6
CENTER
370
    -3
390
F
  0
LAYER
  5
75
330
2
100
AcDbSymbolTableRecord
100
AcDbLayerTableRecord
  2
0_35
 70
     0
 62
     7
  6
Continuous
370
    35
390
F
  0
LAYER
  5
76
330
2
100
AcDbSymbolTableRecord
100
AcDbLayerTableRecord
  2
0_5
 70
     0
 62
     7
  6
Continuous
370
    50
390
F
  0
LAYER
  5
77
330
2
100
AcDbSymbolTableRecord
100
AcDbLayerTableRecord
  2
0_25
 70
     0
 62
     7
  6
Continuous
370
    25
390
F
  0
LAYER
  5
78
330
2
100
AcDbSymbolTableRecord
100
AcDbLayerTableRecord
  2
0_18
 70
     0
 62
     7
  6
Continuous
370
    -3
390
F
  0
LAYER
  5
79
330
2
100
AcDbSymbolTableRecord
100
AcDbLayerTableRecord
  2
SLD-0
 70
     0
 62
   179
  6
Continuous
370
    -3
390
F
  0
LAYER
  5
7A
330
2
100
AcDbSymbolTableRecord
100
AcDbLayerTableRecord
  2
KOTY
 70
     0
 62
     7
  6
Continuous
370
    -3
390
F
  0
LAYER
  5
7B
330
2
100
AcDbSymbolTableRecord
100
AcDbLayerTableRecord
  2
SILNA
 70
     0
 62
   179
  6
Continuous
370
    -3
390
F
  0
LAYER
  5
7C
330
2
100
AcDbSymbolTableRecord
100
AcDbLayerTableRecord
  2
0_18_1
 70
     0
 62
   179
  6
Continuous
370
    -3
390
F
  0
LAYER
  5
7D
330
2
100
AcDbSymbolTableRecord
100
AcDbLayerTableRecord
  2
0_35_1
 70
     0
 62
   179
  6
Continuous
370
    35
390
F
  0
LAYER
  5
7E
330
2
100
AcDbSymbolTableRecord
100
AcDbLayerTableRecord
  2
0_5_1
 70
     0
 62
   179
  6
Continuous
370
    50
390
F
  0
ENDTAB
  0
TABLE
  2
STYLE
  5
3
330
0
100
AcDbSymbolTable
 70
     1
  0
STYLE
  5
11
330
3
100
AcDbSymbolTableRecord
100
AcDbTextStyleTableRecord
  2
Standard
 70
     0
 40
0.0
 41
1.0
 50
0.0
 71
     0
 42
2.0
  3
txt
  4

  0
ENDTAB
  0
TABLE
  2
VIEW
  5
6
330
0
100
AcDbSymbolTable
 70
     0
  0
ENDTAB
  0
TABLE
  2
UCS
  5
7
330
0
100
AcDbSymbolTable
 70
     0
  0
ENDTAB
  0
TABLE
  2
APPID
  5
9
330
0
100
AcDbSymbolTable
 70
     1
  0
APPID
  5
12
330
9
100
AcDbSymbolTableRecord
100
AcDbRegAppTableRecord
  2
ACAD
 70
     0
  0
ENDTAB
  0
TABLE
  2
DIMSTYLE
  5
A
330
0
100
AcDbSymbolTable
 70
     1
100
AcDbDimStyleTable
  0
DIMSTYLE
105
27
330
A
100
AcDbSymbolTableRecord
100
AcDbDimStyleTableRecord
  2
ISO-25
 70
     0
 41
2.5
 42
0.625
 43
3.75
 44
1.25
 73
     0
 74
     0
 77
     1
 78
     8
140
2.5
141
2.5
143
0.0393700787
147
0.625
171
     3
172
     1
178
     0
271
     2
272
     2
274
     3
278
    44
283
     0
284
     8
340
11
  0
ENDTAB
  0
TABLE
  2
BLOCK_RECORD
  5
1
330
0
100
AcDbSymbolTable
 70
     1
  0
BLOCK_RECORD
  5
1F
330
1
100
AcDbSymbolTableRecord
100
AcDbBlockTableRecord
  2
*Model_Space
340
22
  0
BLOCK_RECORD
  5
1B
330
1
100
AcDbSymbolTableRecord
100
AcDbBlockTableRecord
  2
*Paper_Space
340
1E
  0
BLOCK_RECORD
  5
23
330
1
100
AcDbSymbolTableRecord
100
AcDbBlockTableRecord
  2
*Paper_Space0
340
26
  0
ENDTAB
  0
ENDSEC
  0
SECTION
  2
BLOCKS
  0
BLOCK
  5
20
330
1F
100
AcDbEntity
  8
0
100
AcDbBlockBegin
  2
*Model_Space
 70
     0
 10
0.0
 20
0.0
 30
0.0
  3
*Model_Space
  1

  0
ENDBLK
  5
21
330
1F
100
AcDbEntity
  8
0
100
AcDbBlockEnd
  0
BLOCK
  5
1C
330
1B
100
AcDbEntity
 67
     1
  8
0
100
AcDbBlockBegin
  2
*Paper_Space
 70
     0
 10
0.0
 20
0.0
 30
0.0
  3
*Paper_Space
  1

  0
ENDBLK
  5
1D
330
1B
100
AcDbEntity
 67
     1
  8
0
100
AcDbBlockEnd
  0
BLOCK
  5
24
330
23
100
AcDbEntity
  8
0
100
AcDbBlockBegin
  2
*Paper_Space0
 70
     0
 10
0.0
 20
0.0
 30
0.0
  3
*Paper_Space0
  1

  0
ENDBLK
  5
25
330
23
100
AcDbEntity
  8
0
100
AcDbBlockEnd
  0
ENDSEC
  0
SECTION
  2
ENTITIES
  0
LINE
  5
7F
330
1F
100
AcDbEntity
  8
0
  6
Continuous
 62
     7
370
    25
100
AcDbLine
 10
5667.3844073304
 20
4779.4716716725
 30
0.0
 11
5668.8844073304
 21
4779.4716716725
 31
0.0
  0
LINE
  5
80
330
1F
100
AcDbEntity
  8
0
  6
Continuous
 62
     7
370
    25
100
AcDbLine
 10
5668.8844073304
 20
4784.4716716725
 30
0.0
 11
5667.3844073304
 21
4784.4716716725
 31
0.0
  0
ARC
  5
81
330
1F
100
AcDbEntity
  8
0
  6
Continuous
 62
     7
370
    25
100
AcDbCircle
 10
5668.8844073304
 20
4783.9716716725
 30
0.0
 40
0.5
100
AcDbArc
 50
0.0
 51
90.0
  0
ARC
  5
82
330
1F
100
AcDbEntity
  8
0
  6
Continuous
 62
     7
370
    25
100
AcDbCircle
 10
5668.8844073304
 20
4779.9716716725
 30
0.0
 40
0.5
100
AcDbArc
 50
270.0
 51
0.0
  0
ARC
  5
83
330
1F
100
AcDbEntity
  8
0
  6
Continuous
 62
     7
370
    25
100
AcDbCircle
 10
5639.3844073304
 20
4763.9716716725
 30
0.0
 40
3.0
100
AcDbArc
 50
180.0
 51
0.0
  0
LINE
  5
84
330
1F
100
AcDbEntity
  8
0
  6
Continuous
 62
     7
370
    25
100
AcDbLine
 10
5636.3844073304
 20
4769.9716716725
 30
0.0
 11
5636.3844073304
 21
4763.9716716725
 31
0.0
  0
LINE
  5
85
330
1F
100
AcDbEntity
  8
0
  6
Continuous
 62
     7
370
    25
100
AcDbLine
 10
5642.3844073304
 20
4763.9716716725
 30
0.0
 11
5642.3844073304
 21
4769.9716716725
 31
0.0
  0
LINE
  5
86
330
1F
100
AcDbEntity
  8
0
  6
Continuous
 62
     7
370
    25
100
AcDbLine
 10
5668.3844073304
 20
4942.9716716725
 30
0.0
 11
5667.3844073304
 21
4942.9716716725
 31
0.0
  0
LINE
  5
87
330
1F
100
AcDbEntity
  8
0
  6
Continuous
 62
     7
370
    25
100
AcDbLine
 10
5667.3844073304
 20
4852.9716716725
 30
0.0
 11
5668.3844073304
 21
4852.9716716725
 31
0.0
  0
LINE
  5
88
330
1F
100
AcDbEntity
  8
0
  6
Continuous
 62
     7
370
    25
100
AcDbLine
 10
5667.3969073304
 20
5006.8113034511
 30
0.0
 11
5667.3844073304
 21
5006.8113034511
 31
0.0
  0
LINE
  5
89
330
1F
100
AcDbEntity
  8
0
  6
Continuous
 62
     7
370
    25
100
AcDbLine
 10
5667.3844073304
 20
4997.8354499323
 30
0.0
 11
5667.3969073304
 21
4997.8354499323
 31
0.0
  0
LINE
  5
8A
330
1F
100
AcDbEntity
  8
0
  6
Continuous
 62
     7
370
    25
100
AcDbLine
 10
5667.3844073304
 20
4996.5948167451
 30
0.0
 11
5667.3969073304
 21
4996.5948167451
 31
0.0
  0
LINE
  5
8B
330
1F
100
AcDbEntity
  8
0
  6
Continuous
 62
     7
370
    25
100
AcDbLine
 10
5667.3969073304
 20
5003.8298452263
 30
0.0
 11
5667.3844073304
 21
5003.8298452263
 31
0.0
  0
LINE
  5
8C
330
1F
100
AcDbEntity
  8
0
  6
Continuous
 62
     7
370
    25
100
AcDbLine
 10
5667.3969073304
 20
5004.9571975961
 30
0.0
 11
5667.3844073304
 21
5004.9571975961
 31
0.0
  0
LINE
  5
8D
330
1F
100
AcDbEntity
  8
0
  6
Continuous
 62
     7
370
    25
100
AcDbLine
 10
5667.3969073304
 20
5003.8106121261
 30
0.0
 11
5667.3844073304
 21
5003.8106121261
 31
0.0
  0
LINE
  5
8E
330
1F
100
AcDbEntity
  8
0
  6
Continuous
 62
     7
370
    25
100
AcDbLine
 10
5667.3969073304
 20
5003.7912808179
 30
0.0
 11
5667.3844073304
 21
5003.7912808179
 31
0.0
  0
LINE
  5
8F
330
1F
100
AcDbEntity
  8
0
  6
Continuous
 62
     7
370
    25
100
AcDbLine
 10
5667.3969073304
 20
5004.9192215797
 30
0.0
 11
5667.3844073304
 21
5004.9192215797
 31
0.0
  0
LINE
  5
90
330
1F
100
AcDbEntity
  8
0
  6
Continuous
 62
     7
370
    25
100
AcDbLine
 10
5667.3969073304
 20
5003.7784592112
 30
0.0
 11
5667.3844073304
 21
5003.7784592112
 31
0.0
  0
LINE
  5
91
330
1F
100
AcDbEntity
  8
0
  6
Continuous
 62
     7
370
    25
100
AcDbLine
 10
5667.3969073304
 20
5004.1878783239
 30
0.0
 11
5667.3844073304
 21
5004.1878783239
 31
0.0
  0
LINE
  5
92
330
1F
100
AcDbEntity
  8
0
  6
Continuous
 62
     7
370
    25
100
AcDbLine
 10
5667.3969073304
 20
5004.8136933526
 30
0.0
 11
5667.3844073304
 21
5004.8136933526
 31
0.0
  0
LINE
  5
93
330
1F
100
AcDbEntity
  8
0
  6
Continuous
 62
     7
370
    25
100
AcDbLine
 10
5667.3844073304
 20
5004.3386825831
 30
0.0
 11
5667.3969073304
 21
5004.3386825831
 31
0.0
  0
LINE
  5
94
330
1F
100
AcDbEntity
  8
0
  6
Continuous
 62
     7
370
    25
100
AcDbLine
 10
5667.3969073304
 20
5005.0046504772
 30
0.0
 11
5667.3844073304
 21
5005.0046504772
 31
0.0
  0
LINE
  5
95
330
1F
100
AcDbEntity
  8
0
  6
Continuous
 62
     7
370
    25
100
AcDbLine
 10
5667.3969073304
 20
5006.8267943042
 30
0.0
 11
5667.3844073304
 21
5006.8267943042
 31
0.0
  0
LINE
  5
96
330
1F
100
AcDbEntity
  8
0
  6
Continuous
 62
     7
370
    25
100
AcDbLine
 10
5667.3969073304
 20
5004.4094713032
 30
0.0
 11
5667.3844073304
 21
5004.4094713032
 31
0.0
  0
LINE
  5
97
330
1F
100
AcDbEntity
  8
0
  6
Continuous
 62
     7
370
    25
100
AcDbLine
 10
5667.3969073304
 20
5006.7227872742
 30
0.0
 11
5667.3844073304
 21
5006.7227872742
 31
0.0
  0
LINE
  5
98
330
1F
100
AcDbEntity
  8
0
  6
Continuous
 62
     7
370
    25
100
AcDbLine
 10
5667.3844073304
 20
5002.7711381937
 30
0.0
 11
5667.3969073304
 21
5002.7711381937
 31
0.0
  0
LINE
  5
99
330
1F
100
AcDbEntity
  8
0
  6
Continuous
 62
     7
370
    25
100
AcDbLine
 10
5667.3844073304
 20
5005.2030151561
 30
0.0
 11
5667.3969073304
 21
5005.2030151561
 31
0.0
  0
LINE
  5
9A
330
1F
100
AcDbEntity
  8
0
  6
Continuous
 62
     7
370
    25
100
AcDbLine
 10
5667.3844073304
 20
5005.3095378579
 30
0.0
 11
5667.3969073304
 21
5005.3095378579
 31
0.0
  0
LINE
  5
9B
330
1F
100
AcDbEntity
  8
0
  6
Continuous
 62
     7
370
    25
100
AcDbLine
 10
5667.3844073304
 20
5003.0734988524
 30
0.0
 11
5667.3969073304
 21
5003.0734988524
 31
0.0
  0
LINE
  5
9C
330
1F
100
AcDbEntity
  8
0
  6
Continuous
 62
     7
370
    25
100
AcDbLine
 10
5667.3969073304
 20
5004.8192619723
 30
0.0
 11
5667.3844073304
 21
5004.8192619723
 31
0.0
  0
LINE
  5
9D
330
1F
100
AcDbEntity
  8
0
  6
Continuous
 62
     7
370
    25
100
AcDbLine
 10
5667.3844073304
 20
4998.5776588119
 30
0.0
 11
5667.3969073304
 21
4998.5776588119
 31
0.0
  0
LINE
  5
9E
330
1F
100
AcDbEntity
  8
0
  6
Continuous
 62
     7
370
    25
100
AcDbLine
 10
5667.3844073304
 20
4999.6126936513
 30
0.0
 11
5667.3969073304
 21
4999.6126936513
 31
0.0
  0
LINE
  5
9F
330
1F
100
AcDbEntity
  8
0
  6
Continuous
 62
     7
370
    25
100
AcDbLine
 10
5667.3844073304
 20
5000.5466585337
 30
0.0
 11
5667.3969073304
 21
5000.5466585337
 31
0.0
  0
LINE
  5
A0
330
1F
100
AcDbEntity
  8
0
  6
Continuous
 62
     7
370
    25
100
AcDbLine
 10
5667.3844073304
 20
5001.5588300641
 30
0.0
 11
5667.3969073304
 21
5001.5588300641
 31
0.0
  0
LINE
  5
A1
330
1F
100
AcDbEntity
  8
0
  6
Continuous
 62
     7
370
    25
100
AcDbLine
 10
5667.3969073304
 20
5004.0999127128
 30
0.0
 11
5667.3844073304
 21
5004.0999127128
 31
0.0
  0
LINE
  5
A2
330
1F
100
AcDbEntity
  8
0
  6
Continuous
 62
     7
370
    25
100
AcDbLine
 10
5667.3969073304
 20
5007.9921025723
 30
0.0
 11
5667.3844073304
 21
5007.9921025723
 31
0.0
  0
LINE
  5
A3
330
1F
100
AcDbEntity
  8
0
  6
Continuous
 62
     7
370
    25
100
AcDbLine
 10
5667.3969073304
 20
5007.885219417
 30
0.0
 11
5667.3844073304
 21
5007.885219417
 31
0.0
  0
LINE
  5
A4
330
1F
100
AcDbEntity
  8
0
  6
Continuous
 62
     7
370
    25
100
AcDbLine
 10
5667.3844073304
 20
5006.2547227448
 30
0.0
 11
5667.3969073304
 21
5006.2547227448
 31
0.0
  0
LINE
  5
A5
330
1F
100
AcDbEntity
  8
0
  6
Continuous
 62
     7
370
    25
100
AcDbLine
 10
5667.3844073304
 20
5006.1481998423
 30
0.0
 11
5667.3969073304
 21
5006.1481998423
 31
0.0
  0
LINE
  5
A6
330
1F
100
AcDbEntity
  8
0
  6
Continuous
 62
     7
370
    25
100
AcDbLine
 10
5571.4821791682
 20
4756.2217482484
 30
0.0
 11
5571.4821791682
 21
4753.7215950966
 31
0.0
  0
LINE
  5
A7
330
1F
100
AcDbEntity
  8
0
  6
Continuous
 62
     7
370
    25
100
AcDbLine
 10
5569.3169830254
 20
4757.4718248243
 30
0.0
 11
5571.4821791682
 21
4756.2217482484
 31
0.0
  0
LINE
  5
A8
330
1F
100
AcDbEntity
  8
0
  6
Continuous
 62
     7
370
    25
100
AcDbLine
 10
5567.1517868826
 20
4756.2217482484
 30
0.0
 11
5569.3169830254
 21
4757.4718248243
 31
0.0
  0
LINE
  5
A9
330
1F
100
AcDbEntity
  8
0
  6
Continuous
 62
     7
370
    25
100
AcDbLine
 10
5567.1517868826
 20
4753.7215950966
 30
0.0
 11
5567.1517868826
 21
4756.2217482484
 31
0.0
  0
LINE
  5
AA
330
1F
100
AcDbEntity
  8
0
  6
Continuous
 62
     7
370
    25
100
AcDbLine
 10
5569.3169830254
 20
4752.4715185207
 30
0.0
 11
5567.1517868826
 21
4753.7215950966
 31
0.0
  0
LINE
  5
AB
330
1F
100
AcDbEntity
  8
0
  6
Continuous
 62
     7
370
    25
100
AcDbLine
 10
5571.4821791682
 20
4753.7215950966
 30
0.0
 11
5569.3169830254
 21
4752.4715185207
 31
0.0
  0
CIRCLE
  5
AC
330
1F
100
AcDbEntity
  8
0
  6
Continuous
 62
     7
370
    25
100
AcDbCircle
 10
5569.3844073304
 20
4754.9716716725
 30
0.0
 40
4.649999999999636
  0
LINE
  5
AD
330
1F
100
AcDbEntity
  8
0
  6
Continuous
 62
     7
370
    25
100
AcDbLine
 10
5665.3844073304
 20
4769.9716716725
 30
0.0
 11
5665.3844073304
 21
4771.9716716725
 31
0.0
  0
LINE
  5
AE
330
1F
100
AcDbEntity
  8
0
  6
Continuous
 62
     7
370
    25
100
AcDbLine
 10
5667.3844073304
 20
4771.9716716725
 30
0.0
 11
5665.3844073304
 21
4771.9716716725
 31
0.0
  0
ARC
  5
AF
330
1F
100
AcDbEntity
  8
0
  6
Continuous
 62
     7
370
    25
100
AcDbCircle
 10
5665.3844073304
 20
4771.9716716725
 30
0.0
 40
2.0
100
AcDbArc
 50
270.0
 51
0.0
  0
LINE
  5
B0
330
1F
100
AcDbEntity
  8
0
  6
Continuous
 62
     7
370
    25
100
AcDbLine
 10
5667.3844073304
 20
5010.9716716725
 30
0.0
 11
5667.3844073304
 21
4771.9716716725
 31
0.0
  0
LINE
  5
B1
330
1F
100
AcDbEntity
  8
0
  6
Continuous
 62
     7
370
    25
100
AcDbLine
 10
5665.3844073304
 20
4771.9716716725
 30
0.0
 11
5665.3844073304
 21
5010.9716716725
 31
0.0
  0
LINE
  5
B2
330
1F
100
AcDbEntity
  8
0
  6
Continuous
 62
     7
370
    25
100
AcDbLine
 10
5667.3844073304
 20
5010.9716716725
 30
0.0
 11
5665.3844073304
 21
5010.9716716725
 31
0.0
  0
LINE
  5
B3
330
1F
100
AcDbEntity
  8
0
  6
Continuous
 62
     7
370
    25
100
AcDbLine
 10
5665.3844073304
 20
5012.9716716725
 30
0.0
 11
5665.3844073304
 21
5010.9716716725
 31
0.0
  0
ARC
  5
B4
330
1F
100
AcDbEntity
  8
0
  6
Continuous
 62
     7
370
    25
100
AcDbCircle
 10
5665.3844073304
 20
5010.9716716725
 30
0.0
 40
2.000000000000909
100
AcDbArc
 50
0.0
 51
90.0
  0
ARC
  5
B5
330
1F
100
AcDbEntity
  8
0
  6
Continuous
 62
     7
370
    25
100
AcDbCircle
 10
5569.3844073304
 20
4754.9716716725
 30
0.0
 40
10.00000000000091
100
AcDbArc
 50
180.0
 51
270.0
  0
LINE
  5
B6
330
1F
100
AcDbEntity
  8
0
  6
Continuous
 62
     7
370
    25
100
AcDbLine
 10
5559.3844073304
 20
5010.9716716725
 30
0.0
 11
5559.3844073304
 21
4754.9716716725
 31
0.0
  0
LINE
  5
B7
330
1F
100
AcDbEntity
  8
0
  6
Continuous
 62
     7
370
    25
100
AcDbLine
 10
5665.3844073304
 20
5010.9716716725
 30
0.0
 11
5559.3844073304
 21
5010.9716716725
 31
0.0
  0
LINE
  5
B8
330
1F
100
AcDbEntity
  8
0
  6
Continuous
 62
     7
370
    25
100
AcDbLine
 10
5601.6894473758
 20
4771.9716716725
 30
0.0
 11
5665.3844073304
 21
4771.9716716725
 31
0.0
  0
ARC
  5
B9
330
1F
100
AcDbEntity
  8
0
  6
Continuous
 62
     7
370
    25
100
AcDbCircle
 10
5601.6894473758
 20
4767.9716716725
 30
0.0
 40
3.99999999999982
100
AcDbArc
 50
90.0
 51
156.2505055071
  0
LINE
  5
BA
330
1F
100
AcDbEntity
  8
0
  6
Continuous
 62
     7
370
    25
100
AcDbLine
 10
5587.199367285
 20
4744.9716716725
 30
0.0
 11
5598.0281872461
 21
4769.5826261296
 31
0.0
  0
LINE
  5
BB
330
1F
100
AcDbEntity
  8
0
  6
Continuous
 62
     7
370
    25
100
AcDbLine
 10
5569.3844073304
 20
4744.9716716725
 30
0.0
 11
5587.199367285
 21
4744.9716716725
 31
0.0
  0
LINE
  5
BC
330
1F
100
AcDbEntity
  8
0
  6
Continuous
 62
     7
370
    25
100
AcDbLine
 10
5559.3844073304
 20
5012.9716716725
 30
0.0
 11
5665.3844073304
 21
5012.9716716725
 31
0.0
  0
LINE
  5
BD
330
1F
100
AcDbEntity
  8
0
  6
Continuous
 62
     7
370
    25
100
AcDbLine
 10
5559.3844073304
 20
5010.9716716725
 30
0.0
 11
5559.3844073304
 21
5012.9716716725
 31
0.0
  0
LINE
  5
BE
330
1F
100
AcDbEntity
  8
0
  6
Continuous
 62
     7
370
    25
100
AcDbLine
 10
5665.3844073304
 20
4769.9716716725
 30
0.0
 11
5601.6894473758
 21
4769.9716716725
 31
0.0
  0
LINE
  5
BF
330
1F
100
AcDbEntity
  8
0
  6
Continuous
 62
     7
370
    25
100
AcDbLine
 10
5601.6894473758
 20
4769.9716716725
 30
0.0
 11
5601.6894473758
 21
4771.9716716725
 31
0.0
  0
ARC
  5
C0
330
1F
100
AcDbEntity
  8
0
  6
Continuous
 62
     7
370
    25
100
AcDbCircle
 10
5601.6894473758
 20
4767.9716716725
 30
0.0
 40
1.999999999999727
100
AcDbArc
 50
90.0
 51
156.2505055072
  0
LINE
  5
C1
330
1F
100
AcDbEntity
  8
0
  6
Continuous
 62
     7
370
    25
100
AcDbLine
 10
5599.858817311
 20
4768.777148901
 30
0.0
 11
5598.0281872461
 21
4769.5826261296
 31
0.0
  0
LINE
  5
C2
330
1F
100
AcDbEntity
  8
0
  6
Continuous
 62
     7
370
    25
100
AcDbLine
 10
5590.3844073304
 20
4747.4020901242
 30
0.0
 11
5589.3844073304
 21
4745.1293628515
 31
0.0
  0
LINE
  5
C3
330
1F
100
AcDbEntity
  8
0
  6
Continuous
 62
     7
370
    25
100
AcDbLine
 10
5589.3844073304
 20
4745.1293628515
 30
0.0
 11
5589.3844073304
 21
4745.6369895311
 31
0.0
  0
LINE
  5
C4
330
1F
100
AcDbEntity
  8
0
  6
Continuous
 62
     7
370
    25
100
AcDbLine
 10
5589.3844073304
 20
4745.6369895311
 30
0.0
 11
5589.0916674726
 21
4744.9716716725
 31
0.0
  0
LINE
  5
C5
330
1F
100
AcDbEntity
  8
0
  6
Continuous
 62
     7
370
    25
100
AcDbLine
 10
5589.0916674726
 20
4744.9716716725
 30
0.0
 11
5587.199367285
 21
4744.9716716725
 31
0.0
  0
LINE
  5
C6
330
1F
100
AcDbEntity
  8
0
  6
Continuous
 62
     7
370
    25
100
AcDbLine
 10
5599.858817311
 20
4768.777148901
 30
0.0
 11
5590.3844073304
 21
4747.2443989452
 31
0.0
  0
LINE
  5
C7
330
1F
100
AcDbEntity
  8
0
  6
Continuous
 62
     7
370
    25
100
AcDbLine
 10
5590.3844073304
 20
4747.2443989452
 30
0.0
 11
5590.3844073304
 21
4747.4020901242
 31
0.0
  0
LINE
  5
C8
330
1F
100
AcDbEntity
  8
0
  6
Continuous
 62
     7
370
    25
100
AcDbLine
 10
5669.3844073304
 20
4783.9716716725
 30
0.0
 11
5669.3844073304
 21
4779.9716716725
 31
0.0
  0
LINE
  5
C9
330
1F
100
AcDbEntity
  8
0
  6
Continuous
 62
     7
370
    25
100
AcDbLine
 10
5668.3844073304
 20
4940.4716716725
 30
0.0
 11
5667.3844073304
 21
4940.4716716725
 31
0.0
  0
LINE
  5
CA
330
1F
100
AcDbEntity
  8
0
  6
Continuous
 62
     7
370
    25
100
AcDbLine
 10
5668.3844073304
 20
4940.4716716725
 30
0.0
 11
5668.3844073304
 21
4855.4716716725
 31
0.0
  0
LINE
  5
CB
330
1F
100
AcDbEntity
  8
0
  6
Continuous
 62
     7
370
    25
100
AcDbLine
 10
5668.3844073304
 20
4855.4716716725
 30
0.0
 11
5667.3844073304
 21
4855.4716716725
 31
0.0
  0
LINE
  5
CC
330
1F
100
AcDbEntity
  8
0
  6
Continuous
 62
     7
370
    25
100
AcDbLine
 10
5668.3844073304
 20
4942.9716716725
 30
0.0
 11
5668.3844073304
 21
4940.4716716725
 31
0.0
  0
LINE
  5
CD
330
1F
100
AcDbEntity
  8
0
  6
Continuous
 62
     7
370
    25
100
AcDbLine
 10
5668.3844073304
 20
4855.4716716725
 30
0.0
 11
5668.3844073304
 21
4852.9716716725
 31
0.0
  0
LINE
  5
CE
330
1F
100
AcDbEntity
  8
0
  6
Continuous
 62
     8
370
    25
100
AcDbLine
 10
5668.8844073304
 20
4779.4716716725
 30
0.0
 11
5668.8844073304
 21
4784.4716716725
 31
0.0
  0
LINE
  5
CF
330
1F
100
AcDbEntity
  8
0
  6
Continuous
 62
     8
370
    25
100
AcDbLine
 10
5636.3844073304
 20
4763.9716716725
 30
0.0
 11
5642.3844073304
 21
4763.9716716725
 31
0.0
  0
ARC
  5
D0
330
1F
100
AcDbEntity
  8
0
  6
Continuous
 62
     7
370
    25
100
AcDbCircle
 10
5399.7057429101
 20
4763.9716716725
 30
0.0
 40
3.0
100
AcDbArc
 50
180.0
 51
0.0
  0
LINE
  5
D1
330
1F
100
AcDbEntity
  8
0
  6
Continuous
 62
     7
370
    25
100
AcDbLine
 10
5396.7057429101
 20
4769.9716716725
 30
0.0
 11
5396.7057429101
 21
4763.9716716725
 31
0.0
  0
LINE
  5
D2
330
1F
100
AcDbEntity
  8
0
  6
Continuous
 62
     7
370
    25
100
AcDbLine
 10
5402.7057429101
 20
4763.9716716725
 30
0.0
 11
5402.7057429101
 21
4769.9716716725
 31
0.0
  0
ARC
  5
D3
330
1F
100
AcDbEntity
  8
0
  6
Continuous
 62
     7
370
    25
100
AcDbCircle
 10
5451.7057429101
 20
4754.9042473674
 30
0.0
 40
5.000000000001142
100
AcDbArc
 50
293.5781784782
 51
331.4339809246
  0
ARC
  5
D4
330
1F
100
AcDbEntity
  8
0
  6
Continuous
 62
     7
370
    25
100
AcDbCircle
 10
5451.7057429101
 20
4755.0390959775
 30
0.0
 40
5.000000000000308
100
AcDbArc
 50
29.4168754149
 51
66.4218215218
  0
ARC
  5
D5
330
1F
100
AcDbEntity
  8
0
  6
Continuous
 62
     7
370
    25
100
AcDbCircle
 10
5347.7057429101
 20
4755.0390959775
 30
0.0
 40
5.000000000000308
100
AcDbArc
 50
113.5781784782
 51
151.4329569492
  0
ARC
  5
D6
330
1F
100
AcDbEntity
  8
0
  6
Continuous
 62
     7
370
    25
100
AcDbCircle
 10
5347.7057429101
 20
4754.9042473674
 30
0.0
 40
5.000000000001142
100
AcDbArc
 50
209.3947627015
 51
246.4218215218
  0
CIRCLE
  5
D7
330
1F
100
AcDbEntity
  8
0
  6
Continuous
 62
     7
370
    25
100
AcDbCircle
 10
5359.7057429101
 20
4781.9716716725
 30
0.0
 40
2.0
  0
CIRCLE
  5
D8
330
1F
100
AcDbEntity
  8
0
  6
Continuous
 62
     7
370
    25
100
AcDbCircle
 10
5359.7057429101
 20
4781.9716716725
 30
0.0
 40
2.500000000000909
  0
ARC
  5
D9
330
1F
100
AcDbEntity
  8
0
  6
Continuous
 62
     7
370
    25
100
AcDbCircle
 10
5399.7057429101
 20
4855.4716716725
 30
0.0
 40
2.5
100
AcDbArc
 50
180.0
 51
0.0
  0
LINE
  5
DA
330
1F
100
AcDbEntity
  8
0
  6
Continuous
 62
     7
370
    25
100
AcDbLine
 10
5397.2057429101
 20
4940.4716716725
 30
0.0
 11
5397.2057429101
 21
4855.4716716725
 31
0.0
  0
ARC
  5
DB
330
1F
100
AcDbEntity
  8
0
  6
Continuous
 62
     7
370
    25
100
AcDbCircle
 10
5399.7057429101
 20
4940.4716716725
 30
0.0
 40
2.5
100
AcDbArc
 50
0.0
 51
180.0
  0
LINE
  5
DC
330
1F
100
AcDbEntity
  8
0
  6
Continuous
 62
     7
370
    25
100
AcDbLine
 10
5402.2057429101
 20
4855.4716716725
 30
0.0
 11
5402.2057429101
 21
4940.4716716725
 31
0.0
  0
LINE
  5
DD
330
1F
100
AcDbEntity
  8
0
  6
Continuous
 62
     7
370
    25
100
AcDbLine
 10
5451.7057429101
 20
5010.9716716725
 30
0.0
 11
5451.7057429101
 21
5012.9716716725
 31
0.0
  0
ARC
  5
DE
330
1F
100
AcDbEntity
  8
0
  6
Continuous
 62
     7
370
    25
100
AcDbCircle
 10
5451.7057429101
 20
5010.9716716725
 30
0.0
 40
2.000000000000909
100
AcDbArc
 50
0.0
 51
90.0
  0
LINE
  5
DF
330
1F
100
AcDbEntity
  8
0
  6
Continuous
 62
     7
370
    25
100
AcDbLine
 10
5453.7057429101
 20
5010.9716716725
 30
0.0
 11
5451.7057429101
 21
5010.9716716725
 31
0.0
  0
LINE
  5
E0
330
1F
100
AcDbEntity
  8
0
  6
Continuous
 62
     7
370
    25
100
AcDbLine
 10
5451.7057429101
 20
4769.9716716725
 30
0.0
 11
5451.7057429101
 21
4771.9716716725
 31
0.0
  0
LINE
  5
E1
330
1F
100
AcDbEntity
  8
0
  6
Continuous
 62
     7
370
    25
100
AcDbLine
 10
5453.7057429101
 20
4771.9716716725
 30
0.0
 11
5451.7057429101
 21
4771.9716716725
 31
0.0
  0
ARC
  5
E2
330
1F
100
AcDbEntity
  8
0
  6
Continuous
 62
     7
370
    25
100
AcDbCircle
 10
5451.7057429101
 20
4771.9716716725
 30
0.0
 40
2.0
100
AcDbArc
 50
270.0
 51
0.0
  0
LINE
  5
E3
330
1F
100
AcDbEntity
  8
0
  6
Continuous
 62
     7
370
    25
100
AcDbLine
 10
5453.7057429101
 20
5010.9716716725
 30
0.0
 11
5453.7057429101
 21
4771.9716716725
 31
0.0
  0
LINE
  5
E4
330
1F
100
AcDbEntity
  8
0
  6
Continuous
 62
     7
370
    25
100
AcDbLine
 10
5451.7057429101
 20
4771.9716716725
 30
0.0
 11
5451.7057429101
 21
5010.9716716725
 31
0.0
  0
LINE
  5
E5
330
1F
100
AcDbEntity
  8
0
  6
Continuous
 62
     7
370
    25
100
AcDbLine
 10
5451.7057429101
 20
4769.9716716725
 30
0.0
 11
5347.7057429101
 21
4769.9716716725
 31
0.0
  0
LINE
  5
E6
330
1F
100
AcDbEntity
  8
0
  6
Continuous
 62
     7
370
    25
100
AcDbLine
 10
5347.7057429101
 20
4769.9716716725
 30
0.0
 11
5347.7057429101
 21
4771.9716716725
 31
0.0
  0
LINE
  5
E7
330
1F
100
AcDbEntity
  8
0
  6
Continuous
 62
     7
370
    25
100
AcDbLine
 10
5347.7057429101
 20
4771.9716716725
 30
0.0
 11
5451.7057429101
 21
4771.9716716725
 31
0.0
  0
LINE
  5
E8
330
1F
100
AcDbEntity
  8
0
  6
Continuous
 62
     7
370
    25
100
AcDbLine
 10
5451.7057429101
 20
5010.9716716725
 30
0.0
 11
5347.7057429101
 21
5010.9716716725
 31
0.0
  0
LINE
  5
E9
330
1F
100
AcDbEntity
  8
0
  6
Continuous
 62
     7
370
    25
100
AcDbLine
 10
5347.7057429101
 20
5010.9716716725
 30
0.0
 11
5347.7057429101
 21
5012.9716716725
 31
0.0
  0
LINE
  5
EA
330
1F
100
AcDbEntity
  8
0
  6
Continuous
 62
     7
370
    25
100
AcDbLine
 10
5347.7057429101
 20
5012.9716716725
 30
0.0
 11
5451.7057429101
 21
5012.9716716725
 31
0.0
  0
ARC
  5
EB
330
1F
100
AcDbEntity
  8
0
  6
Continuous
 62
     7
370
    25
100
AcDbCircle
 10
5418.5583008347
 20
4992.356054137
 30
0.0
 40
1.40917889595741
100
AcDbArc
 50
107.662550003
 51
163.1099656581
  0
LINE
  5
EC
330
1F
100
AcDbEntity
  8
0
  6
Continuous
 62
     7
370
    25
100
AcDbLine
 10
5417.2099080929
 20
4992.7654710087
 30
0.0
 11
5417.1874080929
 21
4992.771304342
 31
0.0
  0
LINE
  5
ED
330
1F
100
AcDbEntity
  8
0
  6
Continuous
 62
     7
370
    25
100
AcDbLine
 10
5417.1874080929
 20
4992.771304342
 30
0.0
 11
5417.1990747596
 21
4992.8404710087
 31
0.0
  0
LWPOLYLINE
  5
EE
330
1F
100
AcDbEntity
  8
0
  6
Continuous
 62
     7
370
    25
100
AcDbPolyline
 90
        3
 70
   128
 43
0.0
 10
5417.1990747596
 20
4992.8404710087
 10
5417.2434771892
 20
4993.1035197561
 10
5417.2624080929
 20
4993.3121376754
  0
ARC
  5
EF
330
1F
100
AcDbEntity
  8
0
  6
Continuous
 62
     7
370
    25
100
AcDbCircle
 10
5416.92785618
 20
4993.3609282494
 30
0.0
 40
0.3380909678513891
100
AcDbArc
 50
351.7025609852
 51
87.9571472313
  0
ARC
  5
F0
330
1F
100
AcDbEntity
  8
0
  6
Continuous
 62
     7
370
    25
100
AcDbCircle
 10
5417.3532367534
 20
4992.2665111716
 30
0.0
 40
1.49073951697101
100
AcDbArc
 50
106.0969896883
 51
165.7694538725
  0
LINE
  5
F1
330
1F
100
AcDbEntity
  8
0
  6
Continuous
 62
     7
370
    25
100
AcDbLine
 10
5415.9082414263
 20
4992.6329710087
 30
0.0
 11
5415.8857414263
 21
4992.638804342
 31
0.0
  0
ARC
  5
F2
330
1F
100
AcDbEntity
  8
0
  6
Continuous
 62
     7
370
    25
100
AcDbCircle
 10
5261.9658277569
 20
5010.0639887365
 30
0.0
 40
154.9031209342762
100
AcDbArc
 50
353.5410775851
 51
353.8902483429
  0
LWPOLYLINE
  5
F3
330
1F
100
AcDbEntity
  8
0
  6
Continuous
 62
     7
370
    25
100
AcDbPolyline
 90
        5
 70
   128
 43
0.0
 10
5415.9890747596
 20
4993.5771376754
 10
5415.9820338668
 20
4993.6485385072
 10
5415.9685117837
 20
4993.6830423125
 10
5415.9552991838
 20
4993.69403265
 10
5415.9374080929
 20
4993.698804342
  0
LWPOLYLINE
  5
F4
330
1F
100
AcDbEntity
  8
0
  6
Continuous
 62
     7
370
    25
100
AcDbPolyline
 90
        3
 70
   128
 43
0.0
 10
5415.9374080929
 20
4993.698804342
 10
5415.7664357389
 20
4993.6404260415
 10
5415.6432414263
 20
4993.568804342
  0
LWPOLYLINE
  5
F5
330
1F
100
AcDbEntity
  8
0
  6
Continuous
 62
     7
370
    25
100
AcDbPolyline
 90
        3
 70
   128
 43
0.0
 10
5415.6432414263
 20
4993.568804342
 10
5415.5772836602
 20
4993.4389322172
 10
5415.5574080929
 20
4993.3246376754
  0
ARC
  5
F6
330
1F
100
AcDbEntity
  8
0
  6
Continuous
 62
     7
370
    25
100
AcDbCircle
 10
5524.2675916919
 20
4977.9653309733
 30
0.0
 40
109.7898552713041
100
AcDbArc
 50
171.9580952578
 51
172.8706616464
  0
LWPOLYLINE
  5
F7
330
1F
100
AcDbEntity
  8
0
  6
Continuous
 62
     7
370
    25
100
AcDbPolyline
 90
        4
 70
   128
 43
0.0
 10
5415.3265747596
 20
4991.591304342
 10
5415.3337141088
 20
4991.5532839291
 10
5415.3599709788
 20
4991.5249571242
 10
5415.4190747596
 20
4991.5121376754
  0
LWPOLYLINE
  5
F8
330
1F
100
AcDbEntity
  8
0
  6
Continuous
 62
     7
370
    25
100
AcDbPolyline
 90
        4
 70
   128
 43
0.0
 10
5415.4190747596
 20
4991.5121376754
 10
5415.6188363952
 20
4991.5807148894
 10
5415.6852394172
 20
4991.6309085712
 10
5415.7240747596
 20
4991.703804342
  0
ARC
  5
F9
330
1F
100
AcDbEntity
  8
0
  6
Continuous
 62
     7
370
    25
100
AcDbCircle
 10
5417.9957750906
 20
4991.5325134937
 30
0.0
 40
2.278149018030376
100
AcDbArc
 50
123.5041912558
 51
175.6879407839
  0
LWPOLYLINE
  5
FA
330
1F
100
AcDbEntity
  8
0
  6
Continuous
 62
     7
370
    25
100
AcDbPolyline
 90
        5
 70
   128
 43
0.0
 10
5416.7382414263
 20
4993.4321376754
 10
5416.7739546558
 20
4993.4256565893
 10
5416.8041140915
 20
4993.4060819047
 10
5416.8232996435
 20
4993.3753510137
 10
5416.8357414263
 20
4993.291304342
  0
ARC
  5
FB
330
1F
100
AcDbEntity
  8
0
  6
Continuous
 62
     7
370
    25
100
AcDbCircle
 10
5403.4970903964
 20
4994.5890662492
 30
0.0
 40
13.40163412662837
100
AcDbArc
 50
348.7213765774
 51
354.4429924116
  0
LWPOLYLINE
  5
FC
330
1F
100
AcDbEntity
  8
0
  6
Continuous
 62
     7
370
    25
100
AcDbPolyline
 90
        3
 70
   128
 43
0.0
 10
5416.6399080929
 20
4991.9679710087
 10
5416.6064396692
 20
4991.7726263239
 10
5416.5824080929
 20
4991.618804342
  0
LWPOLYLINE
  5
FD
330
1F
100
AcDbEntity
  8
0
  6
Continuous
 62
     7
370
    25
100
AcDbPolyline
 90
        5
 70
   128
 43
0.0
 10
5416.5824080929
 20
4991.618804342
 10
5416.5871812843
 20
4991.5782596866
 10
5416.6022883961
 20
4991.5402158831
 10
5416.6258067666
 20
4991.518765701
 10
5416.6574080929
 20
4991.5121376754
  0
LWPOLYLINE
  5
FE
330
1F
100
AcDbEntity
  8
0
  6
Continuous
 62
     7
370
    25
100
AcDbPolyline
 90
        3
 70
   128
 43
0.0
 10
5416.6574080929
 20
4991.5121376754
 10
5416.8279547616
 20
4991.5667808713
 10
5416.9465747596
 20
4991.641304342
  0
LWPOLYLINE
  5
FF
330
1F
100
AcDbEntity
  8
0
  6
Continuous
 62
     7
370
    25
100
AcDbPolyline
 90
        3
 70
   128
 43
0.0
 10
5416.9465747596
 20
4991.641304342
 10
5417.0272998395
 20
4991.8540730168
 10
5417.0624080929
 20
4992.0304710087
  0
ARC
  5
100
330
1F
100
AcDbEntity
  8
0
  6
Continuous
 62
     7
370
    25
100
AcDbCircle
 10
5419.1011728268
 20
4991.7555146257
 30
0.0
 40
2.057222071743597
100
AcDbArc
 50
125.4132599924
 51
172.3191936418
  0
LWPOLYLINE
  5
101
330
1F
100
AcDbEntity
  8
0
  6
Continuous
 62
     7
370
    25
100
AcDbPolyline
 90
        5
 70
   128
 43
0.0
 10
5417.9090747596
 20
4993.4321376754
 10
5417.943995388
 20
4993.4270577523
 10
5417.9743853795
 20
4993.4100458017
 10
5417.9951001317
 20
4993.3815706717
 10
5418.0090747596
 20
4993.3004710087
  0
LWPOLYLINE
  5
102
330
1F
100
AcDbEntity
  8
0
  6
Continuous
 62
     7
370
    25
100
AcDbPolyline
 90
        3
 70
   128
 43
0.0
 10
5418.0090747596
 20
4993.3004710087
 10
5417.9599952471
 20
4992.8861087822
 10
5417.9024080929
 20
4992.5629710087
  0
LWPOLYLINE
  5
103
330
1F
100
AcDbEntity
  8
0
  6
Continuous
 62
     7
370
    25
100
AcDbPolyline
 90
        3
 70
   128
 43
0.0
 10
5417.9024080929
 20
4992.5629710087
 10
5417.8286115812
 20
4992.1737961859
 10
5417.7957414263
 20
4991.8646376754
  0
ARC
  5
104
330
1F
100
AcDbEntity
  8
0
  6
Continuous
 62
     7
370
    25
100
AcDbCircle
 10
5418.1285953373
 20
4991.7965954767
 30
0.0
 40
0.3397373498190916
100
AcDbArc
 50
168.4467353184
 51
276.1357683368
  0
LWPOLYLINE
  5
105
330
1F
100
AcDbEntity
  8
0
  6
Continuous
 62
     7
370
    25
100
AcDbPolyline
 90
        5
 70
   128
 43
0.0
 10
5418.1649080929
 20
4991.458804342
 10
5418.4275742765
 20
4991.4874905369
 10
5418.5526946319
 20
4991.5302613012
 10
5418.6086696289
 20
4991.5656802413
 10
5418.6374080929
 20
4991.623804342
  0
LWPOLYLINE
  5
106
330
1F
100
AcDbEntity
  8
0
  6
Continuous
 62
     7
370
    25
100
AcDbPolyline
 90
        6
 70
   128
 43
0.0
 10
5418.6374080929
 20
4991.623804342
 10
5418.6315116737
 20
4991.6505274178
 10
5418.6223211586
 20
4991.6600450445
 10
5418.6096312251
 20
4991.6659121113
 10
5418.5556834084
 20
4991.6703932165
 10
5418.4474080929
 20
4991.6721376754
  0
ARC
  5
107
330
1F
100
AcDbEntity
  8
0
  6
Continuous
 62
     7
370
    25
100
AcDbCircle
 10
5418.4187439015
 20
4991.8668470152
 30
0.0
 40
0.1968079340684097
100
AcDbArc
 50
176.0305354391
 51
278.3746608846
  0
LWPOLYLINE
  5
108
330
1F
100
AcDbEntity
  8
0
  6
Continuous
 62
     7
370
    25
100
AcDbPolyline
 90
        3
 70
   128
 43
0.0
 10
5418.2224080929
 20
4991.8804710087
 10
5418.2663942504
 20
4992.2480027719
 10
5418.3174080929
 20
4992.5346376754
  0
LWPOLYLINE
  5
109
330
1F
100
AcDbEntity
  8
0
  6
Continuous
 62
     7
370
    25
100
AcDbPolyline
 90
        3
 70
   128
 43
0.0
 10
5418.3174080929
 20
4992.5346376754
 10
5418.4001271545
 20
4992.9865723331
 10
5418.4357414263
 20
4993.3454710087
  0
ARC
  5
10A
330
1F
100
AcDbEntity
  8
0
  6
Continuous
 62
     7
370
    25
100
AcDbCircle
 10
5418.1461592069
 20
4993.403807269
 30
0.0
 40
0.295399697112973
100
AcDbArc
 50
348.6102210996
 51
92.9917949354
  0
LWPOLYLINE
  5
10B
330
1F
100
AcDbEntity
  8
0
  6
Continuous
 62
     7
370
    25
100
AcDbPolyline
 90
        3
 70
   128
 43
0.0
 10
5419.6574080929
 20
4993.136304342
 10
5419.9101651911
 20
4993.3742788589
 10
5420.1757414263
 20
4993.4321376754
  0
LWPOLYLINE
  5
10C
330
1F
100
AcDbEntity
  8
0
  6
Continuous
 62
     7
370
    25
100
AcDbPolyline
 90
        3
 70
   128
 43
0.0
 10
5420.1757414263
 20
4993.4321376754
 10
5420.3923773887
 20
4993.4149247421
 10
5420.5615747596
 20
4993.391304342
  0
LWPOLYLINE
  5
10D
330
1F
100
AcDbEntity
  8
0
  6
Continuous
 62
     7
370
    25
100
AcDbPolyline
 90
        3
 70
   128
 43
0.0
 10
5420.5615747596
 20
4993.391304342
 10
5420.69713604
 20
4993.3732066117
 10
5420.8040747596
 20
4993.3629710087
  0
ARC
  5
10E
330
1F
100
AcDbEntity
  8
0
  6
Continuous
 62
     7
370
    25
100
AcDbCircle
 10
5420.8151321439
 20
4993.4729087362
 30
0.0
 40
0.1104923964449046
100
AcDbArc
 50
264.2565848118
 51
6.5282766077
  0
LWPOLYLINE
  5
10F
330
1F
100
AcDbEntity
  8
0
  6
Continuous
 62
     7
370
    25
100
AcDbPolyline
 90
        6
 70
   128
 43
0.0
 10
5420.9249080929
 20
4993.4854710087
 10
5420.9184406855
 20
4993.5421853539
 10
5420.8944992488
 20
4993.5939472132
 10
5420.8538886799
 20
4993.633783527
 10
5420.8024895393
 20
4993.6588677482
 10
5420.5790747596
 20
4993.698804342
  0
ARC
  5
110
330
1F
100
AcDbEntity
  8
0
  6
Continuous
 62
     7
370
    25
100
AcDbCircle
 10
5420.5506101762
 20
4992.0103658731
 30
0.0
 40
1.688678387373618
100
AcDbArc
 50
89.0341691199
 51
178.6391304039
  0
ARC
  5
111
330
1F
100
AcDbEntity
  8
0
  6
Continuous
 62
     7
370
    25
100
AcDbCircle
 10
5419.4240428041
 20
4992.0206358744
 30
0.0
 40
0.5624266031851133
100
AcDbArc
 50
176.9591943135
 51
272.6358902022
  0
ARC
  5
112
330
1F
100
AcDbEntity
  8
0
  6
Continuous
 62
     7
370
    25
100
AcDbCircle
 10
5419.2388722096
 20
4992.6270545789
 30
0.0
 40
1.187158270804437
100
AcDbArc
 50
280.2396383642
 51
343.403713555
  0
LINE
  5
113
330
1F
100
AcDbEntity
  8
0
  6
Continuous
 62
     7
370
    25
100
AcDbLine
 10
5420.3765747596
 20
4992.2879710087
 30
0.0
 11
5420.3882414263
 21
4992.276304342
 31
0.0
  0
LINE
  5
114
330
1F
100
AcDbEntity
  8
0
  6
Continuous
 62
     7
370
    25
100
AcDbLine
 10
5420.3882414263
 20
4992.276304342
 30
0.0
 11
5420.3824080929
 21
4992.2421376754
 31
0.0
  0
LWPOLYLINE
  5
115
330
1F
100
AcDbEntity
  8
0
  6
Continuous
 62
     7
370
    25
100
AcDbPolyline
 90
        3
 70
   128
 43
0.0
 10
5420.3824080929
 20
4992.2421376754
 10
5420.3296763521
 20
4991.9398615901
 10
5420.3024080929
 20
4991.7004710087
  0
LWPOLYLINE
  5
116
330
1F
100
AcDbEntity
  8
0
  6
Continuous
 62
     7
370
    25
100
AcDbPolyline
 90
        4
 70
   128
 43
0.0
 10
5420.3024080929
 20
4991.7004710087
 10
5420.3234393881
 20
4991.5856106615
 10
5420.398083402
 20
4991.4971760222
 10
5420.5765747596
 20
4991.458804342
  0
LWPOLYLINE
  5
117
330
1F
100
AcDbEntity
  8
0
  6
Continuous
 62
     7
370
    25
100
AcDbPolyline
 90
        6
 70
   128
 43
0.0
 10
5420.5765747596
 20
4991.458804342
 10
5420.8419404669
 20
4991.4962020829
 10
5420.9698974155
 20
4991.5364663463
 10
5421.0290475854
 20
4991.5679512849
 10
5421.0525796805
 20
4991.5917858347
 10
5421.0615747596
 20
4991.623804342
  0
LWPOLYLINE
  5
118
330
1F
100
AcDbEntity
  8
0
  6
Continuous
 62
     7
370
    25
100
AcDbPolyline
 90
        6
 70
   128
 43
0.0
 10
5421.0615747596
 20
4991.623804342
 10
5421.0575034766
 20
4991.645777867
 10
5421.0514487222
 20
4991.6544762527
 10
5421.0422661624
 20
4991.6608264136
 10
5420.9992203765
 20
4991.6696603426
 10
5420.9115747596
 20
4991.6721376754
  0
LWPOLYLINE
  5
119
330
1F
100
AcDbEntity
  8
0
  6
Continuous
 62
     7
370
    25
100
AcDbPolyline
 90
        5
 70
   128
 43
0.0
 10
5420.9115747596
 20
4991.6721376754
 10
5420.7556050391
 20
4991.6888633276
 10
5420.7204019224
 20
4991.7064044966
 10
5420.694522125
 20
4991.7359502645
 10
5420.6757414263
 20
4991.8121376754
  0
ARC
  5
11A
330
1F
100
AcDbEntity
  8
0
  6
Continuous
 62
     7
370
    25
100
AcDbCircle
 10
5444.4680712124
 20
4989.1674879404
 30
0.0
 40
23.93886231366052
100
AcDbArc
 50
171.3355803576
 51
173.6572926049
  0
LWPOLYLINE
  5
11B
330
1F
100
AcDbEntity
  8
0
  6
Continuous
 62
     7
370
    25
100
AcDbPolyline
 90
        3
 70
   128
 43
0.0
 10
5420.8024080929
 20
4992.773804342
 10
5420.8325501269
 20
4992.9733609766
 10
5420.8540747596
 20
4993.1304710087
  0
LWPOLYLINE
  5
11C
330
1F
100
AcDbEntity
  8
0
  6
Continuous
 62
     7
370
    25
100
AcDbPolyline
 90
        5
 70
   128
 43
0.0
 10
5420.8540747596
 20
4993.1304710087
 10
5420.8412505918
 20
4993.187294216
 10
5420.8232836815
 20
4993.21057922
 10
5420.7992065695
 20
4993.2273714635
 10
5420.6865747596
 20
4993.2579710087
  0
LWPOLYLINE
  5
11D
330
1F
100
AcDbEntity
  8
0
  6
Continuous
 62
     7
370
    25
100
AcDbPolyline
 90
        5
 70
   128
 43
0.0
 10
5420.6865747596
 20
4993.2579710087
 10
5420.6481276606
 20
4993.2519311284
 10
5420.6146199481
 20
4993.2318770222
 10
5420.5726331481
 20
4993.1662821443
 10
5420.5140747596
 20
4993.021304342
  0
LWPOLYLINE
  5
11E
330
1F
100
AcDbEntity
  8
0
  6
Continuous
 62
     7
370
    25
100
AcDbPolyline
 90
        3
 70
   128
 43
0.0
 10
5420.5140747596
 20
4993.021304342
 10
5420.4733856547
 20
4992.9046290076
 10
5420.4390747596
 20
4992.813804342
  0
LWPOLYLINE
  5
11F
330
1F
100
AcDbEntity
  8
0
  6
Continuous
 62
     7
370
    25
100
AcDbPolyline
 90
        3
 70
   128
 43
0.0
 10
5420.4390747596
 20
4992.813804342
 10
5420.2406429616
 20
4992.3830278176
 10
5420.0457414263
 20
4992.0654710087
  0
ARC
  5
120
330
1F
100
AcDbEntity
  8
0
  6
Continuous
 62
     7
370
    25
100
AcDbCircle
 10
5419.4856837068
 20
4992.3484577556
 30
0.0
 40
0.6274919505925423
100
AcDbArc
 50
276.8699084779
 51
333.1933791812
  0
LWPOLYLINE
  5
121
330
1F
100
AcDbEntity
  8
0
  6
Continuous
 62
     7
370
    25
100
AcDbPolyline
 90
        5
 70
   128
 43
0.0
 10
5419.5607414263
 20
4991.7254710087
 10
5419.4644121467
 20
4991.7447499506
 10
5419.3849599553
 20
4991.8024777085
 10
5419.3310907438
 20
4991.8848693631
 10
5419.2890747596
 20
4992.1121376754
  0
LWPOLYLINE
  5
122
330
1F
100
AcDbEntity
  8
0
  6
Continuous
 62
     7
370
    25
100
AcDbPolyline
 90
        3
 70
   128
 43
0.0
 10
5419.2890747596
 20
4992.1121376754
 10
5419.4159291691
 20
4992.7154096715
 10
5419.6574080929
 20
4993.136304342
  0
LWPOLYLINE
  5
123
330
1F
100
AcDbEntity
  8
0
  6
Continuous
 62
     7
370
    25
100
AcDbPolyline
 90
        4
 70
   128
 43
0.0
 10
5423.2165747596
 20
4992.096304342
 10
5423.2623149506
 20
4992.0793742486
 10
5423.2773998295
 20
4992.0673428186
 10
5423.2865747596
 20
4992.0504710087
  0
LWPOLYLINE
  5
124
330
1F
100
AcDbEntity
  8
0
  6
Continuous
 62
     7
370
    25
100
AcDbPolyline
 90
        4
 70
   128
 43
0.0
 10
5423.2865747596
 20
4992.0504710087
 10
5423.4004000993
 20
4991.7725978294
 10
5423.6135143295
 20
4991.5639806912
 10
5424.0690747596
 20
4991.458804342
  0
ARC
  5
125
330
1F
100
AcDbEntity
  8
0
  6
Continuous
 62
     7
370
    25
100
AcDbCircle
 10
5424.0865089955
 20
4992.6606365663
 30
0.0
 40
1.201958671414318
100
AcDbArc
 50
269.1689038985
 51
319.2137894189
  0
ARC
  5
126
330
1F
100
AcDbEntity
  8
0
  6
Continuous
 62
     7
370
    25
100
AcDbCircle
 10
5424.9400385596
 20
4991.8869716031
 30
0.0
 40
0.0576940688279953
100
AcDbArc
 50
348.501776477
 51
91.7850156543
  0
LWPOLYLINE
  5
127
330
1F
100
AcDbEntity
  8
0
  6
Continuous
 62
     7
370
    25
100
AcDbPolyline
 90
        3
 70
   128
 43
0.0
 10
5424.9382414263
 20
4991.9446376754
 10
5424.8463651477
 20
4991.9140580097
 10
5424.7774080929
 20
4991.881304342
  0
LWPOLYLINE
  5
128
330
1F
100
AcDbEntity
  8
0
  6
Continuous
 62
     7
370
    25
100
AcDbPolyline
 90
        3
 70
   128
 43
0.0
 10
5424.7774080929
 20
4991.881304342
 10
5424.4790712487
 20
4991.7619577368
 10
5424.2299080929
 20
4991.7254710087
  0
ARC
  5
129
330
1F
100
AcDbEntity
  8
0
  6
Continuous
 62
     7
370
    25
100
AcDbCircle
 10
5424.2138129227
 20
4992.1699199885
 30
0.0
 40
0.4447403176635298
100
AcDbArc
 50
179.821653807
 51
272.0739894889
  0
LWPOLYLINE
  5
12A
330
1F
100
AcDbEntity
  8
0
  6
Continuous
 62
     7
370
    25
100
AcDbPolyline
 90
        4
 70
   128
 43
0.0
 10
5423.7690747596
 20
4992.171304342
 10
5423.785492157
 20
4992.2370858999
 10
5423.8388335404
 20
4992.278784169
 10
5423.9349080929
 20
4992.326304342
  0
ARC
  5
12B
330
1F
100
AcDbEntity
  8
0
  6
Continuous
 62
     7
370
    25
100
AcDbCircle
 10
5423.667895219
 20
4993.7465988388
 30
0.0
 40
1.445175536893905
100
AcDbArc
 50
280.647230635
 51
342.8852901369
  0
ARC
  5
12C
330
1F
100
AcDbEntity
  8
0
  6
Continuous
 62
     7
370
    25
100
AcDbCircle
 10
5424.6692194643
 20
4993.3232165758
 30
0.0
 40
0.3798601085122574
100
AcDbArc
 50
359.7115691123
 51
98.601351517
  0
ARC
  5
12D
330
1F
100
AcDbEntity
  8
0
  6
Continuous
 62
     7
370
    25
100
AcDbCircle
 10
5424.8040499471
 20
4992.2351691765
 30
0.0
 40
1.476128211912865
100
AcDbArc
 50
97.4596172225
 51
172.2012440008
  0
ARC
  5
12E
330
1F
100
AcDbEntity
  8
0
  6
Continuous
 62
     7
370
    25
100
AcDbCircle
 10
5423.2078214683
 20
4992.4658909666
 30
0.0
 40
0.1371689351494833
100
AcDbArc
 50
282.8130162787
 51
347.1869837217
  0
LWPOLYLINE
  5
12F
330
1F
100
AcDbEntity
  8
0
  6
Continuous
 62
     7
370
    25
100
AcDbPolyline
 90
        4
 70
   128
 43
0.0
 10
5423.2382414263
 20
4992.3321376754
 10
5423.1493733104
 20
4992.266322723
 10
5423.1329790779
 20
4992.2258396775
 10
5423.1290747596
 20
4992.1821376754
  0
LWPOLYLINE
  5
130
330
1F
100
AcDbEntity
  8
0
  6
Continuous
 62
     7
370
    25
100
AcDbPolyline
 90
        4
 70
   128
 43
0.0
 10
5423.1290747596
 20
4992.1821376754
 10
5423.1342084421
 20
4992.1433883577
 10
5423.1573664244
 20
4992.1126880769
 10
5423.2165747596
 20
4992.096304342
  0
LINE
  5
131
330
1F
100
AcDbEntity
  8
0
  6
Continuous
 62
     7
370
    25
100
AcDbLine
 10
5433.6599080929
 20
4991.771304342
 30
0.0
 11
5433.6424080929
 21
4991.7654710087
 31
0.0
  0
LINE
  5
132
330
1F
100
AcDbEntity
  8
0
  6
Continuous
 62
     7
370
    25
100
AcDbLine
 10
5433.6424080929
 20
4991.7654710087
 30
0.0
 11
5433.6249080929
 21
4991.7654710087
 31
0.0
  0
LWPOLYLINE
  5
133
330
1F
100
AcDbEntity
  8
0
  6
Continuous
 62
     7
370
    25
100
AcDbPolyline
 90
        3
 70
   128
 43
0.0
 10
5433.6249080929
 20
4991.7654710087
 10
5433.5834844916
 20
4991.7582504882
 10
5433.5507414263
 20
4991.753804342
  0
LWPOLYLINE
  5
134
330
1F
100
AcDbEntity
  8
0
  6
Continuous
 62
     7
370
    25
100
AcDbPolyline
 90
        3
 70
   128
 43
0.0
 10
5433.5507414263
 20
4991.753804342
 10
5433.4220189791
 20
4991.7331315197
 10
5433.3199080929
 20
4991.7254710087
  0
LWPOLYLINE
  5
135
330
1F
100
AcDbEntity
  8
0
  6
Continuous
 62
     7
370
    25
100
AcDbPolyline
 90
        5
 70
   128
 43
0.0
 10
5433.3199080929
 20
4991.7254710087
 10
5433.2051463007
 20
4991.735107337
 10
5433.1023048205
 20
4991.7839207585
 10
5433.0601231688
 20
4991.8632667633
 10
5433.0490747596
 20
4991.9529710087
  0
ARC
  5
136
330
1F
100
AcDbEntity
  8
0
  6
Continuous
 62
     7
370
    25
100
AcDbCircle
 10
5451.1701114196
 20
4990.4233227148
 30
0.0
 40
18.18548304381273
100
AcDbArc
 50
170.9554066727
 51
175.1749388093
  0
LINE
  5
137
330
1F
100
AcDbEntity
  8
0
  6
Continuous
 62
     7
370
    25
100
AcDbLine
 10
5433.2107414263
 20
4993.2821376754
 30
0.0
 11
5433.2165747596
 21
4993.3329710087
 31
0.0
  0
LWPOLYLINE
  5
138
330
1F
100
AcDbEntity
  8
0
  6
Continuous
 62
     7
370
    25
100
AcDbPolyline
 90
        5
 70
   128
 43
0.0
 10
5433.2165747596
 20
4993.3329710087
 10
5433.2288634742
 20
4993.3666416397
 10
5433.2570227944
 20
4993.3884553755
 10
5433.3269038023
 20
4993.4042393359
 10
5433.4699080929
 20
4993.4179710087
  0
LWPOLYLINE
  5
139
330
1F
100
AcDbEntity
  8
0
  6
Continuous
 62
     7
370
    25
100
AcDbPolyline
 90
        3
 70
   128
 43
0.0
 10
5433.4699080929
 20
4993.4179710087
 10
5433.586217219
 20
4993.4300740485
 10
5433.6774080929
 20
4993.441304342
  0
LWPOLYLINE
  5
13A
330
1F
100
AcDbEntity
  8
0
  6
Continuous
 62
     7
370
    25
100
AcDbPolyline
 90
        5
 70
   128
 43
0.0
 10
5433.6774080929
 20
4993.441304342
 10
5433.8538616436
 20
4993.4683921042
 10
5433.9376711079
 20
4993.4984720798
 10
5433.9701169308
 20
4993.5289835608
 10
5433.9824080929
 20
4993.571304342
  0
LWPOLYLINE
  5
13B
330
1F
100
AcDbEntity
  8
0
  6
Continuous
 62
     7
370
    25
100
AcDbPolyline
 90
        5
 70
   128
 43
0.0
 10
5433.9824080929
 20
4993.571304342
 10
5433.9777096316
 20
4993.6067951174
 10
5433.9687484333
 20
4993.6223337871
 10
5433.9550240865
 20
4993.6338478181
 10
5433.8849080929
 20
4993.6454710087
  0
LINE
  5
13C
330
1F
100
AcDbEntity
  8
0
  6
Continuous
 62
     7
370
    25
100
AcDbLine
 10
5433.8849080929
 20
4993.6454710087
 30
0.0
 11
5433.4982414263
 21
4993.6454710087
 31
0.0
  0
LWPOLYLINE
  5
13D
330
1F
100
AcDbEntity
  8
0
  6
Continuous
 62
     7
370
    25
100
AcDbPolyline
 90
        6
 70
   128
 43
0.0
 10
5433.4982414263
 20
4993.6454710087
 10
5433.3612967959
 20
4993.648769564
 10
5433.2934723661
 20
4993.6573897369
 10
5433.2789160375
 20
4993.6669638122
 10
5433.2688379985
 20
4993.6807835882
 10
5433.2624080929
 20
4993.7146376754
  0
LWPOLYLINE
  5
13E
330
1F
100
AcDbEntity
  8
0
  6
Continuous
 62
     7
370
    25
100
AcDbPolyline
 90
        3
 70
   128
 43
0.0
 10
5433.2624080929
 20
4993.7146376754
 10
5433.2893961961
 20
4993.9667979476
 10
5433.3199080929
 20
4994.163804342
  0
LWPOLYLINE
  5
13F
330
1F
100
AcDbEntity
  8
0
  6
Continuous
 62
     7
370
    25
100
AcDbPolyline
 90
        3
 70
   128
 43
0.0
 10
5433.3199080929
 20
4994.163804342
 10
5433.3492057562
 20
4994.3827675943
 10
5433.3657414263
 20
4994.5554710087
  0
LWPOLYLINE
  5
140
330
1F
100
AcDbEntity
  8
0
  6
Continuous
 62
     7
370
    25
100
AcDbPolyline
 90
        5
 70
   128
 43
0.0
 10
5433.3657414263
 20
4994.5554710087
 10
5433.3584987046
 20
4994.5942323366
 10
5433.3527963104
 20
4994.6024843084
 10
5433.3450184641
 20
4994.6087393588
 10
5433.3257414263
 20
4994.6129710087
  0
LWPOLYLINE
  5
141
330
1F
100
AcDbEntity
  8
0
  6
Continuous
 62
     7
370
    25
100
AcDbPolyline
 90
        3
 70
   128
 43
0.0
 10
5433.3257414263
 20
4994.6129710087
 10
5433.1477931016
 20
4994.5588961682
 10
5433.0215747596
 20
4994.486304342
  0
LWPOLYLINE
  5
142
330
1F
100
AcDbEntity
  8
0
  6
Continuous
 62
     7
370
    25
100
AcDbPolyline
 90
        3
 70
   128
 43
0.0
 10
5433.0215747596
 20
4994.486304342
 10
5432.9453095894
 20
4994.1995429881
 10
5432.9065747596
 20
4993.9679710087
  0
LWPOLYLINE
  5
143
330
1F
100
AcDbEntity
  8
0
  6
Continuous
 62
     7
370
    25
100
AcDbPolyline
 90
        3
 70
   128
 43
0.0
 10
5432.9065747596
 20
4993.9679710087
 10
5432.8912804241
 20
4993.8681568803
 10
5432.8799080929
 20
4993.7896376754
  0
LINE
  5
144
330
1F
100
AcDbEntity
  8
0
  6
Continuous
 62
     7
370
    25
100
AcDbLine
 10
5432.8799080929
 20
4993.7896376754
 30
0.0
 11
5432.8799080929
 21
4993.7779710087
 31
0.0
  0
LWPOLYLINE
  5
145
330
1F
100
AcDbEntity
  8
0
  6
Continuous
 62
     7
370
    25
100
AcDbPolyline
 90
        6
 70
   128
 43
0.0
 10
5432.8799080929
 20
4993.7779710087
 10
5432.8670307747
 20
4993.7159746323
 10
5432.8492666104
 20
4993.6695069543
 10
5432.82641335
 20
4993.6539461005
 10
5432.798860091
 20
4993.6480432937
 10
5432.7424080929
 20
4993.6454710087
  0
LWPOLYLINE
  5
146
330
1F
100
AcDbEntity
  8
0
  6
Continuous
 62
     7
370
    25
100
AcDbPolyline
 90
        6
 70
   128
 43
0.0
 10
5432.7424080929
 20
4993.6454710087
 10
5432.5116992164
 20
4993.6232673339
 10
5432.4554694568
 20
4993.6091721763
 10
5432.4090898821
 20
4993.5755009797
 10
5432.3859920736
 20
4993.5223393259
 10
5432.3807414263
 20
4993.4646376754
  0
LWPOLYLINE
  5
147
330
1F
100
AcDbEntity
  8
0
  6
Continuous
 62
     7
370
    25
100
AcDbPolyline
 90
        5
 70
   128
 43
0.0
 10
5432.3807414263
 20
4993.4646376754
 10
5432.3898497113
 20
4993.4180869521
 10
5432.4045990294
 20
4993.3994284586
 10
5432.4250800103
 20
4993.3872145666
 10
5432.5190747596
 20
4993.3729710087
  0
LWPOLYLINE
  5
148
330
1F
100
AcDbEntity
  8
0
  6
Continuous
 62
     7
370
    25
100
AcDbPolyline
 90
        3
 70
   128
 43
0.0
 10
5432.5190747596
 20
4993.3729710087
 10
5432.5704387861
 20
4993.3757313016
 10
5432.6107414263
 20
4993.378804342
  0
LINE
  5
149
330
1F
100
AcDbEntity
  8
0
  6
Continuous
 62
     7
370
    25
100
AcDbLine
 10
5432.6107414263
 20
4993.378804342
 30
0.0
 11
5432.7157414263
 21
4993.378804342
 31
0.0
  0
LWPOLYLINE
  5
14A
330
1F
100
AcDbEntity
  8
0
  6
Continuous
 62
     7
370
    25
100
AcDbPolyline
 90
        5
 70
   128
 43
0.0
 10
5432.7157414263
 20
4993.378804342
 10
5432.7460813678
 20
4993.3761447348
 10
5432.7737015858
 20
4993.363580357
 10
5432.7874438248
 20
4993.3440859548
 10
5432.7915747596
 20
4993.3204710087
  0
LWPOLYLINE
  5
14B
330
1F
100
AcDbEntity
  8
0
  6
Continuous
 62
     7
370
    25
100
AcDbPolyline
 90
        3
 70
   128
 43
0.0
 10
5432.7915747596
 20
4993.3204710087
 10
5432.7589047024
 20
4993.0283681089
 10
5432.7265747596
 20
4992.7996376754
  0
LWPOLYLINE
  5
14C
330
1F
100
AcDbEntity
  8
0
  6
Continuous
 62
     7
370
    25
100
AcDbPolyline
 90
        3
 70
   128
 43
0.0
 10
5432.7265747596
 20
4992.7996376754
 10
5432.6620175888
 20
4992.2822280853
 10
5432.6224080929
 20
4991.8746376754
  0
ARC
  5
14D
330
1F
100
AcDbEntity
  8
0
  6
Continuous
 62
     7
370
    25
100
AcDbCircle
 10
5432.9970640847
 20
4991.8334603338
 30
0.0
 40
0.3769120396207244
100
AcDbArc
 50
173.7279625133
 51
276.2720374868
  0
LWPOLYLINE
  5
14E
330
1F
100
AcDbEntity
  8
0
  6
Continuous
 62
     7
370
    25
100
AcDbPolyline
 90
        6
 70
   128
 43
0.0
 10
5433.0382414263
 20
4991.458804342
 10
5433.4234794306
 20
4991.511325948
 10
5433.6055417246
 20
4991.5800758736
 10
5433.6880295095
 20
4991.6318249035
 10
5433.7207298488
 20
4991.6679023236
 10
5433.7349080929
 20
4991.713804342
  0
LWPOLYLINE
  5
14F
330
1F
100
AcDbEntity
  8
0
  6
Continuous
 62
     7
370
    25
100
AcDbPolyline
 90
        4
 70
   128
 43
0.0
 10
5433.7349080929
 20
4991.713804342
 10
5433.7279910362
 20
4991.7429662371
 10
5433.7063818894
 20
4991.7633827837
 10
5433.6599080929
 20
4991.771304342
  0
LWPOLYLINE
  5
150
330
1F
100
AcDbEntity
  8
0
  6
Continuous
 62
     7
370
    25
100
AcDbPolyline
 90
        3
 70
   128
 43
0.0
 10
5439.8532414263
 20
4993.2946376754
 10
5440.0269680893
 20
4993.3691808866
 10
5440.1765747596
 20
4993.378804342
  0
LWPOLYLINE
  5
151
330
1F
100
AcDbEntity
  8
0
  6
Continuous
 62
     7
370
    25
100
AcDbPolyline
 90
        3
 70
   128
 43
0.0
 10
5440.1765747596
 20
4993.378804342
 10
5440.3989046304
 20
4993.369161157
 10
5440.5732414263
 20
4993.3554710087
  0
LWPOLYLINE
  5
152
330
1F
100
AcDbEntity
  8
0
  6
Continuous
 62
     7
370
    25
100
AcDbPolyline
 90
        3
 70
   128
 43
0.0
 10
5440.5732414263
 20
4993.3554710087
 10
5440.6800478509
 20
4993.344922795
 10
5440.7640747596
 20
4993.3379710087
  0
LWPOLYLINE
  5
153
330
1F
100
AcDbEntity
  8
0
  6
Continuous
 62
     7
370
    25
100
AcDbPolyline
 90
        5
 70
   128
 43
0.0
 10
5440.7640747596
 20
4993.3379710087
 10
5440.8365674371
 20
4993.3456642762
 10
5440.9018875738
 20
4993.3768949197
 10
5440.9339503462
 20
4993.4239399962
 10
5440.9424080929
 20
4993.4804710087
  0
LWPOLYLINE
  5
154
330
1F
100
AcDbEntity
  8
0
  6
Continuous
 62
     7
370
    25
100
AcDbPolyline
 90
        5
 70
   128
 43
0.0
 10
5440.9424080929
 20
4993.4804710087
 10
5440.9318719119
 20
4993.5384829289
 10
5440.8957492557
 20
4993.5848055691
 10
5440.7861372311
 20
4993.6269871086
 10
5440.5507414263
 20
4993.6454710087
  0
ARC
  5
155
330
1F
100
AcDbEntity
  8
0
  6
Continuous
 62
     7
370
    25
100
AcDbCircle
 10
5440.4601610377
 20
4992.155693065
 30
0.0
 40
1.492529104709018
100
AcDbArc
 50
86.5206272232
 51
177.4804772148
  0
LWPOLYLINE
  5
156
330
1F
100
AcDbEntity
  8
0
  6
Continuous
 62
     7
370
    25
100
AcDbPolyline
 90
        5
 70
   128
 43
0.0
 10
5438.9690747596
 20
4992.221304342
 10
5439.0465614589
 20
4991.8905840061
 10
5439.1536377225
 20
4991.7569766469
 10
5439.2926436539
 20
4991.6569554478
 10
5439.9574080929
 20
4991.5121376754
  0
LWPOLYLINE
  5
157
330
1F
100
AcDbEntity
  8
0
  6
Continuous
 62
     7
370
    25
100
AcDbPolyline
 90
        6
 70
   128
 43
0.0
 10
5439.9574080929
 20
4991.5121376754
 10
5440.4455195711
 20
4991.5696260584
 10
5440.6772309198
 20
4991.6525784829
 10
5440.7836840711
 20
4991.7141304494
 10
5440.8284064957
 20
4991.7561823468
 10
5440.8499080929
 20
4991.8129710087
  0
LWPOLYLINE
  5
158
330
1F
100
AcDbEntity
  8
0
  6
Continuous
 62
     7
370
    25
100
AcDbPolyline
 90
        4
 70
   128
 43
0.0
 10
5440.8499080929
 20
4991.8129710087
 10
5440.8450012482
 20
4991.8424131643
 10
5440.8260426934
 20
4991.8652870419
 10
5440.7807414263
 20
4991.876304342
  0
LWPOLYLINE
  5
159
330
1F
100
AcDbEntity
  8
0
  6
Continuous
 62
     7
370
    25
100
AcDbPolyline
 90
        3
 70
   128
 43
0.0
 10
5440.7807414263
 20
4991.876304342
 10
5440.696970726
 20
4991.861798889
 10
5440.6315747596
 20
4991.8479710087
  0
LWPOLYLINE
  5
15A
330
1F
100
AcDbEntity
  8
0
  6
Continuous
 62
     7
370
    25
100
AcDbPolyline
 90
        3
 70
   128
 43
0.0
 10
5440.6315747596
 20
4991.8479710087
 10
5440.3680652158
 20
4991.8007158643
 10
5440.1590747596
 20
4991.778804342
  0
ARC
  5
15B
330
1F
100
AcDbEntity
  8
0
  6
Continuous
 62
     7
370
    25
100
AcDbCircle
 10
5440.0667766504
 20
4992.3377597163
 30
0.0
 40
0.56652453736653
100
AcDbArc
 50
174.9997875973
 51
279.3764172887
  0
LWPOLYLINE
  5
15C
330
1F
100
AcDbEntity
  8
0
  6
Continuous
 62
     7
370
    25
100
AcDbPolyline
 90
        3
 70
   128
 43
0.0
 10
5439.5024080929
 20
4992.3871376754
 10
5439.6097350018
 20
4992.933628628
 10
5439.8532414263
 20
4993.2946376754
  0
ARC
  5
15D
330
1F
100
AcDbEntity
  8
0
  6
Continuous
 62
     7
370
    25
100
AcDbCircle
 10
5442.4823139516
 20
4992.3729097716
 30
0.0
 40
1.326572526719336
100
AcDbArc
 50
91.8318566567
 51
179.99735512
  0
ARC
  5
15E
330
1F
100
AcDbEntity
  8
0
  6
Continuous
 62
     7
370
    25
100
AcDbCircle
 10
5442.0135178248
 20
4992.3172259521
 30
0.0
 40
0.8595858660884467
100
AcDbArc
 50
176.2816983996
 51
272.9824026223
  0
ARC
  5
15F
330
1F
100
AcDbEntity
  8
0
  6
Continuous
 62
     7
370
    25
100
AcDbCircle
 10
5442.0166672309
 20
4992.7838933857
 30
0.0
 40
1.325741070987598
100
AcDbArc
 50
271.7970451182
 51
0.0321666585
  0
ARC
  5
160
330
1F
100
AcDbEntity
  8
0
  6
Continuous
 62
     7
370
    25
100
AcDbCircle
 10
5442.4837652514
 20
4992.8395273465
 30
0.0
 40
0.8603954935871141
100
AcDbArc
 50
356.3422824607
 51
92.9218185612
  0
LWPOLYLINE
  5
161
330
1F
100
AcDbEntity
  8
0
  6
Continuous
 62
     7
370
    25
100
AcDbPolyline
 90
        5
 70
   128
 43
0.0
 10
5446.5832414263
 20
4991.458804342
 10
5446.8986339709
 20
4991.4894714775
 10
5447.050379866
 20
4991.5353523274
 10
5447.1171014642
 20
4991.5785842912
 10
5447.1499080929
 20
4991.648804342
  0
LWPOLYLINE
  5
162
330
1F
100
AcDbEntity
  8
0
  6
Continuous
 62
     7
370
    25
100
AcDbPolyline
 90
        6
 70
   128
 43
0.0
 10
5447.1499080929
 20
4991.648804342
 10
5447.1466955785
 20
4991.6804694989
 10
5447.1302527658
 20
4991.707246793
 10
5447.1005561757
 20
4991.7180960098
 10
5447.0689068438
 20
4991.7220583099
 10
5446.9415747596
 20
4991.7254710087
  0
LWPOLYLINE
  5
163
330
1F
100
AcDbEntity
  8
0
  6
Continuous
 62
     7
370
    25
100
AcDbPolyline
 90
        6
 70
   128
 43
0.0
 10
5446.9415747596
 20
4991.7254710087
 10
5446.8115431648
 20
4991.732867876
 10
5446.7131499344
 20
4991.7600545868
 10
5446.6755166756
 20
4991.8033009782
 10
5446.6583355062
 20
4991.8588307894
 10
5446.6490747596
 20
4991.9746376754
  0
LWPOLYLINE
  5
164
330
1F
100
AcDbEntity
  8
0
  6
Continuous
 62
     7
370
    25
100
AcDbPolyline
 90
        3
 70
   128
 43
0.0
 10
5446.6490747596
 20
4991.9746376754
 10
5446.8349051643
 20
4993.609727858
 10
5447.0149080929
 20
4994.8904710087
  0
LWPOLYLINE
  5
165
330
1F
100
AcDbEntity
  8
0
  6
Continuous
 62
     7
370
    25
100
AcDbPolyline
 90
        3
 70
   128
 43
0.0
 10
5447.0149080929
 20
4994.8904710087
 10
5447.0593509068
 20
4995.2273938429
 10
5447.0940747596
 20
4995.4921376754
  0
LWPOLYLINE
  5
166
330
1F
100
AcDbEntity
  8
0
  6
Continuous
 62
     7
370
    25
100
AcDbPolyline
 90
        5
 70
   128
 43
0.0
 10
5447.0940747596
 20
4995.4921376754
 10
5447.0907390258
 20
4995.5213174115
 10
5447.0784864908
 20
4995.5478883022
 10
5447.0602270236
 20
4995.5618493088
 10
5447.0374080929
 20
4995.5654710087
  0
ARC
  5
167
330
1F
100
AcDbEntity
  8
0
  6
Continuous
 62
     7
370
    25
100
AcDbCircle
 10
5447.1407603706
 20
4995.0268409145
 30
0.0
 40
0.5484560800022964
100
AcDbArc
 50
100.8618874992
 51
152.3568584745
  0
LWPOLYLINE
  5
168
330
1F
100
AcDbEntity
  8
0
  6
Continuous
 62
     7
370
    25
100
AcDbPolyline
 90
        3
 70
   128
 43
0.0
 10
5446.6549080929
 20
4995.281304342
 10
5446.3875396826
 20
4993.3282969466
 10
5446.2224080929
 20
4991.788804342
  0
ARC
  5
169
330
1F
100
AcDbEntity
  8
0
  6
Continuous
 62
     7
370
    25
100
AcDbCircle
 10
5446.5311628658
 20
4991.764133635
 30
0.0
 40
0.309738847384251
100
AcDbArc
 50
175.4315505239
 51
279.6795179029
  0
LINE
  5
16A
330
1F
100
AcDbEntity
  8
0
  6
Continuous
 62
     7
370
    25
100
AcDbLine
 10
5409.9507414263
 20
4991.9371376754
 30
0.0
 11
5409.9507414263
 21
4991.9254710087
 31
0.0
  0
ARC
  5
16B
330
1F
100
AcDbEntity
  8
0
  6
Continuous
 62
     7
370
    25
100
AcDbCircle
 10
5410.5032382569
 20
4992.0185243782
 30
0.0
 40
0.5602782142740308
100
AcDbArc
 50
189.5602247265
 51
272.5577507214
  0
LWPOLYLINE
  5
16C
330
1F
100
AcDbEntity
  8
0
  6
Continuous
 62
     7
370
    25
100
AcDbPolyline
 90
        5
 70
   128
 43
0.0
 10
5410.5282414263
 20
4991.458804342
 10
5410.8315020235
 20
4991.533029747
 10
5411.06823489
 20
4991.7381810247
 10
5411.3577275881
 20
4992.2945119439
 10
5411.5557414263
 20
4993.5354710087
  0
LWPOLYLINE
  5
16D
330
1F
100
AcDbEntity
  8
0
  6
Continuous
 62
     7
370
    25
100
AcDbPolyline
 90
        5
 70
   128
 43
0.0
 10
5411.5557414263
 20
4993.5354710087
 10
5411.5516965616
 20
4993.5796038238
 10
5411.5334240509
 20
4993.619810372
 10
5411.5051998504
 20
4993.6399822999
 10
5411.4707414263
 20
4993.6454710087
  0
LWPOLYLINE
  5
16E
330
1F
100
AcDbEntity
  8
0
  6
Continuous
 62
     7
370
    25
100
AcDbPolyline
 90
        5
 70
   128
 43
0.0
 10
5411.4707414263
 20
4993.6454710087
 10
5411.2680112384
 20
4993.59994163
 10
5411.1714208245
 20
4993.5615328846
 10
5411.1272046184
 20
4993.5343211165
 10
5411.1032414263
 20
4993.4896376754
  0
LWPOLYLINE
  5
16F
330
1F
100
AcDbEntity
  8
0
  6
Continuous
 62
     7
370
    25
100
AcDbPolyline
 90
        3
 70
   128
 43
0.0
 10
5411.1032414263
 20
4993.4896376754
 10
5411.1175260254
 20
4993.4437096632
 10
5411.1324080929
 20
4993.408804342
  0
LWPOLYLINE
  5
170
330
1F
100
AcDbEntity
  8
0
  6
Continuous
 62
     7
370
    25
100
AcDbPolyline
 90
        3
 70
   128
 43
0.0
 10
5411.1324080929
 20
4993.408804342
 10
5411.2181845436
 20
4993.1633617539
 10
5411.2357414263
 20
4992.9596376754
  0
LWPOLYLINE
  5
171
330
1F
100
AcDbEntity
  8
0
  6
Continuous
 62
     7
370
    25
100
AcDbPolyline
 90
        5
 70
   128
 43
0.0
 10
5411.2357414263
 20
4992.9596376754
 10
5411.1436104387
 20
4992.2320103684
 10
5410.9919543259
 20
4991.8984623383
 10
5410.8590295691
 20
4991.7729782866
 10
5410.6832414263
 20
4991.7254710087
  0
LWPOLYLINE
  5
172
330
1F
100
AcDbEntity
  8
0
  6
Continuous
 62
     7
370
    25
100
AcDbPolyline
 90
        5
 70
   128
 43
0.0
 10
5410.6832414263
 20
4991.7254710087
 10
5410.5531418636
 20
4991.75096765
 10
5410.4448612847
 20
4991.8276144025
 10
5410.3697826213
 20
4991.937399106
 10
5410.3115747596
 20
4992.243804342
  0
LWPOLYLINE
  5
173
330
1F
100
AcDbEntity
  8
0
  6
Continuous
 62
     7
370
    25
100
AcDbPolyline
 90
        3
 70
   128
 43
0.0
 10
5410.3115747596
 20
4992.243804342
 10
5410.3811715651
 20
4992.8391518334
 10
5410.4915747596
 20
4993.2979710087
  0
LWPOLYLINE
  5
174
330
1F
100
AcDbEntity
  8
0
  6
Continuous
 62
     7
370
    25
100
AcDbPolyline
 90
        3
 70
   128
 43
0.0
 10
5410.4915747596
 20
4993.2979710087
 10
5410.5133632394
 20
4993.3706916188
 10
5410.5265747596
 20
4993.428804342
  0
ARC
  5
175
330
1F
100
AcDbEntity
  8
0
  6
Continuous
 62
     7
370
    25
100
AcDbCircle
 10
5410.1466544375
 20
4993.2178787257
 30
0.0
 40
0.4345446660159881
100
AcDbArc
 50
29.0383260458
 51
79.7371495415
  0
ARC
  5
176
330
1F
100
AcDbEntity
  8
0
  6
Continuous
 62
     7
370
    25
100
AcDbCircle
 10
5412.0114448632
 20
4992.6067430437
 30
0.0
 40
2.067280259767789
100
AcDbArc
 50
149.8370392628
 51
181.5366975336
  0
LWPOLYLINE
  5
177
330
1F
100
AcDbEntity
  8
0
  6
Continuous
 62
     7
370
    25
100
AcDbPolyline
 90
        4
 70
   128
 43
0.0
 10
5409.9449080929
 20
4992.551304342
 10
5409.737703876
 20
4992.0149344483
 10
5409.5865702261
 20
4991.8455292264
 10
5409.3815747596
 20
4991.756304342
  0
LWPOLYLINE
  5
178
330
1F
100
AcDbEntity
  8
0
  6
Continuous
 62
     7
370
    25
100
AcDbPolyline
 90
        5
 70
   128
 43
0.0
 10
5409.3815747596
 20
4991.756304342
 10
5409.30125157
 20
4991.7708715365
 10
5409.2318280337
 20
4991.8141875693
 10
5409.1440408098
 20
4991.9508209949
 10
5409.1024080929
 20
4992.2746376754
  0
LWPOLYLINE
  5
179
330
1F
100
AcDbEntity
  8
0
  6
Continuous
 62
     7
370
    25
100
AcDbPolyline
 90
        3
 70
   128
 43
0.0
 10
5409.1024080929
 20
4992.2746376754
 10
5409.158182531
 20
4992.8422550505
 10
5409.2690747596
 20
4993.2771376754
  0
LWPOLYLINE
  5
17A
330
1F
100
AcDbEntity
  8
0
  6
Continuous
 62
     7
370
    25
100
AcDbPolyline
 90
        3
 70
   128
 43
0.0
 10
5409.2690747596
 20
4993.2771376754
 10
5409.2914148388
 20
4993.3605454796
 10
5409.3040747596
 20
4993.4271376754
  0
ARC
  5
17B
330
1F
100
AcDbEntity
  8
0
  6
Continuous
 62
     7
370
    25
100
AcDbCircle
 10
5408.6932481384
 20
4993.0598494629
 30
0.0
 40
0.7127480566158121
100
AcDbArc
 50
31.0183667359
 51
63.6974452057
  0
ARC
  5
17C
330
1F
100
AcDbEntity
  8
0
  6
Continuous
 62
     7
370
    25
100
AcDbCircle
 10
5411.5631127293
 20
4992.4573750194
 30
0.0
 40
2.839763496103891
100
AcDbArc
 50
154.0772199732
 51
183.638959743
  0
LWPOLYLINE
  5
17D
330
1F
100
AcDbEntity
  8
0
  6
Continuous
 62
     7
370
    25
100
AcDbPolyline
 90
        6
 70
   128
 43
0.0
 10
5408.7290747596
 20
4992.2771376754
 10
5408.8075977484
 20
4991.7516449773
 10
5408.8674975086
 20
4991.6325071284
 10
5408.9576982499
 20
4991.5346714001
 10
5409.0770064344
 20
4991.4760717401
 10
5409.2090747596
 20
4991.458804342
  0
ARC
  5
17E
330
1F
100
AcDbEntity
  8
0
  6
Continuous
 62
     7
370
    25
100
AcDbCircle
 10
5409.1469401554
 20
4992.1344133347
 30
0.0
 40
0.6784601831124265
100
AcDbArc
 50
275.2546133705
 51
324.5906977272
  0
LWPOLYLINE
  5
17F
330
1F
100
AcDbEntity
  8
0
  6
Continuous
 62
     7
370
    25
100
AcDbPolyline
 90
        3
 70
   128
 43
0.0
 10
5409.6999080929
 20
4991.741304342
 10
5409.785660859
 20
4991.8422647508
 10
5409.8482414263
 20
4991.9254710087
  0
LWPOLYLINE
  5
180
330
1F
100
AcDbEntity
  8
0
  6
Continuous
 62
     7
370
    25
100
AcDbPolyline
 90
        3
 70
   128
 43
0.0
 10
5409.8482414263
 20
4991.9254710087
 10
5409.8838604429
 20
4991.9701315601
 10
5409.9165747596
 20
4992.0004710087
  0
ARC
  5
181
330
1F
100
AcDbEntity
  8
0
  6
Continuous
 62
     7
370
    25
100
AcDbCircle
 10
5409.8643410943
 20
4991.9314096454
 30
0.0
 40
0.0865899976727321
100
AcDbArc
 50
3.7929528165
 51
52.8984344295
  0
LINE
  5
182
330
1F
100
AcDbEntity
  8
0
  6
Continuous
 62
     7
370
    25
100
AcDbLine
 10
5416.9305829016
 20
5004.9568547752
 30
0.0
 11
5416.8317575464
 21
5004.9486874327
 31
0.0
  0
LINE
  5
183
330
1F
100
AcDbEntity
  8
0
  6
Continuous
 62
     7
370
    25
100
AcDbLine
 10
5416.8317575464
 20
5004.9486874327
 30
0.0
 11
5416.7682990727
 21
5004.9488407182
 31
0.0
  0
ARC
  5
184
330
1F
100
AcDbEntity
  8
0
  6
Continuous
 62
     7
370
    25
100
AcDbCircle
 10
5416.900475046
 20
5002.9328417051
 30
0.0
 40
2.020327327182317
100
AcDbArc
 50
93.7511437571
 51
181.4870821497
  0
LINE
  5
185
330
1F
100
AcDbEntity
  8
0
  6
Continuous
 62
     7
370
    25
100
AcDbLine
 10
5414.8808281623
 20
5002.8804110474
 30
0.0
 11
5414.8576626145
 21
5001.4481988285
 31
0.0
  0
LINE
  5
186
330
1F
100
AcDbEntity
  8
0
  6
Continuous
 62
     7
370
    25
100
AcDbLine
 10
5414.8576626145
 20
5001.4481988285
 30
0.0
 11
5413.9291398593
 21
5001.4490636559
 31
0.0
  0
LINE
  5
187
330
1F
100
AcDbEntity
  8
0
  6
Continuous
 62
     7
370
    25
100
AcDbLine
 10
5413.9291398593
 20
5001.4490636559
 30
0.0
 11
5414.3045182905
 21
5000.3079647916
 31
0.0
  0
LINE
  5
188
330
1F
100
AcDbEntity
  8
0
  6
Continuous
 62
     7
370
    25
100
AcDbLine
 10
5414.3045182905
 20
5000.3079647916
 30
0.0
 11
5414.7998356981
 21
5000.2997403249
 31
0.0
  0
LINE
  5
189
330
1F
100
AcDbEntity
  8
0
  6
Continuous
 62
     7
370
    25
100
AcDbLine
 10
5414.7998356981
 20
5000.2997403249
 30
0.0
 11
5414.7965449819
 21
4996.5983957871
 31
0.0
  0
LINE
  5
18A
330
1F
100
AcDbEntity
  8
0
  6
Continuous
 62
     7
370
    25
100
AcDbLine
 10
5414.7965449819
 20
4996.5983957871
 30
0.0
 11
5415.8887434143
 21
4996.6112605297
 31
0.0
  0
LINE
  5
18B
330
1F
100
AcDbEntity
  8
0
  6
Continuous
 62
     7
370
    25
100
AcDbLine
 10
5415.8887434143
 20
4996.6112605297
 30
0.0
 11
5415.8919658927
 21
5000.2843553669
 31
0.0
  0
LINE
  5
18C
330
1F
100
AcDbEntity
  8
0
  6
Continuous
 62
     7
370
    25
100
AcDbLine
 10
5415.8919658927
 20
5000.2843553669
 30
0.0
 11
5416.8289807008
 21
5000.290566944
 31
0.0
  0
LINE
  5
18D
330
1F
100
AcDbEntity
  8
0
  6
Continuous
 62
     7
370
    25
100
AcDbLine
 10
5416.8289807008
 20
5000.290566944
 30
0.0
 11
5417.6926151891
 21
5000.2969557732
 31
0.0
  0
LINE
  5
18E
330
1F
100
AcDbEntity
  8
0
  6
Continuous
 62
     7
370
    25
100
AcDbLine
 10
5417.6926151891
 20
5000.2969557732
 30
0.0
 11
5417.6751996226
 21
4996.5956453543
 31
0.0
  0
LINE
  5
18F
330
1F
100
AcDbEntity
  8
0
  6
Continuous
 62
     7
370
    25
100
AcDbLine
 10
5417.6751996226
 20
4996.5956453543
 30
0.0
 11
5418.7956477555
 21
4996.6084418591
 31
0.0
  0
LINE
  5
190
330
1F
100
AcDbEntity
  8
0
  6
Continuous
 62
     7
370
    25
100
AcDbLine
 10
5418.7956477555
 20
4996.6084418591
 30
0.0
 11
5418.8153537318
 21
5002.9979625957
 31
0.0
  0
ARC
  5
191
330
1F
100
AcDbEntity
  8
0
  6
Continuous
 62
     7
370
    25
100
AcDbCircle
 10
5416.9604488757
 20
5003.0994175217
 30
0.0
 40
1.857677347417975
100
AcDbArc
 50
356.8692988344
 51
90.921186875
  0
LINE
  5
192
330
1F
100
AcDbEntity
  8
0
  6
Continuous
 62
     7
370
    25
100
AcDbLine
 10
5426.6123712613
 20
5000.3106878904
 30
0.0
 11
5426.6104415665
 21
4997.8003816281
 31
0.0
  0
LINE
  5
193
330
1F
100
AcDbEntity
  8
0
  6
Continuous
 62
     7
370
    25
100
AcDbLine
 10
5429.115546558
 20
5000.2947881798
 30
0.0
 11
5426.6123712613
 21
5000.3106878904
 31
0.0
  0
LINE
  5
194
330
1F
100
AcDbEntity
  8
0
  6
Continuous
 62
     7
370
    25
100
AcDbLine
 10
5428.7262144392
 20
5001.4782268709
 30
0.0
 11
5429.115546558
 21
5000.2947881798
 31
0.0
  0
LINE
  5
195
330
1F
100
AcDbEntity
  8
0
  6
Continuous
 62
     7
370
    25
100
AcDbLine
 10
5426.6912643516
 20
5001.4803171349
 30
0.0
 11
5428.7262144392
 21
5001.4782268709
 31
0.0
  0
LINE
  5
196
330
1F
100
AcDbEntity
  8
0
  6
Continuous
 62
     7
370
    25
100
AcDbLine
 10
5426.6935974052
 20
5003.5871312458
 30
0.0
 11
5426.6912643516
 21
5001.4803171349
 31
0.0
  0
LINE
  5
197
330
1F
100
AcDbEntity
  8
0
  6
Continuous
 62
     7
370
    25
100
AcDbLine
 10
5428.7849089284
 20
5003.5849048393
 30
0.0
 11
5426.6935974052
 21
5003.5871312458
 31
0.0
  0
LINE
  5
198
330
1F
100
AcDbEntity
  8
0
  6
Continuous
 62
     7
370
    25
100
AcDbLine
 10
5428.7862697409
 20
5004.7758746267
 30
0.0
 11
5428.7849089284
 21
5003.5849048393
 31
0.0
  0
LINE
  5
199
330
1F
100
AcDbEntity
  8
0
  6
Continuous
 62
     7
370
    25
100
AcDbLine
 10
5425.5675818834
 20
5004.7779994304
 30
0.0
 11
5428.7862697409
 21
5004.7758746267
 31
0.0
  0
LINE
  5
19A
330
1F
100
AcDbEntity
  8
0
  6
Continuous
 62
     7
370
    25
100
AcDbLine
 10
5425.565218413
 20
5001.460506261
 30
0.0
 11
5425.5675818834
 21
5004.7779994304
 31
0.0
  0
LINE
  5
19B
330
1F
100
AcDbEntity
  8
0
  6
Continuous
 62
     7
370
    25
100
AcDbLine
 10
5424.6705951272
 20
5001.4612200415
 30
0.0
 11
5425.565218413
 21
5001.460506261
 31
0.0
  0
LINE
  5
19C
330
1F
100
AcDbEntity
  8
0
  6
Continuous
 62
     7
370
    25
100
AcDbLine
 10
5424.6673087812
 20
5004.7787960583
 30
0.0
 11
5424.6705951272
 21
5001.4612200415
 31
0.0
  0
LINE
  5
19D
330
1F
100
AcDbEntity
  8
0
  6
Continuous
 62
     7
370
    25
100
AcDbLine
 10
5424.4189179058
 20
5004.7793960526
 30
0.0
 11
5424.6673087812
 21
5004.7787960583
 31
0.0
  0
LINE
  5
19E
330
1F
100
AcDbEntity
  8
0
  6
Continuous
 62
     7
370
    25
100
AcDbLine
 10
5423.3620310934
 20
5004.7805017846
 30
0.0
 11
5424.4189179058
 21
5004.7793960526
 31
0.0
  0
LINE
  5
19F
330
1F
100
AcDbEntity
  8
0
  6
Continuous
 62
     7
370
    25
100
AcDbLine
 10
5423.359468249
 20
5001.9794306035
 30
0.0
 11
5423.3620310934
 21
5004.7805017846
 31
0.0
  0
LINE
  5
1A0
330
1F
100
AcDbEntity
  8
0
  6
Continuous
 62
     7
370
    25
100
AcDbLine
 10
5419.7244009017
 20
5004.8894724626
 30
0.0
 11
5423.359468249
 21
5001.9794306035
 31
0.0
  0
LINE
  5
1A1
330
1F
100
AcDbEntity
  8
0
  6
Continuous
 62
     7
370
    25
100
AcDbLine
 10
5419.7255665027
 20
4996.5864894243
 30
0.0
 11
5419.7244009017
 21
5004.8894724626
 31
0.0
  0
LINE
  5
1A2
330
1F
100
AcDbEntity
  8
0
  6
Continuous
 62
     7
370
    25
100
AcDbLine
 10
5420.8939399184
 20
4996.5864923976
 30
0.0
 11
5419.7255665027
 21
4996.5864894243
 31
0.0
  0
LINE
  5
1A3
330
1F
100
AcDbEntity
  8
0
  6
Continuous
 62
     7
370
    25
100
AcDbLine
 10
5420.9144112539
 20
5002.151873185
 30
0.0
 11
5420.8939399184
 21
4996.5864923976
 31
0.0
  0
LINE
  5
1A4
330
1F
100
AcDbEntity
  8
0
  6
Continuous
 62
     7
370
    25
100
AcDbLine
 10
5423.3793184544
 20
5000.2705412695
 30
0.0
 11
5420.9144112539
 21
5002.151873185
 31
0.0
  0
LINE
  5
1A5
330
1F
100
AcDbEntity
  8
0
  6
Continuous
 62
     7
370
    25
100
AcDbLine
 10
5423.3760141342
 20
4996.5635468365
 30
0.0
 11
5423.3793184544
 21
5000.2705412695
 31
0.0
  0
LINE
  5
1A6
330
1F
100
AcDbEntity
  8
0
  6
Continuous
 62
     7
370
    25
100
AcDbLine
 10
5424.4104004353
 20
4996.575173092
 30
0.0
 11
5423.3760141342
 21
4996.5635468365
 31
0.0
  0
LINE
  5
1A7
330
1F
100
AcDbEntity
  8
0
  6
Continuous
 62
     7
370
    25
100
AcDbLine
 10
5424.6390370403
 20
4996.5830960393
 30
0.0
 11
5424.4104004353
 21
4996.575173092
 31
0.0
  0
LINE
  5
1A8
330
1F
100
AcDbEntity
  8
0
  6
Continuous
 62
     7
370
    25
100
AcDbLine
 10
5424.6211915509
 20
5000.2915195643
 30
0.0
 11
5424.6390370403
 21
4996.5830960393
 31
0.0
  0
LINE
  5
1A9
330
1F
100
AcDbEntity
  8
0
  6
Continuous
 62
     7
370
    25
100
AcDbLine
 10
5425.5920202134
 20
5000.2906213078
 30
0.0
 11
5424.6211915509
 21
5000.2915195643
 31
0.0
  0
LINE
  5
1AA
330
1F
100
AcDbEntity
  8
0
  6
Continuous
 62
     7
370
    25
100
AcDbLine
 10
5425.5887636595
 20
4996.6034016171
 30
0.0
 11
5425.5920202134
 21
5000.2906213078
 31
0.0
  0
LINE
  5
1AB
330
1F
100
AcDbEntity
  8
0
  6
Continuous
 62
     7
370
    25
100
AcDbLine
 10
5428.7228370692
 20
4996.6000343975
 30
0.0
 11
5425.5887636595
 21
4996.6034016171
 31
0.0
  0
LINE
  5
1AC
330
1F
100
AcDbEntity
  8
0
  6
Continuous
 62
     7
370
    25
100
AcDbLine
 10
5428.7229783564
 20
4997.7994819555
 30
0.0
 11
5428.7228370692
 21
4996.6000343975
 31
0.0
  0
LINE
  5
1AD
330
1F
100
AcDbEntity
  8
0
  6
Continuous
 62
     7
370
    25
100
AcDbLine
 10
5426.6104415665
 20
4997.8003816281
 30
0.0
 11
5428.7229783564
 21
4997.7994819555
 31
0.0
  0
LINE
  5
1AE
330
1F
100
AcDbEntity
  8
0
  6
Continuous
 62
     7
370
    25
100
AcDbLine
 10
5435.8492180061
 20
5004.9182532413
 30
0.0
 11
5435.6926733239
 21
5004.9186313788
 31
0.0
  0
ARC
  5
1AF
330
1F
100
AcDbEntity
  8
0
  6
Continuous
 62
     7
370
    25
100
AcDbCircle
 10
5435.8292621046
 20
5002.8901330343
 30
0.0
 40
2.03309174138495
100
AcDbArc
 50
93.8521920123
 51
181.3209866075
  0
LINE
  5
1B0
330
1F
100
AcDbEntity
  8
0
  6
Continuous
 62
     7
370
    25
100
AcDbLine
 10
5433.7967106935
 20
5002.8432631067
 30
0.0
 11
5433.7749196848
 21
5001.4096006232
 31
0.0
  0
LINE
  5
1B1
330
1F
100
AcDbEntity
  8
0
  6
Continuous
 62
     7
370
    25
100
AcDbLine
 10
5433.7749196848
 20
5001.4096006232
 30
0.0
 11
5433.0666101193
 21
5001.4113115625
 31
0.0
  0
LINE
  5
1B2
330
1F
100
AcDbEntity
  8
0
  6
Continuous
 62
     7
370
    25
100
AcDbLine
 10
5433.0666101193
 20
5001.4113115625
 30
0.0
 11
5432.8676184894
 21
5001.4103452874
 31
0.0
  0
LINE
  5
1B3
330
1F
100
AcDbEntity
  8
0
  6
Continuous
 62
     7
370
    25
100
AcDbLine
 10
5432.8676184894
 20
5001.4103452874
 30
0.0
 11
5433.0664985711
 21
5000.7946379409
 31
0.0
  0
LINE
  5
1B4
330
1F
100
AcDbEntity
  8
0
  6
Continuous
 62
     7
370
    25
100
AcDbLine
 10
5433.0664985711
 20
5000.7946379409
 30
0.0
 11
5433.2345910785
 21
5000.2693356297
 31
0.0
  0
LINE
  5
1B5
330
1F
100
AcDbEntity
  8
0
  6
Continuous
 62
     7
370
    25
100
AcDbLine
 10
5433.2345910785
 20
5000.2693356297
 30
0.0
 11
5433.7242577158
 21
5000.2893057758
 31
0.0
  0
LINE
  5
1B6
330
1F
100
AcDbEntity
  8
0
  6
Continuous
 62
     7
370
    25
100
AcDbLine
 10
5433.7242577158
 20
5000.2893057758
 30
0.0
 11
5433.713908235
 21
4996.5752313982
 31
0.0
  0
LINE
  5
1B7
330
1F
100
AcDbEntity
  8
0
  6
Continuous
 62
     7
370
    25
100
AcDbLine
 10
5433.713908235
 20
4996.5752313982
 30
0.0
 11
5434.8272255395
 21
4996.573989097
 31
0.0
  0
LINE
  5
1B8
330
1F
100
AcDbEntity
  8
0
  6
Continuous
 62
     7
370
    25
100
AcDbLine
 10
5434.8272255395
 20
4996.573989097
 30
0.0
 11
5434.8445347567
 21
5000.2597967978
 31
0.0
  0
LINE
  5
1B9
330
1F
100
AcDbEntity
  8
0
  6
Continuous
 62
     7
370
    25
100
AcDbLine
 10
5434.8445347567
 20
5000.2597967978
 30
0.0
 11
5435.7449456148
 21
5000.2589998754
 31
0.0
  0
LINE
  5
1BA
330
1F
100
AcDbEntity
  8
0
  6
Continuous
 62
     7
370
    25
100
AcDbLine
 10
5435.7449456148
 20
5000.2589998754
 30
0.0
 11
5436.609941161
 21
5000.2583574015
 31
0.0
  0
LINE
  5
1BB
330
1F
100
AcDbEntity
  8
0
  6
Continuous
 62
     7
370
    25
100
AcDbLine
 10
5436.609941161
 20
5000.2583574015
 30
0.0
 11
5436.6066878924
 21
4996.5725157482
 31
0.0
  0
LINE
  5
1BC
330
1F
100
AcDbEntity
  8
0
  6
Continuous
 62
     7
370
    25
100
AcDbLine
 10
5436.6066878924
 20
4996.5725157482
 30
0.0
 11
5437.734060979
 21
4996.5711705929
 31
0.0
  0
LINE
  5
1BD
330
1F
100
AcDbEntity
  8
0
  6
Continuous
 62
     7
370
    25
100
AcDbLine
 10
5437.734060979
 20
4996.5711705929
 30
0.0
 11
5437.7607914345
 21
5002.9592274174
 31
0.0
  0
ARC
  5
1BE
330
1F
100
AcDbEntity
  8
0
  6
Continuous
 62
     7
370
    25
100
AcDbCircle
 10
5435.8935969772
 20
5003.0494091103
 30
0.0
 40
1.869370984866869
100
AcDbArc
 50
357.2348791593
 51
91.3603327904
  0
LINE
  5
1BF
330
1F
100
AcDbEntity
  8
0
  6
Continuous
 62
     7
370
    25
100
AcDbLine
 10
5430.7446829154
 20
4997.6195871675
 30
0.0
 11
5433.0631113175
 21
4997.6239085753
 31
0.0
  0
LINE
  5
1C0
330
1F
100
AcDbEntity
  8
0
  6
Continuous
 62
     7
370
    25
100
AcDbLine
 10
5430.7576924129
 20
5004.7739374147
 30
0.0
 11
5430.7446829154
 21
4997.6195871675
 31
0.0
  0
LINE
  5
1C1
330
1F
100
AcDbEntity
  8
0
  6
Continuous
 62
     7
370
    25
100
AcDbLine
 10
5429.5455530781
 20
5004.7683905425
 30
0.0
 11
5430.7576924129
 21
5004.7739374147
 31
0.0
  0
LINE
  5
1C2
330
1F
100
AcDbEntity
  8
0
  6
Continuous
 62
     7
370
    25
100
AcDbLine
 10
5429.5523826588
 20
4996.5852837724
 30
0.0
 11
5429.5455530781
 21
5004.7683905425
 31
0.0
  0
LINE
  5
1C3
330
1F
100
AcDbEntity
  8
0
  6
Continuous
 62
     7
370
    25
100
AcDbLine
 10
5433.0618190919
 20
4996.5754286379
 30
0.0
 11
5429.5523826588
 21
4996.5852837724
 31
0.0
  0
LINE
  5
1C4
330
1F
100
AcDbEntity
  8
0
  6
Continuous
 62
     7
370
    25
100
AcDbLine
 10
5433.2524013359
 20
4996.5749682818
 30
0.0
 11
5433.0618190919
 21
4996.5754286379
 31
0.0
  0
LINE
  5
1C5
330
1F
100
AcDbEntity
  8
0
  6
Continuous
 62
     7
370
    25
100
AcDbLine
 10
5433.260587271
 20
4997.6248099713
 30
0.0
 11
5433.2524013359
 21
4996.5749682818
 31
0.0
  0
LINE
  5
1C6
330
1F
100
AcDbEntity
  8
0
  6
Continuous
 62
     7
370
    25
100
AcDbLine
 10
5433.0631113175
 20
4997.6239085753
 30
0.0
 11
5433.260587271
 21
4997.6248099713
 31
0.0
  0
LINE
  5
1C7
330
1F
100
AcDbEntity
  8
0
  6
Continuous
 62
     7
370
    25
100
AcDbLine
 10
5447.7841493313
 20
5007.9920862983
 30
0.0
 11
5447.7775347672
 21
5007.992102276
 31
0.0
  0
ARC
  5
1C8
330
1F
100
AcDbEntity
  8
0
  6
Continuous
 62
     7
370
    25
100
AcDbCircle
 10
5447.7822207776
 20
5007.0715143897
 30
0.0
 40
0.9205998126696885
100
AcDbArc
 50
90.2916465661
 51
180.4634979482
  0
ARC
  5
1C9
330
1F
100
AcDbEntity
  8
0
  6
Continuous
 62
     7
370
    25
100
AcDbCircle
 10
5447.7744064579
 20
5007.0609764744
 30
0.0
 40
0.9127606034726236
100
AcDbArc
 50
179.8059875332
 51
270.0897917778
  0
LINE
  5
1CA
330
1F
100
AcDbEntity
  8
0
  6
Continuous
 62
     7
370
    25
100
AcDbLine
 10
5447.7758369012
 20
5006.1482169918
 30
0.0
 11
5447.782727072
 21
5006.1482003484
 31
0.0
  0
ARC
  5
1CB
330
1F
100
AcDbEntity
  8
0
  6
Continuous
 62
     7
370
    25
100
AcDbCircle
 10
5447.7840314947
 20
5007.0699425253
 30
0.0
 40
0.9217430998935807
100
AcDbArc
 50
269.9189167361
 51
359.5249302732
  0
ARC
  5
1CC
330
1F
100
AcDbEntity
  8
0
  6
Continuous
 62
     7
370
    25
100
AcDbCircle
 10
5447.7703578361
 20
5007.0567866523
 30
0.0
 40
0.9354013219660462
100
AcDbArc
 50
0.3377059624
 51
89.155204209
  0
LINE
  5
1CD
330
1F
100
AcDbEntity
  8
0
  6
Continuous
 62
     7
370
    25
100
AcDbLine
 10
5444.1925794948
 20
5003.2658087837
 30
0.0
 11
5444.185396408
 21
5003.2586603151
 31
0.0
  0
LWPOLYLINE
  5
1CE
330
1F
100
AcDbEntity
  8
0
  6
Continuous
 62
     7
370
    25
100
AcDbPolyline
 90
        3
 70
   128
 43
0.0
 10
5444.185396408
 20
5003.2586603151
 10
5444.0975331527
 20
5003.1627487751
 10
5444.0298842397
 20
5003.058944229
  0
LINE
  5
1CF
330
1F
100
AcDbEntity
  8
0
  6
Continuous
 62
     7
370
    25
100
AcDbLine
 10
5444.0298842397
 20
5003.058944229
 30
0.0
 11
5443.8238802916
 21
5003.2356245338
 31
0.0
  0
LWPOLYLINE
  5
1D0
330
1F
100
AcDbEntity
  8
0
  6
Continuous
 62
     7
370
    25
100
AcDbPolyline
 90
        3
 70
   128
 43
0.0
 10
5443.8238802916
 20
5003.2356245338
 10
5444.0160734778
 20
5003.462309586
 10
5444.1856843535
 20
5003.6060640619
  0
LWPOLYLINE
  5
1D1
330
1F
100
AcDbEntity
  8
0
  6
Continuous
 62
     7
370
    25
100
AcDbPolyline
 90
        3
 70
   128
 43
0.0
 10
5444.1856843535
 20
5003.6060640619
 10
5444.8686345299
 20
5003.8785593189
 10
5445.6229736868
 20
5003.9447601359
  0
LINE
  5
1D2
330
1F
100
AcDbEntity
  8
0
  6
Continuous
 62
     7
370
    25
100
AcDbLine
 10
5445.6229736868
 20
5003.9447601359
 30
0.0
 11
5445.642110387
 21
5003.9372724827
 31
0.0
  0
LINE
  5
1D3
330
1F
100
AcDbEntity
  8
0
  6
Continuous
 62
     7
370
    25
100
AcDbLine
 10
5445.642110387
 20
5003.9372724827
 30
0.0
 11
5445.6503682731
 21
5003.9329806047
 31
0.0
  0
LINE
  5
1D4
330
1F
100
AcDbEntity
  8
0
  6
Continuous
 62
     7
370
    25
100
AcDbLine
 10
5445.6503682731
 20
5003.9329806047
 30
0.0
 11
5445.6579857409
 21
5003.94880969
 31
0.0
  0
ARC
  5
1D5
330
1F
100
AcDbEntity
  8
0
  6
Continuous
 62
     7
370
    25
100
AcDbCircle
 10
5445.2541583712
 20
5004.1073483163
 30
0.0
 40
0.4338329638896811
100
AcDbArc
 50
338.565519758
 51
32.7637253037
  0
LWPOLYLINE
  5
1D6
330
1F
100
AcDbEntity
  8
0
  6
Continuous
 62
     7
370
    25
100
AcDbPolyline
 90
        3
 70
   128
 43
0.0
 10
5445.6189725874
 20
5004.3421282732
 10
5445.4036590733
 20
5004.9476310551
 10
5445.1799842221
 20
5005.3351034466
  0
LWPOLYLINE
  5
1D7
330
1F
100
AcDbEntity
  8
0
  6
Continuous
 62
     7
370
    25
100
AcDbPolyline
 90
        3
 70
   128
 43
0.0
 10
5445.1799842221
 20
5005.3351034466
 10
5445.8263451795
 20
5006.7678984414
 10
5445.9764029372
 20
5007.9792963382
  0
LWPOLYLINE
  5
1D8
330
1F
100
AcDbEntity
  8
0
  6
Continuous
 62
     7
370
    25
100
AcDbPolyline
 90
        3
 70
   128
 43
0.0
 10
5445.9764029372
 20
5007.9792963382
 10
5444.9536025168
 20
5007.803058587
 10
5444.1891441777
 20
5007.5485655787
  0
LWPOLYLINE
  5
1D9
330
1F
100
AcDbEntity
  8
0
  6
Continuous
 62
     7
370
    25
100
AcDbPolyline
 90
        3
 70
   128
 43
0.0
 10
5444.1891441777
 20
5007.5485655787
 10
5443.9564205182
 20
5007.4467143828
 10
5443.7780264757
 20
5007.3576662653
  0
LWPOLYLINE
  5
1DA
330
1F
100
AcDbEntity
  8
0
  6
Continuous
 62
     7
370
    25
100
AcDbPolyline
 90
        3
 70
   128
 43
0.0
 10
5443.7780264757
 20
5007.3576662653
 10
5443.712868768
 20
5007.3204572712
 10
5443.6576893039
 20
5007.2865054539
  0
LWPOLYLINE
  5
1DB
330
1F
100
AcDbEntity
  8
0
  6
Continuous
 62
     7
370
    25
100
AcDbPolyline
 90
        3
 70
   128
 43
0.0
 10
5443.6576893039
 20
5007.2865054539
 10
5443.5155627522
 20
5007.2019680929
 10
5443.4095407882
 20
5007.1306281693
  0
LWPOLYLINE
  5
1DC
330
1F
100
AcDbEntity
  8
0
  6
Continuous
 62
     7
370
    25
100
AcDbPolyline
 90
        3
 70
   128
 43
0.0
 10
5443.4095407882
 20
5007.1306281693
 10
5443.1600561984
 20
5006.9479022958
 10
5442.9834559277
 20
5006.7907297439
  0
LWPOLYLINE
  5
1DD
330
1F
100
AcDbEntity
  8
0
  6
Continuous
 62
     7
370
    25
100
AcDbPolyline
 90
        3
 70
   128
 43
0.0
 10
5442.9834559277
 20
5006.7907297439
 10
5442.7265108126
 20
5006.8278280297
 10
5442.4725827134
 20
5006.8341318626
  0
LINE
  5
1DE
330
1F
100
AcDbEntity
  8
0
  6
Continuous
 62
     7
370
    25
100
AcDbLine
 10
5442.4725827134
 20
5006.8341318626
 30
0.0
 11
5442.4298456791
 21
5006.826793667
 31
0.0
  0
ARC
  5
1DF
330
1F
100
AcDbEntity
  8
0
  6
Continuous
 62
     7
370
    25
100
AcDbCircle
 10
5442.3180787776
 20
5004.4200269202
 30
0.0
 40
2.409360498921024
100
AcDbArc
 50
87.3411738541
 51
101.052048068
  0
LINE
  5
1E0
330
1F
100
AcDbEntity
  8
0
  6
Continuous
 62
     7
370
    25
100
AcDbLine
 10
5441.8562028361
 20
5006.7847020836
 30
0.0
 11
5441.7989793041
 21
5006.8273529108
 31
0.0
  0
LWPOLYLINE
  5
1E1
330
1F
100
AcDbEntity
  8
0
  6
Continuous
 62
     7
370
    25
100
AcDbPolyline
 90
        3
 70
   128
 43
0.0
 10
5441.7989793041
 20
5006.8273529108
 10
5441.0185516098
 20
5007.3177725127
 10
5440.381517261
 20
5007.6228065883
  0
LWPOLYLINE
  5
1E2
330
1F
100
AcDbEntity
  8
0
  6
Continuous
 62
     7
370
    25
100
AcDbPolyline
 90
        3
 70
   128
 43
0.0
 10
5440.381517261
 20
5007.6228065883
 10
5439.6408830621
 20
5007.8652656498
 10
5439.0351858842
 20
5007.9716716725
  0
LINE
  5
1E3
330
1F
100
AcDbEntity
  8
0
  6
Continuous
 62
     7
370
    25
100
AcDbLine
 10
5439.0351858842
 20
5007.9716716725
 30
0.0
 11
5439.0351342897
 21
5007.9503121428
 31
0.0
  0
LINE
  5
1E4
330
1F
100
AcDbEntity
  8
0
  6
Continuous
 62
     7
370
    25
100
AcDbLine
 10
5439.0351342897
 20
5007.9503121428
 30
0.0
 11
5439.0347949162
 21
5007.581617768
 31
0.0
  0
LWPOLYLINE
  5
1E5
330
1F
100
AcDbEntity
  8
0
  6
Continuous
 62
     7
370
    25
100
AcDbPolyline
 90
        3
 70
   128
 43
0.0
 10
5439.0347949162
 20
5007.581617768
 10
5439.3274269685
 20
5006.211725417
 10
5439.7415355718
 20
5005.3330127874
  0
LWPOLYLINE
  5
1E6
330
1F
100
AcDbEntity
  8
0
  6
Continuous
 62
     7
370
    25
100
AcDbPolyline
 90
        3
 70
   128
 43
0.0
 10
5439.7415355718
 20
5005.3330127874
 10
5439.4702490523
 20
5004.7249463415
 10
5439.342239615
 20
5004.2741939315
  0
LINE
  5
1E7
330
1F
100
AcDbEntity
  8
0
  6
Continuous
 62
     7
370
    25
100
AcDbLine
 10
5439.342239615
 20
5004.2741939315
 30
0.0
 11
5439.3040389387
 21
5004.2051773891
 31
0.0
  0
ARC
  5
1E8
330
1F
100
AcDbEntity
  8
0
  6
Continuous
 62
     7
370
    25
100
AcDbCircle
 10
5440.1580054169
 20
5003.8615156015
 30
0.0
 40
0.9205227699336201
100
AcDbArc
 50
158.078663062
 51
164.0744977048
  0
LWPOLYLINE
  5
1E9
330
1F
100
AcDbEntity
  8
0
  6
Continuous
 62
     7
370
    25
100
AcDbPolyline
 90
        3
 70
   128
 43
0.0
 10
5439.2728129779
 20
5004.1140953236
 10
5439.3399094083
 20
5004.1058438208
 10
5439.3934921562
 20
5004.0986453557
  0
LINE
  5
1EA
330
1F
100
AcDbEntity
  8
0
  6
Continuous
 62
     7
370
    25
100
AcDbLine
 10
5439.3934921562
 20
5004.0986453557
 30
0.0
 11
5439.4239372247
 21
5004.0946443946
 31
0.0
  0
LWPOLYLINE
  5
1EB
330
1F
100
AcDbEntity
  8
0
  6
Continuous
 62
     7
370
    25
100
AcDbPolyline
 90
        3
 70
   128
 43
0.0
 10
5439.4239372247
 20
5004.0946443946
 10
5439.979401385
 20
5003.9760667984
 10
5440.3781421591
 20
5003.8294779365
  0
ARC
  5
1EC
330
1F
100
AcDbEntity
  8
0
  6
Continuous
 62
     7
370
    25
100
AcDbCircle
 10
5440.057078955
 20
5002.8083790183
 30
0.0
 40
1.070385249298019
100
AcDbArc
 50
338.1806495611
 51
72.5453355144
  0
LWPOLYLINE
  5
1ED
330
1F
100
AcDbEntity
  8
0
  6
Continuous
 62
     7
370
    25
100
AcDbPolyline
 90
        3
 70
   128
 43
0.0
 10
5441.0507821821
 20
5002.4105367401
 10
5440.6857089969
 20
5001.6161602638
 10
5440.3755974404
 20
5001.0645112817
  0
LWPOLYLINE
  5
1EE
330
1F
100
AcDbEntity
  8
0
  6
Continuous
 62
     7
370
    25
100
AcDbPolyline
 90
        3
 70
   128
 43
0.0
 10
5440.3755974404
 20
5001.0645112817
 10
5440.0162787263
 20
5000.2128975988
 10
5439.7145253637
 20
4999.1714378766
  0
ARC
  5
1EF
330
1F
100
AcDbEntity
  8
0
  6
Continuous
 62
     7
370
    25
100
AcDbCircle
 10
5442.5496973115
 20
4998.4194355111
 30
0.0
 40
2.933207720467191
100
AcDbArc
 50
165.1448993757
 51
222.0464481262
  0
LWPOLYLINE
  5
1F0
330
1F
100
AcDbEntity
  8
0
  6
Continuous
 62
     7
370
    25
100
AcDbPolyline
 90
        3
 70
   128
 43
0.0
 10
5440.3714909947
 20
4996.4549699927
 10
5441.1007995226
 20
4995.9092790075
 10
5441.7890918398
 20
4995.6599293926
  0
LWPOLYLINE
  5
1F1
330
1F
100
AcDbEntity
  8
0
  6
Continuous
 62
     7
370
    25
100
AcDbPolyline
 90
        3
 70
   128
 43
0.0
 10
5441.7890918398
 20
4995.6599293926
 10
5442.1608383644
 20
4995.601540311
 10
5442.4623677111
 20
4995.5881607293
  0
LINE
  5
1F2
330
1F
100
AcDbEntity
  8
0
  6
Continuous
 62
     7
370
    25
100
AcDbLine
 10
5442.4623677111
 20
4995.5881607293
 30
0.0
 11
5442.5407781885
 21
4995.5881091311
 31
0.0
  0
LWPOLYLINE
  5
1F3
330
1F
100
AcDbEntity
  8
0
  6
Continuous
 62
     7
370
    25
100
AcDbPolyline
 90
        3
 70
   128
 43
0.0
 10
5442.5407781885
 20
4995.5881091311
 10
5443.0320098383
 20
4995.6320919681
 10
5443.3993137915
 20
4995.70854327
  0
LWPOLYLINE
  5
1F4
330
1F
100
AcDbEntity
  8
0
  6
Continuous
 62
     7
370
    25
100
AcDbPolyline
 90
        3
 70
   128
 43
0.0
 10
5443.3993137915
 20
4995.70854327
 10
5443.5409083692
 20
4995.7450089772
 10
5443.6473925676
 20
4995.778499791
  0
LWPOLYLINE
  5
1F5
330
1F
100
AcDbEntity
  8
0
  6
Continuous
 62
     7
370
    25
100
AcDbPolyline
 90
        3
 70
   128
 43
0.0
 10
5443.6473925676
 20
4995.778499791
 10
5443.7172284919
 20
4995.8025569769
 10
5443.7677988057
 20
4995.8212038638
  0
LWPOLYLINE
  5
1F6
330
1F
100
AcDbEntity
  8
0
  6
Continuous
 62
     7
370
    25
100
AcDbPolyline
 90
        3
 70
   128
 43
0.0
 10
5443.7677988057
 20
4995.8212038638
 10
5444.0034286886
 20
4995.9217975094
 10
5444.1788995314
 20
4996.005075203
  0
ARC
  5
1F7
330
1F
100
AcDbEntity
  8
0
  6
Continuous
 62
     7
370
    25
100
AcDbCircle
 10
5442.4694630225
 20
4999.094335863
 30
0.0
 40
3.530680473186505
100
AcDbArc
 50
298.957865228
 51
357.4819965092
  0
LWPOLYLINE
  5
1F8
330
1F
100
AcDbEntity
  8
0
  6
Continuous
 62
     7
370
    25
100
AcDbPolyline
 90
        3
 70
   128
 43
0.0
 10
5445.9967345043
 20
4998.9392213962
 10
5446.0183667837
 20
4999.1943452988
 10
5446.0255114821
 20
4999.3856375623
  0
LINE
  5
1F9
330
1F
100
AcDbEntity
  8
0
  6
Continuous
 62
     7
370
    25
100
AcDbLine
 10
5446.0255114821
 20
4999.3856375623
 30
0.0
 11
5446.0257672983
 21
4999.6056413839
 31
0.0
  0
ARC
  5
1FA
330
1F
100
AcDbEntity
  8
0
  6
Continuous
 62
     7
370
    25
100
AcDbCircle
 10
5441.0705964606
 20
4999.4130115918
 30
0.0
 40
4.958913617702247
100
AcDbArc
 50
2.2262238283
 51
50.9815981167
  0
LINE
  5
1FB
330
1F
100
AcDbEntity
  8
0
  6
Continuous
 62
     7
370
    25
100
AcDbLine
 10
5347.7057429101
 20
5010.9716716725
 30
0.0
 11
5347.7057429101
 21
4771.9716716725
 31
0.0
  0
ARC
  5
1FC
330
1F
100
AcDbEntity
  8
0
  6
Continuous
 62
     7
370
    25
100
AcDbCircle
 10
5413.2918263277
 20
5004.4121546881
 30
0.0
 40
3.758571603871697
100
AcDbArc
 50
178.0915089824
 51
232.3114369025
  0
ARC
  5
1FD
330
1F
100
AcDbEntity
  8
0
  6
Continuous
 62
     7
370
    25
100
AcDbCircle
 10
5407.3353311427
 20
4997.1859172587
 30
0.0
 40
5.609298548080711
100
AcDbArc
 50
20.1508456019
 51
49.2891390891
  0
LWPOLYLINE
  5
1FE
330
1F
100
AcDbEntity
  8
0
  6
Continuous
 62
     7
370
    25
100
AcDbPolyline
 90
        7
 70
   128
 43
0.0
 10
5411.493265461
 20
4997.8354507211
 10
5411.8342445279
 20
4997.8655789764
 10
5412.0996793157
 20
4997.953170324
 10
5412.2983388499
 20
4998.0930919562
 10
5412.4389921561
 20
4998.2802110651
 10
5412.5639142037
 20
4998.6572678718
 10
5412.6012784169
 20
4999.1182809684
  0
LINE
  5
1FF
330
1F
100
AcDbEntity
  8
0
  6
Continuous
 62
     7
370
    25
100
AcDbLine
 10
5409.0971983881
 20
4997.8370354517
 30
0.0
 11
5411.493265461
 21
4997.8354507211
 31
0.0
  0
LINE
  5
200
330
1F
100
AcDbEntity
  8
0
  6
Continuous
 62
     7
370
    25
100
AcDbLine
 10
5409.095649183
 20
4996.5966633964
 30
0.0
 11
5409.0971983881
 21
4997.8370354517
 31
0.0
  0
LINE
  5
201
330
1F
100
AcDbEntity
  8
0
  6
Continuous
 62
     7
370
    25
100
AcDbLine
 10
5411.5989273147
 20
4996.5948196949
 30
0.0
 11
5409.095649183
 21
4996.5966633964
 31
0.0
  0
ARC
  5
202
330
1F
100
AcDbEntity
  8
0
  6
Continuous
 62
     7
370
    25
100
AcDbCircle
 10
5411.4752393024
 20
4999.0266872918
 30
0.0
 40
2.435011033551439
100
AcDbArc
 50
272.911630414
 51
347.8491007435
  0
ARC
  5
203
330
1F
100
AcDbEntity
  8
0
  6
Continuous
 62
     7
370
    25
100
AcDbCircle
 10
5410.9932477634
 20
4999.008105159
 30
0.0
 40
2.904757056720472
100
AcDbArc
 50
350.2092268184
 51
41.8785714633
  0
ARC
  5
204
330
1F
100
AcDbEntity
  8
0
  6
Continuous
 62
     7
370
    25
100
AcDbCircle
 10
5406.2091295471
 20
4995.7515003078
 30
0.0
 40
8.674930436308784
100
AcDbArc
 50
36.7933965781
 51
48.117590342
  0
ARC
  5
205
330
1F
100
AcDbEntity
  8
0
  6
Continuous
 62
     7
370
    25
100
AcDbCircle
 10
5413.5178594702
 20
5004.4417860753
 30
0.0
 40
2.698615445234139
100
AcDbArc
 50
179.8045349361
 51
235.7880710372
  0
LWPOLYLINE
  5
206
330
1F
100
AcDbEntity
  8
0
  6
Continuous
 62
     7
370
    25
100
AcDbPolyline
 90
        6
 70
   128
 43
0.0
 10
5412.2726799387
 20
5005.6201266582
 10
5411.649380686
 20
5005.5303686358
 10
5411.1580761939
 20
5005.2734254343
 10
5410.9766528861
 20
5005.0608233964
 10
5410.860396769
 20
5004.7882900541
 10
5410.8192597287
 20
5004.4509924081
  0
LINE
  5
207
330
1F
100
AcDbEntity
  8
0
  6
Continuous
 62
     7
370
    25
100
AcDbLine
 10
5416.8333529399
 20
5005.6091102398
 30
0.0
 11
5412.2726799387
 21
5005.6201266582
 31
0.0
  0
LINE
  5
208
330
1F
100
AcDbEntity
  8
0
  6
Continuous
 62
     7
370
    25
100
AcDbLine
 10
5424.4195101231
 20
5005.5949887181
 30
0.0
 11
5416.8333529399
 21
5005.6091102398
 31
0.0
  0
LINE
  5
209
330
1F
100
AcDbEntity
  8
0
  6
Continuous
 62
     7
370
    25
100
AcDbLine
 10
5433.0696679635
 20
5005.5867720362
 30
0.0
 11
5424.4195101231
 21
5005.5949887181
 31
0.0
  0
LINE
  5
20A
330
1F
100
AcDbEntity
  8
0
  6
Continuous
 62
     7
370
    25
100
AcDbLine
 10
5435.7507645954
 20
5005.5775396966
 30
0.0
 11
5433.0696679635
 21
5005.5867720362
 31
0.0
  0
LINE
  5
20B
330
1F
100
AcDbEntity
  8
0
  6
Continuous
 62
     7
370
    25
100
AcDbLine
 10
5438.1609565186
 20
5005.5759208471
 30
0.0
 11
5435.7507645954
 21
5005.5775396966
 31
0.0
  0
LINE
  5
20C
330
1F
100
AcDbEntity
  8
0
  6
Continuous
 62
     7
370
    25
100
AcDbLine
 10
5438.1623857268
 20
5006.7951402443
 30
0.0
 11
5438.1609565186
 21
5005.5759208471
 31
0.0
  0
LINE
  5
20D
330
1F
100
AcDbEntity
  8
0
  6
Continuous
 62
     7
370
    25
100
AcDbLine
 10
5435.7506777996
 20
5006.7966938536
 30
0.0
 11
5438.1623857268
 21
5006.7951402443
 31
0.0
  0
LINE
  5
20E
330
1F
100
AcDbEntity
  8
0
  6
Continuous
 62
     7
370
    25
100
AcDbLine
 10
5433.0710835241
 20
5006.8003414933
 30
0.0
 11
5435.7506777996
 21
5006.7966938536
 31
0.0
  0
LINE
  5
20F
330
1F
100
AcDbEntity
  8
0
  6
Continuous
 62
     7
370
    25
100
AcDbLine
 10
5424.4209910903
 20
5006.8071110729
 30
0.0
 11
5433.0710835241
 21
5006.8003414933
 31
0.0
  0
LINE
  5
210
330
1F
100
AcDbEntity
  8
0
  6
Continuous
 62
     7
370
    25
100
AcDbLine
 10
5416.833421754
 20
5006.8071110729
 30
0.0
 11
5424.4209910903
 21
5006.8071110729
 31
0.0
  0
LINE
  5
211
330
1F
100
AcDbEntity
  8
0
  6
Continuous
 62
     7
370
    25
100
AcDbLine
 10
5412.1894985124
 20
5006.8113005691
 30
0.0
 11
5416.833421754
 21
5006.8071110729
 31
0.0
  0
ARC
  5
212
330
1F
100
AcDbEntity
  8
0
  6
Continuous
 62
     7
370
    25
100
AcDbCircle
 10
5411.9987491799
 20
5004.3480007731
 30
0.0
 40
2.470674238474754
100
AcDbArc
 50
85.5720514479
 51
175.6051402177
  0
ARC
  5
213
330
1F
100
AcDbEntity
  8
0
  6
Continuous
 62
     7
370
    25
100
AcDbCircle
 10
5444.9356472849
 20
4992.3729097716
 30
0.0
 40
1.32657252671746
100
AcDbArc
 50
91.8318566566
 51
179.9973551201
  0
ARC
  5
214
330
1F
100
AcDbEntity
  8
0
  6
Continuous
 62
     7
370
    25
100
AcDbCircle
 10
5444.4668511581
 20
4992.3172259521
 30
0.0
 40
0.8595858660883993
100
AcDbArc
 50
176.2816983996
 51
272.9824026223
  0
ARC
  5
215
330
1F
100
AcDbEntity
  8
0
  6
Continuous
 62
     7
370
    25
100
AcDbCircle
 10
5444.4700005642
 20
4992.7838933857
 30
0.0
 40
1.325741070989416
100
AcDbArc
 50
271.7970451183
 51
0.0321666584
  0
ARC
  5
216
330
1F
100
AcDbEntity
  8
0
  6
Continuous
 62
     7
370
    25
100
AcDbCircle
 10
5444.9370985847
 20
4992.8395273465
 30
0.0
 40
0.8603954935873944
100
AcDbArc
 50
356.3422824607
 51
92.9218185611
  0
LWPOLYLINE
  5
217
330
1F
100
AcDbEntity
  8
0
  6
Continuous
 62
     7
370
    25
100
AcDbPolyline
 90
        4
 70
   128
 43
0.0
 10
5433.9365747596
 20
4992.096304342
 10
5433.9823149506
 20
4992.0793742486
 10
5433.9973998295
 20
4992.0673428186
 10
5434.0065747596
 20
4992.0504710087
  0
LWPOLYLINE
  5
218
330
1F
100
AcDbEntity
  8
0
  6
Continuous
 62
     7
370
    25
100
AcDbPolyline
 90
        4
 70
   128
 43
0.0
 10
5434.0065747596
 20
4992.0504710087
 10
5434.1204000993
 20
4991.7725978294
 10
5434.3335143295
 20
4991.5639806912
 10
5434.7890747596
 20
4991.458804342
  0
ARC
  5
219
330
1F
100
AcDbEntity
  8
0
  6
Continuous
 62
     7
370
    25
100
AcDbCircle
 10
5434.8065089955
 20
4992.6606365663
 30
0.0
 40
1.201958671418838
100
AcDbArc
 50
269.1689038986
 51
319.2137894188
  0
ARC
  5
21A
330
1F
100
AcDbEntity
  8
0
  6
Continuous
 62
     7
370
    25
100
AcDbCircle
 10
5435.6600385596
 20
4991.8869716031
 30
0.0
 40
0.0576940688284029
100
AcDbArc
 50
348.5017764771
 51
91.7850156543
  0
LWPOLYLINE
  5
21B
330
1F
100
AcDbEntity
  8
0
  6
Continuous
 62
     7
370
    25
100
AcDbPolyline
 90
        3
 70
   128
 43
0.0
 10
5435.6582414263
 20
4991.9446376754
 10
5435.5663651477
 20
4991.9140580097
 10
5435.4974080929
 20
4991.881304342
  0
LWPOLYLINE
  5
21C
330
1F
100
AcDbEntity
  8
0
  6
Continuous
 62
     7
370
    25
100
AcDbPolyline
 90
        3
 70
   128
 43
0.0
 10
5435.4974080929
 20
4991.881304342
 10
5435.1990712487
 20
4991.7619577368
 10
5434.9499080929
 20
4991.7254710087
  0
ARC
  5
21D
330
1F
100
AcDbEntity
  8
0
  6
Continuous
 62
     7
370
    25
100
AcDbCircle
 10
5434.9338129227
 20
4992.1699199885
 30
0.0
 40
0.4447403176626539
100
AcDbArc
 50
179.8216538069
 51
272.073989489
  0
LWPOLYLINE
  5
21E
330
1F
100
AcDbEntity
  8
0
  6
Continuous
 62
     7
370
    25
100
AcDbPolyline
 90
        4
 70
   128
 43
0.0
 10
5434.4890747596
 20
4992.171304342
 10
5434.505492157
 20
4992.2370858999
 10
5434.5588335404
 20
4992.278784169
 10
5434.6549080929
 20
4992.326304342
  0
ARC
  5
21F
330
1F
100
AcDbEntity
  8
0
  6
Continuous
 62
     7
370
    25
100
AcDbCircle
 10
5434.387895219
 20
4993.7465988388
 30
0.0
 40
1.445175536894788
100
AcDbArc
 50
280.647230635
 51
342.8852901369
  0
ARC
  5
220
330
1F
100
AcDbEntity
  8
0
  6
Continuous
 62
     7
370
    25
100
AcDbCircle
 10
5435.3892194643
 20
4993.3232165758
 30
0.0
 40
0.3798601085113354
100
AcDbArc
 50
359.7115691121
 51
98.6013515169
  0
ARC
  5
221
330
1F
100
AcDbEntity
  8
0
  6
Continuous
 62
     7
370
    25
100
AcDbCircle
 10
5435.5240499471
 20
4992.2351691765
 30
0.0
 40
1.47612821191337
100
AcDbArc
 50
97.4596172225
 51
172.2012440008
  0
ARC
  5
222
330
1F
100
AcDbEntity
  8
0
  6
Continuous
 62
     7
370
    25
100
AcDbCircle
 10
5433.9278214683
 20
4992.4658909666
 30
0.0
 40
0.137168935148193
100
AcDbArc
 50
282.8130162776
 51
347.1869837215
  0
LWPOLYLINE
  5
223
330
1F
100
AcDbEntity
  8
0
  6
Continuous
 62
     7
370
    25
100
AcDbPolyline
 90
        4
 70
   128
 43
0.0
 10
5433.9582414263
 20
4992.3321376754
 10
5433.8693733104
 20
4992.266322723
 10
5433.8529790779
 20
4992.2258396775
 10
5433.8490747596
 20
4992.1821376754
  0
LWPOLYLINE
  5
224
330
1F
100
AcDbEntity
  8
0
  6
Continuous
 62
     7
370
    25
100
AcDbPolyline
 90
        4
 70
   128
 43
0.0
 10
5433.8490747596
 20
4992.1821376754
 10
5433.8542084421
 20
4992.1433883577
 10
5433.8773664244
 20
4992.1126880769
 10
5433.9365747596
 20
4992.096304342
  0
LWPOLYLINE
  5
225
330
1F
100
AcDbEntity
  8
0
  6
Continuous
 62
     7
370
    25
100
AcDbPolyline
 90
        3
 70
   128
 43
0.0
 10
5436.1582414263
 20
4991.5121376754
 10
5436.3101382961
 20
4991.55190661
 10
5436.4232414263
 20
4991.6021376754
  0
ARC
  5
226
330
1F
100
AcDbEntity
  8
0
  6
Continuous
 62
     7
370
    25
100
AcDbCircle
 10
5435.6017183021
 20
4992.1480472124
 30
0.0
 40
0.9863657871971795
100
AcDbArc
 50
326.3956030787
 51
4.5991251612
  0
LWPOLYLINE
  5
227
330
1F
100
AcDbEntity
  8
0
  6
Continuous
 62
     7
370
    25
100
AcDbPolyline
 90
        3
 70
   128
 43
0.0
 10
5436.5849080929
 20
4992.2271376754
 10
5436.6165113018
 20
4992.5398658493
 10
5436.6424080929
 20
4992.7854710087
  0
LWPOLYLINE
  5
228
330
1F
100
AcDbEntity
  8
0
  6
Continuous
 62
     7
370
    25
100
AcDbPolyline
 90
        3
 70
   128
 43
0.0
 10
5436.6424080929
 20
4992.7854710087
 10
5436.6668814348
 20
4992.9801963052
 10
5436.7057414263
 20
4993.128804342
  0
ARC
  5
229
330
1F
100
AcDbEntity
  8
0
  6
Continuous
 62
     7
370
    25
100
AcDbCircle
 10
5436.9048143465
 20
4992.9536696893
 30
0.0
 40
0.2651455715944696
100
AcDbArc
 50
90.5199787512
 51
138.6602555814
  0
LWPOLYLINE
  5
22A
330
1F
100
AcDbEntity
  8
0
  6
Continuous
 62
     7
370
    25
100
AcDbPolyline
 90
        3
 70
   128
 43
0.0
 10
5436.9024080929
 20
4993.218804342
 10
5437.1248501179
 20
4993.2467179879
 10
5437.2999080929
 20
4993.266304342
  0
ARC
  5
22B
330
1F
100
AcDbEntity
  8
0
  6
Continuous
 62
     7
370
    25
100
AcDbCircle
 10
5437.3032831729
 20
4993.8069618578
 30
0.0
 40
0.5406680502083988
100
AcDbArc
 50
269.642333044
 51
294.1991440361
  0
LWPOLYLINE
  5
22C
330
1F
100
AcDbEntity
  8
0
  6
Continuous
 62
     7
370
    25
100
AcDbPolyline
 90
        3
 70
   128
 43
0.0
 10
5437.5249080929
 20
4993.313804342
 10
5437.5698828718
 20
4993.4697136184
 10
5437.5824080929
 20
4993.5979710087
  0
ARC
  5
22D
330
1F
100
AcDbEntity
  8
0
  6
Continuous
 62
     7
370
    25
100
AcDbCircle
 10
5437.4962916384
 20
4993.6117242301
 30
0.0
 40
0.0872077682327732
100
AcDbArc
 50
350.9262087181
 51
93.1005173005
  0
LWPOLYLINE
  5
22E
330
1F
100
AcDbEntity
  8
0
  6
Continuous
 62
     7
370
    25
100
AcDbPolyline
 90
        3
 70
   128
 43
0.0
 10
5437.4915747596
 20
4993.698804342
 10
5437.2206105936
 20
4993.6394675097
 10
5437.0190747596
 20
4993.556304342
  0
LWPOLYLINE
  5
22F
330
1F
100
AcDbEntity
  8
0
  6
Continuous
 62
     7
370
    25
100
AcDbPolyline
 90
        3
 70
   128
 43
0.0
 10
5437.0190747596
 20
4993.556304342
 10
5436.9094551955
 20
4993.4855266485
 10
5436.8257414263
 20
4993.426304342
  0
LWPOLYLINE
  5
230
330
1F
100
AcDbEntity
  8
0
  6
Continuous
 62
     7
370
    25
100
AcDbPolyline
 90
        3
 70
   128
 43
0.0
 10
5436.8257414263
 20
4993.426304342
 10
5436.7831783374
 20
4993.3956026439
 10
5436.7457414263
 20
4993.378804342
  0
LWPOLYLINE
  5
231
330
1F
100
AcDbEntity
  8
0
  6
Continuous
 62
     7
370
    25
100
AcDbPolyline
 90
        6
 70
   128
 43
0.0
 10
5436.7457414263
 20
4993.378804342
 10
5436.7379260659
 20
4993.383335688
 10
5436.7333837172
 20
4993.3904980114
 10
5436.7311558359
 20
4993.4088014512
 10
5436.7298677351
 20
4993.4442640664
 10
5436.7290747596
 20
4993.5154710087
  0
LWPOLYLINE
  5
232
330
1F
100
AcDbEntity
  8
0
  6
Continuous
 62
     7
370
    25
100
AcDbPolyline
 90
        6
 70
   128
 43
0.0
 10
5436.7290747596
 20
4993.5154710087
 10
5436.7258485935
 20
4993.6206436429
 10
5436.716472941
 20
4993.6725632025
 10
5436.7096695561
 20
4993.6841220894
 10
5436.699977077
 20
4993.6922471412
 10
5436.6740747596
 20
4993.698804342
  0
ARC
  5
233
330
1F
100
AcDbEntity
  8
0
  6
Continuous
 62
     7
370
    25
100
AcDbCircle
 10
5436.694545139
 20
4993.2317251033
 30
0.0
 40
0.467527594613483
100
AcDbArc
 50
92.5094591778
 51
147.0079691709
  0
LWPOLYLINE
  5
234
330
1F
100
AcDbEntity
  8
0
  6
Continuous
 62
     7
370
    25
100
AcDbPolyline
 90
        3
 70
   128
 43
0.0
 10
5436.3024080929
 20
4993.486304342
 10
5436.2202369113
 20
4992.7648712782
 10
5436.1490747596
 20
4992.198804342
  0
LWPOLYLINE
  5
235
330
1F
100
AcDbEntity
  8
0
  6
Continuous
 62
     7
370
    25
100
AcDbPolyline
 90
        3
 70
   128
 43
0.0
 10
5436.1490747596
 20
4992.198804342
 10
5436.1133479921
 20
4991.9040923806
 10
5436.0890747596
 20
4991.6721376754
  0
LWPOLYLINE
  5
236
330
1F
100
AcDbEntity
  8
0
  6
Continuous
 62
     7
370
    25
100
AcDbPolyline
 90
        5
 70
   128
 43
0.0
 10
5436.0890747596
 20
4991.6721376754
 10
5436.0979574092
 20
4991.5776501469
 10
5436.1170709352
 20
4991.5331788356
 10
5436.1348936788
 20
4991.5185020445
 10
5436.1582414263
 20
4991.5121376754
  0
LWPOLYLINE
  5
237
330
1F
100
AcDbEntity
  8
0
  6
Continuous
 62
     7
370
    25
100
AcDbPolyline
 90
        3
 70
   128
 43
0.0
 10
5430.6974080929
 20
4993.136304342
 10
5430.9501651911
 20
4993.3742788589
 10
5431.2157414263
 20
4993.4321376754
  0
LWPOLYLINE
  5
238
330
1F
100
AcDbEntity
  8
0
  6
Continuous
 62
     7
370
    25
100
AcDbPolyline
 90
        3
 70
   128
 43
0.0
 10
5431.2157414263
 20
4993.4321376754
 10
5431.4323773887
 20
4993.4149247421
 10
5431.6015747596
 20
4993.391304342
  0
LWPOLYLINE
  5
239
330
1F
100
AcDbEntity
  8
0
  6
Continuous
 62
     7
370
    25
100
AcDbPolyline
 90
        3
 70
   128
 43
0.0
 10
5431.6015747596
 20
4993.391304342
 10
5431.73713604
 20
4993.3732066117
 10
5431.8440747596
 20
4993.3629710087
  0
ARC
  5
23A
330
1F
100
AcDbEntity
  8
0
  6
Continuous
 62
     7
370
    25
100
AcDbCircle
 10
5431.8551321439
 20
4993.4729087362
 30
0.0
 40
0.110492396446505
100
AcDbArc
 50
264.2565848119
 51
6.5282766067
  0
LWPOLYLINE
  5
23B
330
1F
100
AcDbEntity
  8
0
  6
Continuous
 62
     7
370
    25
100
AcDbPolyline
 90
        6
 70
   128
 43
0.0
 10
5431.9649080929
 20
4993.4854710087
 10
5431.9584406855
 20
4993.5421853539
 10
5431.9344992488
 20
4993.5939472132
 10
5431.8938886799
 20
4993.633783527
 10
5431.8424895393
 20
4993.6588677482
 10
5431.6190747596
 20
4993.698804342
  0
ARC
  5
23C
330
1F
100
AcDbEntity
  8
0
  6
Continuous
 62
     7
370
    25
100
AcDbCircle
 10
5431.5906101762
 20
4992.0103658731
 30
0.0
 40
1.688678387371814
100
AcDbArc
 50
89.0341691198
 51
178.6391304039
  0
ARC
  5
23D
330
1F
100
AcDbEntity
  8
0
  6
Continuous
 62
     7
370
    25
100
AcDbCircle
 10
5430.4640428041
 20
4992.0206358744
 30
0.0
 40
0.5624266031833934
100
AcDbArc
 50
176.9591943133
 51
272.6358902023
  0
ARC
  5
23E
330
1F
100
AcDbEntity
  8
0
  6
Continuous
 62
     7
370
    25
100
AcDbCircle
 10
5430.2788722096
 20
4992.6270545789
 30
0.0
 40
1.18715827080394
100
AcDbArc
 50
280.2396383641
 51
343.403713555
  0
LINE
  5
23F
330
1F
100
AcDbEntity
  8
0
  6
Continuous
 62
     7
370
    25
100
AcDbLine
 10
5431.4165747596
 20
4992.2879710087
 30
0.0
 11
5431.4282414263
 21
4992.276304342
 31
0.0
  0
LINE
  5
240
330
1F
100
AcDbEntity
  8
0
  6
Continuous
 62
     7
370
    25
100
AcDbLine
 10
5431.4282414263
 20
4992.276304342
 30
0.0
 11
5431.4224080929
 21
4992.2421376754
 31
0.0
  0
LWPOLYLINE
  5
241
330
1F
100
AcDbEntity
  8
0
  6
Continuous
 62
     7
370
    25
100
AcDbPolyline
 90
        3
 70
   128
 43
0.0
 10
5431.4224080929
 20
4992.2421376754
 10
5431.3696763521
 20
4991.9398615901
 10
5431.3424080929
 20
4991.7004710087
  0
LWPOLYLINE
  5
242
330
1F
100
AcDbEntity
  8
0
  6
Continuous
 62
     7
370
    25
100
AcDbPolyline
 90
        4
 70
   128
 43
0.0
 10
5431.3424080929
 20
4991.7004710087
 10
5431.3634393881
 20
4991.5856106615
 10
5431.438083402
 20
4991.4971760222
 10
5431.6165747596
 20
4991.458804342
  0
LWPOLYLINE
  5
243
330
1F
100
AcDbEntity
  8
0
  6
Continuous
 62
     7
370
    25
100
AcDbPolyline
 90
        6
 70
   128
 43
0.0
 10
5431.6165747596
 20
4991.458804342
 10
5431.8819404669
 20
4991.4962020829
 10
5432.0098974155
 20
4991.5364663463
 10
5432.0690475854
 20
4991.5679512849
 10
5432.0925796805
 20
4991.5917858347
 10
5432.1015747596
 20
4991.623804342
  0
LWPOLYLINE
  5
244
330
1F
100
AcDbEntity
  8
0
  6
Continuous
 62
     7
370
    25
100
AcDbPolyline
 90
        6
 70
   128
 43
0.0
 10
5432.1015747596
 20
4991.623804342
 10
5432.0975034766
 20
4991.645777867
 10
5432.0914487222
 20
4991.6544762527
 10
5432.0822661624
 20
4991.6608264136
 10
5432.0392203765
 20
4991.6696603426
 10
5431.9515747596
 20
4991.6721376754
  0
LWPOLYLINE
  5
245
330
1F
100
AcDbEntity
  8
0
  6
Continuous
 62
     7
370
    25
100
AcDbPolyline
 90
        5
 70
   128
 43
0.0
 10
5431.9515747596
 20
4991.6721376754
 10
5431.7956050391
 20
4991.6888633276
 10
5431.7604019224
 20
4991.7064044966
 10
5431.734522125
 20
4991.7359502645
 10
5431.7157414263
 20
4991.8121376754
  0
ARC
  5
246
330
1F
100
AcDbEntity
  8
0
  6
Continuous
 62
     7
370
    25
100
AcDbCircle
 10
5455.5080712136
 20
4989.1674879402
 30
0.0
 40
23.9388623148541
100
AcDbArc
 50
171.3355803576
 51
173.6572926048
  0
LWPOLYLINE
  5
247
330
1F
100
AcDbEntity
  8
0
  6
Continuous
 62
     7
370
    25
100
AcDbPolyline
 90
        3
 70
   128
 43
0.0
 10
5431.8424080929
 20
4992.773804342
 10
5431.8725501269
 20
4992.9733609766
 10
5431.8940747596
 20
4993.1304710087
  0
LWPOLYLINE
  5
248
330
1F
100
AcDbEntity
  8
0
  6
Continuous
 62
     7
370
    25
100
AcDbPolyline
 90
        5
 70
   128
 43
0.0
 10
5431.8940747596
 20
4993.1304710087
 10
5431.8812505918
 20
4993.187294216
 10
5431.8632836815
 20
4993.21057922
 10
5431.8392065695
 20
4993.2273714635
 10
5431.7265747596
 20
4993.2579710087
  0
LWPOLYLINE
  5
249
330
1F
100
AcDbEntity
  8
0
  6
Continuous
 62
     7
370
    25
100
AcDbPolyline
 90
        5
 70
   128
 43
0.0
 10
5431.7265747596
 20
4993.2579710087
 10
5431.6881276606
 20
4993.2519311284
 10
5431.6546199481
 20
4993.2318770222
 10
5431.6126331481
 20
4993.1662821443
 10
5431.5540747596
 20
4993.021304342
  0
LWPOLYLINE
  5
24A
330
1F
100
AcDbEntity
  8
0
  6
Continuous
 62
     7
370
    25
100
AcDbPolyline
 90
        3
 70
   128
 43
0.0
 10
5431.5540747596
 20
4993.021304342
 10
5431.5133856547
 20
4992.9046290076
 10
5431.4790747596
 20
4992.813804342
  0
LWPOLYLINE
  5
24B
330
1F
100
AcDbEntity
  8
0
  6
Continuous
 62
     7
370
    25
100
AcDbPolyline
 90
        3
 70
   128
 43
0.0
 10
5431.4790747596
 20
4992.813804342
 10
5431.2806429616
 20
4992.3830278176
 10
5431.0857414263
 20
4992.0654710087
  0
ARC
  5
24C
330
1F
100
AcDbEntity
  8
0
  6
Continuous
 62
     7
370
    25
100
AcDbCircle
 10
5430.5256837068
 20
4992.3484577556
 30
0.0
 40
0.6274919505897422
100
AcDbArc
 50
276.8699084777
 51
333.1933791812
  0
LWPOLYLINE
  5
24D
330
1F
100
AcDbEntity
  8
0
  6
Continuous
 62
     7
370
    25
100
AcDbPolyline
 90
        5
 70
   128
 43
0.0
 10
5430.6007414263
 20
4991.7254710087
 10
5430.5044121467
 20
4991.7447499506
 10
5430.4249599553
 20
4991.8024777085
 10
5430.3710907438
 20
4991.8848693631
 10
5430.3290747596
 20
4992.1121376754
  0
LWPOLYLINE
  5
24E
330
1F
100
AcDbEntity
  8
0
  6
Continuous
 62
     7
370
    25
100
AcDbPolyline
 90
        3
 70
   128
 43
0.0
 10
5430.3290747596
 20
4992.1121376754
 10
5430.4559291691
 20
4992.7154096715
 10
5430.6974080929
 20
4993.136304342
  0
LINE
  5
24F
330
1F
100
AcDbEntity
  8
0
  6
Continuous
 62
     7
370
    25
100
AcDbLine
 10
5428.0840747596
 20
4991.9371376754
 30
0.0
 11
5428.0840747596
 21
4991.9254710087
 31
0.0
  0
ARC
  5
250
330
1F
100
AcDbEntity
  8
0
  6
Continuous
 62
     7
370
    25
100
AcDbCircle
 10
5428.6365715902
 20
4992.0185243782
 30
0.0
 40
0.5602782142757043
100
AcDbArc
 50
189.5602247267
 51
272.5577507214
  0
LWPOLYLINE
  5
251
330
1F
100
AcDbEntity
  8
0
  6
Continuous
 62
     7
370
    25
100
AcDbPolyline
 90
        5
 70
   128
 43
0.0
 10
5428.6615747596
 20
4991.458804342
 10
5428.9648353569
 20
4991.533029747
 10
5429.2015682233
 20
4991.7381810247
 10
5429.4910609214
 20
4992.2945119439
 10
5429.6890747596
 20
4993.5354710087
  0
LWPOLYLINE
  5
252
330
1F
100
AcDbEntity
  8
0
  6
Continuous
 62
     7
370
    25
100
AcDbPolyline
 90
        5
 70
   128
 43
0.0
 10
5429.6890747596
 20
4993.5354710087
 10
5429.6850298949
 20
4993.5796038238
 10
5429.6667573842
 20
4993.619810372
 10
5429.6385331837
 20
4993.6399822999
 10
5429.6040747596
 20
4993.6454710087
  0
LWPOLYLINE
  5
253
330
1F
100
AcDbEntity
  8
0
  6
Continuous
 62
     7
370
    25
100
AcDbPolyline
 90
        5
 70
   128
 43
0.0
 10
5429.6040747596
 20
4993.6454710087
 10
5429.4013445718
 20
4993.59994163
 10
5429.3047541579
 20
4993.5615328846
 10
5429.2605379518
 20
4993.5343211165
 10
5429.2365747596
 20
4993.4896376754
  0
LWPOLYLINE
  5
254
330
1F
100
AcDbEntity
  8
0
  6
Continuous
 62
     7
370
    25
100
AcDbPolyline
 90
        3
 70
   128
 43
0.0
 10
5429.2365747596
 20
4993.4896376754
 10
5429.2508593588
 20
4993.4437096632
 10
5429.2657414263
 20
4993.408804342
  0
LWPOLYLINE
  5
255
330
1F
100
AcDbEntity
  8
0
  6
Continuous
 62
     7
370
    25
100
AcDbPolyline
 90
        3
 70
   128
 43
0.0
 10
5429.2657414263
 20
4993.408804342
 10
5429.351517877
 20
4993.1633617539
 10
5429.3690747596
 20
4992.9596376754
  0
LWPOLYLINE
  5
256
330
1F
100
AcDbEntity
  8
0
  6
Continuous
 62
     7
370
    25
100
AcDbPolyline
 90
        5
 70
   128
 43
0.0
 10
5429.3690747596
 20
4992.9596376754
 10
5429.276943772
 20
4992.2320103684
 10
5429.1252876592
 20
4991.8984623383
 10
5428.9923629024
 20
4991.7729782866
 10
5428.8165747596
 20
4991.7254710087
  0
LWPOLYLINE
  5
257
330
1F
100
AcDbEntity
  8
0
  6
Continuous
 62
     7
370
    25
100
AcDbPolyline
 90
        5
 70
   128
 43
0.0
 10
5428.8165747596
 20
4991.7254710087
 10
5428.686475197
 20
4991.75096765
 10
5428.578194618
 20
4991.8276144025
 10
5428.5031159546
 20
4991.937399106
 10
5428.4449080929
 20
4992.243804342
  0
LWPOLYLINE
  5
258
330
1F
100
AcDbEntity
  8
0
  6
Continuous
 62
     7
370
    25
100
AcDbPolyline
 90
        3
 70
   128
 43
0.0
 10
5428.4449080929
 20
4992.243804342
 10
5428.5145048984
 20
4992.8391518334
 10
5428.6249080929
 20
4993.2979710087
  0
LWPOLYLINE
  5
259
330
1F
100
AcDbEntity
  8
0
  6
Continuous
 62
     7
370
    25
100
AcDbPolyline
 90
        3
 70
   128
 43
0.0
 10
5428.6249080929
 20
4993.2979710087
 10
5428.6466965727
 20
4993.3706916188
 10
5428.6599080929
 20
4993.428804342
  0
ARC
  5
25A
330
1F
100
AcDbEntity
  8
0
  6
Continuous
 62
     7
370
    25
100
AcDbCircle
 10
5428.2799877709
 20
4993.2178787257
 30
0.0
 40
0.4345446660138741
100
AcDbArc
 50
29.0383260457
 51
79.7371495417
  0
ARC
  5
25B
330
1F
100
AcDbEntity
  8
0
  6
Continuous
 62
     7
370
    25
100
AcDbCircle
 10
5430.1447781965
 20
4992.6067430437
 30
0.0
 40
2.067280259766903
100
AcDbArc
 50
149.8370392628
 51
181.5366975336
  0
LWPOLYLINE
  5
25C
330
1F
100
AcDbEntity
  8
0
  6
Continuous
 62
     7
370
    25
100
AcDbPolyline
 90
        4
 70
   128
 43
0.0
 10
5428.0782414263
 20
4992.551304342
 10
5427.8710372093
 20
4992.0149344483
 10
5427.7199035594
 20
4991.8455292264
 10
5427.5149080929
 20
4991.756304342
  0
LWPOLYLINE
  5
25D
330
1F
100
AcDbEntity
  8
0
  6
Continuous
 62
     7
370
    25
100
AcDbPolyline
 90
        5
 70
   128
 43
0.0
 10
5427.5149080929
 20
4991.756304342
 10
5427.4345849033
 20
4991.7708715365
 10
5427.3651613671
 20
4991.8141875693
 10
5427.2773741431
 20
4991.9508209949
 10
5427.2357414263
 20
4992.2746376754
  0
LWPOLYLINE
  5
25E
330
1F
100
AcDbEntity
  8
0
  6
Continuous
 62
     7
370
    25
100
AcDbPolyline
 90
        3
 70
   128
 43
0.0
 10
5427.2357414263
 20
4992.2746376754
 10
5427.2915158643
 20
4992.8422550505
 10
5427.4024080929
 20
4993.2771376754
  0
LWPOLYLINE
  5
25F
330
1F
100
AcDbEntity
  8
0
  6
Continuous
 62
     7
370
    25
100
AcDbPolyline
 90
        3
 70
   128
 43
0.0
 10
5427.4024080929
 20
4993.2771376754
 10
5427.4247481722
 20
4993.3605454796
 10
5427.4374080929
 20
4993.4271376754
  0
ARC
  5
260
330
1F
100
AcDbEntity
  8
0
  6
Continuous
 62
     7
370
    25
100
AcDbCircle
 10
5426.8265814717
 20
4993.0598494629
 30
0.0
 40
0.7127480566158121
100
AcDbArc
 50
31.0183667359
 51
63.6974452057
  0
ARC
  5
261
330
1F
100
AcDbEntity
  8
0
  6
Continuous
 62
     7
370
    25
100
AcDbCircle
 10
5429.6964460626
 20
4992.4573750193
 30
0.0
 40
2.839763496117333
100
AcDbArc
 50
154.0772199733
 51
183.6389597429
  0
LWPOLYLINE
  5
262
330
1F
100
AcDbEntity
  8
0
  6
Continuous
 62
     7
370
    25
100
AcDbPolyline
 90
        6
 70
   128
 43
0.0
 10
5426.8624080929
 20
4992.2771376754
 10
5426.9409310818
 20
4991.7516449773
 10
5427.0008308419
 20
4991.6325071284
 10
5427.0910315833
 20
4991.5346714001
 10
5427.2103397677
 20
4991.4760717401
 10
5427.3424080929
 20
4991.458804342
  0
ARC
  5
263
330
1F
100
AcDbEntity
  8
0
  6
Continuous
 62
     7
370
    25
100
AcDbCircle
 10
5427.2802734888
 20
4992.1344133347
 30
0.0
 40
0.6784601831095429
100
AcDbArc
 50
275.2546133704
 51
324.5906977273
  0
LWPOLYLINE
  5
264
330
1F
100
AcDbEntity
  8
0
  6
Continuous
 62
     7
370
    25
100
AcDbPolyline
 90
        3
 70
   128
 43
0.0
 10
5427.8332414263
 20
4991.741304342
 10
5427.9189941923
 20
4991.8422647508
 10
5427.9815747596
 20
4991.9254710087
  0
LWPOLYLINE
  5
265
330
1F
100
AcDbEntity
  8
0
  6
Continuous
 62
     7
370
    25
100
AcDbPolyline
 90
        3
 70
   128
 43
0.0
 10
5427.9815747596
 20
4991.9254710087
 10
5428.0171937762
 20
4991.9701315601
 10
5428.0499080929
 20
4992.0004710087
  0
ARC
  5
266
330
1F
100
AcDbEntity
  8
0
  6
Continuous
 62
     7
370
    25
100
AcDbCircle
 10
5427.9976744276
 20
4991.9314096454
 30
0.0
 40
0.0865899976763774
100
AcDbArc
 50
3.7929528176
 51
52.8984344283
  0
LWPOLYLINE
  5
267
330
1F
100
AcDbEntity
  8
0
  6
Continuous
 62
     7
370
    25
100
AcDbPolyline
 90
        3
 70
   128
 43
0.0
 10
5423.0190747596
 20
4993.703804342
 10
5422.8965903171
 20
4993.6115939635
 10
5422.8090747596
 20
4993.5271376754
  0
LWPOLYLINE
  5
268
330
1F
100
AcDbEntity
  8
0
  6
Continuous
 62
     7
370
    25
100
AcDbPolyline
 90
        3
 70
   128
 43
0.0
 10
5422.8090747596
 20
4993.5271376754
 10
5422.3200807711
 20
4993.0809576139
 10
5421.9290747596
 20
4992.7379710087
  0
LWPOLYLINE
  5
269
330
1F
100
AcDbEntity
  8
0
  6
Continuous
 62
     7
370
    25
100
AcDbPolyline
 90
        3
 70
   128
 43
0.0
 10
5421.9290747596
 20
4992.7379710087
 10
5421.9983302221
 20
4993.2563496927
 10
5422.0515747596
 20
4993.663804342
  0
ARC
  5
26A
330
1F
100
AcDbEntity
  8
0
  6
Continuous
 62
     7
370
    25
100
AcDbCircle
 10
5347.773288024
 20
5003.5747918898
 30
0.0
 40
74.93658355268514
100
AcDbArc
 50
352.3998877593
 51
353.811881154
  0
LWPOLYLINE
  5
26B
330
1F
100
AcDbEntity
  8
0
  6
Continuous
 62
     7
370
    25
100
AcDbPolyline
 90
        5
 70
   128
 43
0.0
 10
5422.2732414263
 20
4995.4971376754
 10
5422.2705238784
 20
4995.5244350641
 10
5422.259409674
 20
4995.5494301552
 10
5422.2420851663
 20
4995.5620894155
 10
5422.2207414263
 20
4995.5654710087
  0
LWPOLYLINE
  5
26C
330
1F
100
AcDbEntity
  8
0
  6
Continuous
 62
     7
370
    25
100
AcDbPolyline
 90
        3
 70
   128
 43
0.0
 10
5422.2207414263
 20
4995.5654710087
 10
5422.0580311068
 20
4995.4955470348
 10
5421.9349080929
 20
4995.4296376754
  0
LWPOLYLINE
  5
26D
330
1F
100
AcDbEntity
  8
0
  6
Continuous
 62
     7
370
    25
100
AcDbPolyline
 90
        3
 70
   128
 43
0.0
 10
5421.9349080929
 20
4995.4296376754
 10
5421.9254871478
 20
4995.4225437579
 10
5421.9174080929
 20
4995.4179710087
  0
ARC
  5
26E
330
1F
100
AcDbEntity
  8
0
  6
Continuous
 62
     7
370
    25
100
AcDbCircle
 10
5422.0515830819
 20
4995.2553012503
 30
0.0
 40
0.2108657818993571
100
AcDbArc
 50
129.5168544787
 51
185.1687874638
  0
LWPOLYLINE
  5
26F
330
1F
100
AcDbEntity
  8
0
  6
Continuous
 62
     7
370
    25
100
AcDbPolyline
 90
        3
 70
   128
 43
0.0
 10
5421.8415747596
 20
4995.236304342
 10
5421.8378197392
 20
4995.2238247428
 10
5421.8357414263
 20
4995.213804342
  0
ARC
  5
270
330
1F
100
AcDbEntity
  8
0
  6
Continuous
 62
     7
370
    25
100
AcDbCircle
 10
5501.4156917282
 20
4983.1069827977
 30
0.0
 40
80.49561241439038
100
AcDbArc
 50
171.3496895239
 51
173.9455517564
  0
LWPOLYLINE
  5
271
330
1F
100
AcDbEntity
  8
0
  6
Continuous
 62
     7
370
    25
100
AcDbPolyline
 90
        5
 70
   128
 43
0.0
 10
5421.3690747596
 20
4991.5971376754
 10
5421.3727485389
 20
4991.563183236
 10
5421.3846722354
 20
4991.5313807676
 10
5421.406471847
 20
4991.5161033376
 10
5421.4332414263
 20
4991.5121376754
  0
LWPOLYLINE
  5
272
330
1F
100
AcDbEntity
  8
0
  6
Continuous
 62
     7
370
    25
100
AcDbPolyline
 90
        3
 70
   128
 43
0.0
 10
5421.4332414263
 20
4991.5121376754
 10
5421.6313946379
 20
4991.6008384193
 10
5421.7657414263
 20
4991.7054710087
  0
LWPOLYLINE
  5
273
330
1F
100
AcDbEntity
  8
0
  6
Continuous
 62
     7
370
    25
100
AcDbPolyline
 90
        3
 70
   128
 43
0.0
 10
5421.7657414263
 20
4991.7054710087
 10
5421.8038526727
 20
4991.8944845523
 10
5421.8240747596
 20
4992.0454710087
  0
ARC
  5
274
330
1F
100
AcDbEntity
  8
0
  6
Continuous
 62
     7
370
    25
100
AcDbCircle
 10
5422.6258364524
 20
4992.0655450543
 30
0.0
 40
0.8020129545454872
100
AcDbArc
 50
156.8792997558
 51
181.4342389471
  0
ARC
  5
275
330
1F
100
AcDbEntity
  8
0
  6
Continuous
 62
     7
370
    25
100
AcDbCircle
 10
5416.7320717025
 20
4987.431668439
 30
0.0
 40
7.146798800452981
100
AcDbArc
 50
35.8731241084
 51
43.8243812072
  0
LWPOLYLINE
  5
276
330
1F
100
AcDbEntity
  8
0
  6
Continuous
 62
     7
370
    25
100
AcDbPolyline
 90
        3
 70
   128
 43
0.0
 10
5422.5232414263
 20
4991.6196376754
 10
5422.6884403981
 20
4991.4031068814
 10
5422.8149080929
 20
4991.2304710087
  0
ARC
  5
277
330
1F
100
AcDbEntity
  8
0
  6
Continuous
 62
     7
370
    25
100
AcDbCircle
 10
5424.3619124924
 20
4992.1317718567
 30
0.0
 40
1.79040940302917
100
AcDbArc
 50
210.2255225218
 51
226.7757849189
  0
LWPOLYLINE
  5
278
330
1F
100
AcDbEntity
  8
0
  6
Continuous
 62
     7
370
    25
100
AcDbPolyline
 90
        5
 70
   128
 43
0.0
 10
5423.1357414263
 20
4990.8271376754
 10
5423.1560680618
 20
4990.8350732295
 10
5423.1677772142
 20
4990.8529921804
 10
5423.1749706937
 20
4990.8743147908
 10
5423.1824080929
 20
4990.9246376754
  0
ARC
  5
279
330
1F
100
AcDbEntity
  8
0
  6
Continuous
 62
     7
370
    25
100
AcDbCircle
 10
5420.2599830031
 20
4990.1846251601
 30
0.0
 40
3.014661992391392
100
AcDbArc
 50
14.2096783254
 51
44.5979997107
  0
ARC
  5
27A
330
1F
100
AcDbEntity
  8
0
  6
Continuous
 62
     7
370
    25
100
AcDbCircle
 10
5423.7901090226
 20
4993.5735935436
 30
0.0
 40
1.87959752855338
100
AcDbArc
 50
208.9201795385
 51
222.6014412197
  0
ARC
  5
27B
330
1F
100
AcDbEntity
  8
0
  6
Continuous
 62
     7
370
    25
100
AcDbCircle
 10
5422.388485387
 20
4992.5282024613
 30
0.0
 40
0.2791853610298149
100
AcDbArc
 50
121.1484465002
 51
150.745456394
  0
LWPOLYLINE
  5
27C
330
1F
100
AcDbEntity
  8
0
  6
Continuous
 62
     7
370
    25
100
AcDbPolyline
 90
        3
 70
   128
 43
0.0
 10
5422.2440747596
 20
4992.7671376754
 10
5422.3314642047
 20
4992.8403523664
 10
5422.4007414263
 20
4992.8971376754
  0
ARC
  5
27D
330
1F
100
AcDbEntity
  8
0
  6
Continuous
 62
     7
370
    25
100
AcDbCircle
 10
5421.3825124254
 20
4994.5917007438
 30
0.0
 40
1.976950755889812
100
AcDbArc
 50
301.0008144959
 51
329.3479110224
  0
LWPOLYLINE
  5
27E
330
1F
100
AcDbEntity
  8
0
  6
Continuous
 62
     7
370
    25
100
AcDbPolyline
 90
        4
 70
   128
 43
0.0
 10
5423.0832414263
 20
4993.583804342
 10
5423.0634963966
 20
4993.6615517958
 10
5423.0467629143
 20
4993.6891771199
 10
5423.0190747596
 20
4993.703804342
  0
LWPOLYLINE
  5
27F
330
1F
100
AcDbEntity
  8
0
  6
Continuous
 62
     7
370
    25
100
AcDbPolyline
 90
        4
 70
   128
 43
0.0
 10
5411.7499080929
 20
4992.096304342
 10
5411.7956482839
 20
4992.0793742486
 10
5411.8107331628
 20
4992.0673428186
 10
5411.8199080929
 20
4992.0504710087
  0
LWPOLYLINE
  5
280
330
1F
100
AcDbEntity
  8
0
  6
Continuous
 62
     7
370
    25
100
AcDbPolyline
 90
        4
 70
   128
 43
0.0
 10
5411.8199080929
 20
4992.0504710087
 10
5411.9337334326
 20
4991.7725978294
 10
5412.1468476628
 20
4991.5639806912
 10
5412.6024080929
 20
4991.458804342
  0
ARC
  5
281
330
1F
100
AcDbEntity
  8
0
  6
Continuous
 62
     7
370
    25
100
AcDbCircle
 10
5412.6198423288
 20
4992.6606365663
 30
0.0
 40
1.201958671417046
100
AcDbArc
 50
269.1689038985
 51
319.2137894188
  0
ARC
  5
282
330
1F
100
AcDbEntity
  8
0
  6
Continuous
 62
     7
370
    25
100
AcDbCircle
 10
5413.473371893
 20
4991.8869716031
 30
0.0
 40
0.0576940688284029
100
AcDbArc
 50
348.5017764771
 51
91.7850156543
  0
LWPOLYLINE
  5
283
330
1F
100
AcDbEntity
  8
0
  6
Continuous
 62
     7
370
    25
100
AcDbPolyline
 90
        3
 70
   128
 43
0.0
 10
5413.4715747596
 20
4991.9446376754
 10
5413.3796984811
 20
4991.9140580097
 10
5413.3107414263
 20
4991.881304342
  0
LWPOLYLINE
  5
284
330
1F
100
AcDbEntity
  8
0
  6
Continuous
 62
     7
370
    25
100
AcDbPolyline
 90
        3
 70
   128
 43
0.0
 10
5413.3107414263
 20
4991.881304342
 10
5413.0124045821
 20
4991.7619577368
 10
5412.7632414263
 20
4991.7254710087
  0
ARC
  5
285
330
1F
100
AcDbEntity
  8
0
  6
Continuous
 62
     7
370
    25
100
AcDbCircle
 10
5412.747146256
 20
4992.1699199885
 30
0.0
 40
0.444740317661745
100
AcDbArc
 50
179.8216538067
 51
272.073989489
  0
LWPOLYLINE
  5
286
330
1F
100
AcDbEntity
  8
0
  6
Continuous
 62
     7
370
    25
100
AcDbPolyline
 90
        4
 70
   128
 43
0.0
 10
5412.3024080929
 20
4992.171304342
 10
5412.3188254903
 20
4992.2370858999
 10
5412.3721668737
 20
4992.278784169
 10
5412.4682414263
 20
4992.326304342
  0
ARC
  5
287
330
1F
100
AcDbEntity
  8
0
  6
Continuous
 62
     7
370
    25
100
AcDbCircle
 10
5412.2012285523
 20
4993.7465988388
 30
0.0
 40
1.445175536891939
100
AcDbArc
 50
280.647230635
 51
342.885290137
  0
ARC
  5
288
330
1F
100
AcDbEntity
  8
0
  6
Continuous
 62
     7
370
    25
100
AcDbCircle
 10
5413.2025527976
 20
4993.3232165758
 30
0.0
 40
0.3798601085112221
100
AcDbArc
 50
359.7115691121
 51
98.6013515169
  0
ARC
  5
289
330
1F
100
AcDbEntity
  8
0
  6
Continuous
 62
     7
370
    25
100
AcDbCircle
 10
5413.3373832804
 20
4992.2351691765
 30
0.0
 40
1.476128211916311
100
AcDbArc
 50
97.4596172225
 51
172.2012440007
  0
ARC
  5
28A
330
1F
100
AcDbEntity
  8
0
  6
Continuous
 62
     7
370
    25
100
AcDbCircle
 10
5411.7411548017
 20
4992.4658909666
 30
0.0
 40
0.1371689351444439
100
AcDbArc
 50
282.8130162776
 51
347.1869837228
  0
LWPOLYLINE
  5
28B
330
1F
100
AcDbEntity
  8
0
  6
Continuous
 62
     7
370
    25
100
AcDbPolyline
 90
        4
 70
   128
 43
0.0
 10
5411.7715747596
 20
4992.3321376754
 10
5411.6827066437
 20
4992.266322723
 10
5411.6663124112
 20
4992.2258396775
 10
5411.6624080929
 20
4992.1821376754
  0
LWPOLYLINE
  5
28C
330
1F
100
AcDbEntity
  8
0
  6
Continuous
 62
     7
370
    25
100
AcDbPolyline
 90
        4
 70
   128
 43
0.0
 10
5411.6624080929
 20
4992.1821376754
 10
5411.6675417755
 20
4992.1433883577
 10
5411.6906997577
 20
4992.1126880769
 10
5411.7499080929
 20
4992.096304342
  0
LINE
  5
28D
330
1F
100
AcDbEntity
  8
0
  6
Continuous
 62
     7
370
    25
100
AcDbLine
 10
5447.9679243925
 20
5006.9991073859
 30
0.0
 11
5447.8971796486
 21
5007.0349695649
 31
0.0
  0
LWPOLYLINE
  5
28E
330
1F
100
AcDbEntity
  8
0
  6
Continuous
 62
     7
370
    25
100
AcDbPolyline
 90
        3
 70
   128
 43
0.0
 10
5447.8971796486
 20
5007.0349695649
 10
5448.0125028
 20
5007.0704468685
 10
5448.0748581875
 20
5007.1122619589
  0
LWPOLYLINE
  5
28F
330
1F
100
AcDbEntity
  8
0
  6
Continuous
 62
     7
370
    25
100
AcDbPolyline
 90
        3
 70
   128
 43
0.0
 10
5448.0748581875
 20
5007.1122619589
 10
5448.1260246027
 20
5007.1919498695
 10
5448.1384884266
 20
5007.2687916583
  0
LWPOLYLINE
  5
290
330
1F
100
AcDbEntity
  8
0
  6
Continuous
 62
     7
370
    25
100
AcDbPolyline
 90
        3
 70
   128
 43
0.0
 10
5448.1384884266
 20
5007.2687916583
 10
5448.1266536454
 20
5007.342937503
 10
5448.103517822
 20
5007.396000525
  0
LWPOLYLINE
  5
291
330
1F
100
AcDbEntity
  8
0
  6
Continuous
 62
     7
370
    25
100
AcDbPolyline
 90
        3
 70
   128
 43
0.0
 10
5448.103517822
 20
5007.396000525
 10
5448.0532065159
 20
5007.4477579167
 10
5448.0042124906
 20
5007.474375393
  0
LWPOLYLINE
  5
292
330
1F
100
AcDbEntity
  8
0
  6
Continuous
 62
     7
370
    25
100
AcDbPolyline
 90
        3
 70
   128
 43
0.0
 10
5448.0042124906
 20
5007.474375393
 10
5447.9243853252
 20
5007.4956224536
 10
5447.8338172353
 20
5007.5027612439
  0
LINE
  5
293
330
1F
100
AcDbEntity
  8
0
  6
Continuous
 62
     7
370
    25
100
AcDbLine
 10
5447.8338172353
 20
5007.5027612439
 30
0.0
 11
5447.7985395605
 21
5007.502846458
 31
0.0
  0
LINE
  5
294
330
1F
100
AcDbEntity
  8
0
  6
Continuous
 62
     7
370
    25
100
AcDbLine
 10
5447.7985395605
 20
5007.502846458
 30
0.0
 11
5447.4651917623
 21
5007.503100451
 31
0.0
  0
LINE
  5
295
330
1F
100
AcDbEntity
  8
0
  6
Continuous
 62
     7
370
    25
100
AcDbLine
 10
5447.4651917623
 20
5007.503100451
 30
0.0
 11
5447.4645318148
 21
5006.6593956992
 31
0.0
  0
LINE
  5
296
330
1F
100
AcDbEntity
  8
0
  6
Continuous
 62
     7
370
    25
100
AcDbLine
 10
5447.4645318148
 20
5006.6593956992
 30
0.0
 11
5447.5775309499
 21
5006.6592605512
 31
0.0
  0
LINE
  5
297
330
1F
100
AcDbEntity
  8
0
  6
Continuous
 62
     7
370
    25
100
AcDbLine
 10
5447.5775309499
 20
5006.6592605512
 30
0.0
 11
5447.5778703234
 21
5007.027954926
 31
0.0
  0
LINE
  5
298
330
1F
100
AcDbEntity
  8
0
  6
Continuous
 62
     7
370
    25
100
AcDbLine
 10
5447.5778703234
 20
5007.027954926
 30
0.0
 11
5447.7056144242
 21
5007.0277841612
 31
0.0
  0
LINE
  5
299
330
1F
100
AcDbEntity
  8
0
  6
Continuous
 62
     7
370
    25
100
AcDbLine
 10
5447.7056144242
 20
5007.0277841612
 30
0.0
 11
5447.7622519617
 21
5007.027785156
 31
0.0
  0
LINE
  5
29A
330
1F
100
AcDbEntity
  8
0
  6
Continuous
 62
     7
370
    25
100
AcDbLine
 10
5447.7622519617
 20
5007.027785156
 30
0.0
 11
5447.797908595
 21
5007.0134362896
 31
0.0
  0
LINE
  5
29B
330
1F
100
AcDbEntity
  8
0
  6
Continuous
 62
     7
370
    25
100
AcDbLine
 10
5447.797908595
 20
5007.0134362896
 30
0.0
 11
5447.812084705
 21
5007.0060984231
 31
0.0
  0
LINE
  5
29C
330
1F
100
AcDbEntity
  8
0
  6
Continuous
 62
     7
370
    25
100
AcDbLine
 10
5447.812084705
 20
5007.0060984231
 30
0.0
 11
5447.8685856003
 21
5006.9495311151
 31
0.0
  0
LWPOLYLINE
  5
29D
330
1F
100
AcDbEntity
  8
0
  6
Continuous
 62
     7
370
    25
100
AcDbPolyline
 90
        3
 70
   128
 43
0.0
 10
5447.8685856003
 20
5006.9495311151
 10
5447.9113645336
 20
5006.8963211743
 10
5447.9536117992
 20
5006.8358439559
  0
LINE
  5
29E
330
1F
100
AcDbEntity
  8
0
  6
Continuous
 62
     7
370
    25
100
AcDbLine
 10
5447.9536117992
 20
5006.8358439559
 30
0.0
 11
5448.0670103529
 21
5006.6587672227
 31
0.0
  0
LINE
  5
29F
330
1F
100
AcDbEntity
  8
0
  6
Continuous
 62
     7
370
    25
100
AcDbLine
 10
5448.0670103529
 20
5006.6587672227
 30
0.0
 11
5448.2016446246
 21
5006.6585798145
 31
0.0
  0
LINE
  5
2A0
330
1F
100
AcDbEntity
  8
0
  6
Continuous
 62
     7
370
    25
100
AcDbLine
 10
5448.2016446246
 20
5006.6585798145
 30
0.0
 11
5448.0599963741
 21
5006.8927757332
 31
0.0
  0
LWPOLYLINE
  5
2A1
330
1F
100
AcDbEntity
  8
0
  6
Continuous
 62
     7
370
    25
100
AcDbPolyline
 90
        3
 70
   128
 43
0.0
 10
5448.0599963741
 20
5006.8927757332
 10
5448.0083513353
 20
5006.9577286512
 10
5447.9679243925
 20
5006.9991073859
  0
ARC
  5
2A2
330
1F
100
AcDbEntity
  8
0
  6
Continuous
 62
     7
370
    25
100
AcDbCircle
 10
5447.7848500825
 20
5007.0690778293
 30
0.0
 40
0.8161415390709842
100
AcDbArc
 50
90.0479687001
 51
180.3602464608
  0
ARC
  5
2A3
330
1F
100
AcDbEntity
  8
0
  6
Continuous
 62
     7
370
    25
100
AcDbCircle
 10
5447.7786153345
 20
5007.0644922347
 30
0.0
 40
0.8207456227044962
100
AcDbArc
 50
359.8552770288
 51
89.6124524814
  0
ARC
  5
2A4
330
1F
100
AcDbEntity
  8
0
  6
Continuous
 62
     7
370
    25
100
AcDbCircle
 10
5447.7817902679
 20
5007.0723509346
 30
0.0
 40
0.8176283946680183
100
AcDbArc
 50
270.0643647038
 51
359.3040053994
  0
ARC
  5
2A5
330
1F
100
AcDbEntity
  8
0
  6
Continuous
 62
     7
370
    25
100
AcDbCircle
 10
5447.7778136013
 20
5007.0637971868
 30
0.0
 40
0.8090889395626915
100
AcDbArc
 50
179.9894345796
 51
270.3466545021
  0
LINE
  5
2A6
330
1F
100
AcDbEntity
  8
0
  6
Continuous
 62
     7
370
    25
100
AcDbLine
 10
5447.81223866
 20
5007.1268834514
 30
0.0
 11
5447.798044908
 21
5007.1269177367
 31
0.0
  0
LINE
  5
2A7
330
1F
100
AcDbEntity
  8
0
  6
Continuous
 62
     7
370
    25
100
AcDbLine
 10
5447.798044908
 20
5007.1269177367
 30
0.0
 11
5447.5779721846
 21
5007.1271737194
 31
0.0
  0
LINE
  5
2A8
330
1F
100
AcDbEntity
  8
0
  6
Continuous
 62
     7
370
    25
100
AcDbLine
 10
5447.5779721846
 20
5007.1271737194
 30
0.0
 11
5447.5782271725
 21
5007.4038839802
 31
0.0
  0
LINE
  5
2A9
330
1F
100
AcDbEntity
  8
0
  6
Continuous
 62
     7
370
    25
100
AcDbLine
 10
5447.5782271725
 20
5007.4038839802
 30
0.0
 11
5447.7982998958
 21
5007.4036279975
 31
0.0
  0
LINE
  5
2AA
330
1F
100
AcDbEntity
  8
0
  6
Continuous
 62
     7
370
    25
100
AcDbLine
 10
5447.7982998958
 20
5007.4036279975
 30
0.0
 11
5447.8407436812
 21
5007.4036632777
 31
0.0
  0
LWPOLYLINE
  5
2AB
330
1F
100
AcDbEntity
  8
0
  6
Continuous
 62
     7
370
    25
100
AcDbPolyline
 90
        3
 70
   128
 43
0.0
 10
5447.8407436812
 20
5007.4036632777
 10
5447.929298455
 20
5007.3912892977
 10
5447.9754295437
 20
5007.3677844515
  0
LINE
  5
2AC
330
1F
100
AcDbEntity
  8
0
  6
Continuous
 62
     7
370
    25
100
AcDbLine
 10
5448.0177723
 20
5007.2689454469
 30
0.0
 11
5447.9966366125
 21
5007.1905169965
 31
0.0
  0
LINE
  5
2AD
330
1F
100
AcDbEntity
  8
0
  6
Continuous
 62
     7
370
    25
100
AcDbLine
 10
5447.9966366125
 20
5007.1905169965
 30
0.0
 11
5447.9328507692
 21
5007.1407170425
 31
0.0
  0
LWPOLYLINE
  5
2AE
330
1F
100
AcDbEntity
  8
0
  6
Continuous
 62
     7
370
    25
100
AcDbPolyline
 90
        3
 70
   128
 43
0.0
 10
5447.9328507692
 20
5007.1407170425
 10
5447.8730637328
 20
5007.1303376444
 10
5447.81223866
 20
5007.1268834514
  0
LWPOLYLINE
  5
2AF
330
1F
100
AcDbEntity
  8
0
  6
Continuous
 62
     7
370
    25
100
AcDbPolyline
 90
        3
 70
   128
 43
0.0
 10
5447.9754295437
 20
5007.3677844515
 10
5448.0097362296
 20
5007.3178241541
 10
5448.0177723
 20
5007.2689454469
  0
LWPOLYLINE
  5
2B0
330
1F
100
AcDbEntity
  8
0
  6
Continuous
 62
     7
370
    25
100
AcDbPolyline
 90
        3
 70
   128
 43
0.0
 10
5445.1163518383
 20
5005.4629327634
 10
5445.0453558539
 20
5005.5815776187
 10
5444.974513857
 20
5005.6756316818
  0
LWPOLYLINE
  5
2B1
330
1F
100
AcDbEntity
  8
0
  6
Continuous
 62
     7
370
    25
100
AcDbPolyline
 90
        3
 70
   128
 43
0.0
 10
5444.974513857
 20
5005.6756316818
 10
5445.4867046488
 20
5006.7294844815
 10
5445.6505192987
 20
5007.5896152566
  0
LWPOLYLINE
  5
2B2
330
1F
100
AcDbEntity
  8
0
  6
Continuous
 62
     7
370
    25
100
AcDbPolyline
 90
        3
 70
   128
 43
0.0
 10
5445.6505192987
 20
5007.5896152566
 10
5444.7953880941
 20
5007.2620704797
 10
5444.1885501455
 20
5006.8462477989
  0
LWPOLYLINE
  5
2B3
330
1F
100
AcDbEntity
  8
0
  6
Continuous
 62
     7
370
    25
100
AcDbPolyline
 90
        3
 70
   128
 43
0.0
 10
5444.1885501455
 20
5006.8462477989
 10
5443.9783913183
 20
5006.6678635499
 10
5443.8127808414
 20
5006.5133936546
  0
LINE
  5
2B4
330
1F
100
AcDbEntity
  8
0
  6
Continuous
 62
     7
370
    25
100
AcDbLine
 10
5443.8127808414
 20
5006.5133936546
 30
0.0
 11
5443.7775550939
 21
5006.5349762018
 31
0.0
  0
LWPOLYLINE
  5
2B5
330
1F
100
AcDbEntity
  8
0
  6
Continuous
 62
     7
370
    25
100
AcDbPolyline
 90
        3
 70
   128
 43
0.0
 10
5443.7775550939
 20
5006.5349762018
 10
5443.7069783848
 20
5006.5666055817
 10
5443.6569752767
 20
5006.5915604898
  0
LINE
  5
2B6
330
1F
100
AcDbEntity
  8
0
  6
Continuous
 62
     7
370
    25
100
AcDbLine
 10
5443.6569752767
 20
5006.5915604898
 30
0.0
 11
5443.5930855861
 21
5006.6128677649
 31
0.0
  0
LINE
  5
2B7
330
1F
100
AcDbEntity
  8
0
  6
Continuous
 62
     7
370
    25
100
AcDbLine
 10
5443.5930855861
 20
5006.6128677649
 30
0.0
 11
5443.6570262092
 21
5006.6696953603
 31
0.0
  0
LWPOLYLINE
  5
2B8
330
1F
100
AcDbEntity
  8
0
  6
Continuous
 62
     7
370
    25
100
AcDbPolyline
 90
        3
 70
   128
 43
0.0
 10
5443.6570262092
 20
5006.6696953603
 10
5443.7269819506
 20
5006.7333367024
 10
5443.7777408453
 20
5006.7830233517
  0
LWPOLYLINE
  5
2B9
330
1F
100
AcDbEntity
  8
0
  6
Continuous
 62
     7
370
    25
100
AcDbPolyline
 90
        3
 70
   128
 43
0.0
 10
5443.7777408453
 20
5006.7830233517
 10
5444.0051469629
 20
5006.9722025724
 10
5444.1887874913
 20
5007.1156544786
  0
LWPOLYLINE
  5
2BA
330
1F
100
AcDbEntity
  8
0
  6
Continuous
 62
     7
370
    25
100
AcDbPolyline
 90
        3
 70
   128
 43
0.0
 10
5444.1887874913
 20
5007.1156544786
 10
5445.0802151857
 20
5007.6404039749
 10
5445.8983722429
 20
5007.8513268973
  0
LWPOLYLINE
  5
2BB
330
1F
100
AcDbEntity
  8
0
  6
Continuous
 62
     7
370
    25
100
AcDbPolyline
 90
        3
 70
   128
 43
0.0
 10
5445.8983722429
 20
5007.8513268973
 10
5445.6494732133
 20
5006.5406917681
 10
5445.1163518383
 20
5005.4629327634
  0
LWPOLYLINE
  5
2BC
330
1F
100
AcDbEntity
  8
0
  6
Continuous
 62
     7
370
    25
100
AcDbPolyline
 90
        3
 70
   128
 43
0.0
 10
5444.1790356818
 20
4996.175538696
 10
5443.9567878648
 20
4996.0619037779
 10
5443.7679003378
 20
4995.9773358015
  0
LWPOLYLINE
  5
2BD
330
1F
100
AcDbEntity
  8
0
  6
Continuous
 62
     7
370
    25
100
AcDbPolyline
 90
        3
 70
   128
 43
0.0
 10
5443.7679003378
 20
4995.9773358015
 10
5443.7026628722
 20
4995.9492788496
 10
5443.6476149269
 20
4995.9276034215
  0
LWPOLYLINE
  5
2BE
330
1F
100
AcDbEntity
  8
0
  6
Continuous
 62
     7
370
    25
100
AcDbPolyline
 90
        3
 70
   128
 43
0.0
 10
5443.6476149269
 20
4995.9276034215
 10
5443.5109850908
 20
4995.8801101153
 10
5443.3995003675
 20
4995.8428330331
  0
LWPOLYLINE
  5
2BF
330
1F
100
AcDbEntity
  8
0
  6
Continuous
 62
     7
370
    25
100
AcDbPolyline
 90
        3
 70
   128
 43
0.0
 10
5443.3995003675
 20
4995.8428330331
 10
5443.2545051896
 20
4995.7992959927
 10
5443.1363817125
 20
4995.7649201965
  0
ARC
  5
2C0
330
1F
100
AcDbEntity
  8
0
  6
Continuous
 62
     7
370
    25
100
AcDbCircle
 10
5466.0651039341
 20
4998.269970876
 30
0.0
 40
23.06515947529727
100
AcDbArc
 50
170.2358935392
 51
186.2350536994
  0
LWPOLYLINE
  5
2C1
330
1F
100
AcDbEntity
  8
0
  6
Continuous
 62
     7
370
    25
100
AcDbPolyline
 90
        3
 70
   128
 43
0.0
 10
5443.3340586407
 20
5002.1816407863
 10
5443.3761397089
 20
5002.294252814
 10
5443.4052156447
 20
5002.3734990874
  0
LWPOLYLINE
  5
2C2
330
1F
100
AcDbEntity
  8
0
  6
Continuous
 62
     7
370
    25
100
AcDbPolyline
 90
        3
 70
   128
 43
0.0
 10
5443.4052156447
 20
5002.3734990874
 10
5443.5415621239
 20
5002.7198232741
 10
5443.6538393439
 20
5002.9542945411
  0
LWPOLYLINE
  5
2C3
330
1F
100
AcDbEntity
  8
0
  6
Continuous
 62
     7
370
    25
100
AcDbPolyline
 90
        3
 70
   128
 43
0.0
 10
5443.6538393439
 20
5002.9542945411
 10
5443.7206993209
 20
5003.0787394704
 10
5443.7743807337
 20
5003.1670486968
  0
LINE
  5
2C4
330
1F
100
AcDbEntity
  8
0
  6
Continuous
 62
     7
370
    25
100
AcDbLine
 10
5443.7743807337
 20
5003.1670486968
 30
0.0
 11
5443.779635072
 21
5003.1744085307
 31
0.0
  0
LWPOLYLINE
  5
2C5
330
1F
100
AcDbEntity
  8
0
  6
Continuous
 62
     7
370
    25
100
AcDbPolyline
 90
        3
 70
   128
 43
0.0
 10
5443.779635072
 20
5003.1744085307
 10
5443.8993910561
 20
5003.0735257121
 10
5443.9936204672
 20
5002.9930925051
  0
LWPOLYLINE
  5
2C6
330
1F
100
AcDbEntity
  8
0
  6
Continuous
 62
     7
370
    25
100
AcDbPolyline
 90
        3
 70
   128
 43
0.0
 10
5443.9936204672
 20
5002.9930925051
 10
5443.8700118556
 20
5002.7207095417
 10
5443.7739078615
 20
5002.4578404132
  0
LWPOLYLINE
  5
2C7
330
1F
100
AcDbEntity
  8
0
  6
Continuous
 62
     7
370
    25
100
AcDbPolyline
 90
        3
 70
   128
 43
0.0
 10
5443.7739078615
 20
5002.4578404132
 10
5443.7059230453
 20
5002.2236472502
 10
5443.6528360472
 20
5002.0254965119
  0
LWPOLYLINE
  5
2C8
330
1F
100
AcDbEntity
  8
0
  6
Continuous
 62
     7
370
    25
100
AcDbPolyline
 90
        3
 70
   128
 43
0.0
 10
5443.6528360472
 20
5002.0254965119
 10
5443.4998258541
 20
5001.3196809132
 10
5443.4036532633
 20
5000.6998016895
  0
LWPOLYLINE
  5
2C9
330
1F
100
AcDbEntity
  8
0
  6
Continuous
 62
     7
370
    25
100
AcDbPolyline
 90
        3
 70
   128
 43
0.0
 10
5443.4036532633
 20
5000.6998016895
 10
5443.2686428405
 20
4998.6263446696
 10
5443.4003968324
 20
4997.0126509038
  0
LWPOLYLINE
  5
2CA
330
1F
100
AcDbEntity
  8
0
  6
Continuous
 62
     7
370
    25
100
AcDbPolyline
 90
        3
 70
   128
 43
0.0
 10
5443.4003968324
 20
4997.0126509038
 10
5443.435501739
 20
4996.8180193724
 10
5443.4633609884
 20
4996.6652321742
  0
LWPOLYLINE
  5
2CB
330
1F
100
AcDbEntity
  8
0
  6
Continuous
 62
     7
370
    25
100
AcDbPolyline
 90
        3
 70
   128
 43
0.0
 10
5443.4633609884
 20
4996.6652321742
 10
5443.4306503579
 20
4997.3002382598
 10
5443.4010238222
 20
4997.7856621696
  0
LWPOLYLINE
  5
2CC
330
1F
100
AcDbEntity
  8
0
  6
Continuous
 62
     7
370
    25
100
AcDbPolyline
 90
        3
 70
   128
 43
0.0
 10
5443.4010238222
 20
4997.7856621696
 10
5443.3722162854
 20
4998.3112290902
 10
5443.3592378282
 20
4998.7425378144
  0
LINE
  5
2CD
330
1F
100
AcDbEntity
  8
0
  6
Continuous
 62
     7
370
    25
100
AcDbLine
 10
5443.3592378282
 20
4998.7425378144
 30
0.0
 11
5443.4020790462
 21
4998.7359575319
 31
0.0
  0
LWPOLYLINE
  5
2CE
330
1F
100
AcDbEntity
  8
0
  6
Continuous
 62
     7
370
    25
100
AcDbPolyline
 90
        3
 70
   128
 43
0.0
 10
5443.4020790462
 20
4998.7359575319
 10
5443.5435013413
 20
4998.7011001502
 10
5443.6498499198
 20
4998.6784458918
  0
LWPOLYLINE
  5
2CF
330
1F
100
AcDbEntity
  8
0
  6
Continuous
 62
     7
370
    25
100
AcDbPolyline
 90
        3
 70
   128
 43
0.0
 10
5443.6498499198
 20
4998.6784458918
 10
5443.7197758896
 20
4998.6624931133
 10
5443.7704983078
 20
4998.6502491078
  0
LWPOLYLINE
  5
2D0
330
1F
100
AcDbEntity
  8
0
  6
Continuous
 62
     7
370
    25
100
AcDbPolyline
 90
        3
 70
   128
 43
0.0
 10
5443.7704983078
 20
4998.6502491078
 10
5444.0029805815
 20
4998.6135765027
 10
5444.1812934536
 20
4998.5935150144
  0
LWPOLYLINE
  5
2D1
330
1F
100
AcDbEntity
  8
0
  6
Continuous
 62
     7
370
    25
100
AcDbPolyline
 90
        3
 70
   128
 43
0.0
 10
5444.1812934536
 20
4998.5935150144
 10
5445.0031120797
 20
4998.6073913643
 10
5445.8617921599
 20
4998.7548207939
  0
ARC
  5
2D2
330
1F
100
AcDbEntity
  8
0
  6
Continuous
 62
     7
370
    25
100
AcDbCircle
 10
5442.1854923819
 20
4999.3147186491
 30
0.0
 40
3.71869139163858
100
AcDbArc
 50
302.4176808238
 51
351.3404372144
  0
LWPOLYLINE
  5
2D3
330
1F
100
AcDbEntity
  8
0
  6
Continuous
 62
     7
370
    25
100
AcDbPolyline
 90
        3
 70
   128
 43
0.0
 10
5444.1821566243
 20
4999.6354506479
 10
5443.9494644443
 20
4999.666090334
 10
5443.7712414835
 20
4999.699557557
  0
LWPOLYLINE
  5
2D4
330
1F
100
AcDbEntity
  8
0
  6
Continuous
 62
     7
370
    25
100
AcDbPolyline
 90
        3
 70
   128
 43
0.0
 10
5443.7712414835
 20
4999.699557557
 10
5443.7037496029
 20
4999.7130874801
 10
5443.6510075043
 20
4999.7281667527
  0
LWPOLYLINE
  5
2D5
330
1F
100
AcDbEntity
  8
0
  6
Continuous
 62
     7
370
    25
100
AcDbPolyline
 90
        3
 70
   128
 43
0.0
 10
5443.6510075043
 20
4999.7281667527
 10
5443.5210074159
 20
4999.7617482977
 10
5443.4236471813
 20
4999.792105889
  0
LWPOLYLINE
  5
2D6
330
1F
100
AcDbEntity
  8
0
  6
Continuous
 62
     7
370
    25
100
AcDbPolyline
 90
        3
 70
   128
 43
0.0
 10
5443.4236471813
 20
4999.792105889
 10
5443.4597102733
 20
5000.3114820079
 10
5443.5307772468
 20
5000.6711069488
  0
LWPOLYLINE
  5
2D7
330
1F
100
AcDbEntity
  8
0
  6
Continuous
 62
     7
370
    25
100
AcDbPolyline
 90
        3
 70
   128
 43
0.0
 10
5443.5307772468
 20
5000.6711069488
 10
5443.5983367644
 20
5000.6541414846
 10
5443.6518222352
 20
5000.6359500936
  0
LWPOLYLINE
  5
2D8
330
1F
100
AcDbEntity
  8
0
  6
Continuous
 62
     7
370
    25
100
AcDbPolyline
 90
        3
 70
   128
 43
0.0
 10
5443.6518222352
 20
5000.6359500936
 10
5443.7186513288
 20
5000.6196144988
 10
5443.7720560479
 20
5000.6072719962
  0
LWPOLYLINE
  5
2D9
330
1F
100
AcDbEntity
  8
0
  6
Continuous
 62
     7
370
    25
100
AcDbPolyline
 90
        3
 70
   128
 43
0.0
 10
5443.7720560479
 20
5000.6072719962
 10
5443.9972220971
 20
5000.5715277357
 10
5444.1831432775
 20
5000.5573585062
  0
ARC
  5
2DA
330
1F
100
AcDbEntity
  8
0
  6
Continuous
 62
     7
370
    25
100
AcDbCircle
 10
5444.5966596151
 20
5003.2263245173
 30
0.0
 40
2.700810124678663
100
AcDbArc
 50
261.1929020425
 51
294.1224162232
  0
LWPOLYLINE
  5
2DB
330
1F
100
AcDbEntity
  8
0
  6
Continuous
 62
     7
370
    25
100
AcDbPolyline
 90
        3
 70
   128
 43
0.0
 10
5445.7004471245
 20
5000.761364383
 10
5445.8262255318
 20
5000.2048510889
 10
5445.8555068657
 20
4999.8609904619
  0
ARC
  5
2DC
330
1F
100
AcDbEntity
  8
0
  6
Continuous
 62
     7
370
    25
100
AcDbCircle
 10
5444.6594835082
 20
5002.4143372282
 30
0.0
 40
2.819583582803304
100
AcDbArc
 50
260.2534679432
 51
295.0990492192
  0
LWPOLYLINE
  5
2DD
330
1F
100
AcDbEntity
  8
0
  6
Continuous
 62
     7
370
    25
100
AcDbPolyline
 90
        3
 70
   128
 43
0.0
 10
5439.3166878899
 20
5004.1361069203
 10
5439.3530046275
 20
5004.2285736884
 10
5439.4236684567
 20
5004.3256738211
  0
LINE
  5
2DE
330
1F
100
AcDbEntity
  8
0
  6
Continuous
 62
     7
370
    25
100
AcDbLine
 10
5439.4236684567
 20
5004.3256738211
 30
0.0
 11
5439.4193903927
 21
5004.3231347768
 31
0.0
  0
LWPOLYLINE
  5
2DF
330
1F
100
AcDbEntity
  8
0
  6
Continuous
 62
     7
370
    25
100
AcDbPolyline
 90
        3
 70
   128
 43
0.0
 10
5439.4193903927
 20
5004.3231347768
 10
5439.9647161741
 20
5004.7901263151
 10
5440.3791577944
 20
5005.1056803783
  0
LWPOLYLINE
  5
2E0
330
1F
100
AcDbEntity
  8
0
  6
Continuous
 62
     7
370
    25
100
AcDbPolyline
 90
        3
 70
   128
 43
0.0
 10
5440.3791577944
 20
5005.1056803783
 10
5440.9372225171
 20
5005.471524447
 10
5441.3944717788
 20
5005.7218310124
  0
LWPOLYLINE
  5
2E1
330
1F
100
AcDbEntity
  8
0
  6
Continuous
 62
     7
370
    25
100
AcDbPolyline
 90
        3
 70
   128
 43
0.0
 10
5441.3944717788
 20
5005.7218310124
 10
5441.5940528929
 20
5005.5454930937
 10
5441.7976381244
 20
5005.4163787268
  0
LWPOLYLINE
  5
2E2
330
1F
100
AcDbEntity
  8
0
  6
Continuous
 62
     7
370
    25
100
AcDbPolyline
 90
        3
 70
   128
 43
0.0
 10
5441.7976381244
 20
5005.4163787268
 10
5442.1460972984
 20
5005.2685661185
 10
5442.4711406635
 20
5005.2102504001
  0
LINE
  5
2E3
330
1F
100
AcDbEntity
  8
0
  6
Continuous
 62
     7
370
    25
100
AcDbLine
 10
5442.4711406635
 20
5005.2102504001
 30
0.0
 11
5442.5564240027
 21
5005.2030163808
 31
0.0
  0
LWPOLYLINE
  5
2E4
330
1F
100
AcDbEntity
  8
0
  6
Continuous
 62
     7
370
    25
100
AcDbPolyline
 90
        3
 70
   128
 43
0.0
 10
5442.5564240027
 20
5005.2030163808
 10
5443.1249676879
 20
5005.2739063661
 10
5443.4078594066
 20
5005.4076660497
  0
LWPOLYLINE
  5
2E5
330
1F
100
AcDbEntity
  8
0
  6
Continuous
 62
     7
370
    25
100
AcDbPolyline
 90
        3
 70
   128
 43
0.0
 10
5443.4078594066
 20
5005.4076660497
 10
5443.5465138705
 20
5005.5172854366
 10
5443.656127921
 20
5005.6132214663
  0
LINE
  5
2E6
330
1F
100
AcDbEntity
  8
0
  6
Continuous
 62
     7
370
    25
100
AcDbLine
 10
5443.656127921
 20
5005.6132214663
 30
0.0
 11
5443.6911985597
 21
5005.6415244219
 31
0.0
  0
LWPOLYLINE
  5
2E7
330
1F
100
AcDbEntity
  8
0
  6
Continuous
 62
     7
370
    25
100
AcDbPolyline
 90
        3
 70
   128
 43
0.0
 10
5443.6911985597
 20
5005.6415244219
 10
5443.7440710102
 20
5005.6242508722
 10
5443.7766892678
 20
5005.6060400363
  0
LWPOLYLINE
  5
2E8
330
1F
100
AcDbEntity
  8
0
  6
Continuous
 62
     7
370
    25
100
AcDbPolyline
 90
        3
 70
   128
 43
0.0
 10
5443.7766892678
 20
5005.6060400363
 10
5444.0143300566
 20
5005.4920095225
 10
5444.1874160019
 20
5005.4068854452
  0
LWPOLYLINE
  5
2E9
330
1F
100
AcDbEntity
  8
0
  6
Continuous
 62
     7
370
    25
100
AcDbPolyline
 90
        3
 70
   128
 43
0.0
 10
5444.1874160019
 20
5005.4068854452
 10
5445.0758213405
 20
5004.8470016015
 10
5445.614489477
 20
5004.2547023238
  0
LWPOLYLINE
  5
2EA
330
1F
100
AcDbEntity
  8
0
  6
Continuous
 62
     7
370
    25
100
AcDbPolyline
 90
        3
 70
   128
 43
0.0
 10
5445.6230663904
 20
5003.9831383876
 10
5444.958465712
 20
5004.4489113245
 10
5444.186822972
 20
5004.7620320233
  0
LWPOLYLINE
  5
2EB
330
1F
100
AcDbEntity
  8
0
  6
Continuous
 62
     7
370
    25
100
AcDbPolyline
 90
        3
 70
   128
 43
0.0
 10
5444.186822972
 20
5004.7620320233
 10
5443.9616525381
 20
5004.8281131993
 10
5443.7760279964
 20
5004.8758859661
  0
LWPOLYLINE
  5
2EC
330
1F
100
AcDbEntity
  8
0
  6
Continuous
 62
     7
370
    25
100
AcDbPolyline
 90
        3
 70
   128
 43
0.0
 10
5443.7760279964
 20
5004.8758859661
 10
5443.710757681
 20
5004.8879016263
 10
5443.6555009349
 20
5004.8972611481
  0
LWPOLYLINE
  5
2ED
330
1F
100
AcDbEntity
  8
0
  6
Continuous
 62
     7
370
    25
100
AcDbPolyline
 90
        3
 70
   128
 43
0.0
 10
5443.6555009349
 20
5004.8972611481
 10
5443.5190141335
 20
5004.9239596401
 10
5443.4074185047
 20
5004.9398906849
  0
LWPOLYLINE
  5
2EE
330
1F
100
AcDbEntity
  8
0
  6
Continuous
 62
     7
370
    25
100
AcDbPolyline
 90
        3
 70
   128
 43
0.0
 10
5443.4074185047
 20
5004.9398906849
 10
5442.9399823315
 20
5004.9917870225
 10
5442.5490545025
 20
5005.0045961031
  0
LINE
  5
2EF
330
1F
100
AcDbEntity
  8
0
  6
Continuous
 62
     7
370
    25
100
AcDbLine
 10
5442.5490545025
 20
5005.0045961031
 30
0.0
 11
5442.470919632
 21
5005.0046470356
 31
0.0
  0
LWPOLYLINE
  5
2F0
330
1F
100
AcDbEntity
  8
0
  6
Continuous
 62
     7
370
    25
100
AcDbPolyline
 90
        3
 70
   128
 43
0.0
 10
5442.470919632
 20
5005.0046470356
 10
5442.078355315
 20
5004.9968635503
 10
5441.7972649611
 20
5004.9766463575
  0
LWPOLYLINE
  5
2F1
330
1F
100
AcDbEntity
  8
0
  6
Continuous
 62
     7
370
    25
100
AcDbPolyline
 90
        3
 70
   128
 43
0.0
 10
5441.7972649611
 20
5004.9766463575
 10
5440.9663609734
 20
5004.8340584512
 10
5440.3788543631
 20
5004.6377668772
  0
LWPOLYLINE
  5
2F2
330
1F
100
AcDbEntity
  8
0
  6
Continuous
 62
     7
370
    25
100
AcDbPolyline
 90
        3
 70
   128
 43
0.0
 10
5440.3788543631
 20
5004.6377668772
 10
5439.8158751514
 20
5004.383495862
 10
5439.3166878899
 20
5004.1361069203
  0
ARC
  5
2F3
330
1F
100
AcDbEntity
  8
0
  6
Continuous
 62
     7
370
    25
100
AcDbCircle
 10
5445.3410460603
 20
5004.1101486378
 30
0.0
 40
0.3093009380412478
100
AcDbArc
 50
335.7551758963
 51
27.8628129
  0
LWPOLYLINE
  5
2F4
330
1F
100
AcDbEntity
  8
0
  6
Continuous
 62
     7
370
    25
100
AcDbPolyline
 90
        3
 70
   128
 43
0.0
 10
5440.3781579778
 20
5003.9501254942
 10
5439.8917839346
 20
5004.0919288232
 10
5439.4998442764
 20
5004.1421412999
  0
LWPOLYLINE
  5
2F5
330
1F
100
AcDbEntity
  8
0
  6
Continuous
 62
     7
370
    25
100
AcDbPolyline
 90
        3
 70
   128
 43
0.0
 10
5439.4998442764
 20
5004.1421412999
 10
5439.9422262571
 20
5004.1845542643
 10
5440.3782922974
 20
5004.1198310685
  0
LWPOLYLINE
  5
2F6
330
1F
100
AcDbEntity
  8
0
  6
Continuous
 62
     7
370
    25
100
AcDbPolyline
 90
        3
 70
   128
 43
0.0
 10
5440.3782922974
 20
5004.1198310685
 10
5441.0491396541
 20
5003.9135049318
 10
5441.6259932017
 20
5003.6723296998
  0
LWPOLYLINE
  5
2F7
330
1F
100
AcDbEntity
  8
0
  6
Continuous
 62
     7
370
    25
100
AcDbPolyline
 90
        3
 70
   128
 43
0.0
 10
5441.6259932017
 20
5003.6723296998
 10
5441.7267151789
 20
5003.8193741305
 10
5441.7963666729
 20
5003.9201724634
  0
LWPOLYLINE
  5
2F8
330
1F
100
AcDbEntity
  8
0
  6
Continuous
 62
     7
370
    25
100
AcDbPolyline
 90
        3
 70
   128
 43
0.0
 10
5441.7963666729
 20
5003.9201724634
 10
5442.1791024929
 20
5004.2864013965
 10
5442.4702903233
 20
5004.4018239888
  0
ARC
  5
2F9
330
1F
100
AcDbEntity
  8
0
  6
Continuous
 62
     7
370
    25
100
AcDbCircle
 10
5442.5150906376
 20
5003.3555366752
 30
0.0
 40
1.047246012584934
100
AcDbArc
 50
31.6363683457
 51
92.4518140566
  0
LWPOLYLINE
  5
2FA
330
1F
100
AcDbEntity
  8
0
  6
Continuous
 62
     7
370
    25
100
AcDbPolyline
 90
        3
 70
   128
 43
0.0
 10
5443.4067097809
 20
5003.9048448894
 10
5443.4699059015
 20
5003.8212240928
 10
5443.5192111163
 20
5003.7556756783
  0
LWPOLYLINE
  5
2FB
330
1F
100
AcDbEntity
  8
0
  6
Continuous
 62
     7
370
    25
100
AcDbPolyline
 90
        3
 70
   128
 43
0.0
 10
5443.5192111163
 20
5003.7556756783
 10
5443.5975193248
 20
5003.7913732734
 10
5443.6546881899
 20
5003.8191517847
  0
LWPOLYLINE
  5
2FC
330
1F
100
AcDbEntity
  8
0
  6
Continuous
 62
     7
370
    25
100
AcDbPolyline
 90
        3
 70
   128
 43
0.0
 10
5443.6546881899
 20
5003.8191517847
 10
5443.7244132157
 20
5003.8494879427
 10
5443.7749734344
 20
5003.868815263
  0
LWPOLYLINE
  5
2FD
330
1F
100
AcDbEntity
  8
0
  6
Continuous
 62
     7
370
    25
100
AcDbPolyline
 90
        3
 70
   128
 43
0.0
 10
5443.7749734344
 20
5003.868815263
 10
5444.0052741523
 20
5003.9560821122
 10
5444.1859718034
 20
5004.0103120512
  0
LWPOLYLINE
  5
2FE
330
1F
100
AcDbEntity
  8
0
  6
Continuous
 62
     7
370
    25
100
AcDbPolyline
 90
        3
 70
   128
 43
0.0
 10
5444.1859718034
 20
5004.0103120512
 10
5444.8721428321
 20
5004.0998911957
 10
5445.4339932817
 20
5004.0378210595
  0
LWPOLYLINE
  5
2FF
330
1F
100
AcDbEntity
  8
0
  6
Continuous
 62
     7
370
    25
100
AcDbPolyline
 90
        3
 70
   128
 43
0.0
 10
5445.4339932817
 20
5004.0378210595
 10
5444.7037973235
 20
5003.9338108435
 10
5444.1857690758
 20
5003.755236927
  0
LWPOLYLINE
  5
300
330
1F
100
AcDbEntity
  8
0
  6
Continuous
 62
     7
370
    25
100
AcDbPolyline
 90
        3
 70
   128
 43
0.0
 10
5444.1857690758
 20
5003.755236927
 10
5443.9530195163
 20
5003.6426634345
 10
5443.7746157569
 20
5003.5495926479
  0
LWPOLYLINE
  5
301
330
1F
100
AcDbEntity
  8
0
  6
Continuous
 62
     7
370
    25
100
AcDbPolyline
 90
        3
 70
   128
 43
0.0
 10
5443.7746157569
 20
5003.5495926479
 10
5443.7094366351
 20
5003.5035184358
 10
5443.6542634397
 20
5003.472161781
  0
LWPOLYLINE
  5
302
330
1F
100
AcDbEntity
  8
0
  6
Continuous
 62
     7
370
    25
100
AcDbPolyline
 90
        3
 70
   128
 43
0.0
 10
5443.6542634397
 20
5003.472161781
 10
5443.5151910519
 20
5003.3767654695
 10
5443.4060804722
 20
5003.3020218427
  0
ARC
  5
303
330
1F
100
AcDbEntity
  8
0
  6
Continuous
 62
     7
370
    25
100
AcDbCircle
 10
5442.7974880735
 20
5004.0069527031
 30
0.0
 40
0.9312959925596743
100
AcDbArc
 50
262.8985040418
 51
310.8052348463
  0
LWPOLYLINE
  5
304
330
1F
100
AcDbEntity
  8
0
  6
Continuous
 62
     7
370
    25
100
AcDbPolyline
 90
       12
 70
   128
 43
0.0
 10
5442.6823543845
 20
5003.0828009518
 10
5442.668477639
 20
5003.0857530209
 10
5442.6562152409
 20
5003.0940781792
 10
5442.6456680827
 20
5003.1070085034
 10
5442.6369370572
 20
5003.1237760697
 10
5442.6253269744
 20
5003.1657512347
 10
5442.6221921338
 20
5003.2138602856
 10
5442.6283396765
 20
5003.2619598338
 10
5442.6445767436
 20
5003.3039064908
 10
5442.6717104763
 20
5003.3335568679
 10
5442.6896158238
 20
5003.3418511426
 10
5442.7105480156
 20
5003.3447675765
  0
LINE
  5
305
330
1F
100
AcDbEntity
  8
0
  6
Continuous
 62
     7
370
    25
100
AcDbLine
 10
5442.7105480156
 20
5003.3447675765
 30
0.0
 11
5442.873845731
 21
5003.3446487353
 31
0.0
  0
ARC
  5
306
330
1F
100
AcDbEntity
  8
0
  6
Continuous
 62
     7
370
    25
100
AcDbCircle
 10
5442.8762615401
 20
5003.4421189609
 30
0.0
 40
0.0975001590146654
100
AcDbArc
 50
268.5802091591
 51
352.8105468351
  0
ARC
  5
307
330
1F
100
AcDbEntity
  8
0
  6
Continuous
 62
     7
370
    25
100
AcDbCircle
 10
5442.8752158504
 20
5003.4165720349
 30
0.0
 40
0.0986857078580411
100
AcDbArc
 50
7.7715997921
 51
90.7162535469
  0
LINE
  5
308
330
1F
100
AcDbEntity
  8
0
  6
Continuous
 62
     7
370
    25
100
AcDbLine
 10
5442.8739822142
 20
5003.5152500318
 30
0.0
 11
5442.4695275197
 21
5003.515537981
 31
0.0
  0
LINE
  5
309
330
1F
100
AcDbEntity
  8
0
  6
Continuous
 62
     7
370
    25
100
AcDbLine
 10
5442.4695275197
 20
5003.515537981
 30
0.0
 11
5442.2217558102
 21
5003.5156541649
 31
0.0
  0
ARC
  5
30A
330
1F
100
AcDbEntity
  8
0
  6
Continuous
 62
     7
370
    25
100
AcDbCircle
 10
5442.2268950483
 20
5003.4086527814
 30
0.0
 40
0.1071247302882366
100
AcDbArc
 50
92.7497826346
 51
168.1433240342
  0
ARC
  5
30B
330
1F
100
AcDbEntity
  8
0
  6
Continuous
 62
     7
370
    25
100
AcDbCircle
 10
5442.2139536209
 20
5003.4368383146
 30
0.0
 40
0.0921050008226081
100
AcDbArc
 50
183.8443123893
 51
274.7741301054
  0
LINE
  5
30C
330
1F
100
AcDbEntity
  8
0
  6
Continuous
 62
     7
370
    25
100
AcDbLine
 10
5442.221619327
 20
5003.3450528684
 30
0.0
 11
5442.3777512646
 21
5003.3449513363
 31
0.0
  0
LWPOLYLINE
  5
30D
330
1F
100
AcDbEntity
  8
0
  6
Continuous
 62
     7
370
    25
100
AcDbPolyline
 90
       11
 70
   128
 43
0.0
 10
5442.3777512646
 20
5003.3449513363
 10
5442.3951413836
 20
5003.3420849323
 10
5442.4102083775
 20
5003.3339954184
 10
5442.4333753571
 20
5003.305132589
 10
5442.4472569375
 20
5003.2643339044
 10
5442.4518578525
 20
5003.2175704209
 10
5442.4471828359
 20
5003.1708131946
 10
5442.4332366216
 20
5003.130033282
 10
5442.4100239436
 20
5003.1012017391
 10
5442.39494416
 20
5003.0931325615
 10
5442.3775495356
 20
5003.0902896223
  0
LWPOLYLINE
  5
30E
330
1F
100
AcDbEntity
  8
0
  6
Continuous
 62
     7
370
    25
100
AcDbPolyline
 90
        3
 70
   128
 43
0.0
 10
5442.3775495356
 20
5003.0902896223
 10
5442.0671916746
 20
5003.1442610448
 10
5441.79584221
 20
5003.2466555978
  0
LWPOLYLINE
  5
30F
330
1F
100
AcDbEntity
  8
0
  6
Continuous
 62
     7
370
    25
100
AcDbPolyline
 90
        3
 70
   128
 43
0.0
 10
5441.79584221
 20
5003.2466555978
 10
5441.3189392292
 20
5003.486796037
 10
5440.9451376394
 20
5003.6868590179
  0
LWPOLYLINE
  5
310
330
1F
100
AcDbEntity
  8
0
  6
Continuous
 62
     7
370
    25
100
AcDbPolyline
 90
        3
 70
   128
 43
0.0
 10
5440.9451376394
 20
5003.6868590179
 10
5440.6281493299
 20
5003.8472666109
 10
5440.3781579778
 20
5003.9501254942
  0
LWPOLYLINE
  5
311
330
1F
100
AcDbEntity
  8
0
  6
Continuous
 62
     7
370
    25
100
AcDbPolyline
 90
        3
 70
   128
 43
0.0
 10
5440.3801281333
 20
5005.9637849215
 10
5441.1227656428
 20
5006.447316778
 10
5441.7988266768
 20
5006.6500681485
  0
LWPOLYLINE
  5
312
330
1F
100
AcDbEntity
  8
0
  6
Continuous
 62
     7
370
    25
100
AcDbPolyline
 90
        3
 70
   128
 43
0.0
 10
5441.7988266768
 20
5006.6500681485
 10
5442.1632138892
 20
5006.7025601589
 10
5442.4585280888
 20
5006.7206151334
  0
LINE
  5
313
330
1F
100
AcDbEntity
  8
0
  6
Continuous
 62
     7
370
    25
100
AcDbLine
 10
5442.4585280888
 20
5006.7206151334
 30
0.0
 11
5442.4725840374
 21
5006.7205811809
 31
0.0
  0
LWPOLYLINE
  5
314
330
1F
100
AcDbEntity
  8
0
  6
Continuous
 62
     7
370
    25
100
AcDbPolyline
 90
        3
 70
   128
 43
0.0
 10
5442.4725840374
 20
5006.7205811809
 10
5443.0051726287
 20
5006.6861200248
 10
5443.4090494532
 20
5006.5849246391
  0
LWPOLYLINE
  5
315
330
1F
100
AcDbEntity
  8
0
  6
Continuous
 62
     7
370
    25
100
AcDbPolyline
 90
        3
 70
   128
 43
0.0
 10
5443.4090494532
 20
5006.5849246391
 10
5443.5505188887
 20
5006.5359483624
 10
5443.6568734154
 20
5006.4923416964
  0
LWPOLYLINE
  5
316
330
1F
100
AcDbEntity
  8
0
  6
Continuous
 62
     7
370
    25
100
AcDbPolyline
 90
        3
 70
   128
 43
0.0
 10
5443.6568734154
 20
5006.4923416964
 10
5443.7267673394
 20
5006.4631222984
 10
5443.7774528998
 20
5006.435619605
  0
LWPOLYLINE
  5
317
330
1F
100
AcDbEntity
  8
0
  6
Continuous
 62
     7
370
    25
100
AcDbPolyline
 90
        3
 70
   128
 43
0.0
 10
5443.7774528998
 20
5006.435619605
 10
5444.012807168
 20
5006.3162501036
 10
5444.1881118953
 20
5006.2084220184
  0
LWPOLYLINE
  5
318
330
1F
100
AcDbEntity
  8
0
  6
Continuous
 62
     7
370
    25
100
AcDbPolyline
 90
        3
 70
   128
 43
0.0
 10
5444.1874666052
 20
5005.54193346
 10
5443.9601395148
 20
5005.6479014896
 10
5443.7767047537
 20
5005.7265497905
  0
LWPOLYLINE
  5
319
330
1F
100
AcDbEntity
  8
0
  6
Continuous
 62
     7
370
    25
100
AcDbPolyline
 90
        3
 70
   128
 43
0.0
 10
5443.7767047537
 20
5005.7265497905
 10
5443.7233513375
 20
5005.7504007752
 10
5443.6774503472
 20
5005.7689576338
  0
LINE
  5
31A
330
1F
100
AcDbEntity
  8
0
  6
Continuous
 62
     7
370
    25
100
AcDbLine
 10
5443.6774503472
 20
5005.7689576338
 30
0.0
 11
5443.6561778586
 21
5005.7479938742
 31
0.0
  0
LWPOLYLINE
  5
31B
330
1F
100
AcDbEntity
  8
0
  6
Continuous
 62
     7
370
    25
100
AcDbPolyline
 90
        3
 70
   128
 43
0.0
 10
5443.6561778586
 20
5005.7479938742
 10
5443.5196624492
 20
5005.6248350585
 10
5443.40791001
 20
5005.5427140645
  0
LWPOLYLINE
  5
31C
330
1F
100
AcDbEntity
  8
0
  6
Continuous
 62
     7
370
    25
100
AcDbPolyline
 90
        3
 70
   128
 43
0.0
 10
5443.40791001
 20
5005.5427140645
 10
5442.976384086
 20
5005.3544057263
 10
5442.5565435059
 20
5005.3095387553
  0
LINE
  5
31D
330
1F
100
AcDbEntity
  8
0
  6
Continuous
 62
     7
370
    25
100
AcDbLine
 10
5442.5565435059
 20
5005.3095387553
 30
0.0
 11
5442.4712598339
 21
5005.3166349712
 31
0.0
  0
LWPOLYLINE
  5
31E
330
1F
100
AcDbEntity
  8
0
  6
Continuous
 62
     7
370
    25
100
AcDbPolyline
 90
        3
 70
   128
 43
0.0
 10
5442.4712598339
 20
5005.3166349712
 10
5442.0728662429
 20
5005.4053037655
 10
5441.7978087228
 20
5005.5440539259
  0
LWPOLYLINE
  5
31F
330
1F
100
AcDbEntity
  8
0
  6
Continuous
 62
     7
370
    25
100
AcDbPolyline
 90
        3
 70
   128
 43
0.0
 10
5441.7978087228
 20
5005.5440539259
 10
5441.5744507837
 20
5005.7085507809
 10
5441.436378505
 20
5005.8418261647
  0
LWPOLYLINE
  5
320
330
1F
100
AcDbEntity
  8
0
  6
Continuous
 62
     7
370
    25
100
AcDbPolyline
 90
        3
 70
   128
 43
0.0
 10
5441.436378505
 20
5005.8418261647
 10
5440.8781999655
 20
5005.5648836181
 10
5440.3793462012
 20
5005.2407280602
  0
LWPOLYLINE
  5
321
330
1F
100
AcDbEntity
  8
0
  6
Continuous
 62
     7
370
    25
100
AcDbPolyline
 90
        3
 70
   128
 43
0.0
 10
5440.3793462012
 20
5005.2407280602
 10
5439.8973229304
 20
5004.8686980006
 10
5439.513894759
 20
5004.5391902248
  0
LWPOLYLINE
  5
322
330
1F
100
AcDbEntity
  8
0
  6
Continuous
 62
     7
370
    25
100
AcDbPolyline
 90
        3
 70
   128
 43
0.0
 10
5439.513894759
 20
5004.5391902248
 10
5439.93669509
 20
5005.4390234199
 10
5440.3801281333
 20
5005.9637849215
  0
LWPOLYLINE
  5
323
330
1F
100
AcDbEntity
  8
0
  6
Continuous
 62
     7
370
    25
100
AcDbPolyline
 90
        3
 70
   128
 43
0.0
 10
5445.3566751243
 20
5004.7182783627
 10
5444.810192123
 20
5005.1827128241
 10
5444.1874666052
 20
5005.54193346
  0
LWPOLYLINE
  5
324
330
1F
100
AcDbEntity
  8
0
  6
Continuous
 62
     7
370
    25
100
AcDbPolyline
 90
        3
 70
   128
 43
0.0
 10
5444.1881118953
 20
5006.2084220184
 10
5444.9963054224
 20
5005.4424592495
 10
5445.3566751243
 20
5004.7182783627
  0
LWPOLYLINE
  5
325
330
1F
100
AcDbEntity
  8
0
  6
Continuous
 62
     7
370
    25
100
AcDbPolyline
 90
        3
 70
   128
 43
0.0
 10
5444.7941569305
 20
5002.4357388748
 10
5445.1169155658
 20
5002.0290358437
 10
5445.2687633389
 20
5001.7547353247
  0
LWPOLYLINE
  5
326
330
1F
100
AcDbEntity
  8
0
  6
Continuous
 62
     7
370
    25
100
AcDbPolyline
 90
        3
 70
   128
 43
0.0
 10
5445.2687633389
 20
5001.7547353247
 10
5444.6500897722
 20
5001.5780804172
 10
5444.1839212341
 20
5001.5640164649
  0
LWPOLYLINE
  5
327
330
1F
100
AcDbEntity
  8
0
  6
Continuous
 62
     7
370
    25
100
AcDbPolyline
 90
        3
 70
   128
 43
0.0
 10
5444.1839212341
 20
5001.5640164649
 10
5443.9483259122
 20
5001.5871706004
 10
5443.7731101106
 20
5001.6141359943
  0
LWPOLYLINE
  5
328
330
1F
100
AcDbEntity
  8
0
  6
Continuous
 62
     7
370
    25
100
AcDbPolyline
 90
        3
 70
   128
 43
0.0
 10
5443.7731101106
 20
5001.6141359943
 10
5443.7197177963
 20
5001.6218835935
 10
5443.6737879656
 20
5001.6285008421
  0
LWPOLYLINE
  5
329
330
1F
100
AcDbEntity
  8
0
  6
Continuous
 62
     7
370
    25
100
AcDbPolyline
 90
        3
 70
   128
 43
0.0
 10
5443.6737879656
 20
5001.6285008421
 10
5443.7240453268
 20
5001.8928516039
 10
5443.77358613
 20
5002.0964496196
  0
LWPOLYLINE
  5
32A
330
1F
100
AcDbEntity
  8
0
  6
Continuous
 62
     7
370
    25
100
AcDbPolyline
 90
        3
 70
   128
 43
0.0
 10
5443.77358613
 20
5002.0964496196
 10
5443.8223288859
 20
5002.2445244763
 10
5443.8656012176
 20
5002.3659102163
  0
LWPOLYLINE
  5
32B
330
1F
100
AcDbEntity
  8
0
  6
Continuous
 62
     7
370
    25
100
AcDbPolyline
 90
        3
 70
   128
 43
0.0
 10
5443.8656012176
 20
5002.3659102163
 10
5444.0465189692
 20
5002.3603568098
 10
5444.1846171275
 20
5002.3655530381
  0
LWPOLYLINE
  5
32C
330
1F
100
AcDbEntity
  8
0
  6
Continuous
 62
     7
370
    25
100
AcDbPolyline
 90
        3
 70
   128
 43
0.0
 10
5444.1846171275
 20
5002.3655530381
 10
5444.51256195
 20
5002.3946540854
 10
5444.7941569305
 20
5002.4357388748
  0
LWPOLYLINE
  5
32D
330
1F
100
AcDbEntity
  8
0
  6
Continuous
 62
     7
370
    25
100
AcDbPolyline
 90
        5
 70
   128
 43
0.0
 10
5444.5657414263
 20
4991.618804342
 10
5444.4520357795
 20
4991.6341542256
 10
5444.3502296983
 20
4991.686353543
 10
5444.2159594086
 20
4991.8699278435
 10
5444.1424080929
 20
4992.321304342
  0
LWPOLYLINE
  5
32E
330
1F
100
AcDbEntity
  8
0
  6
Continuous
 62
     7
370
    25
100
AcDbPolyline
 90
        5
 70
   128
 43
0.0
 10
5444.1424080929
 20
4992.321304342
 10
5444.2783646386
 20
4993.0793624935
 10
5444.4873109007
 20
4993.4017328615
 10
5444.6491766744
 20
4993.5061009718
 10
5444.8390747596
 20
4993.538804342
  0
LWPOLYLINE
  5
32F
330
1F
100
AcDbEntity
  8
0
  6
Continuous
 62
     7
370
    25
100
AcDbPolyline
 90
        5
 70
   128
 43
0.0
 10
5445.2624080929
 20
4992.8304710087
 10
5445.1255046113
 20
4992.0747054577
 10
5444.9180275113
 20
4991.7527463329
 10
5444.7553653141
 20
4991.650523909
 10
5444.5657414263
 20
4991.618804342
  0
LWPOLYLINE
  5
330
330
1F
100
AcDbEntity
  8
0
  6
Continuous
 62
     7
370
    25
100
AcDbPolyline
 90
        5
 70
   128
 43
0.0
 10
5444.8390747596
 20
4993.538804342
 10
5444.952942204
 20
4993.5225469357
 10
5445.0537803482
 20
4993.4677643697
 10
5445.1878165435
 20
4993.2830532669
 10
5445.2624080929
 20
4992.8304710087
  0
LWPOLYLINE
  5
331
330
1F
100
AcDbEntity
  8
0
  6
Continuous
 62
     7
370
    25
100
AcDbPolyline
 90
        3
 70
   128
 43
0.0
 10
5443.657553823
 20
5007.1733685153
 10
5443.7273825312
 20
5007.2129935123
 10
5443.7780276332
 20
5007.2440466819
  0
LWPOLYLINE
  5
332
330
1F
100
AcDbEntity
  8
0
  6
Continuous
 62
     7
370
    25
100
AcDbPolyline
 90
        3
 70
   128
 43
0.0
 10
5443.7780276332
 20
5007.2440466819
 10
5444.0106778895
 20
5007.3627411971
 10
5444.1891634765
 20
5007.4424562816
  0
LWPOLYLINE
  5
333
330
1F
100
AcDbEntity
  8
0
  6
Continuous
 62
     7
370
    25
100
AcDbPolyline
 90
        3
 70
   128
 43
0.0
 10
5444.1888717143
 20
5007.2646206385
 10
5443.9509125217
 20
5007.0838258177
 10
5443.7776874313
 20
5006.9320587463
  0
LWPOLYLINE
  5
334
330
1F
100
AcDbEntity
  8
0
  6
Continuous
 62
     7
370
    25
100
AcDbPolyline
 90
        3
 70
   128
 43
0.0
 10
5443.7776874313
 20
5006.9320587463
 10
5443.7100690871
 20
5006.8646601672
 10
5443.6572304272
 20
5006.8112887046
  0
LWPOLYLINE
  5
335
330
1F
100
AcDbEntity
  8
0
  6
Continuous
 62
     7
370
    25
100
AcDbPolyline
 90
        3
 70
   128
 43
0.0
 10
5443.6572304272
 20
5006.8112887046
 10
5443.5732801766
 20
5006.7203499548
 10
5443.5077330143
 20
5006.6484896211
  0
LWPOLYLINE
  5
336
330
1F
100
AcDbEntity
  8
0
  6
Continuous
 62
     7
370
    25
100
AcDbPolyline
 90
        3
 70
   128
 43
0.0
 10
5443.5077330143
 20
5006.6484896211
 10
5443.4549918724
 20
5006.6682404544
 10
5443.4091506487
 20
5006.6838678257
  0
LWPOLYLINE
  5
337
330
1F
100
AcDbEntity
  8
0
  6
Continuous
 62
     7
370
    25
100
AcDbPolyline
 90
        3
 70
   128
 43
0.0
 10
5443.4091506487
 20
5006.6838678257
 10
5443.2407297885
 20
5006.7348060518
 10
5443.1037082146
 20
5006.7696997362
  0
LWPOLYLINE
  5
338
330
1F
100
AcDbEntity
  8
0
  6
Continuous
 62
     7
370
    25
100
AcDbPolyline
 90
        3
 70
   128
 43
0.0
 10
5443.1037082146
 20
5006.7696997362
 10
5443.2750211009
 20
5006.9068906243
 10
5443.4093878318
 20
5007.0102565513
  0
LWPOLYLINE
  5
339
330
1F
100
AcDbEntity
  8
0
  6
Continuous
 62
     7
370
    25
100
AcDbPolyline
 90
        3
 70
   128
 43
0.0
 10
5443.4093878318
 20
5007.0102565513
 10
5443.5478456441
 20
5007.1042510197
 10
5443.657553823
 20
5007.1733685153
  0
LWPOLYLINE
  5
33A
330
1F
100
AcDbEntity
  8
0
  6
Continuous
 62
     7
370
    25
100
AcDbPolyline
 90
        3
 70
   128
 43
0.0
 10
5444.1891634765
 20
5007.4424562816
 10
5444.5217615306
 20
5007.5605177771
 10
5444.7778928073
 20
5007.6258985544
  0
LWPOLYLINE
  5
33B
330
1F
100
AcDbEntity
  8
0
  6
Continuous
 62
     7
370
    25
100
AcDbPolyline
 90
        3
 70
   128
 43
0.0
 10
5444.7778928073
 20
5007.6258985544
 10
5444.4348321752
 20
5007.4341252461
 10
5444.1888717143
 20
5007.2646206385
  0
LWPOLYLINE
  5
33C
330
1F
100
AcDbEntity
  8
0
  6
Continuous
 62
     7
370
    25
100
AcDbPolyline
 90
        3
 70
   128
 43
0.0
 10
5442.5338693846
 20
4995.6945106785
 10
5442.4824327567
 20
4997.3074638623
 10
5442.4724553503
 20
4998.5662922947
  0
LINE
  5
33D
330
1F
100
AcDbEntity
  8
0
  6
Continuous
 62
     7
370
    25
100
AcDbLine
 10
5442.4724553503
 20
4998.5662922947
 30
0.0
 11
5442.4651692409
 21
4998.5164936684
 31
0.0
  0
LWPOLYLINE
  5
33E
330
1F
100
AcDbEntity
  8
0
  6
Continuous
 62
     7
370
    25
100
AcDbPolyline
 90
        3
 70
   128
 43
0.0
 10
5442.4651692409
 20
4998.5164936684
 10
5442.374868722
 20
4997.019162969
 10
5442.4133088699
 20
4995.702036617
  0
LWPOLYLINE
  5
33F
330
1F
100
AcDbEntity
  8
0
  6
Continuous
 62
     7
370
    25
100
AcDbPolyline
 90
        3
 70
   128
 43
0.0
 10
5442.4133088699
 20
4995.702036617
 10
5442.1470082297
 20
4995.7208833121
 10
5441.9166618621
 20
4995.7588402835
  0
ARC
  5
340
330
1F
100
AcDbEntity
  8
0
  6
Continuous
 62
     7
370
    25
100
AcDbCircle
 10
5404.5959456781
 20
4997.7395284782
 30
0.0
 40
37.37323885100179
100
AcDbArc
 50
356.9620437042
 51
5.5493622119
  0
ARC
  5
341
330
1F
100
AcDbEntity
  8
0
  6
Continuous
 62
     7
370
    25
100
AcDbCircle
 10
5438.1666133471
 20
5001.3327520831
 30
0.0
 40
3.627472488639273
100
AcDbArc
 50
0.3299792458
 51
36.1882171831
  0
ARC
  5
342
330
1F
100
AcDbEntity
  8
0
  6
Continuous
 62
     7
370
    25
100
AcDbCircle
 10
5440.5020071438
 20
5001.5592553178
 30
0.0
 40
2.004785168117611
100
AcDbArc
 50
49.8101007465
 51
72.8166948782
  0
LWPOLYLINE
  5
343
330
1F
100
AcDbEntity
  8
0
  6
Continuous
 62
     7
370
    25
100
AcDbPolyline
 90
        3
 70
   128
 43
0.0
 10
5441.7957411772
 20
5003.0907303653
 10
5442.1787475305
 20
5002.869737736
 10
5442.4688482734
 20
5002.7779425263
  0
LINE
  5
344
330
1F
100
AcDbEntity
  8
0
  6
Continuous
 62
     7
370
    25
100
AcDbLine
 10
5442.4688482734
 20
5002.7779425263
 30
0.0
 11
5442.5188547699
 21
5002.7711382297
 31
0.0
  0
ARC
  5
345
330
1F
100
AcDbEntity
  8
0
  6
Continuous
 62
     7
370
    25
100
AcDbCircle
 10
5442.3107198022
 20
5004.4279912825
 30
0.0
 40
1.669874906525317
100
AcDbArc
 50
277.1600275581
 51
310.9897665288
  0
LWPOLYLINE
  5
346
330
1F
100
AcDbEntity
  8
0
  6
Continuous
 62
     7
370
    25
100
AcDbPolyline
 90
        3
 70
   128
 43
0.0
 10
5443.4060312003
 20
5003.1675250415
 10
5443.5475807778
 20
5003.2611665654
 10
5443.6541960265
 20
5003.3301546936
  0
LWPOLYLINE
  5
347
330
1F
100
AcDbEntity
  8
0
  6
Continuous
 62
     7
370
    25
100
AcDbPolyline
 90
        3
 70
   128
 43
0.0
 10
5443.6541960265
 20
5003.3301546936
 10
5443.7239496542
 20
5003.3723317415
 10
5443.7745331983
 20
5003.401315505
  0
LWPOLYLINE
  5
348
330
1F
100
AcDbEntity
  8
0
  6
Continuous
 62
     7
370
    25
100
AcDbPolyline
 90
        3
 70
   128
 43
0.0
 10
5443.8735782423
 20
5003.4433821553
 10
5443.8204656944
 20
5003.3902409824
 10
5443.7745318631
 20
5003.3437133437
  0
LWPOLYLINE
  5
349
330
1F
100
AcDbEntity
  8
0
  6
Continuous
 62
     7
370
    25
100
AcDbPolyline
 90
        3
 70
   128
 43
0.0
 10
5443.7745318631
 20
5003.3437133437
 10
5443.7068280523
 20
5003.2594877571
 10
5443.6539913092
 20
5003.1883546442
  0
LWPOLYLINE
  5
34A
330
1F
100
AcDbEntity
  8
0
  6
Continuous
 62
     7
370
    25
100
AcDbPolyline
 90
        3
 70
   128
 43
0.0
 10
5443.6539913092
 20
5003.1883546442
 10
5443.5066343181
 20
5002.9462187094
 10
5443.4056577041
 20
5002.7276548688
  0
ARC
  5
34B
330
1F
100
AcDbEntity
  8
0
  6
Continuous
 62
     7
370
    25
100
AcDbCircle
 10
5462.60667401
 20
4998.23592569
 30
0.0
 40
19.71939801807451
100
AcDbArc
 50
166.8334604063
 51
187.238474681
  0
LWPOLYLINE
  5
34C
330
1F
100
AcDbEntity
  8
0
  6
Continuous
 62
     7
370
    25
100
AcDbPolyline
 90
        3
 70
   128
 43
0.0
 10
5443.0444333799
 20
4995.7512929757
 10
5442.7928942878
 20
4995.7091194239
 10
5442.5338693846
 20
4995.6945106785
  0
LWPOLYLINE
  5
34D
330
1F
100
AcDbEntity
  8
0
  6
Continuous
 62
     7
370
    25
100
AcDbPolyline
 90
        3
 70
   128
 43
0.0
 10
5443.7745331983
 20
5003.401315505
 10
5443.8325965874
 20
5003.4276556137
 10
5443.8735782423
 20
5003.4433821553
  0
ARC
  5
34E
330
1F
100
AcDbEntity
  8
0
  6
Continuous
 62
     7
370
    25
100
AcDbCircle
 10
5443.3985307377
 20
5004.5794829357
 30
0.0
 40
0.2422855740750846
100
AcDbArc
 50
271.9861061608
 51
359.6340233769
  0
LINE
  5
34F
330
1F
100
AcDbEntity
  8
0
  6
Continuous
 62
     7
370
    25
100
AcDbLine
 10
5443.4069276652
 20
5004.3373429122
 30
0.0
 11
5443.3993481444
 21
5004.3372234165
 31
0.0
  0
ARC
  5
350
330
1F
100
AcDbEntity
  8
0
  6
Continuous
 62
     7
370
    25
100
AcDbCircle
 10
5443.4035043714
 20
5004.5754595088
 30
0.0
 40
0.2382723439837697
100
AcDbArc
 50
179.2940902798
 51
269.000528804
  0
ARC
  5
351
330
1F
100
AcDbEntity
  8
0
  6
Continuous
 62
     7
370
    25
100
AcDbCircle
 10
5443.4025453683
 20
5004.5819570086
 30
0.0
 40
0.2373219890572324
100
AcDbArc
 50
90.6904172558
 51
180.859981287
  0
LINE
  5
352
330
1F
100
AcDbEntity
  8
0
  6
Continuous
 62
     7
370
    25
100
AcDbLine
 10
5443.3996856946
 20
5004.8192617678
 30
0.0
 11
5443.4072652155
 21
5004.8193812635
 31
0.0
  0
ARC
  5
353
330
1F
100
AcDbEntity
  8
0
  6
Continuous
 62
     7
370
    25
100
AcDbCircle
 10
5443.4068307666
 20
5004.5852856411
 30
0.0
 40
0.2340960255139607
100
AcDbArc
 50
358.2006955874
 51
89.8936671494
  0
LWPOLYLINE
  5
354
330
1F
100
AcDbEntity
  8
0
  6
Continuous
 62
     7
370
    25
100
AcDbPolyline
 90
       11
 70
   128
 43
0.0
 10
5443.4845071757
 20
5004.5638432689
 10
5443.4823201247
 20
5004.5915231165
 10
5443.4729823897
 20
5004.6141779419
 10
5443.4579222506
 20
5004.6318062092
 10
5443.4277268957
 20
5004.6488204533
 10
5443.3926902043
 20
5004.6545163009
 10
5443.35763262
 20
5004.6488885678
 10
5443.3273745867
 20
5004.6319320695
 10
5443.3122494477
 20
5004.6143314188
 10
5443.3028281415
 20
5004.591691921
 10
5443.3005389478
 20
5004.5640120403
  0
LWPOLYLINE
  5
355
330
1F
100
AcDbEntity
  8
0
  6
Continuous
 62
     7
370
    25
100
AcDbPolyline
 90
       11
 70
   128
 43
0.0
 10
5443.3005389478
 20
5004.5640120403
 10
5443.3027893113
 20
5004.5363952001
 10
5443.3121788473
 20
5004.513791926
 10
5443.3272792762
 20
5004.4962037543
 10
5443.3575134819
 20
5004.4792281738
 10
5443.3925631236
 20
5004.4735452141
 10
5443.4276077576
 20
5004.4791600593
 10
5443.4578269401
 20
5004.496077894
 10
5443.4729117894
 20
5004.5136384492
 10
5443.4822812945
 20
5004.5362263955
 10
5443.4845071757
 20
5004.5638432689
  0
LWPOLYLINE
  5
356
330
1F
100
AcDbEntity
  8
0
  6
Continuous
 62
     7
370
    25
100
AcDbPolyline
 90
        5
 70
   128
 43
0.0
 10
5442.1124080929
 20
4991.618804342
 10
5441.9987024461
 20
4991.6341542256
 10
5441.8968963649
 20
4991.686353543
 10
5441.7626260753
 20
4991.8699278435
 10
5441.6890747596
 20
4992.321304342
  0
LWPOLYLINE
  5
357
330
1F
100
AcDbEntity
  8
0
  6
Continuous
 62
     7
370
    25
100
AcDbPolyline
 90
        5
 70
   128
 43
0.0
 10
5441.6890747596
 20
4992.321304342
 10
5441.8250313053
 20
4993.0793624935
 10
5442.0339775673
 20
4993.4017328615
 10
5442.1958433411
 20
4993.5061009718
 10
5442.3857414263
 20
4993.538804342
  0
LWPOLYLINE
  5
358
330
1F
100
AcDbEntity
  8
0
  6
Continuous
 62
     7
370
    25
100
AcDbPolyline
 90
        5
 70
   128
 43
0.0
 10
5442.3857414263
 20
4993.538804342
 10
5442.4996088707
 20
4993.5225469357
 10
5442.6004470148
 20
4993.4677643697
 10
5442.7344832102
 20
4993.2830532669
 10
5442.8090747596
 20
4992.8304710087
  0
LWPOLYLINE
  5
359
330
1F
100
AcDbEntity
  8
0
  6
Continuous
 62
     7
370
    25
100
AcDbPolyline
 90
        5
 70
   128
 43
0.0
 10
5442.8090747596
 20
4992.8304710087
 10
5442.6721712779
 20
4992.0747054577
 10
5442.464694178
 20
4991.7527463329
 10
5442.3020319808
 20
4991.650523909
 10
5442.1124080929
 20
4991.618804342
  0
ARC
  5
35A
330
1F
100
AcDbEntity
  8
0
  6
Continuous
 62
     7
370
    25
100
AcDbCircle
 10
5441.7976329521
 20
5004.5714777638
 30
0.0
 40
0.2422158743618779
100
AcDbArc
 50
90.1149626272
 51
178.0140246826
  0
ARC
  5
35B
330
1F
100
AcDbEntity
  8
0
  6
Continuous
 62
     7
370
    25
100
AcDbCircle
 10
5441.7971345838
 20
5004.5727255215
 30
0.0
 40
0.2409676294895888
100
AcDbArc
 50
1.553339382
 51
89.9970591605
  0
ARC
  5
35C
330
1F
100
AcDbEntity
  8
0
  6
Continuous
 62
     7
370
    25
100
AcDbCircle
 10
5441.7967921309
 20
5004.5827192078
 30
0.0
 40
0.2412463689937942
100
AcDbArc
 50
180.6762906094
 51
359.1778355008
  0
ARC
  5
35D
330
1F
100
AcDbEntity
  8
0
  6
Continuous
 62
     7
370
    25
100
AcDbCircle
 10
5441.7970350914
 20
5004.5726829392
 30
0.0
 40
0.0854076246089998
100
AcDbArc
 50
355.0425037101
 51
184.8662712949
  0
ARC
  5
35E
330
1F
100
AcDbEntity
  8
0
  6
Continuous
 62
     7
370
    25
100
AcDbCircle
 10
5441.7970235506
 20
5004.5581860326
 30
0.0
 40
0.085396684216705
100
AcDbArc
 50
175.128670557
 51
4.7801044481
  0
LINE
  5
35F
330
1F
100
AcDbEntity
  8
0
  6
Continuous
 62
     7
370
    25
100
AcDbLine
 10
5441.7961346342
 20
4995.7801465638
 30
0.0
 11
5441.7891243019
 21
4995.7874671211
 31
0.0
  0
LWPOLYLINE
  5
360
330
1F
100
AcDbEntity
  8
0
  6
Continuous
 62
     7
370
    25
100
AcDbPolyline
 90
        3
 70
   128
 43
0.0
 10
5441.7891243019
 20
4995.7874671211
 10
5440.8727556627
 20
4996.242165728
 10
5440.3716274816
 20
4996.6826222369
  0
ARC
  5
361
330
1F
100
AcDbEntity
  8
0
  6
Continuous
 62
     7
370
    25
100
AcDbCircle
 10
5443.352820437
 20
4998.6651439615
 30
0.0
 40
3.580210025299829
100
AcDbArc
 50
146.2699313082
 51
213.6242847271
  0
LWPOLYLINE
  5
362
330
1F
100
AcDbEntity
  8
0
  6
Continuous
 62
     7
370
    25
100
AcDbPolyline
 90
        3
 70
   128
 43
0.0
 10
5440.3752928478
 20
5000.6531664163
 10
5440.7954407116
 20
5001.49604398
 10
5440.9936874285
 20
5001.8789570653
  0
ARC
  5
363
330
1F
100
AcDbEntity
  8
0
  6
Continuous
 62
     7
370
    25
100
AcDbCircle
 10
5438.9405850597
 20
5003.0299005337
 30
0.0
 40
2.353699259546837
100
AcDbArc
 50
330.7255560615
 51
357.5244127025
  0
LWPOLYLINE
  5
364
330
1F
100
AcDbEntity
  8
0
  6
Continuous
 62
     7
370
    25
100
AcDbPolyline
 90
        3
 70
   128
 43
0.0
 10
5441.2920876501
 20
5002.9282355377
 10
5441.6708165785
 20
5001.3866692127
 10
5441.7929754269
 20
5000.1201603459
  0
LWPOLYLINE
  5
365
330
1F
100
AcDbEntity
  8
0
  6
Continuous
 62
     7
370
    25
100
AcDbPolyline
 90
        3
 70
   128
 43
0.0
 10
5441.7929754269
 20
5000.1201603459
 10
5441.8145915834
 20
4997.7503326266
 10
5441.7961346342
 20
4995.7801465638
  0
LWPOLYLINE
  5
366
330
1F
100
AcDbEntity
  8
0
  6
Continuous
 62
     7
370
    25
100
AcDbPolyline
 90
        3
 70
   128
 43
0.0
 10
5441.7701446001
 20
5006.7563844855
 10
5441.4999306534
 20
5006.6956570595
 10
5441.3099848629
 20
5006.6292691847
  0
LWPOLYLINE
  5
367
330
1F
100
AcDbEntity
  8
0
  6
Continuous
 62
     7
370
    25
100
AcDbPolyline
 90
        3
 70
   128
 43
0.0
 10
5441.3099848629
 20
5006.6292691847
 10
5440.8367672662
 20
5007.1221178594
 10
5440.3813814435
 20
5007.4524808986
  0
LWPOLYLINE
  5
368
330
1F
100
AcDbEntity
  8
0
  6
Continuous
 62
     7
370
    25
100
AcDbPolyline
 90
        3
 70
   128
 43
0.0
 10
5440.3813814435
 20
5007.4524808986
 10
5440.0838142988
 20
5007.612955668
 10
5439.8363125254
 20
5007.715694449
  0
LWPOLYLINE
  5
369
330
1F
100
AcDbEntity
  8
0
  6
Continuous
 62
     7
370
    25
100
AcDbPolyline
 90
        3
 70
   128
 43
0.0
 10
5439.8363125254
 20
5007.715694449
 10
5440.1157230625
 20
5007.646016935
 10
5440.3813283587
 20
5007.5446031489
  0
LWPOLYLINE
  5
36A
330
1F
100
AcDbEntity
  8
0
  6
Continuous
 62
     7
370
    25
100
AcDbPolyline
 90
        3
 70
   128
 43
0.0
 10
5440.3813283587
 20
5007.5446031489
 10
5441.1245078764
 20
5007.1736605808
 10
5441.7701446001
 20
5006.7563844855
  0
LWPOLYLINE
  5
36B
330
1F
100
AcDbEntity
  8
0
  6
Continuous
 62
     7
370
    25
100
AcDbPolyline
 90
        3
 70
   128
 43
0.0
 10
5439.1624659714
 20
5007.8364538915
 10
5439.8581823542
 20
5007.6365861711
 10
5440.3814170529
 20
5007.3531239689
  0
LWPOLYLINE
  5
36C
330
1F
100
AcDbEntity
  8
0
  6
Continuous
 62
     7
370
    25
100
AcDbPolyline
 90
        3
 70
   128
 43
0.0
 10
5441.0048200178
 20
5006.4877234593
 10
5440.6584284172
 20
5006.8209962143
 10
5440.3811113027
 20
5007.055398687
  0
LWPOLYLINE
  5
36D
330
1F
100
AcDbEntity
  8
0
  6
Continuous
 62
     7
370
    25
100
AcDbPolyline
 90
        3
 70
   128
 43
0.0
 10
5440.3811113027
 20
5007.055398687
 10
5439.8316479177
 20
5007.4155549105
 10
5439.346919494
 20
5007.637845869
  0
LWPOLYLINE
  5
36E
330
1F
100
AcDbEntity
  8
0
  6
Continuous
 62
     7
370
    25
100
AcDbPolyline
 90
        3
 70
   128
 43
0.0
 10
5439.346919494
 20
5007.637845869
 10
5439.5181636949
 20
5006.4416548383
 10
5439.8911534827
 20
5005.545696708
  0
LINE
  5
36F
330
1F
100
AcDbEntity
  8
0
  6
Continuous
 62
     7
370
    25
100
AcDbLine
 10
5439.8911534827
 20
5005.545696708
 30
0.0
 11
5439.8051483315
 21
5005.4252568597
 31
0.0
  0
LWPOLYLINE
  5
370
330
1F
100
AcDbEntity
  8
0
  6
Continuous
 62
     7
370
    25
100
AcDbPolyline
 90
        3
 70
   128
 43
0.0
 10
5439.8051483315
 20
5005.4252568597
 10
5439.2534499241
 20
5006.8139045947
 10
5439.1624659714
 20
5007.8364538915
  0
LWPOLYLINE
  5
371
330
1F
100
AcDbEntity
  8
0
  6
Continuous
 62
     7
370
    25
100
AcDbPolyline
 90
        3
 70
   128
 43
0.0
 10
5440.3814170529
 20
5007.3531239689
 10
5440.872463755
 20
5006.9672249862
 10
5441.2390676936
 20
5006.5937491935
  0
LWPOLYLINE
  5
372
330
1F
100
AcDbEntity
  8
0
  6
Continuous
 62
     7
370
    25
100
AcDbPolyline
 90
        3
 70
   128
 43
0.0
 10
5441.2390676936
 20
5006.5937491935
 10
5441.1048510332
 20
5006.5367596469
 10
5441.0048200178
 20
5006.4877234593
  0
LINE
  5
373
330
1F
100
AcDbEntity
  8
0
  6
Continuous
 62
     7
370
    25
100
AcDbLine
 10
5436.6818097146
 20
5001.4293818795
 30
0.0
 11
5435.7462588186
 21
5001.4301947815
 31
0.0
  0
LINE
  5
374
330
1F
100
AcDbEntity
  8
0
  6
Continuous
 62
     7
370
    25
100
AcDbLine
 10
5435.7462588186
 20
5001.4301947815
 30
0.0
 11
5434.8023020806
 21
5001.4310968902
 31
0.0
  0
LINE
  5
375
330
1F
100
AcDbEntity
  8
0
  6
Continuous
 62
     7
370
    25
100
AcDbLine
 10
5434.8023020806
 20
5001.4310968902
 30
0.0
 11
5434.8032768833
 21
5001.8346541981
 31
0.0
  0
LWPOLYLINE
  5
376
330
1F
100
AcDbEntity
  8
0
  6
Continuous
 62
     7
370
    25
100
AcDbPolyline
 90
        7
 70
   128
 43
0.0
 10
5434.8032768833
 20
5001.8346541981
 10
5434.8425086028
 20
5002.5515774057
 10
5434.9794027
 20
5003.1802917844
 10
5435.0941550346
 20
5003.4317383658
 10
5435.244941237
 20
5003.6253339834
 10
5435.4356340648
 20
5003.7491457185
 10
5435.6701062758
 20
5003.7912406521
  0
LINE
  5
377
330
1F
100
AcDbEntity
  8
0
  6
Continuous
 62
     7
370
    25
100
AcDbLine
 10
5435.6701062758
 20
5003.7912406521
 30
0.0
 11
5435.7478274032
 21
5003.7910529148
 31
0.0
  0
LINE
  5
378
330
1F
100
AcDbEntity
  8
0
  6
Continuous
 62
     7
370
    25
100
AcDbLine
 10
5435.7478274032
 20
5003.7910529148
 30
0.0
 11
5436.0454486659
 21
5003.7762090706
 31
0.0
  0
LWPOLYLINE
  5
379
330
1F
100
AcDbEntity
  8
0
  6
Continuous
 62
     7
370
    25
100
AcDbPolyline
 90
        8
 70
   128
 43
0.0
 10
5436.0454486659
 20
5003.7762090706
 10
5436.1816465649
 20
5003.7686643395
 10
5436.2970898441
 20
5003.7204074445
 10
5436.3934730493
 20
5003.6352947243
 10
5436.5060170375
 20
5003.4469567135
 10
5436.5852076798
 20
5003.1973850027
 10
5436.6664052959
 20
5002.5666010568
 10
5436.6828186362
 20
5001.8470640377
  0
LINE
  5
37A
330
1F
100
AcDbEntity
  8
0
  6
Continuous
 62
     7
370
    25
100
AcDbLine
 10
5436.6828186362
 20
5001.8470640377
 30
0.0
 11
5436.6818097146
 21
5001.4293818795
 31
0.0
  0
LWPOLYLINE
  5
37B
330
1F
100
AcDbEntity
  8
0
  6
Continuous
 62
     7
370
    25
100
AcDbPolyline
 90
        4
 70
   128
 43
0.0
 10
5435.2582414263
 20
4993.538804342
 10
5435.3493802059
 20
4993.5222589357
 10
5435.4178586313
 20
4993.4610808196
 10
5435.4490747596
 20
4993.3196376754
  0
ARC
  5
37C
330
1F
100
AcDbEntity
  8
0
  6
Continuous
 62
     7
370
    25
100
AcDbCircle
 10
5434.2741917674
 20
4993.7323754223
 30
0.0
 40
1.245272055885629
100
AcDbArc
 50
284.5677375686
 51
340.6435661042
  0
ARC
  5
37D
330
1F
100
AcDbEntity
  8
0
  6
Continuous
 62
     7
370
    25
100
AcDbCircle
 10
5434.5838854344
 20
4992.567208677
 30
0.0
 40
0.0402255428432524
100
AcDbArc
 50
171.764013715
 51
275.023980306
  0
ARC
  5
37E
330
1F
100
AcDbEntity
  8
0
  6
Continuous
 62
     7
370
    25
100
AcDbCircle
 10
5435.5833498721
 20
4992.5514542373
 30
0.0
 40
1.03949782630876
100
AcDbArc
 50
108.2253558609
 51
178.813938604
  0
ARC
  5
37F
330
1F
100
AcDbEntity
  8
0
  6
Continuous
 62
     7
370
    25
100
AcDbCircle
 10
5423.8638854344
 20
4992.567208677
 30
0.0
 40
0.0402255428432524
100
AcDbArc
 50
171.7640137152
 51
275.023980306
  0
ARC
  5
380
330
1F
100
AcDbEntity
  8
0
  6
Continuous
 62
     7
370
    25
100
AcDbCircle
 10
5424.8633498721
 20
4992.5514542373
 30
0.0
 40
1.039497826308012
100
AcDbArc
 50
108.2253558609
 51
178.813938604
  0
LWPOLYLINE
  5
381
330
1F
100
AcDbEntity
  8
0
  6
Continuous
 62
     7
370
    25
100
AcDbPolyline
 90
        4
 70
   128
 43
0.0
 10
5424.5382414263
 20
4993.538804342
 10
5424.6293802059
 20
4993.5222589357
 10
5424.6978586313
 20
4993.4610808196
 10
5424.7290747596
 20
4993.3196376754
  0
ARC
  5
382
330
1F
100
AcDbEntity
  8
0
  6
Continuous
 62
     7
370
    25
100
AcDbCircle
 10
5423.5541917674
 20
4993.7323754223
 30
0.0
 40
1.245272055883776
100
AcDbArc
 50
284.5677375685
 51
340.6435661042
  0
LINE
  5
383
330
1F
100
AcDbEntity
  8
0
  6
Continuous
 62
     7
370
    25
100
AcDbLine
 10
5417.7575213414
 20
5001.4666190268
 30
0.0
 11
5416.8289984197
 21
5001.4674149526
 31
0.0
  0
LINE
  5
384
330
1F
100
AcDbEntity
  8
0
  6
Continuous
 62
     7
370
    25
100
AcDbLine
 10
5416.8289984197
 20
5001.4674149526
 30
0.0
 11
5415.8864197159
 21
5001.4683137326
 31
0.0
  0
LINE
  5
385
330
1F
100
AcDbEntity
  8
0
  6
Continuous
 62
     7
370
    25
100
AcDbLine
 10
5415.8864197159
 20
5001.4683137326
 30
0.0
 11
5415.8859510778
 21
5001.8733214715
 31
0.0
  0
LWPOLYLINE
  5
386
330
1F
100
AcDbEntity
  8
0
  6
Continuous
 62
     7
370
    25
100
AcDbPolyline
 90
        7
 70
   128
 43
0.0
 10
5415.8859510778
 20
5001.8733214715
 10
5415.9194441529
 20
5002.5896373453
 10
5416.0585529007
 20
5003.2183905149
 10
5416.1765691395
 20
5003.4699776478
 10
5416.3316164816
 20
5003.6637299794
 10
5416.527237322
 20
5003.7876661347
 10
5416.7669740558
 20
5003.8298047384
  0
LINE
  5
387
330
1F
100
AcDbEntity
  8
0
  6
Continuous
 62
     7
370
    25
100
AcDbLine
 10
5416.7669740558
 20
5003.8298047384
 30
0.0
 11
5416.8318624892
 21
5003.8226199835
 31
0.0
  0
LINE
  5
388
330
1F
100
AcDbEntity
  8
0
  6
Continuous
 62
     7
370
    25
100
AcDbLine
 10
5416.8318624892
 20
5003.8226199835
 30
0.0
 11
5417.1281746194
 21
5003.8077793015
 31
0.0
  0
LWPOLYLINE
  5
389
330
1F
100
AcDbEntity
  8
0
  6
Continuous
 62
     7
370
    25
100
AcDbPolyline
 90
        8
 70
   128
 43
0.0
 10
5417.1281746194
 20
5003.8077793015
 10
5417.2642421753
 20
5003.8018376968
 10
5417.3793347225
 20
5003.7548679412
 10
5417.4752201104
 20
5003.670765672
 10
5417.586901939
 20
5003.483510511
 10
5417.6653118113
 20
5003.2346201525
 10
5417.7461816528
 20
5002.6045249429
 10
5417.7655615659
 20
5001.885662243
  0
LINE
  5
38A
330
1F
100
AcDbEntity
  8
0
  6
Continuous
 62
     7
370
    25
100
AcDbLine
 10
5417.7655615659
 20
5001.885662243
 30
0.0
 11
5417.7575213414
 21
5001.4666190268
 31
0.0
  0
ARC
  5
38B
330
1F
100
AcDbEntity
  8
0
  6
Continuous
 62
     7
370
    25
100
AcDbCircle
 10
5412.3972187678
 20
4992.567208677
 30
0.0
 40
0.0402255428432524
100
AcDbArc
 50
171.764013715
 51
275.023980306
  0
ARC
  5
38C
330
1F
100
AcDbEntity
  8
0
  6
Continuous
 62
     7
370
    25
100
AcDbCircle
 10
5413.3966832054
 20
4992.5514542373
 30
0.0
 40
1.039497826307327
100
AcDbArc
 50
108.2253558609
 51
178.813938604
  0
LWPOLYLINE
  5
38D
330
1F
100
AcDbEntity
  8
0
  6
Continuous
 62
     7
370
    25
100
AcDbPolyline
 90
        4
 70
   128
 43
0.0
 10
5413.0715747596
 20
4993.538804342
 10
5413.1627135392
 20
4993.5222589357
 10
5413.2311919646
 20
4993.4610808196
 10
5413.2624080929
 20
4993.3196376754
  0
ARC
  5
38E
330
1F
100
AcDbEntity
  8
0
  6
Continuous
 62
     7
370
    25
100
AcDbCircle
 10
5412.0875251007
 20
4993.7323754223
 30
0.0
 40
1.245272055887755
100
AcDbArc
 50
284.5677375686
 51
340.6435661041
  0
ARC
  5
38F
330
1F
100
AcDbEntity
  8
0
  6
Continuous
 62
     7
370
    25
100
AcDbCircle
 10
5347.7057429101
 20
4771.9716716725
 30
0.0
 40
2.0
100
AcDbArc
 50
180.0
 51
270.0
  0
LINE
  5
390
330
1F
100
AcDbEntity
  8
0
  6
Continuous
 62
     7
370
    25
100
AcDbLine
 10
5347.7057429101
 20
4771.9716716725
 30
0.0
 11
5345.7057429101
 21
4771.9716716725
 31
0.0
  0
LINE
  5
391
330
1F
100
AcDbEntity
  8
0
  6
Continuous
 62
     7
370
    25
100
AcDbLine
 10
5347.7057429101
 20
5010.9716716725
 30
0.0
 11
5345.7057429101
 21
5010.9716716725
 31
0.0
  0
ARC
  5
392
330
1F
100
AcDbEntity
  8
0
  6
Continuous
 62
     7
370
    25
100
AcDbCircle
 10
5347.7057429101
 20
5010.9716716725
 30
0.0
 40
2.000000000000909
100
AcDbArc
 50
90.0
 51
180.0
  0
LINE
  5
393
330
1F
100
AcDbEntity
  8
0
  6
Continuous
 62
     7
370
    25
100
AcDbLine
 10
5345.7057429101
 20
4771.9716716725
 30
0.0
 11
5345.7057429101
 21
5010.9716716725
 31
0.0
  0
LWPOLYLINE
  5
394
330
1F
100
AcDbEntity
  8
0
  6
Continuous
 62
     7
370
    25
100
AcDbPolyline
 90
        9
 70
   128
 43
0.0
 10
5451.7057429101
 20
4768.777148901
 10
5452.0959235541
 20
4768.7926259201
 10
5452.4711097748
 20
4768.8384622042
 10
5452.8168833761
 20
4768.9128962906
 10
5453.1199564725
 20
4769.0130677192
 10
5453.3686821347
 20
4769.135126958
 10
5453.5535019751
 20
4769.274383339
 10
5453.6673134709
 20
4769.4254853177
 10
5453.7057429101
 20
4769.5826261296
  0
LINE
  5
395
330
1F
100
AcDbEntity
  8
0
  6
Continuous
 62
     7
370
    25
100
AcDbLine
 10
5451.7057429101
 20
4768.777148901
 30
0.0
 11
5451.7057429101
 21
4769.9716716725
 31
0.0
  0
LINE
  5
396
330
1F
100
AcDbEntity
  8
0
  6
Continuous
 62
     7
370
    25
100
AcDbLine
 10
5453.7057429101
 20
4769.5826261296
 30
0.0
 11
5453.7057429101
 21
4771.9716716725
 31
0.0
  0
LINE
  5
397
330
1F
100
AcDbEntity
  8
0
  6
Continuous
 62
     7
370
    25
100
AcDbLine
 10
5347.7057429101
 20
4768.777148901
 30
0.0
 11
5347.7057429101
 21
4769.9716716725
 31
0.0
  0
LWPOLYLINE
  5
398
330
1F
100
AcDbEntity
  8
0
  6
Continuous
 62
     7
370
    25
100
AcDbPolyline
 90
        9
 70
   128
 43
0.0
 10
5347.7057429101
 20
4768.777148901
 10
5347.3155622661
 20
4768.7926259201
 10
5346.9403760454
 20
4768.8384622042
 10
5346.5946024441
 20
4768.9128962906
 10
5346.2915293477
 20
4769.0130677192
 10
5346.0428036855
 20
4769.135126958
 10
5345.8579838451
 20
4769.274383339
 10
5345.7441723493
 20
4769.4254853177
 10
5345.7057429101
 20
4769.5826261296
  0
LINE
  5
399
330
1F
100
AcDbEntity
  8
0
  6
Continuous
 62
     7
370
    25
100
AcDbLine
 10
5345.7057429101
 20
4771.9716716725
 30
0.0
 11
5345.7057429101
 21
4769.5826261296
 31
0.0
  0
LINE
  5
39A
330
1F
100
AcDbEntity
  8
0
  6
Continuous
 62
     7
370
    25
100
AcDbLine
 10
5452.7057429101
 20
4744.9716716725
 30
0.0
 11
5452.7057429101
 21
4745.6369895311
 31
0.0
  0
ELLIPSE
  5
39B
330
1F
100
AcDbEntity
  8
0
  6
Continuous
 62
     7
370
    25
100
AcDbEllipse
 10
5451.7057429101
 20
4749.9376717757
 30
0.0
 11
0.0
 21
4.966000103181614
 31
0.0
210
0.0
220
0.0
230
1.0
 40
0.4027386143
 41
3.394272908731943
 42
3.665191429188218
  0
LINE
  5
39C
330
1F
100
AcDbEntity
  8
0
  6
Continuous
 62
     7
370
    25
100
AcDbLine
 10
5452.2057429101
 20
4745.1293628515
 30
0.0
 11
5452.2057429101
 21
4747.4020901242
 31
0.0
  0
ELLIPSE
  5
39D
330
1F
100
AcDbEntity
  8
0
  6
Continuous
 62
     7
370
    25
100
AcDbEllipse
 10
5451.7057429101
 20
4752.2103990484
 30
0.0
 11
0.0
 21
4.966000103181614
 31
2.842170943040401E-14
210
0.0
220
-5.723259935535403E-15
230
1.0
 40
0.4027386143
 41
3.141592653589793
 42
3.394272908731897
  0
LINE
  5
39E
330
1F
100
AcDbEntity
  8
0
  6
Continuous
 62
     7
370
    25
100
AcDbLine
 10
5451.7057429101
 20
4747.2443989452
 30
0.0
 11
5451.7057429101
 21
4768.777148901
 31
0.0
  0
LINE
  5
39F
330
1F
100
AcDbEntity
  8
0
  6
Continuous
 62
     7
370
    25
100
AcDbLine
 10
5453.7057429101
 20
4744.9716716725
 30
0.0
 11
5452.7057429101
 21
4744.9716716725
 31
0.0
  0
LINE
  5
3A0
330
1F
100
AcDbEntity
  8
0
  6
Continuous
 62
     7
370
    25
100
AcDbLine
 10
5453.7057429101
 20
4769.5826261296
 30
0.0
 11
5453.7057429101
 21
4744.9716716725
 31
0.0
  0
LINE
  5
3A1
330
1F
100
AcDbEntity
  8
0
  6
Continuous
 62
     7
370
    25
100
AcDbLine
 10
5347.7057429101
 20
4747.2443989452
 30
0.0
 11
5451.7057429101
 21
4747.2443989452
 31
0.0
  0
LINE
  5
3A2
330
1F
100
AcDbEntity
  8
0
  6
Continuous
 62
     7
370
    25
100
AcDbLine
 10
5347.7057429101
 20
4768.777148901
 30
0.0
 11
5347.7057429101
 21
4747.2443989452
 31
0.0
  0
LINE
  5
3A3
330
1F
100
AcDbEntity
  8
0
  6
Continuous
 62
     7
370
    25
100
AcDbLine
 10
5347.2057429101
 20
4747.4020901242
 30
0.0
 11
5347.2057429101
 21
4745.1293628515
 31
0.0
  0
ELLIPSE
  5
3A4
330
1F
100
AcDbEntity
  8
0
  6
Continuous
 62
     7
370
    25
100
AcDbEllipse
 10
5347.7057429101
 20
4749.9376717757
 30
0.0
 11
0.0
 21
-4.966000103180704
 31
0.0
210
0.0
220
0.0
230
1.0
 40
0.4027386143
 41
5.759586531581297
 42
6.030505052037546
  0
LINE
  5
3A5
330
1F
100
AcDbEntity
  8
0
  6
Continuous
 62
     7
370
    25
100
AcDbLine
 10
5346.7057429101
 20
4745.6369895311
 30
0.0
 11
5346.7057429101
 21
4744.9716716725
 31
0.0
  0
LINE
  5
3A6
330
1F
100
AcDbEntity
  8
0
  6
Continuous
 62
     7
370
    25
100
AcDbLine
 10
5346.7057429101
 20
4744.9716716725
 30
0.0
 11
5345.7057429101
 21
4744.9716716725
 31
0.0
  0
ELLIPSE
  5
3A7
330
1F
100
AcDbEntity
  8
0
  6
Continuous
 62
     7
370
    25
100
AcDbEllipse
 10
5347.7057429101
 20
4752.2103990484
 30
0.0
 11
0.0
 21
-4.966000103180704
 31
-2.842170943040401E-14
210
0.0
220
-5.723259935536451E-15
230
1.0
 40
0.4027386143
 41
6.030505052037592
 42
6.283185307179586
  0
LINE
  5
3A8
330
1F
100
AcDbEntity
  8
0
  6
Continuous
 62
     7
370
    25
100
AcDbLine
 10
5345.7057429101
 20
4744.9716716725
 30
0.0
 11
5345.7057429101
 21
4769.5826261296
 31
0.0
  0
LINE
  5
3A9
330
1F
100
AcDbEntity
  8
0
  6
Continuous
 62
     7
370
    25
100
AcDbLine
 10
5452.2057429101
 20
4745.9716716725
 30
0.0
 11
5347.2057429101
 21
4745.9716716725
 31
0.0
  0
LWPOLYLINE
  5
3AA
330
1F
100
AcDbEntity
  8
0
  6
Continuous
 62
     7
370
    25
100
AcDbPolyline
 90
        3
 70
   128
 43
0.0
 10
5456.0735120085
 20
4757.4718248243
 10
5456.25974351
 20
4756.8038051165
 10
5456.105903751
 20
4756.2217482484
  0
ARC
  5
3AB
330
1F
100
AcDbEntity
  8
0
  6
Continuous
 62
     7
370
    25
100
AcDbCircle
 10
5451.5722600704
 20
4754.9716716725
 30
0.0
 40
4.702830686702915
100
AcDbArc
 50
344.5846945694
 51
15.4153054308
  0
LWPOLYLINE
  5
3AC
330
1F
100
AcDbEntity
  8
0
  6
Continuous
 62
     7
370
    25
100
AcDbPolyline
 90
        3
 70
   128
 43
0.0
 10
5456.105903751
 20
4753.7215950966
 10
5456.2585104523
 20
4753.0701738269
 10
5456.0735120085
 20
4752.4715185207
  0
ARC
  5
3AD
330
1F
100
AcDbEntity
  8
0
  6
Continuous
 62
     7
370
    25
100
AcDbCircle
 10
5347.8392257497
 20
4754.9716716725
 30
0.0
 40
4.702830686626091
100
AcDbArc
 50
164.5846945692
 51
195.4153054309
  0
LWPOLYLINE
  5
3AE
330
1F
100
AcDbEntity
  8
0
  6
Continuous
 62
     7
370
    25
100
AcDbPolyline
 90
        3
 70
   128
 43
0.0
 10
5343.3379738117
 20
4757.4718248243
 10
5343.1517423101
 20
4756.8038051165
 10
5343.3055820692
 20
4756.2217482484
  0
LWPOLYLINE
  5
3AF
330
1F
100
AcDbEntity
  8
0
  6
Continuous
 62
     7
370
    25
100
AcDbPolyline
 90
        3
 70
   128
 43
0.0
 10
5343.3055820692
 20
4753.7215950966
 10
5343.1529753679
 20
4753.0701738269
 10
5343.3379738117
 20
4752.4715185207
  0
LINE
  5
3B0
330
1F
100
AcDbEntity
  8
0
  6
Continuous
 62
     8
370
    25
100
AcDbLine
 10
5396.7057429101
 20
4763.9716716725
 30
0.0
 11
5402.7057429101
 21
4763.9716716725
 31
0.0
  0
LINE
  5
3B1
330
1F
100
AcDbEntity
  8
0
  6
Continuous
 62
     8
370
    25
100
AcDbLine
 10
5451.7057429101
 20
4768.777148901
 30
0.0
 11
5402.7057429101
 21
4768.777148901
 31
0.0
  0
LINE
  5
3B2
330
1F
100
AcDbEntity
  8
0
  6
Continuous
 62
     8
370
    25
100
AcDbLine
 10
5396.7057429101
 20
4768.777148901
 30
0.0
 11
5347.7057429101
 21
4768.777148901
 31
0.0
  0
LINE
  5
3B3
330
1F
100
AcDbEntity
  8
0
  6
Continuous
 62
     7
370
    25
100
AcDbLine
 10
5448.7057432065
 20
4537.7961653964
 30
0.0
 11
5448.7057432065
 21
4537.8086653964
 31
0.0
  0
LINE
  5
3B4
330
1F
100
AcDbEntity
  8
0
  6
Continuous
 62
     7
370
    25
100
AcDbLine
 10
5445.9798250276
 20
4537.7961653964
 30
0.0
 11
5445.9798250276
 21
4537.8086653964
 31
0.0
  0
LINE
  5
3B5
330
1F
100
AcDbEntity
  8
0
  6
Continuous
 62
     7
370
    25
100
AcDbLine
 10
5448.5993589411
 20
4537.7961653964
 30
0.0
 11
5448.5993589411
 21
4537.8086653964
 31
0.0
  0
LINE
  5
3B6
330
1F
100
AcDbEntity
  8
0
  6
Continuous
 62
     7
370
    25
100
AcDbLine
 10
5439.1495600935
 20
4537.8086653964
 30
0.0
 11
5439.1495600935
 21
4537.7961653964
 31
0.0
  0
LINE
  5
3B7
330
1F
100
AcDbEntity
  8
0
  6
Continuous
 62
     7
370
    25
100
AcDbLine
 10
5439.3433901736
 20
4537.8086653964
 30
0.0
 11
5439.3433901736
 21
4537.7961653964
 31
0.0
  0
LINE
  5
3B8
330
1F
100
AcDbEntity
  8
0
  6
Continuous
 62
     7
370
    25
100
AcDbLine
 10
5446.8616508054
 20
4537.8086653964
 30
0.0
 11
5446.8616508054
 21
4537.7961653964
 31
0.0
  0
LINE
  5
3B9
330
1F
100
AcDbEntity
  8
0
  6
Continuous
 62
     7
370
    25
100
AcDbLine
 10
5446.9687243597
 20
4537.8086653964
 30
0.0
 11
5446.9687243597
 21
4537.7961653964
 31
0.0
  0
LINE
  5
3BA
330
1F
100
AcDbEntity
  8
0
  6
Continuous
 62
     7
370
    25
100
AcDbLine
 10
5418.8157939381
 20
4537.7961653964
 30
0.0
 11
5418.8157939381
 21
4537.8086653964
 31
0.0
  0
LINE
  5
3BB
330
1F
100
AcDbEntity
  8
0
  6
Continuous
 62
     7
370
    25
100
AcDbLine
 10
5437.7612228324
 20
4537.7961653964
 30
0.0
 11
5437.7612228324
 21
4537.8086653964
 31
0.0
  0
LINE
  5
3BC
330
1F
100
AcDbEntity
  8
0
  6
Continuous
 62
     7
370
    25
100
AcDbLine
 10
5443.640811637
 20
4537.7961653964
 30
0.0
 11
5443.640811637
 21
4537.8086653964
 31
0.0
  0
LINE
  5
3BD
330
1F
100
AcDbEntity
  8
0
  6
Continuous
 62
     7
370
    25
100
AcDbLine
 10
5442.0380142897
 20
4537.7961653964
 30
0.0
 11
5442.0380142897
 21
4537.8086653964
 31
0.0
  0
LINE
  5
3BE
330
1F
100
AcDbEntity
  8
0
  6
Continuous
 62
     7
370
    25
100
AcDbLine
 10
5443.1652500945
 20
4537.8086653964
 30
0.0
 11
5443.1652500945
 21
4537.7961653964
 31
0.0
  0
LINE
  5
3BF
330
1F
100
AcDbEntity
  8
0
  6
Continuous
 62
     7
370
    25
100
AcDbLine
 10
5409.5233320965
 20
4537.8086653964
 30
0.0
 11
5409.5233320965
 21
4537.7961653964
 31
0.0
  0
LINE
  5
3C0
330
1F
100
AcDbEntity
  8
0
  6
Continuous
 62
     7
370
    25
100
AcDbLine
 10
5410.8185290591
 20
4537.8086653964
 30
0.0
 11
5410.8185290591
 21
4537.7961653964
 31
0.0
  0
LINE
  5
3C1
330
1F
100
AcDbEntity
  8
0
  6
Continuous
 62
     7
370
    25
100
AcDbLine
 10
5445.6478800854
 20
4537.7961653964
 30
0.0
 11
5445.6478800854
 21
4537.8086653964
 31
0.0
  0
LINE
  5
3C2
330
1F
100
AcDbEntity
  8
0
  6
Continuous
 62
     7
370
    25
100
AcDbLine
 10
5415.8853304777
 20
4537.8086653964
 30
0.0
 11
5415.8853304777
 21
4537.7961653964
 31
0.0
  0
LINE
  5
3C3
330
1F
100
AcDbEntity
  8
0
  6
Continuous
 62
     7
370
    25
100
AcDbLine
 10
5441.1344417158
 20
4537.7961653964
 30
0.0
 11
5441.1344417158
 21
4537.8086653964
 31
0.0
  0
LINE
  5
3C4
330
1F
100
AcDbEntity
  8
0
  6
Continuous
 62
     7
370
    25
100
AcDbLine
 10
5436.682832156
 20
4537.7961653964
 30
0.0
 11
5436.682832156
 21
4537.8086653964
 31
0.0
  0
LINE
  5
3C5
330
1F
100
AcDbEntity
  8
0
  6
Continuous
 62
     7
370
    25
100
AcDbLine
 10
5442.9287176795
 20
4537.8086653964
 30
0.0
 11
5442.9287176795
 21
4537.7961653964
 31
0.0
  0
LINE
  5
3C6
330
1F
100
AcDbEntity
  8
0
  6
Continuous
 62
     7
370
    25
100
AcDbLine
 10
5443.0277761388
 20
4537.8086653964
 30
0.0
 11
5443.0277761388
 21
4537.7961653964
 31
0.0
  0
LINE
  5
3C7
330
1F
100
AcDbEntity
  8
0
  6
Continuous
 62
     7
370
    25
100
AcDbLine
 10
5412.6015078391
 20
4537.7961653964
 30
0.0
 11
5412.6015078391
 21
4537.8086653964
 31
0.0
  0
LINE
  5
3C8
330
1F
100
AcDbEntity
  8
0
  6
Continuous
 62
     7
370
    25
100
AcDbLine
 10
5413.894568595
 20
4537.7961653964
 30
0.0
 11
5413.894568595
 21
4537.8086653964
 31
0.0
  0
LINE
  5
3C9
330
1F
100
AcDbEntity
  8
0
  6
Continuous
 62
     7
370
    25
100
AcDbLine
 10
5443.2682266128
 20
4537.8086653964
 30
0.0
 11
5443.2682266128
 21
4537.7961653964
 31
0.0
  0
LINE
  5
3CA
330
1F
100
AcDbEntity
  8
0
  6
Continuous
 62
     7
370
    25
100
AcDbLine
 10
5439.7848200967
 20
4537.8086653964
 30
0.0
 11
5439.7848200967
 21
4537.7961653964
 31
0.0
  0
LINE
  5
3CB
330
1F
100
AcDbEntity
  8
0
  6
Continuous
 62
     7
370
    25
100
AcDbLine
 10
5441.7948351172
 20
4537.8086653964
 30
0.0
 11
5441.7948351172
 21
4537.7961653964
 31
0.0
  0
LINE
  5
3CC
330
1F
100
AcDbEntity
  8
0
  6
Continuous
 62
     7
370
    25
100
AcDbLine
 10
5441.8252258653
 20
4537.7961653964
 30
0.0
 11
5441.8252258653
 21
4537.8086653964
 31
0.0
  0
LINE
  5
3CD
330
1F
100
AcDbEntity
  8
0
  6
Continuous
 62
     7
370
    25
100
AcDbLine
 10
5439.6226878526
 20
4537.8086653964
 30
0.0
 11
5439.6226878526
 21
4537.7961653964
 31
0.0
  0
LINE
  5
3CE
330
1F
100
AcDbEntity
  8
0
  6
Continuous
 62
     7
370
    25
100
AcDbLine
 10
5442.4626236599
 20
4537.8086653964
 30
0.0
 11
5442.4626236599
 21
4537.7961653964
 31
0.0
  0
LINE
  5
3CF
330
1F
100
AcDbEntity
  8
0
  6
Continuous
 62
     7
370
    25
100
AcDbLine
 10
5442.5342653326
 20
4537.7961653964
 30
0.0
 11
5442.5342653326
 21
4537.8086653964
 31
0.0
  0
LINE
  5
3D0
330
1F
100
AcDbEntity
  8
0
  6
Continuous
 62
     7
370
    25
100
AcDbLine
 10
5442.4133144485
 20
4537.7961653964
 30
0.0
 11
5442.4133144485
 21
4537.8086653964
 31
0.0
  0
LINE
  5
3D1
330
1F
100
AcDbEntity
  8
0
  6
Continuous
 62
     7
370
    25
100
AcDbLine
 10
5442.3672930031
 20
4537.8086653964
 30
0.0
 11
5442.3672930031
 21
4537.7961653964
 31
0.0
  0
ARC
  5
3D2
330
1F
100
AcDbEntity
  8
0
  6
Continuous
 62
     7
370
    25
100
AcDbCircle
 10
5361.7057429101
 20
4536.3086653964
 30
0.0
 40
0.5000000000009095
100
AcDbArc
 50
270.0
 51
0.0
  0
ARC
  5
3D3
330
1F
100
AcDbEntity
  8
0
  6
Continuous
 62
     7
370
    25
100
AcDbCircle
 10
5357.7057429101
 20
4536.3086653964
 30
0.0
 40
0.5
100
AcDbArc
 50
180.0
 51
270.0
  0
LINE
  5
3D4
330
1F
100
AcDbEntity
  8
0
  6
Continuous
 62
     7
370
    25
100
AcDbLine
 10
5357.2057429101
 20
4537.8086653964
 30
0.0
 11
5357.2057429101
 21
4536.3086653964
 31
0.0
  0
LINE
  5
3D5
330
1F
100
AcDbEntity
  8
0
  6
Continuous
 62
     7
370
    25
100
AcDbLine
 10
5362.2057429101
 20
4536.3086653964
 30
0.0
 11
5362.2057429101
 21
4537.8086653964
 31
0.0
  0
ARC
  5
3D6
330
1F
100
AcDbEntity
  8
0
  6
Continuous
 62
     7
370
    25
100
AcDbCircle
 10
5451.7057429101
 20
4635.7412410913
 30
0.0
 40
5.000000000000308
100
AcDbArc
 50
293.5781784782
 51
336.0655543015
  0
ARC
  5
3D7
330
1F
100
AcDbEntity
  8
0
  6
Continuous
 62
     7
370
    25
100
AcDbCircle
 10
5451.7057429101
 20
4635.8760897014
 30
0.0
 40
5.000000000000109
100
AcDbArc
 50
25.6402716933
 51
66.4218215218
  0
ARC
  5
3D8
330
1F
100
AcDbEntity
  8
0
  6
Continuous
 62
     7
370
    25
100
AcDbCircle
 10
5347.7057429101
 20
4635.8760897014
 30
0.0
 40
5.000000000000167
100
AcDbArc
 50
113.5781784782
 51
154.3594025331
  0
ARC
  5
3D9
330
1F
100
AcDbEntity
  8
0
  6
Continuous
 62
     7
370
    25
100
AcDbCircle
 10
5347.7057429101
 20
4635.7412410913
 30
0.0
 40
5.000000000000308
100
AcDbArc
 50
203.9480518851
 51
246.4218215218
  0
LINE
  5
3DA
330
1F
100
AcDbEntity
  8
0
  6
Continuous
 62
     7
370
    25
100
AcDbLine
 10
5451.7057429101
 20
4539.8086653964
 30
0.0
 11
5451.7057429101
 21
4645.8086653964
 31
0.0
  0
LINE
  5
3DB
330
1F
100
AcDbEntity
  8
0
  6
Continuous
 62
     7
370
    25
100
AcDbLine
 10
5453.7057429101
 20
4645.8086653964
 30
0.0
 11
5453.7057429101
 21
4539.8086653964
 31
0.0
  0
LINE
  5
3DC
330
1F
100
AcDbEntity
  8
0
  6
Continuous
 62
     7
370
    25
100
AcDbLine
 10
5453.7057429101
 20
4539.8086653964
 30
0.0
 11
5451.7057429101
 21
4539.8086653964
 31
0.0
  0
LINE
  5
3DD
330
1F
100
AcDbEntity
  8
0
  6
Continuous
 62
     7
370
    25
100
AcDbLine
 10
5451.7057429101
 20
4645.8086653964
 30
0.0
 11
5453.7057429101
 21
4645.8086653964
 31
0.0
  0
LINE
  5
3DE
330
1F
100
AcDbEntity
  8
0
  6
Continuous
 62
     7
370
    25
100
AcDbLine
 10
5347.7057429101
 20
4645.8086653964
 30
0.0
 11
5347.7057429101
 21
4539.8086653964
 31
0.0
  0
LINE
  5
3DF
330
1F
100
AcDbEntity
  8
0
  6
Continuous
 62
     7
370
    25
100
AcDbLine
 10
5347.7057429101
 20
4539.8086653964
 30
0.0
 11
5345.7057429101
 21
4539.8086653964
 31
0.0
  0
LINE
  5
3E0
330
1F
100
AcDbEntity
  8
0
  6
Continuous
 62
     7
370
    25
100
AcDbLine
 10
5345.7057429101
 20
4539.8086653964
 30
0.0
 11
5345.7057429101
 21
4645.8086653964
 31
0.0
  0
LINE
  5
3E1
330
1F
100
AcDbEntity
  8
0
  6
Continuous
 62
     7
370
    25
100
AcDbLine
 10
5345.7057429101
 20
4645.8086653964
 30
0.0
 11
5347.7057429101
 21
4645.8086653964
 31
0.0
  0
LINE
  5
3E2
330
1F
100
AcDbEntity
  8
0
  6
Continuous
 62
     7
370
    25
100
AcDbLine
 10
5347.7057429101
 20
4539.8086653964
 30
0.0
 11
5451.7057429101
 21
4539.8086653964
 31
0.0
  0
LINE
  5
3E3
330
1F
100
AcDbEntity
  8
0
  6
Continuous
 62
     7
370
    25
100
AcDbLine
 10
5347.7057429101
 20
4645.8086653964
 30
0.0
 11
5451.7057429101
 21
4645.8086653964
 31
0.0
  0
LINE
  5
3E4
330
1F
100
AcDbEntity
  8
0
  6
Continuous
 62
     7
370
    25
100
AcDbLine
 10
5451.7057429101
 20
4537.8086653964
 30
0.0
 11
5451.7057429101
 21
4539.8086653964
 31
0.0
  0
ARC
  5
3E5
330
1F
100
AcDbEntity
  8
0
  6
Continuous
 62
     7
370
    25
100
AcDbCircle
 10
5451.7057429101
 20
4539.8086653964
 30
0.0
 40
2.000000000000909
100
AcDbArc
 50
270.0
 51
0.0
  0
ARC
  5
3E6
330
1F
100
AcDbEntity
  8
0
  6
Continuous
 62
     7
370
    25
100
AcDbCircle
 10
5347.7057429101
 20
4539.8086653964
 30
0.0
 40
2.000000000000909
100
AcDbArc
 50
180.0
 51
270.0
  0
LINE
  5
3E7
330
1F
100
AcDbEntity
  8
0
  6
Continuous
 62
     7
370
    25
100
AcDbLine
 10
5347.7057429101
 20
4537.8086653964
 30
0.0
 11
5347.7057429101
 21
4539.8086653964
 31
0.0
  0
LINE
  5
3E8
330
1F
100
AcDbEntity
  8
0
  6
Continuous
 62
     7
370
    25
100
AcDbLine
 10
5451.7057429101
 20
4537.8086653964
 30
0.0
 11
5347.7057429101
 21
4537.8086653964
 31
0.0
  0
LINE
  5
3E9
330
1F
100
AcDbEntity
  8
0
  6
Continuous
 62
     7
370
    25
100
AcDbLine
 10
5402.2057429101
 20
4536.8086653964
 30
0.0
 11
5402.2057429101
 21
4537.8086653964
 31
0.0
  0
LINE
  5
3EA
330
1F
100
AcDbEntity
  8
0
  6
Continuous
 62
     7
370
    25
100
AcDbLine
 10
5397.2057429101
 20
4536.8086653964
 30
0.0
 11
5397.2057429101
 21
4537.8086653964
 31
0.0
  0
LINE
  5
3EB
330
1F
100
AcDbEntity
  8
0
  6
Continuous
 62
     7
370
    25
100
AcDbLine
 10
5402.2057429101
 20
4536.8086653964
 30
0.0
 11
5397.2057429101
 21
4536.8086653964
 31
0.0
  0
LINE
  5
3EC
330
1F
100
AcDbEntity
  8
0
  6
Continuous
 62
     7
370
    25
100
AcDbLine
 10
5361.7057429101
 20
4535.8086653964
 30
0.0
 11
5357.705743151
 21
4535.8086653964
 31
0.0
  0
LINE
  5
3ED
330
1F
100
AcDbEntity
  8
0
  6
Continuous
 62
     7
370
    25
100
AcDbLine
 10
5456.2119805597
 20
4638.0412858442
 30
0.0
 11
5456.0408570431
 21
4638.0412858442
 31
0.0
  0
LWPOLYLINE
  5
3EE
330
1F
100
AcDbEntity
  8
0
  6
Continuous
 62
     7
370
    25
100
AcDbPolyline
 90
        3
 70
   128
 43
0.0
 10
5456.0408570431
 20
4638.0412858442
 10
5456.2282100685
 20
4636.8520253303
 10
5456.0735120085
 20
4635.8760897014
  0
LWPOLYLINE
  5
3EF
330
1F
100
AcDbEntity
  8
0
  6
Continuous
 62
     7
370
    25
100
AcDbPolyline
 90
        3
 70
   128
 43
0.0
 10
5456.0735120085
 20
4635.8760897014
 10
5456.25974351
 20
4634.719045627
 10
5456.105903751
 20
4633.7108935586
  0
LINE
  5
3F0
330
1F
100
AcDbEntity
  8
0
  6
Continuous
 62
     7
370
    25
100
AcDbLine
 10
5456.105903751
 20
4633.7108935586
 30
0.0
 11
5456.274953881
 21
4633.7108935586
 31
0.0
  0
LINE
  5
3F1
330
1F
100
AcDbEntity
  8
0
  6
Continuous
 62
     7
370
    25
100
AcDbLine
 10
5343.3055820692
 20
4633.7108935586
 30
0.0
 11
5343.1365319392
 21
4633.7108935586
 31
0.0
  0
LWPOLYLINE
  5
3F2
330
1F
100
AcDbEntity
  8
0
  6
Continuous
 62
     7
370
    25
100
AcDbPolyline
 90
        3
 70
   128
 43
0.0
 10
5343.3379738117
 20
4635.8760897014
 10
5343.1517423101
 20
4634.719045627
 10
5343.3055820692
 20
4633.7108935586
  0
LWPOLYLINE
  5
3F3
330
1F
100
AcDbEntity
  8
0
  6
Continuous
 62
     7
370
    25
100
AcDbPolyline
 90
        3
 70
   128
 43
0.0
 10
5343.3706287771
 20
4638.0412858442
 10
5343.1832757516
 20
4636.8520253303
 10
5343.3379738117
 20
4635.8760897014
  0
LINE
  5
3F4
330
1F
100
AcDbEntity
  8
0
  6
Continuous
 62
     7
370
    25
100
AcDbLine
 10
5343.2001479248
 20
4638.0412858442
 30
0.0
 11
5343.3706287771
 21
4638.0412858442
 31
0.0
  0
LINE
  5
3F5
330
1F
100
AcDbEntity
  8
0
  6
Continuous
 62
     8
370
    25
100
AcDbLine
 10
5357.2057429101
 20
4536.3086653964
 30
0.0
 11
5362.2057429101
 21
4536.3086653964
 31
0.0
  0
ENDSEC
  0
SECTION
  2
OBJECTS
  0
DICTIONARY
  5
C
330
0
100
AcDbDictionary
281
     1
  3
ACAD_GROUP
350
D
  3
ACAD_LAYOUT
350
1A
  3
ACAD_MLINESTYLE
350
17
  3
ACAD_PLOTSETTINGS
350
19
  3
ACAD_PLOTSTYLENAME
350
E
  3
ACAD_SCALELIST
350
47
  3
DWGPROPS
350
3F6
  0
DICTIONARY
  5
D
102
{ACAD_REACTORS
330
C
102
}
330
C
100
AcDbDictionary
281
     1
  0
DICTIONARY
  5
1A
102
{ACAD_REACTORS
330
C
102
}
330
C
100
AcDbDictionary
281
     1
  3
Layout1
350
1E
  3
Layout2
350
26
  3
Model
350
22
  0
DICTIONARY
  5
17
102
{ACAD_REACTORS
330
C
102
}
330
C
100
AcDbDictionary
281
     1
  3
Standard
350
18
  0
DICTIONARY
  5
19
102
{ACAD_REACTORS
330
C
102
}
330
C
100
AcDbDictionary
281
     1
  0
ACDBDICTIONARYWDFLT
  5
E
102
{ACAD_REACTORS
330
C
102
}
330
C
100
AcDbDictionary
281
     1
  3
Normal
350
F
100
AcDbDictionaryWithDefault
340
F
  0
DICTIONARY
  5
47
102
{ACAD_REACTORS
330
C
102
}
330
C
100
AcDbDictionary
281
     1
  3
A0
350
48
  3
A1
350
49
  3
A2
350
4A
  3
A3
350
4B
  3
A4
350
4C
  3
A5
350
4D
  3
A6
350
4E
  3
A7
350
4F
  3
A8
350
50
  3
A9
350
51
  3
B0
350
52
  3
B1
350
53
  3
B2
350
54
  3
B3
350
55
  3
B4
350
56
  3
B5
350
57
  3
B6
350
58
  3
B7
350
59
  3
B8
350
5A
  3
B9
350
5B
  3
C0
350
5C
  3
C1
350
5D
  3
C2
350
5E
  3
C3
350
5F
  3
C4
350
60
  3
C5
350
61
  3
C6
350
62
  3
C7
350
63
  3
C8
350
64
  3
C9
350
65
  3
D0
350
66
  3
D1
350
67
  3
D2
350
68
  0
XRECORD
  5
3F6
102
{ACAD_REACTORS
330
C
102
}
330
C
100
AcDbXrecord
280
     1
  1
DWGPROPS COOKIE
  2

  3

  4

  6

  7

  8
radek.stransky
  9

300
=
301
=
302
=
303
=
304
=
305
=
306
=
307
=
308
=
309
=
 40
0.0
 41
2459123.331155104
 42
2459123.331155336
  1

 90
        0
  0
LAYOUT
  5
1E
102
{ACAD_REACTORS
330
1A
102
}
330
1A
100
AcDbPlotSettings
  1

  2
none_device
  4

  6

 40
0.0
 41
0.0
 42
0.0
 43
0.0
 44
0.0
 45
0.0
 46
0.0
 47
0.0
 48
0.0
 49
0.0
140
0.0
141
0.0
142
1.0
143
1.0
 70
   688
 72
     1
 73
     0
 74
     5
  7

 75
    16
147
1.0
148
0.0
149
0.0
100
AcDbLayout
  1
Layout1
 70
     1
 71
     1
 10
0.0
 20
0.0
 11
420.0
 21
297.0
 12
0.0
 22
0.0
 32
0.0
 14
1.0000000000E+20
 24
1.0000000000E+20
 34
1.0000000000E+20
 15
-1.0000000000E+20
 25
-1.0000000000E+20
 35
-1.0000000000E+20
146
0.0
 13
0.0
 23
0.0
 33
0.0
 16
1.0
 26
0.0
 36
0.0
 17
0.0
 27
1.0
 37
0.0
 76
     0
330
1B
  0
LAYOUT
  5
26
102
{ACAD_REACTORS
330
1A
102
}
330
1A
100
AcDbPlotSettings
  1

  2
none_device
  4

  6

 40
0.0
 41
0.0
 42
0.0
 43
0.0
 44
0.0
 45
0.0
 46
0.0
 47
0.0
 48
0.0
 49
0.0
140
0.0
141
0.0
142
1.0
143
1.0
 70
   688
 72
     1
 73
     0
 74
     5
  7

 75
    16
147
1.0
148
0.0
149
0.0
100
AcDbLayout
  1
Layout2
 70
     1
 71
     2
 10
0.0
 20
0.0
 11
0.0
 21
0.0
 12
0.0
 22
0.0
 32
0.0
 14
0.0
 24
0.0
 34
0.0
 15
0.0
 25
0.0
 35
0.0
146
0.0
 13
0.0
 23
0.0
 33
0.0
 16
1.0
 26
0.0
 36
0.0
 17
0.0
 27
1.0
 37
0.0
 76
     0
330
23
  0
LAYOUT
  5
22
102
{ACAD_REACTORS
330
1A
102
}
330
1A
100
AcDbPlotSettings
  1

  2
none_device
  4
Letter_(8.50_x_11.00_Inches)
  6

 40
6.35
 41
6.35
 42
6.35000508
 43
6.35000508
 44
215.9
 45
279.4
 46
0.0
 47
0.0
 48
0.0
 49
0.0
140
0.0
141
0.0
142
1.0
143
1.0
 70
  1712
 72
     1
 73
     0
 74
     0
  7

 75
     0
147
1.0
148
0.0
149
0.0
100
AcDbLayout
  1
Model
 70
     1
 71
     0
 10
0.0
 20
0.0
 11
20000.0
 21
10000.0
 12
0.0
 22
0.0
 32
0.0
 14
0.0
 24
0.0
 34
0.0
 15
20000.0
 25
10000.0
 35
0.0
146
0.0
 13
0.0
 23
0.0
 33
0.0
 16
1.0
 26
0.0
 36
0.0
 17
0.0
 27
1.0
 37
0.0
 76
     0
330
1F
331
29
  0
MLINESTYLE
  5
18
102
{ACAD_REACTORS
330
17
102
}
330
17
100
AcDbMlineStyle
  2
Standard
 70
     0
  3

 62
   256
 51
90.0
 52
90.0
 71
     2
 49
0.5
 62
   256
  6
BYLAYER
 49
-0.5
 62
   256
  6
BYLAYER
  0
ACDBPLACEHOLDER
  5
F
102
{ACAD_REACTORS
330
E
102
}
330
E
  0
SCALE
  5
48
102
{ACAD_REACTORS
330
47
102
}
330
47
100
AcDbScale
 70
     0
300
1:1
140
1.0
141
1.0
290
     1
  0
SCALE
  5
49
102
{ACAD_REACTORS
330
47
102
}
330
47
100
AcDbScale
 70
     0
300
1:2
140
1.0
141
2.0
290
     0
  0
SCALE
  5
4A
102
{ACAD_REACTORS
330
47
102
}
330
47
100
AcDbScale
 70
     0
300
1:4
140
1.0
141
4.0
290
     0
  0
SCALE
  5
4B
102
{ACAD_REACTORS
330
47
102
}
330
47
100
AcDbScale
 70
     0
300
1:5
140
1.0
141
5.0
290
     0
  0
SCALE
  5
4C
102
{ACAD_REACTORS
330
47
102
}
330
47
100
AcDbScale
 70
     0
300
1:8
140
1.0
141
8.0
290
     0
  0
SCALE
  5
4D
102
{ACAD_REACTORS
330
47
102
}
330
47
100
AcDbScale
 70
     0
300
1:10
140
1.0
141
10.0
290
     0
  0
SCALE
  5
4E
102
{ACAD_REACTORS
330
47
102
}
330
47
100
AcDbScale
 70
     0
300
1:16
140
1.0
141
16.0
290
     0
  0
SCALE
  5
4F
102
{ACAD_REACTORS
330
47
102
}
330
47
100
AcDbScale
 70
     0
300
1:20
140
1.0
141
20.0
290
     0
  0
SCALE
  5
50
102
{ACAD_REACTORS
330
47
102
}
330
47
100
AcDbScale
 70
     0
300
1:30
140
1.0
141
30.0
290
     0
  0
SCALE
  5
51
102
{ACAD_REACTORS
330
47
102
}
330
47
100
AcDbScale
 70
     0
300
1:40
140
1.0
141
40.0
290
     0
  0
SCALE
  5
52
102
{ACAD_REACTORS
330
47
102
}
330
47
100
AcDbScale
 70
     0
300
1:50
140
1.0
141
50.0
290
     0
  0
SCALE
  5
53
102
{ACAD_REACTORS
330
47
102
}
330
47
100
AcDbScale
 70
     0
300
1:100
140
1.0
141
100.0
290
     0
  0
SCALE
  5
54
102
{ACAD_REACTORS
330
47
102
}
330
47
100
AcDbScale
 70
     0
300
2:1
140
2.0
141
1.0
290
     0
  0
SCALE
  5
55
102
{ACAD_REACTORS
330
47
102
}
330
47
100
AcDbScale
 70
     0
300
4:1
140
4.0
141
1.0
290
     0
  0
SCALE
  5
56
102
{ACAD_REACTORS
330
47
102
}
330
47
100
AcDbScale
 70
     0
300
8:1
140
8.0
141
1.0
290
     0
  0
SCALE
  5
57
102
{ACAD_REACTORS
330
47
102
}
330
47
100
AcDbScale
 70
     0
300
10:1
140
10.0
141
1.0
290
     0
  0
SCALE
  5
58
102
{ACAD_REACTORS
330
47
102
}
330
47
100
AcDbScale
 70
     0
300
100:1
140
100.0
141
1.0
290
     0
  0
SCALE
  5
59
102
{ACAD_REACTORS
330
47
102
}
330
47
100
AcDbScale
 70
     0
300
1/128" = 1'-0"
140
0.0078125
141
12.0
290
     0
  0
SCALE
  5
5A
102
{ACAD_REACTORS
330
47
102
}
330
47
100
AcDbScale
 70
     0
300
1/64" = 1'-0"
140
0.015625
141
12.0
290
     0
  0
SCALE
  5
5B
102
{ACAD_REACTORS
330
47
102
}
330
47
100
AcDbScale
 70
     0
300
1/32" = 1'-0"
140
0.03125
141
12.0
290
     0
  0
SCALE
  5
5C
102
{ACAD_REACTORS
330
47
102
}
330
47
100
AcDbScale
 70
     0
300
1/16" = 1'-0"
140
0.0625
141
12.0
290
     0
  0
SCALE
  5
5D
102
{ACAD_REACTORS
330
47
102
}
330
47
100
AcDbScale
 70
     0
300
3/32" = 1'-0"
140
0.09375
141
12.0
290
     0
  0
SCALE
  5
5E
102
{ACAD_REACTORS
330
47
102
}
330
47
100
AcDbScale
 70
     0
300
1/8" = 1'-0"
140
0.125
141
12.0
290
     0
  0
SCALE
  5
5F
102
{ACAD_REACTORS
330
47
102
}
330
47
100
AcDbScale
 70
     0
300
3/16" = 1'-0"
140
0.1875
141
12.0
290
     0
  0
SCALE
  5
60
102
{ACAD_REACTORS
330
47
102
}
330
47
100
AcDbScale
 70
     0
300
1/4" = 1'-0"
140
0.25
141
12.0
290
     0
  0
SCALE
  5
61
102
{ACAD_REACTORS
330
47
102
}
330
47
100
AcDbScale
 70
     0
300
3/8" = 1'-0"
140
0.375
141
12.0
290
     0
  0
SCALE
  5
62
102
{ACAD_REACTORS
330
47
102
}
330
47
100
AcDbScale
 70
     0
300
1/2" = 1'-0"
140
0.5
141
12.0
290
     0
  0
SCALE
  5
63
102
{ACAD_REACTORS
330
47
102
}
330
47
100
AcDbScale
 70
     0
300
3/4" = 1'-0"
140
0.75
141
12.0
290
     0
  0
SCALE
  5
64
102
{ACAD_REACTORS
330
47
102
}
330
47
100
AcDbScale
 70
     0
300
1" = 1'-0"
140
1.0
141
12.0
290
     0
  0
SCALE
  5
65
102
{ACAD_REACTORS
330
47
102
}
330
47
100
AcDbScale
 70
     0
300
1-1/2" = 1'-0"
140
1.5
141
12.0
290
     0
  0
SCALE
  5
66
102
{ACAD_REACTORS
330
47
102
}
330
47
100
AcDbScale
 70
     0
300
3" = 1'-0"
140
3.0
141
12.0
290
     0
  0
SCALE
  5
67
102
{ACAD_REACTORS
330
47
102
}
330
47
100
AcDbScale
 70
     0
300
6" = 1'-0"
140
6.0
141
12.0
290
     0
  0
SCALE
  5
68
102
{ACAD_REACTORS
330
47
102
}
330
47
100
AcDbScale
 70
     0
300
1'-0" = 1'-0"
140
12.0
141
12.0
290
     0
  0
ENDSEC
  0
EOF
