  0
SECTION
  2
HEADER
  9
$ACADVER
  1
AC1015
  9
$ACADMAINTVER
 70
     6
  9
$DWGCODEPAGE
  3
ANSI_1250
  9
$INSBASE
 10
0.0
 20
0.0
 30
0.0
  9
$EXTMIN
 10
0.0
 20
0.0
 30
0.0
  9
$EXTMAX
 10
20000.0
 20
10000.0
 30
0.0
  9
$LIMMIN
 10
0.0
 20
0.0
  9
$LIMMAX
 10
20000.0
 20
10000.0
  9
$ORTHOMODE
 70
     0
  9
$REGENMODE
 70
     1
  9
$FILLMODE
 70
     1
  9
$QTEXTMODE
 70
     0
  9
$MIRRTEXT
 70
     1
  9
$LTSCALE
 40
1.0
  9
$ATTMODE
 70
     1
  9
$TEXTSIZE
 40
2.0
  9
$TRACEWID
 40
1.0
  9
$TEXTSTYLE
  7
Standard
  9
$CLAYER
  8
0
  9
$CELTYPE
  6
ByLayer
  9
$CECOLOR
 62
   256
  9
$CELTSCALE
 40
1.0
  9
$DISPSILH
 70
     0
  9
$DIMSCALE
 40
1.0
  9
$DIMASZ
 40
2.0
  9
$DIMEXO
 40
1.0
  9
$DIMDLI
 40
3.75
  9
$DIMRND
 40
0.0
  9
$DIMDLE
 40
0.0
  9
$DIMEXE
 40
1.0
  9
$DIMTP
 40
0.0
  9
$DIMTM
 40
0.0
  9
$DIMTXT
 40
2.0
  9
$DIMCEN
 40
2.5
  9
$DIMTSZ
 40
0.0
  9
$DIMTOL
 70
     0
  9
$DIMLIM
 70
     0
  9
$DIMTIH
 70
     1
  9
$DIMTOH
 70
     1
  9
$DIMSE1
 70
     0
  9
$DIMSE2
 70
     0
  9
$DIMTAD
 70
     1
  9
$DIMZIN
 70
     0
  9
$DIMBLK
  1

  9
$DIMASO
 70
     1
  9
$DIMSHO
 70
     1
  9
$DIMPOST
  1

  9
$DIMAPOST
  1

  9
$DIMALT
 70
     0
  9
$DIMALTD
 70
     3
  9
$DIMALTF
 40
0.0393700787
  9
$DIMLFAC
 40
1.0
  9
$DIMTOFL
 70
     1
  9
$DIMTVP
 40
0.0
  9
$DIMTIX
 70
     0
  9
$DIMSOXD
 70
     0
  9
$DIMSAH
 70
     0
  9
$DIMBLK1
  1

  9
$DIMBLK2
  1

  9
$DIMSTYLE
  2
ISO-25
  9
$DIMCLRD
 70
     0
  9
$DIMCLRE
 70
     0
  9
$DIMCLRT
 70
     0
  9
$DIMTFAC
 40
1.0
  9
$DIMGAP
 40
1.524
  9
$DIMJUST
 70
     0
  9
$DIMSD1
 70
     0
  9
$DIMSD2
 70
     0
  9
$DIMTOLJ
 70
     0
  9
$DIMTZIN
 70
     0
  9
$DIMALTZ
 70
     0
  9
$DIMALTTZ
 70
     0
  9
$DIMUPT
 70
     0
  9
$DIMDEC
 70
     2
  9
$DIMTDEC
 70
     0
  9
$DIMALTU
 70
     2
  9
$DIMALTTD
 70
     3
  9
$DIMTXSTY
  7
Standard
  9
$DIMAUNIT
 70
     0
  9
$DIMADEC
 70
     2
  9
$DIMALTRND
 40
0.0
  9
$DIMAZIN
 70
     0
  9
$DIMDSEP
 70
    44
  9
$DIMATFIT
 70
     3
  9
$DIMFRAC
 70
     0
  9
$DIMLDRBLK
  1

  9
$DIMLUNIT
 70
     2
  9
$DIMLWD
 70
    -2
  9
$DIMLWE
 70
    -2
  9
$DIMTMOVE
 70
     0
  9
$LUNITS
 70
     2
  9
$LUPREC
 70
     3
  9
$SKETCHINC
 40
1.0
  9
$FILLETRAD
 40
10.0
  9
$AUNITS
 70
     0
  9
$AUPREC
 70
     2
  9
$MENU
  1
.
  9
$ELEVATION
 40
0.0
  9
$PELEVATION
 40
0.0
  9
$THICKNESS
 40
0.0
  9
$LIMCHECK
 70
     0
  9
$CHAMFERA
 40
0.0
  9
$CHAMFERB
 40
0.0
  9
$CHAMFERC
 40
0.0
  9
$CHAMFERD
 40
0.0
  9
$SKPOLY
 70
     0
  9
$TDCREATE
 40
2459110.329632107
  9
$TDUCREATE
 40
2459110.246298773
  9
$TDUPDATE
 40
2459110.329632361
  9
$TDUUPDATE
 40
2459110.246299028
  9
$TDINDWG
 40
0.0000000116
  9
$TDUSRTIMER
 40
0.0000000116
  9
$USRTIMER
 70
     1
  9
$ANGBASE
 50
0.0
  9
$ANGDIR
 70
     0
  9
$PDMODE
 70
     0
  9
$PDSIZE
 40
-1.0
  9
$PLINEWID
 40
0.0
  9
$SPLFRAME
 70
     0
  9
$SPLINETYPE
 70
     6
  9
$SPLINESEGS
 70
     8
  9
$HANDSEED
  5
4F2
  9
$SURFTAB1
 70
     6
  9
$SURFTAB2
 70
     6
  9
$SURFTYPE
 70
     6
  9
$SURFU
 70
     6
  9
$SURFV
 70
     6
  9
$UCSBASE
  2

  9
$UCSNAME
  2

  9
$UCSORG
 10
0.0
 20
0.0
 30
0.0
  9
$UCSXDIR
 10
1.0
 20
0.0
 30
0.0
  9
$UCSYDIR
 10
0.0
 20
1.0
 30
0.0
  9
$UCSORTHOREF
  2

  9
$UCSORTHOVIEW
 70
     0
  9
$UCSORGTOP
 10
0.0
 20
0.0
 30
0.0
  9
$UCSORGBOTTOM
 10
0.0
 20
0.0
 30
0.0
  9
$UCSORGLEFT
 10
0.0
 20
0.0
 30
0.0
  9
$UCSORGRIGHT
 10
0.0
 20
0.0
 30
0.0
  9
$UCSORGFRONT
 10
0.0
 20
0.0
 30
0.0
  9
$UCSORGBACK
 10
0.0
 20
0.0
 30
0.0
  9
$PUCSBASE
  2

  9
$PUCSNAME
  2

  9
$PUCSORG
 10
0.0
 20
0.0
 30
0.0
  9
$PUCSXDIR
 10
1.0
 20
0.0
 30
0.0
  9
$PUCSYDIR
 10
0.0
 20
1.0
 30
0.0
  9
$PUCSORTHOREF
  2

  9
$PUCSORTHOVIEW
 70
     0
  9
$PUCSORGTOP
 10
0.0
 20
0.0
 30
0.0
  9
$PUCSORGBOTTOM
 10
0.0
 20
0.0
 30
0.0
  9
$PUCSORGLEFT
 10
0.0
 20
0.0
 30
0.0
  9
$PUCSORGRIGHT
 10
0.0
 20
0.0
 30
0.0
  9
$PUCSORGFRONT
 10
0.0
 20
0.0
 30
0.0
  9
$PUCSORGBACK
 10
0.0
 20
0.0
 30
0.0
  9
$USERI1
 70
     0
  9
$USERI2
 70
     0
  9
$USERI3
 70
     0
  9
$USERI4
 70
     0
  9
$USERI5
 70
     0
  9
$USERR1
 40
0.0
  9
$USERR2
 40
0.0
  9
$USERR3
 40
0.0
  9
$USERR4
 40
0.0
  9
$USERR5
 40
0.0
  9
$WORLDVIEW
 70
     1
  9
$SHADEDGE
 70
     3
  9
$SHADEDIF
 70
    70
  9
$TILEMODE
 70
     1
  9
$MAXACTVP
 70
    64
  9
$PINSBASE
 10
0.0
 20
0.0
 30
0.0
  9
$PLIMCHECK
 70
     0
  9
$PEXTMIN
 10
1.0000000000E+20
 20
1.0000000000E+20
 30
1.0000000000E+20
  9
$PEXTMAX
 10
-1.0000000000E+20
 20
-1.0000000000E+20
 30
-1.0000000000E+20
  9
$PLIMMIN
 10
0.0
 20
0.0
  9
$PLIMMAX
 10
420.0
 20
297.0
  9
$UNITMODE
 70
     0
  9
$VISRETAIN
 70
     1
  9
$PLINEGEN
 70
     0
  9
$PSLTSCALE
 70
     1
  9
$TREEDEPTH
 70
  3020
  9
$CMLSTYLE
  2
Standard
  9
$CMLJUST
 70
     0
  9
$CMLSCALE
 40
20.0
  9
$PROXYGRAPHICS
 70
     1
  9
$MEASUREMENT
 70
     1
  9
$CELWEIGHT
370
    -1
  9
$ENDCAPS
280
     0
  9
$JOINSTYLE
280
     0
  9
$LWDISPLAY
290
     1
  9
$INSUNITS
 70
     4
  9
$HYPERLINKBASE
  1

  9
$STYLESHEET
  1

  9
$XEDIT
290
     1
  9
$CEPSNTYPE
380
     0
  9
$PSTYLEMODE
290
     1
  9
$FINGERPRINTGUID
  2
{76938cef-42d1-4acf-9ae7-521ee4a5da9d}
  9
$VERSIONGUID
  2
{FAEB1C32-E019-11D5-929B-00C0DF256EC4}
  9
$EXTNAMES
290
     1
  9
$PSVPSCALE
 40
0.0
  9
$OLESTARTUP
290
     0
  0
ENDSEC
  0
SECTION
  2
CLASSES
  0
CLASS
  1
ACDBDICTIONARYWDFLT
  2
AcDbDictionaryWithDefault
  3
ObjectDBX Classes
 90
        0
280
     0
281
     0
  0
CLASS
  1
VISUALSTYLE
  2
AcDbVisualStyle
  3
ObjectDBX Classes
 90
     4095
280
     0
281
     0
  0
CLASS
  1
MATERIAL
  2
AcDbMaterial
  3
ObjectDBX Classes
 90
     1153
280
     0
281
     0
  0
CLASS
  1
SCALE
  2
AcDbScale
  3
ObjectDBX Classes
 90
     1153
280
     0
281
     0
  0
CLASS
  1
TABLESTYLE
  2
AcDbTableStyle
  3
ObjectDBX Classes
 90
     4095
280
     0
281
     0
  0
CLASS
  1
MLEADERSTYLE
  2
AcDbMLeaderStyle
  3
ACDB_MLEADERSTYLE_CLASS
 90
     4095
280
     0
281
     0
  0
CLASS
  1
SUN
  2
AcDbSun
  3
SCENEOE
 90
     1153
280
     0
281
     0
  0
CLASS
  1
ACDBPLACEHOLDER
  2
AcDbPlaceHolder
  3
ObjectDBX Classes
 90
        0
280
     0
281
     0
  0
CLASS
  1
LAYOUT
  2
AcDbLayout
  3
ObjectDBX Classes
 90
        0
280
     0
281
     0
  0
ENDSEC
  0
SECTION
  2
TABLES
  0
TABLE
  2
VPORT
  5
8
330
0
100
AcDbSymbolTable
 70
     1
  0
VPORT
  5
29
330
8
100
AcDbSymbolTableRecord
100
AcDbViewportTableRecord
  2
*Active
 70
     0
 10
0.0
 20
0.0
 11
1.0
 21
1.0
 12
10000.0
 22
5000.0
 13
0.0
 23
0.0
 14
10.0
 24
10.0
 15
10.0
 25
10.0
 16
0.0
 26
0.0
 36
1.0
 17
0.0
 27
0.0
 37
0.0
 40
10000.0
 41
2.0
 42
50.0
 43
0.0
 44
0.0
 50
0.0
 51
0.0
 71
     0
 72
  2000
 73
     1
 74
     3
 75
     0
 76
     0
 77
     0
 78
     0
281
     0
 65
     1
110
0.0
120
0.0
130
0.0
111
1.0
121
0.0
131
0.0
112
0.0
122
1.0
132
0.0
 79
     0
146
0.0
  0
ENDTAB
  0
TABLE
  2
LTYPE
  5
5
330
0
100
AcDbSymbolTable
 70
     6
  0
LTYPE
  5
14
330
5
100
AcDbSymbolTableRecord
100
AcDbLinetypeTableRecord
  2
ByBlock
 70
     0
  3

 72
    65
 73
     0
 40
0.0
  0
LTYPE
  5
15
330
5
100
AcDbSymbolTableRecord
100
AcDbLinetypeTableRecord
  2
ByLayer
 70
     0
  3

 72
    65
 73
     0
 40
0.0
  0
LTYPE
  5
16
330
5
100
AcDbSymbolTableRecord
100
AcDbLinetypeTableRecord
  2
Continuous
 70
     0
  3
Solid line
 72
    65
 73
     0
 40
0.0
  0
LTYPE
  5
6E
330
5
100
AcDbSymbolTableRecord
100
AcDbLinetypeTableRecord
  2
HIDDEN
 70
     0
  3
Hidden __ __ __ __ __ __ __ __ __ __ __ __ __ __
 72
    65
 73
     2
 40
1.905
 49
1.27
 74
     0
 49
-0.635
 74
     0
  0
LTYPE
  5
6F
330
5
100
AcDbSymbolTableRecord
100
AcDbLinetypeTableRecord
  2
PHANTOM
 70
     0
  3
Phantom ______  __  __  ______  __  __  ______
 72
    65
 73
     6
 40
12.7
 49
6.35
 74
     0
 49
-1.27
 74
     0
 49
1.27
 74
     0
 49
-1.27
 74
     0
 49
1.27
 74
     0
 49
-1.27
 74
     0
  0
LTYPE
  5
70
330
5
100
AcDbSymbolTableRecord
100
AcDbLinetypeTableRecord
  2
CENTER
 70
     0
  3
Center ____ _ ____ _ ____ _ ____ _ ____ _ ____
 72
    65
 73
     4
 40
10.16
 49
6.35
 74
     0
 49
-1.27
 74
     0
 49
1.27
 74
     0
 49
-1.27
 74
     0
  0
LTYPE
  5
71
330
5
100
AcDbSymbolTableRecord
100
AcDbLinetypeTableRecord
  2
CENTERX2
 70
     0
  3
Center (2x) ________  __  ________  __  _____
 72
    65
 73
     4
 40
20.32
 49
12.7
 74
     0
 49
-2.54
 74
     0
 49
2.54
 74
     0
 49
-2.54
 74
     0
  0
LTYPE
  5
72
330
5
100
AcDbSymbolTableRecord
100
AcDbLinetypeTableRecord
  2
DOT2
 70
     0
  3
Dot (.5x) ........................................
 72
    65
 73
     2
 40
0.635
 49
0.0
 74
     0
 49
-0.635
 74
     0
  0
ENDTAB
  0
TABLE
  2
LAYER
  5
2
330
0
100
AcDbSymbolTable
 70
    13
  0
LAYER
  5
10
330
2
100
AcDbSymbolTableRecord
100
AcDbLayerTableRecord
  2
0
 70
     0
 62
     7
  6
Continuous
370
    -3
390
F
  0
LAYER
  5
73
330
2
100
AcDbSymbolTableRecord
100
AcDbLayerTableRecord
  2
FORMAT
 70
     0
 62
     7
  6
Continuous
370
    -3
390
F
  0
LAYER
  5
74
330
2
100
AcDbSymbolTableRecord
100
AcDbLayerTableRecord
  2
OSA
 70
     0
 62
     7
  6
CENTER
370
    -3
390
F
  0
LAYER
  5
75
330
2
100
AcDbSymbolTableRecord
100
AcDbLayerTableRecord
  2
0_35
 70
     0
 62
     7
  6
Continuous
370
    35
390
F
  0
LAYER
  5
76
330
2
100
AcDbSymbolTableRecord
100
AcDbLayerTableRecord
  2
0_5
 70
     0
 62
     7
  6
Continuous
370
    50
390
F
  0
LAYER
  5
77
330
2
100
AcDbSymbolTableRecord
100
AcDbLayerTableRecord
  2
0_25
 70
     0
 62
     7
  6
Continuous
370
    25
390
F
  0
LAYER
  5
78
330
2
100
AcDbSymbolTableRecord
100
AcDbLayerTableRecord
  2
0_18
 70
     0
 62
     7
  6
Continuous
370
    -3
390
F
  0
LAYER
  5
79
330
2
100
AcDbSymbolTableRecord
100
AcDbLayerTableRecord
  2
SLD-0
 70
     0
 62
   179
  6
Continuous
370
    -3
390
F
  0
LAYER
  5
7A
330
2
100
AcDbSymbolTableRecord
100
AcDbLayerTableRecord
  2
KOTY
 70
     0
 62
     7
  6
Continuous
370
    -3
390
F
  0
LAYER
  5
7B
330
2
100
AcDbSymbolTableRecord
100
AcDbLayerTableRecord
  2
SILNA
 70
     0
 62
   179
  6
Continuous
370
    -3
390
F
  0
LAYER
  5
7C
330
2
100
AcDbSymbolTableRecord
100
AcDbLayerTableRecord
  2
0_18_1
 70
     0
 62
   179
  6
Continuous
370
    -3
390
F
  0
LAYER
  5
7D
330
2
100
AcDbSymbolTableRecord
100
AcDbLayerTableRecord
  2
0_35_1
 70
     0
 62
   179
  6
Continuous
370
    35
390
F
  0
LAYER
  5
7E
330
2
100
AcDbSymbolTableRecord
100
AcDbLayerTableRecord
  2
0_5_1
 70
     0
 62
   179
  6
Continuous
370
    50
390
F
  0
ENDTAB
  0
TABLE
  2
STYLE
  5
3
330
0
100
AcDbSymbolTable
 70
     1
  0
STYLE
  5
11
330
3
100
AcDbSymbolTableRecord
100
AcDbTextStyleTableRecord
  2
Standard
 70
     0
 40
0.0
 41
1.0
 50
0.0
 71
     0
 42
2.0
  3
txt
  4

  0
ENDTAB
  0
TABLE
  2
VIEW
  5
6
330
0
100
AcDbSymbolTable
 70
     0
  0
ENDTAB
  0
TABLE
  2
UCS
  5
7
330
0
100
AcDbSymbolTable
 70
     0
  0
ENDTAB
  0
TABLE
  2
APPID
  5
9
330
0
100
AcDbSymbolTable
 70
     1
  0
APPID
  5
12
330
9
100
AcDbSymbolTableRecord
100
AcDbRegAppTableRecord
  2
ACAD
 70
     0
  0
ENDTAB
  0
TABLE
  2
DIMSTYLE
  5
A
330
0
100
AcDbSymbolTable
 70
     1
100
AcDbDimStyleTable
  0
DIMSTYLE
105
27
330
A
100
AcDbSymbolTableRecord
100
AcDbDimStyleTableRecord
  2
ISO-25
 70
     0
 41
2.5
 42
0.625
 43
3.75
 44
1.25
 73
     0
 74
     0
 77
     1
 78
     8
140
2.5
141
2.5
143
0.0393700787
147
0.625
171
     3
172
     1
178
     0
271
     2
272
     2
274
     3
278
    44
283
     0
284
     8
340
11
  0
ENDTAB
  0
TABLE
  2
BLOCK_RECORD
  5
1
330
0
100
AcDbSymbolTable
 70
     1
  0
BLOCK_RECORD
  5
1F
330
1
100
AcDbSymbolTableRecord
100
AcDbBlockTableRecord
  2
*Model_Space
340
22
  0
BLOCK_RECORD
  5
1B
330
1
100
AcDbSymbolTableRecord
100
AcDbBlockTableRecord
  2
*Paper_Space
340
1E
  0
BLOCK_RECORD
  5
23
330
1
100
AcDbSymbolTableRecord
100
AcDbBlockTableRecord
  2
*Paper_Space0
340
26
  0
ENDTAB
  0
ENDSEC
  0
SECTION
  2
BLOCKS
  0
BLOCK
  5
20
330
1F
100
AcDbEntity
  8
0
100
AcDbBlockBegin
  2
*Model_Space
 70
     0
 10
0.0
 20
0.0
 30
0.0
  3
*Model_Space
  1

  0
ENDBLK
  5
21
330
1F
100
AcDbEntity
  8
0
100
AcDbBlockEnd
  0
BLOCK
  5
1C
330
1B
100
AcDbEntity
 67
     1
  8
0
100
AcDbBlockBegin
  2
*Paper_Space
 70
     0
 10
0.0
 20
0.0
 30
0.0
  3
*Paper_Space
  1

  0
ENDBLK
  5
1D
330
1B
100
AcDbEntity
 67
     1
  8
0
100
AcDbBlockEnd
  0
BLOCK
  5
24
330
23
100
AcDbEntity
  8
0
100
AcDbBlockBegin
  2
*Paper_Space0
 70
     0
 10
0.0
 20
0.0
 30
0.0
  3
*Paper_Space0
  1

  0
ENDBLK
  5
25
330
23
100
AcDbEntity
  8
0
100
AcDbBlockEnd
  0
ENDSEC
  0
SECTION
  2
ENTITIES
  0
ARC
  5
7F
330
1F
100
AcDbEntity
  8
0
  6
Continuous
 62
     7
370
    25
100
AcDbCircle
 10
6375.2692655933
 20
5035.8994545927
 30
0.0
 40
2.500000000000909
100
AcDbArc
 50
270.0
 51
331.3145979859
  0
ARC
  5
80
330
1F
100
AcDbEntity
  8
0
  6
Continuous
 62
     7
370
    25
100
AcDbCircle
 10
6360.1682450789
 20
5035.8994545927
 30
0.0
 40
2.500000000000909
100
AcDbArc
 50
208.6854020141
 51
270.0
  0
ARC
  5
81
330
1F
100
AcDbEntity
  8
0
  6
Continuous
 62
     7
370
    25
100
AcDbCircle
 10
6367.2187553361
 20
5363.7994545927
 30
0.0
 40
36.99999999999969
100
AcDbArc
 50
84.039981767
 51
95.960018233
  0
ARC
  5
82
330
1F
100
AcDbEntity
  8
0
  6
Continuous
 62
     7
370
    25
100
AcDbCircle
 10
6277.2687553361
 20
5032.4994545927
 30
0.0
 40
0.5000000000009095
100
AcDbArc
 50
270.0
 51
89.9999999999
  0
ARC
  5
83
330
1F
100
AcDbEntity
  8
0
  6
Continuous
 62
     7
370
    25
100
AcDbCircle
 10
6270.7687553361
 20
5032.4994545927
 30
0.0
 40
0.5000000000009095
100
AcDbArc
 50
90.0
 51
270.0
  0
LINE
  5
84
330
1F
100
AcDbEntity
  8
0
  6
Continuous
 62
     7
370
    25
100
AcDbLine
 10
6277.2687553361
 20
5026.5994545927
 30
0.0
 11
6277.2687553361
 21
5031.9994545927
 31
0.0
  0
LINE
  5
85
330
1F
100
AcDbEntity
  8
0
  6
Continuous
 62
     7
370
    25
100
AcDbLine
 10
6270.7687553361
 20
5031.9994545927
 30
0.0
 11
6270.7687553361
 21
5026.5994545927
 31
0.0
  0
LINE
  5
86
330
1F
100
AcDbEntity
  8
0
  6
Continuous
 62
     7
370
    25
100
AcDbLine
 10
6277.2687553361
 20
5032.9994545927
 30
0.0
 11
6277.2687553361
 21
5034.6994545927
 31
0.0
  0
LINE
  5
87
330
1F
100
AcDbEntity
  8
0
  6
Continuous
 62
     7
370
    25
100
AcDbLine
 10
6270.7687553361
 20
5034.6994545927
 30
0.0
 11
6270.7687553361
 21
5032.9994545927
 31
0.0
  0
LINE
  5
88
330
1F
100
AcDbEntity
  8
0
  6
Continuous
 62
     7
370
    25
100
AcDbLine
 10
6262.7687553361
 20
5034.6994545927
 30
0.0
 11
6262.7687553361
 21
5034.1994545927
 31
0.0
  0
LINE
  5
89
330
1F
100
AcDbEntity
  8
0
  6
Continuous
 62
     7
370
    25
100
AcDbLine
 10
6285.2687553361
 20
5034.1994545927
 30
0.0
 11
6285.2687553361
 21
5034.6994545927
 31
0.0
  0
ARC
  5
8A
330
1F
100
AcDbEntity
  8
0
  6
Continuous
 62
     7
370
    25
100
AcDbCircle
 10
6163.7687553361
 20
5040.6994545927
 30
0.0
 40
3.75
100
AcDbArc
 50
126.8698976458
 51
233.1301023541
  0
LINE
  5
8B
330
1F
100
AcDbEntity
  8
0
  6
Continuous
 62
     7
370
    25
100
AcDbLine
 10
6163.2187553361
 20
5038.6994545927
 30
0.0
 11
6163.5187553361
 21
5038.6994545927
 31
0.0
  0
LINE
  5
8C
330
1F
100
AcDbEntity
  8
0
  6
Continuous
 62
     7
370
    25
100
AcDbLine
 10
6163.5187553361
 20
5042.6994545927
 30
0.0
 11
6163.2187553361
 21
5042.6994545927
 31
0.0
  0
ARC
  5
8D
330
1F
100
AcDbEntity
  8
0
  6
Continuous
 62
     7
370
    25
100
AcDbCircle
 10
6384.2687553361
 20
5040.6994545927
 30
0.0
 40
3.75
100
AcDbArc
 50
306.8698976458
 51
0.0
  0
ARC
  5
8E
330
1F
100
AcDbEntity
  8
0
  6
Continuous
 62
     7
370
    25
100
AcDbCircle
 10
6384.2687553361
 20
5040.6994545927
 30
0.0
 40
3.75
100
AcDbArc
 50
0.0
 51
53.1301023542
  0
LINE
  5
8F
330
1F
100
AcDbEntity
  8
0
  6
Continuous
 62
     7
370
    25
100
AcDbLine
 10
6384.8187553361
 20
5042.6994545927
 30
0.0
 11
6384.5187553361
 21
5042.6994545927
 31
0.0
  0
LINE
  5
90
330
1F
100
AcDbEntity
  8
0
  6
Continuous
 62
     7
370
    25
100
AcDbLine
 10
6384.5187553361
 20
5038.6994545927
 30
0.0
 11
6384.8187553361
 21
5038.6994545927
 31
0.0
  0
LINE
  5
91
330
1F
100
AcDbEntity
  8
0
  6
Continuous
 62
     7
370
    25
100
AcDbLine
 10
6163.5187553361
 20
5037.8994545927
 30
0.0
 11
6384.5187553361
 21
5037.8994545927
 31
0.0
  0
LINE
  5
92
330
1F
100
AcDbEntity
  8
0
  6
Continuous
 62
     7
370
    25
100
AcDbLine
 10
6375.2692655933
 20
5033.3994545927
 30
0.0
 11
6360.1682450789
 21
5033.3994545927
 31
0.0
  0
LINE
  5
93
330
1F
100
AcDbEntity
  8
0
  6
Continuous
 62
     7
370
    25
100
AcDbLine
 10
6272.4364262846
 20
5030.6194545927
 30
0.0
 11
6275.6010843876
 21
5030.6194545927
 31
0.0
  0
LINE
  5
94
330
1F
100
AcDbEntity
  8
0
  6
Continuous
 62
     7
370
    25
100
AcDbLine
 10
6273.6931595801
 20
5031.6194545927
 30
0.0
 11
6274.344351092
 21
5031.6194545927
 31
0.0
  0
LINE
  5
95
330
1F
100
AcDbEntity
  8
0
  6
Continuous
 62
     7
370
    25
100
AcDbLine
 10
6272.1793427634
 20
5028.5994545927
 30
0.0
 11
6275.8581679088
 21
5028.5994545927
 31
0.0
  0
LINE
  5
96
330
1F
100
AcDbEntity
  8
0
  6
Continuous
 62
     7
370
    25
100
AcDbLine
 10
6271.9938602844
 20
5027.5994545927
 30
0.0
 11
6276.0436503878
 21
5027.5994545927
 31
0.0
  0
LINE
  5
97
330
1F
100
AcDbEntity
  8
0
  6
Continuous
 62
     7
370
    25
100
AcDbLine
 10
6277.2687553361
 20
5032.9994545927
 30
0.0
 11
6270.7687557276
 21
5032.9994545927
 31
0.0
  0
LINE
  5
98
330
1F
100
AcDbEntity
  8
0
  6
Continuous
 62
     7
370
    25
100
AcDbLine
 10
6277.2687553361
 20
5031.9994545927
 30
0.0
 11
6270.7687557276
 21
5031.9994545927
 31
0.0
  0
LINE
  5
99
330
1F
100
AcDbEntity
  8
0
  6
Continuous
 62
     7
370
    25
100
AcDbLine
 10
6277.2687553361
 20
5026.5994545927
 30
0.0
 11
6277.2128905868
 21
5026.5994545927
 31
0.0
  0
ELLIPSE
  5
9A
330
1F
100
AcDbEntity
  8
0
  6
Continuous
 62
     7
370
    25
100
AcDbEllipse
 10
6274.0187553361
 20
5025.2853850192
 30
0.0
 11
0.0
 21
7.11787685676336
 31
0.0
210
0.0
220
0.0
230
1.0
 40
0.4565968287
 41
4.8980694860943
 42
5.747760504259289
  0
LWPOLYLINE
  5
9B
330
1F
100
AcDbEntity
  8
0
  6
Continuous
 62
     7
370
    25
100
AcDbPolyline
 90
        9
 70
   128
 43
0.0
 10
6272.3605844125
 20
5031.4071290299
 10
6272.4302774703
 20
5031.4788638584
 10
6272.6269975568
 20
5031.5893034189
 10
6273.074582569
 20
5031.6794047493
 10
6274.0541018371
 20
5031.6994545558
 10
6275.080122271
 20
5031.6666241228
 10
6275.5265479403
 20
5031.5347353357
 10
6275.6581354576
 20
5031.4298219876
 10
6275.6769262597
 20
5031.4071290299
  0
ELLIPSE
  5
9C
330
1F
100
AcDbEntity
  8
0
  6
Continuous
 62
     7
370
    25
100
AcDbEllipse
 10
6274.0187553361
 20
5025.2853850192
 30
0.0
 11
0.0
 21
7.11787685676336
 31
0.0
210
0.0
220
0.0
230
1.0
 40
0.4565968287
 41
0.5354248029205629
 42
1.385115821085293
  0
LINE
  5
9D
330
1F
100
AcDbEntity
  8
0
  6
Continuous
 62
     7
370
    25
100
AcDbLine
 10
6270.8246200854
 20
5026.5994545927
 30
0.0
 11
6270.7687553361
 21
5026.5994545927
 31
0.0
  0
LINE
  5
9E
330
1F
100
AcDbEntity
  8
0
  6
Continuous
 62
     7
370
    25
100
AcDbLine
 10
6277.2128905868
 20
5026.5994545927
 30
0.0
 11
6270.8246200854
 21
5026.5994545927
 31
0.0
  0
LINE
  5
9F
330
1F
100
AcDbEntity
  8
0
  6
Continuous
 62
     7
370
    25
100
AcDbLine
 10
6285.2687553361
 20
5034.1994545927
 30
0.0
 11
6277.2687553361
 21
5034.1994545927
 31
0.0
  0
LINE
  5
A0
330
1F
100
AcDbEntity
  8
0
  6
Continuous
 62
     7
370
    25
100
AcDbLine
 10
6270.7687553361
 20
5034.1994545927
 30
0.0
 11
6262.7687553361
 21
5034.1994545927
 31
0.0
  0
LINE
  5
A1
330
1F
100
AcDbEntity
  8
0
  6
Continuous
 62
     7
370
    25
100
AcDbLine
 10
6251.2388810398
 20
5157.8402298524
 30
0.0
 11
6250.4521442749
 21
5155.6789609084
 31
0.0
  0
LINE
  5
A2
330
1F
100
AcDbEntity
  8
0
  6
Continuous
 62
     7
370
    25
100
AcDbLine
 10
6250.4521442749
 20
5155.6789609084
 30
0.0
 11
6252.0413400866
 21
5155.6789609084
 31
0.0
  0
LINE
  5
A3
330
1F
100
AcDbEntity
  8
0
  6
Continuous
 62
     7
370
    25
100
AcDbLine
 10
6252.0413400866
 20
5155.6789609084
 30
0.0
 11
6251.2388810398
 21
5157.8402298524
 31
0.0
  0
LINE
  5
A4
330
1F
100
AcDbEntity
  8
0
  6
Continuous
 62
     7
370
    25
100
AcDbLine
 10
6249.6099903577
 20
5153.3746347648
 30
0.0
 11
6250.090687455
 21
5154.6976414455
 31
0.0
  0
LINE
  5
A5
330
1F
100
AcDbEntity
  8
0
  6
Continuous
 62
     7
370
    25
100
AcDbLine
 10
6248.3624817638
 20
5153.3746347648
 30
0.0
 11
6249.6099903577
 21
5153.3746347648
 31
0.0
  0
LINE
  5
A6
330
1F
100
AcDbEntity
  8
0
  6
Continuous
 62
     7
370
    25
100
AcDbLine
 10
6250.631004691
 20
5159.1988840835
 30
0.0
 11
6248.3624817638
 21
5153.3746347648
 31
0.0
  0
LINE
  5
A7
330
1F
100
AcDbEntity
  8
0
  6
Continuous
 62
     7
370
    25
100
AcDbLine
 10
6251.8744659648
 20
5159.1988840835
 30
0.0
 11
6250.631004691
 21
5159.1988840835
 31
0.0
  0
LINE
  5
A8
330
1F
100
AcDbEntity
  8
0
  6
Continuous
 62
     7
370
    25
100
AcDbLine
 10
6254.2065006846
 20
5153.3746347648
 30
0.0
 11
6251.8744659648
 21
5159.1988840835
 31
0.0
  0
LINE
  5
A9
330
1F
100
AcDbEntity
  8
0
  6
Continuous
 62
     7
370
    25
100
AcDbLine
 10
6252.9272361944
 20
5153.3746347648
 30
0.0
 11
6254.2065006846
 21
5153.3746347648
 31
0.0
  0
LINE
  5
AA
330
1F
100
AcDbEntity
  8
0
  6
Continuous
 62
     7
370
    25
100
AcDbLine
 10
6252.4186748547
 20
5154.6976414455
 30
0.0
 11
6252.9272361944
 21
5153.3746347648
 31
0.0
  0
LINE
  5
AB
330
1F
100
AcDbEntity
  8
0
  6
Continuous
 62
     7
370
    25
100
AcDbLine
 10
6250.090687455
 20
5154.6976414455
 30
0.0
 11
6252.4186748547
 21
5154.6976414455
 31
0.0
  0
LWPOLYLINE
  5
AC
330
1F
100
AcDbEntity
  8
0
  6
Continuous
 62
     7
370
    25
100
AcDbPolyline
 90
        9
 70
   128
 43
0.0
 10
6267.7229932235
 20
5156.2907289112
 10
6267.7872693613
 20
5155.6161660314
 10
6267.980032103
 20
5155.07619722
 10
6268.2979072632
 20
5154.6714025767
 10
6268.6982417062
 20
5154.4081413073
 10
6269.1679254228
 20
5154.288438288
 10
6269.675693838
 20
5154.3121220427
 10
6270.1203292887
 20
5154.4783452246
 10
6270.4940065102
 20
5154.7869938205
  0
ARC
  5
AD
330
1F
100
AcDbEntity
  8
0
  6
Continuous
 62
     7
370
    25
100
AcDbCircle
 10
6268.3974573638
 20
5156.3019408971
 30
0.0
 40
2.586616123023404
100
AcDbArc
 50
324.1484716055
 51
35.4016413327
  0
LWPOLYLINE
  5
AE
330
1F
100
AcDbEntity
  8
0
  6
Continuous
 62
     7
370
    25
100
AcDbPolyline
 90
        9
 70
   128
 43
0.0
 10
6270.5058371382
 20
5157.8003793159
 10
6270.1362014602
 20
5158.1006082576
 10
6269.6854448634
 20
5158.2622699954
 10
6269.162526057
 20
5158.2852699744
 10
6268.6833172132
 20
5158.1683935727
 10
6268.2835054072
 20
5157.9113081757
 10
6267.973267922
 20
5157.513513341
 10
6267.785570107
 20
5156.9733174151
 10
6267.7229932235
 20
5156.2907289112
  0
LWPOLYLINE
  5
AF
330
1F
100
AcDbEntity
  8
0
  6
Continuous
 62
     7
370
    25
100
AcDbPolyline
 90
        3
 70
   128
 43
0.0
 10
6268.0726194154
 20
5159.067813178
 10
6267.2393123172
 20
5158.4571622357
 10
6266.777476977
 20
5157.7448064973
  0
ARC
  5
B0
330
1F
100
AcDbEntity
  8
0
  6
Continuous
 62
     7
370
    25
100
AcDbCircle
 10
6269.2935740778
 20
5156.2359219178
 30
0.0
 40
3.083883654989867
100
AcDbArc
 50
47.2265923995
 51
113.323029533
  0
ARC
  5
B1
330
1F
100
AcDbEntity
  8
0
  6
Continuous
 62
     7
370
    25
100
AcDbCircle
 10
6268.7459291202
 20
5156.2822141577
 30
0.0
 40
3.449150919332671
100
AcDbArc
 50
320.1455846357
 51
40.0075048262
  0
ARC
  5
B2
330
1F
100
AcDbEntity
  8
0
  6
Continuous
 62
     7
370
    25
100
AcDbCircle
 10
6269.3638537369
 20
5156.0830437452
 30
0.0
 40
2.857508162909292
100
AcDbArc
 50
176.6296901516
 51
315.2654575702
  0
LWPOLYLINE
  5
B3
330
1F
100
AcDbEntity
  8
0
  6
Continuous
 62
     7
370
    25
100
AcDbPolyline
 90
        3
 70
   128
 43
0.0
 10
6266.777476977
 20
5157.7448064973
 10
6266.5628220618
 20
5156.9787848384
 10
6266.511287846
 20
5156.2510340408
  0
LWPOLYLINE
  5
B4
330
1F
100
AcDbEntity
  8
0
  6
Continuous
 62
     7
370
    25
100
AcDbPolyline
 90
        3
 70
   128
 43
0.0
 10
6256.8084605232
 20
5154.4969877673
 10
6256.5557058251
 20
5154.7837865397
 10
6256.4488716972
 20
5155.0710845596
  0
LWPOLYLINE
  5
B5
330
1F
100
AcDbEntity
  8
0
  6
Continuous
 62
     7
370
    25
100
AcDbPolyline
 90
        3
 70
   128
 43
0.0
 10
6257.5850789878
 20
5154.2804561408
 10
6257.0987876921
 20
5154.3483175
 10
6256.8084605232
 20
5154.4969877673
  0
ARC
  5
B6
330
1F
100
AcDbEntity
  8
0
  6
Continuous
 62
     7
370
    25
100
AcDbCircle
 10
6257.6802030453
 20
5155.4237322278
 30
0.0
 40
1.147226567579438
100
AcDbArc
 50
265.2437715864
 51
305.102432208
  0
LWPOLYLINE
  5
B7
330
1F
100
AcDbEntity
  8
0
  6
Continuous
 62
     7
370
    25
100
AcDbPolyline
 90
        3
 70
   128
 43
0.0
 10
6258.6459438577
 20
5154.9876474987
 10
6258.5244967373
 20
5154.6833036508
 10
6258.3399041901
 20
5154.4851571392
  0
LWPOLYLINE
  5
B8
330
1F
100
AcDbEntity
  8
0
  6
Continuous
 62
     7
370
    25
100
AcDbPolyline
 90
        3
 70
   128
 43
0.0
 10
6258.6974693561
 20
5155.9769059357
 10
6258.6812680009
 20
5155.326028995
 10
6258.6459438577
 20
5154.9876474987
  0
LINE
  5
B9
330
1F
100
AcDbEntity
  8
0
  6
Continuous
 62
     7
370
    25
100
AcDbLine
 10
6258.6974693561
 20
5159.1988840835
 30
0.0
 11
6258.6974693561
 21
5155.9769059357
 31
0.0
  0
LINE
  5
BA
330
1F
100
AcDbEntity
  8
0
  6
Continuous
 62
     7
370
    25
100
AcDbLine
 10
6259.8735271833
 20
5159.1988840835
 30
0.0
 11
6258.6974693561
 21
5159.1988840835
 31
0.0
  0
LINE
  5
BB
330
1F
100
AcDbEntity
  8
0
  6
Continuous
 62
     7
370
    25
100
AcDbLine
 10
6259.8735271833
 20
5156.1397327375
 30
0.0
 11
6259.8735271833
 21
5159.1988840835
 31
0.0
  0
LWPOLYLINE
  5
BC
330
1F
100
AcDbEntity
  8
0
  6
Continuous
 62
     7
370
    25
100
AcDbPolyline
 90
        3
 70
   128
 43
0.0
 10
6259.7781038281
 20
5154.6579465751
 10
6259.8550700984
 20
5155.3360360126
 10
6259.8735271833
 20
5156.1397327375
  0
LWPOLYLINE
  5
BD
330
1F
100
AcDbEntity
  8
0
  6
Continuous
 62
     7
370
    25
100
AcDbPolyline
 90
        3
 70
   128
 43
0.0
 10
6259.4264539762
 20
5153.926938295
 10
6259.6630764997
 20
5154.30305276
 10
6259.7781038281
 20
5154.6579465751
  0
LWPOLYLINE
  5
BE
330
1F
100
AcDbEntity
  8
0
  6
Continuous
 62
     7
370
    25
100
AcDbPolyline
 90
        3
 70
   128
 43
0.0
 10
6258.7412115466
 20
5153.4521565117
 10
6259.167577857
 20
5153.6881763556
 10
6259.4264539762
 20
5153.926938295
  0
LWPOLYLINE
  5
BF
330
1F
100
AcDbEntity
  8
0
  6
Continuous
 62
     7
370
    25
100
AcDbPolyline
 90
        3
 70
   128
 43
0.0
 10
6257.6208822042
 20
5153.2753197557
 10
6258.312820022
 20
5153.3308616801
 10
6258.7412115466
 20
5153.4521565117
  0
LWPOLYLINE
  5
C0
330
1F
100
AcDbEntity
  8
0
  6
Continuous
 62
     7
370
    25
100
AcDbPolyline
 90
        3
 70
   128
 43
0.0
 10
6256.3554720021
 20
5153.4680344599
 10
6256.9647930624
 20
5153.312595569
 10
6257.6208822042
 20
5153.2753197557
  0
LWPOLYLINE
  5
C1
330
1F
100
AcDbEntity
  8
0
  6
Continuous
 62
     7
370
    25
100
AcDbPolyline
 90
        3
 70
   128
 43
0.0
 10
6255.6741212266
 20
5153.9686568255
 10
6256.0111461807
 20
5153.6600014683
 10
6256.3554720021
 20
5153.4680344599
  0
LWPOLYLINE
  5
C2
330
1F
100
AcDbEntity
  8
0
  6
Continuous
 62
     7
370
    25
100
AcDbPolyline
 90
        3
 70
   128
 43
0.0
 10
6255.3444203029
 20
5154.6142043846
 10
6255.4870528453
 20
5154.2453793997
 10
6255.6741212266
 20
5153.9686568255
  0
LWPOLYLINE
  5
C3
330
1F
100
AcDbEntity
  8
0
  6
Continuous
 62
     7
370
    25
100
AcDbPolyline
 90
        3
 70
   128
 43
0.0
 10
6255.2292273457
 20
5156.092098893
 10
6255.2653088982
 20
5155.1470483399
 10
6255.3444203029
 20
5154.6142043846
  0
LINE
  5
C4
330
1F
100
AcDbEntity
  8
0
  6
Continuous
 62
     7
370
    25
100
AcDbLine
 10
6255.2292273457
 20
5159.1988840835
 30
0.0
 11
6255.2292273457
 21
5156.092098893
 31
0.0
  0
LINE
  5
C5
330
1F
100
AcDbEntity
  8
0
  6
Continuous
 62
     7
370
    25
100
AcDbLine
 10
6256.4051295067
 20
5159.1988840835
 30
0.0
 11
6255.2292273457
 21
5159.1988840835
 31
0.0
  0
LINE
  5
C6
330
1F
100
AcDbEntity
  8
0
  6
Continuous
 62
     7
370
    25
100
AcDbLine
 10
6256.4051295067
 20
5156.0444650485
 30
0.0
 11
6256.4051295067
 21
5159.1988840835
 31
0.0
  0
LWPOLYLINE
  5
C7
330
1F
100
AcDbEntity
  8
0
  6
Continuous
 62
     7
370
    25
100
AcDbPolyline
 90
        3
 70
   128
 43
0.0
 10
6256.4488716972
 20
5155.0710845596
 10
6256.4135642413
 20
5155.48602604
 10
6256.4051295067
 20
5156.0444650485
  0
LWPOLYLINE
  5
C8
330
1F
100
AcDbEntity
  8
0
  6
Continuous
 62
     7
370
    25
100
AcDbPolyline
 90
        5
 70
   128
 43
0.0
 10
6271.1730222933
 20
5122.2474740535
 10
6270.6645105178
 20
5120.1228262582
 10
6269.9064467121
 20
5116.9538871821
 10
6269.1357567621
 20
5113.7314041779
 10
6268.2110066302
 20
5109.8642311483
  0
LINE
  5
C9
330
1F
100
AcDbEntity
  8
0
  6
Continuous
 62
     7
370
    25
100
AcDbLine
 10
6268.2110066302
 20
5109.8642311483
 30
0.0
 11
6267.0804033213
 21
5110.1344675993
 31
0.0
  0
LINE
  5
CA
330
1F
100
AcDbEntity
  8
0
  6
Continuous
 62
     7
370
    25
100
AcDbLine
 10
6267.0804033213
 20
5110.1344675993
 30
0.0
 11
6267.6777136092
 21
5112.6319807457
 31
0.0
  0
LINE
  5
CB
330
1F
100
AcDbEntity
  8
0
  6
Continuous
 62
     7
370
    25
100
AcDbLine
 10
6267.6777136092
 20
5112.6319807457
 30
0.0
 11
6268.2126788484
 21
5114.8686827306
 31
0.0
  0
LINE
  5
CC
330
1F
100
AcDbEntity
  8
0
  6
Continuous
 62
     7
370
    25
100
AcDbLine
 10
6268.2126788484
 20
5114.8686827306
 30
0.0
 11
6268.685299039
 21
5116.8445735538
 31
0.0
  0
LINE
  5
CD
330
1F
100
AcDbEntity
  8
0
  6
Continuous
 62
     7
370
    25
100
AcDbLine
 10
6268.685299039
 20
5116.8445735538
 30
0.0
 11
6269.0955741809
 21
5118.5596532155
 31
0.0
  0
LINE
  5
CE
330
1F
100
AcDbEntity
  8
0
  6
Continuous
 62
     7
370
    25
100
AcDbLine
 10
6269.4435042742
 20
5120.0139217156
 30
0.0
 11
6269.7245362979
 21
5121.1883544036
 31
0.0
  0
LINE
  5
CF
330
1F
100
AcDbEntity
  8
0
  6
Continuous
 62
     7
370
    25
100
AcDbLine
 10
6269.7245362979
 20
5121.1883544036
 30
0.0
 11
6269.9454300014
 21
5122.1112074476
 31
0.0
  0
LINE
  5
D0
330
1F
100
AcDbEntity
  8
0
  6
Continuous
 62
     7
370
    25
100
AcDbLine
 10
6269.9454300014
 20
5122.1112074476
 30
0.0
 11
6270.1061853847
 21
5122.7824808475
 31
0.0
  0
LINE
  5
D1
330
1F
100
AcDbEntity
  8
0
  6
Continuous
 62
     7
370
    25
100
AcDbLine
 10
6270.1061853847
 20
5122.7824808475
 30
0.0
 11
6270.2068024478
 21
5123.2021746033
 31
0.0
  0
LWPOLYLINE
  5
D2
330
1F
100
AcDbEntity
  8
0
  6
Continuous
 62
     7
370
    25
100
AcDbPolyline
 90
        6
 70
   128
 43
0.0
 10
6270.2068024478
 20
5123.2021746033
 10
6270.4528737626
 20
5124.5976022719
 10
6270.4324106217
 20
5125.6289212267
 10
6270.3150513373
 20
5126.0265899813
 10
6270.1242269643
 20
5126.3278019533
 10
6269.8598225806
 20
5126.5337417266
  0
ARC
  5
D3
330
1F
100
AcDbEntity
  8
0
  6
Continuous
 62
     7
370
    25
100
AcDbCircle
 10
6269.1280159747
 20
5125.2399603803
 30
0.0
 40
1.486408786447935
100
AcDbArc
 50
60.5060274617
 51
137.5874203949
  0
LWPOLYLINE
  5
D4
330
1F
100
AcDbEntity
  8
0
  6
Continuous
 62
     7
370
    25
100
AcDbPolyline
 90
        9
 70
   128
 43
0.0
 10
6268.0305895526
 20
5126.2424903442
 10
6267.7062154738
 20
5124.7388303705
 10
6267.1705097083
 20
5122.4091996754
 10
6266.5129503519
 20
5119.6153062791
 10
6265.8230155005
 20
5116.7188582019
 10
6265.3164993668
 20
5114.6067566243
 10
6264.8886374429
 20
5112.8300920482
 10
6264.5828318227
 20
5111.5643139542
 10
6264.4424846001
 20
5110.984871823
  0
LINE
  5
D5
330
1F
100
AcDbEntity
  8
0
  6
Continuous
 62
     7
370
    25
100
AcDbLine
 10
6264.4424846001
 20
5110.984871823
 30
0.0
 11
6263.3131266205
 21
5111.258999928
 31
0.0
  0
LWPOLYLINE
  5
D6
330
1F
100
AcDbEntity
  8
0
  6
Continuous
 62
     7
370
    25
100
AcDbPolyline
 90
       10
 70
   128
 43
0.0
 10
6263.3131266205
 20
5111.258999928
 10
6263.4359407237
 20
5111.7664676935
 10
6263.7482392849
 20
5113.0597354826
 10
6264.1986011829
 20
5114.9306715597
 10
6264.7356052962
 20
5117.1711441893
 10
6265.3078305035
 20
5119.5730216356
 10
6265.854366651
 20
5121.8877315509
 10
6266.3365608609
 20
5123.9601887241
 10
6266.7056978165
 20
5125.5932134135
 10
6266.913062201
 20
5126.5896258775
  0
LWPOLYLINE
  5
D7
330
1F
100
AcDbEntity
  8
0
  6
Continuous
 62
     7
370
    25
100
AcDbPolyline
 90
        7
 70
   128
 43
0.0
 10
6266.913062201
 20
5126.5896258775
 10
6267.1968878213
 20
5128.4229718973
 10
6267.2477249834
 20
5129.7437141219
 10
6267.1673985093
 20
5130.2348940581
 10
6267.0067756607
 20
5130.6255653419
 10
6266.7585066841
 20
5130.9249420722
 10
6266.4152418263
 20
5131.1422383478
  0
LWPOLYLINE
  5
D8
330
1F
100
AcDbEntity
  8
0
  6
Continuous
 62
     7
370
    25
100
AcDbPolyline
 90
        3
 70
   128
 43
0.0
 10
6266.4152418263
 20
5131.1422383478
 10
6265.5678047241
 20
5131.3460388934
 10
6264.9740845313
 20
5131.2343927136
  0
ARC
  5
D9
330
1F
100
AcDbEntity
  8
0
  6
Continuous
 62
     7
370
    25
100
AcDbCircle
 10
6265.6701538957
 20
5129.7704024222
 30
0.0
 40
1.621042915352362
100
AcDbArc
 50
115.4292357077
 51
164.7010576707
  0
ARC
  5
DA
330
1F
100
AcDbEntity
  8
0
  6
Continuous
 62
     7
370
    25
100
AcDbCircle
 10
6318.1710579831
 20
5111.7480379836
 30
0.0
 40
57.1259652344984
100
AcDbArc
 50
161.1572478519
 51
164.1778154868
  0
LWPOLYLINE
  5
DB
330
1F
100
AcDbEntity
  8
0
  6
Continuous
 62
     7
370
    25
100
AcDbPolyline
 90
        3
 70
   128
 43
0.0
 10
6263.209452959
 20
5127.3235918147
 10
6263.1637938082
 20
5126.7916290942
 10
6263.0810283783
 20
5126.3534803151
  0
LWPOLYLINE
  5
DC
330
1F
100
AcDbEntity
  8
0
  6
Continuous
 62
     7
370
    25
100
AcDbPolyline
 90
        3
 70
   128
 43
0.0
 10
6263.0810283783
 20
5126.3534803151
 10
6262.7253787977
 20
5124.8996146243
 10
6262.3596714
 20
5123.4711657252
  0
LWPOLYLINE
  5
DD
330
1F
100
AcDbEntity
  8
0
  6
Continuous
 62
     7
370
    25
100
AcDbPolyline
 90
        6
 70
   128
 43
0.0
 10
6262.3596714
 20
5123.4711657252
 10
6262.0442684666
 20
5122.2433921671
 10
6261.6318105787
 20
5120.6296508776
 10
6261.0946929685
 20
5118.5139641669
 10
6260.2640747255
 20
5115.2183233023
 10
6259.176765458
 20
5110.8745045166
  0
LWPOLYLINE
  5
DE
330
1F
100
AcDbEntity
  8
0
  6
Continuous
 62
     7
370
    25
100
AcDbPolyline
 90
        6
 70
   128
 43
0.0
 10
6258.0491198061
 20
5111.1559489311
 10
6258.9897197089
 20
5114.9157816458
 10
6259.7405589635
 20
5117.8999918107
 10
6260.3292423378
 20
5120.2245814153
 10
6260.8524203537
 20
5122.2752427231
 10
6261.233893742
 20
5123.7607047799
  0
ARC
  5
DF
330
1F
100
AcDbEntity
  8
0
  6
Continuous
 62
     7
370
    25
100
AcDbCircle
 10
6122.6371285792
 20
5159.9704402937
 30
0.0
 40
143.248763553375
100
AcDbArc
 50
345.3582045269
 51
346.5370130987
  0
ARC
  5
E0
330
1F
100
AcDbEntity
  8
0
  6
Continuous
 62
     7
370
    25
100
AcDbCircle
 10
6259.9083734833
 20
5127.3643212423
 30
0.0
 40
2.172709670053768
100
AcDbArc
 50
339.9567397917
 51
32.5876403609
  0
ARC
  5
E1
330
1F
100
AcDbEntity
  8
0
  6
Continuous
 62
     7
370
    25
100
AcDbCircle
 10
6260.4630352044
 20
5127.4939058293
 30
0.0
 40
1.646523394492951
100
AcDbArc
 50
39.198293636
 51
91.4464693815
  0
LWPOLYLINE
  5
E2
330
1F
100
AcDbEntity
  8
0
  6
Continuous
 62
     7
370
    25
100
AcDbPolyline
 90
        7
 70
   128
 43
0.0
 10
6260.421472061
 20
5129.1399045515
 10
6260.0456048721
 20
5129.1148793923
 10
6259.7023600806
 20
5128.9839513836
 10
6259.386358083
 20
5128.7393457303
 10
6259.0922192757
 20
5128.3732876377
 10
6258.548012818
 20
5127.2457149543
 10
6258.0267038793
 20
5125.5390349741
  0
LWPOLYLINE
  5
E3
330
1F
100
AcDbEntity
  8
0
  6
Continuous
 62
     7
370
    25
100
AcDbPolyline
 90
        8
 70
   128
 43
0.0
 10
6258.0267038793
 20
5125.5390349741
 10
6257.657065413
 20
5124.1517834227
 10
6257.0915732705
 20
5122.0673026843
 10
6256.4129779677
 20
5119.5835694525
 10
6255.7040300206
 20
5116.9985604206
 10
6255.018931443
 20
5114.5065026883
 10
6254.4864837087
 20
5112.5729293222
 10
6254.2018306999
 20
5111.5404443425
  0
LWPOLYLINE
  5
E4
330
1F
100
AcDbEntity
  8
0
  6
Continuous
 62
     7
370
    25
100
AcDbPolyline
 90
        3
 70
   128
 43
0.0
 10
6254.2018306999
 20
5111.5404443425
 10
6254.7011664311
 20
5109.634112312
 10
6254.9988414312
 20
5107.7790829557
  0
ARC
  5
E5
330
1F
100
AcDbEntity
  8
0
  6
Continuous
 62
     7
370
    25
100
AcDbCircle
 10
6265.2841145704
 20
5108.0917255098
 30
0.0
 40
10.29002375679059
100
AcDbArc
 50
181.7410898594
 51
205.067937821
  0
ARC
  5
E6
330
1F
100
AcDbEntity
  8
0
  6
Continuous
 62
     7
370
    25
100
AcDbCircle
 10
6263.9821621902
 20
5110.9413042587
 30
0.0
 40
10.78316320875759
100
AcDbArc
 50
221.9574092738
 51
247.9076545092
  0
LWPOLYLINE
  5
E7
330
1F
100
AcDbEntity
  8
0
  6
Continuous
 62
     7
370
    25
100
AcDbPolyline
 90
        3
 70
   128
 43
0.0
 10
6259.9266093433
 20
5100.949852918
 10
6261.5203343577
 20
5100.0774900425
 10
6262.5877223221
 20
5099.371086739
  0
ARC
  5
E8
330
1F
100
AcDbEntity
  8
0
  6
Continuous
 62
     7
370
    25
100
AcDbCircle
 10
6255.0519534477
 20
5090.8325866548
 30
0.0
 40
11.38831841034568
100
AcDbArc
 50
21.8798218162
 51
48.5695506029
  0
LINE
  5
E9
330
1F
100
AcDbEntity
  8
0
  6
Continuous
 62
     7
370
    25
100
AcDbLine
 10
6265.6199434227
 20
5095.0765687595
 30
0.0
 11
6264.5400872815
 21
5094.6466188298
 31
0.0
  0
ARC
  5
EA
330
1F
100
AcDbEntity
  8
0
  6
Continuous
 62
     7
370
    25
100
AcDbCircle
 10
6255.1430430853
 20
5090.9053188458
 30
0.0
 40
10.11443350837492
100
AcDbArc
 50
21.7092735174
 51
48.2300449064
  0
LWPOLYLINE
  5
EB
330
1F
100
AcDbEntity
  8
0
  6
Continuous
 62
     7
370
    25
100
AcDbPolyline
 90
        3
 70
   128
 43
0.0
 10
6261.8806866304
 20
5098.4489204163
 10
6260.5925476449
 20
5099.2703679549
 10
6259.3833344503
 20
5099.9223006061
  0
LWPOLYLINE
  5
EC
330
1F
100
AcDbEntity
  8
0
  6
Continuous
 62
     7
370
    25
100
AcDbPolyline
 90
        3
 70
   128
 43
0.0
 10
6259.3833344503
 20
5099.9223006061
 10
6256.6354060514
 20
5101.5205032467
 10
6255.010516393
 20
5103.0667570069
  0
ARC
  5
ED
330
1F
100
AcDbEntity
  8
0
  6
Continuous
 62
     7
370
    25
100
AcDbCircle
 10
6265.4310981853
 20
5108.1506046498
 30
0.0
 40
11.59456906247337
100
AcDbArc
 50
182.683828733
 51
206.0061750455
  0
LWPOLYLINE
  5
EE
330
1F
100
AcDbEntity
  8
0
  6
Continuous
 62
     7
370
    25
100
AcDbPolyline
 90
        3
 70
   128
 43
0.0
 10
6253.849246851
 20
5107.6076945153
 10
6253.4723987376
 20
5109.8683403563
 10
6253.0858600099
 20
5111.2048281049
  0
ARC
  5
EF
330
1F
100
AcDbEntity
  8
0
  6
Continuous
 62
     7
370
    25
100
AcDbCircle
 10
6250.0791992417
 20
5110.1871172618
 30
0.0
 40
3.174231298298451
100
AcDbArc
 50
18.7002106436
 51
75.3105952746
  0
ARC
  5
F0
330
1F
100
AcDbEntity
  8
0
  6
Continuous
 62
     7
370
    25
100
AcDbCircle
 10
6250.7538000124
 20
5112.7391090953
 30
0.0
 40
0.5346150144110771
100
AcDbArc
 50
75.8914239219
 51
119.7816549129
  0
ARC
  5
F1
330
1F
100
AcDbEntity
  8
0
  6
Continuous
 62
     7
370
    25
100
AcDbCircle
 10
6305.4951599412
 20
5108.5855381849
 30
0.0
 40
55.20037302708312
100
AcDbArc
 50
175.2015330131
 51
187.2930965267
  0
ARC
  5
F2
330
1F
100
AcDbEntity
  8
0
  6
Continuous
 62
     7
370
    25
100
AcDbCircle
 10
6268.3962557255
 20
5106.996174658
 30
0.0
 40
18.46754502126306
100
AcDbArc
 50
197.0605657567
 51
222.7149378536
  0
ARC
  5
F3
330
1F
100
AcDbEntity
  8
0
  6
Continuous
 62
     7
370
    25
100
AcDbCircle
 10
6244.1487811096
 20
5082.6728292788
 30
0.0
 40
15.9115184746911
100
AcDbArc
 50
20.8204957522
 51
47.8457851642
  0
ARC
  5
F4
330
1F
100
AcDbEntity
  8
0
  6
Continuous
 62
     7
370
    25
100
AcDbCircle
 10
6236.6700571085
 20
5087.1618709186
 30
0.0
 40
22.38162038184877
100
AcDbArc
 50
349.5376093001
 51
2.9877117776
  0
LINE
  5
F5
330
1F
100
AcDbEntity
  8
0
  6
Continuous
 62
     7
370
    25
100
AcDbLine
 10
6258.6795677479
 20
5083.0975908677
 30
0.0
 11
6269.9561799327
 21
5083.0975908677
 31
0.0
  0
ARC
  5
F6
330
1F
100
AcDbEntity
  8
0
  6
Continuous
 62
     7
370
    25
100
AcDbCircle
 10
6292.4586359658
 20
5085.1715504551
 30
0.0
 40
22.5978281233241
100
AcDbArc
 50
172.4555789825
 51
185.2658415894
  0
LWPOLYLINE
  5
F7
330
1F
100
AcDbEntity
  8
0
  6
Continuous
 62
     7
370
    25
100
AcDbPolyline
 90
        3
 70
   128
 43
0.0
 10
6270.0564289387
 20
5088.138528077
 10
6270.1443912871
 20
5088.4078085536
 10
6270.2416716673
 20
5088.6922326027
  0
ARC
  5
F8
330
1F
100
AcDbEntity
  8
0
  6
Continuous
 62
     7
370
    25
100
AcDbCircle
 10
6247.6815633876
 20
5097.508030878
 30
0.0
 40
24.22141170172658
100
AcDbArc
 50
338.6559666038
 51
2.5922105047
  0
LWPOLYLINE
  5
F9
330
1F
100
AcDbEntity
  8
0
  6
Continuous
 62
     7
370
    25
100
AcDbPolyline
 90
        3
 70
   128
 43
0.0
 10
6271.8781899912
 20
5098.6034969116
 10
6271.2985530975
 20
5101.8928247576
 10
6270.7354447219
 20
5104.1153242503
  0
LWPOLYLINE
  5
FA
330
1F
100
AcDbEntity
  8
0
  6
Continuous
 62
     7
370
    25
100
AcDbPolyline
 90
        3
 70
   128
 43
0.0
 10
6270.7354447219
 20
5104.1153242503
 10
6270.112868895
 20
5106.7590406866
 10
6270.0344800104
 20
5108.4632357221
  0
ARC
  5
FB
330
1F
100
AcDbEntity
  8
0
  6
Continuous
 62
     7
370
    25
100
AcDbCircle
 10
6438.8328611533
 20
5077.4544863116
 30
0.0
 40
171.6229472316044
100
AcDbArc
 50
166.2086345155
 51
169.5906583702
  0
LWPOLYLINE
  5
FC
330
1F
100
AcDbEntity
  8
0
  6
Continuous
 62
     7
370
    25
100
AcDbPolyline
 90
        7
 70
   128
 43
0.0
 10
6272.240580808
 20
5118.7012432977
 10
6272.5133371051
 20
5119.9047080979
 10
6272.6483872267
 20
5120.98657817
 10
6272.6311082831
 20
5121.4449383897
 10
6272.5396057693
 20
5121.8285277754
 10
6272.3606140099
 20
5122.1225556098
 10
6272.0808673295
 20
5122.3122311754
  0
ARC
  5
FD
330
1F
100
AcDbEntity
  8
0
  6
Continuous
 62
     7
370
    25
100
AcDbCircle
 10
6271.6891968582
 20
5121.4071268052
 30
0.0
 40
0.9862148240419693
100
AcDbArc
 50
66.6001687515
 51
121.5598938631
  0
LWPOLYLINE
  5
FE
330
1F
100
AcDbEntity
  8
0
  6
Continuous
 62
     7
370
    25
100
AcDbPolyline
 90
        3
 70
   128
 43
0.0
 10
6271.8588873875
 20
5104.4135806099
 10
6271.2753701076
 20
5106.8547584874
 10
6271.1889002415
 20
5108.3298298243
  0
ARC
  5
FF
330
1F
100
AcDbEntity
  8
0
  6
Continuous
 62
     7
370
    25
100
AcDbCircle
 10
6247.7821856735
 20
5097.4879656938
 30
0.0
 40
25.28188431158513
100
AcDbArc
 50
338.7242860025
 51
2.8301784205
  0
LWPOLYLINE
  5
100
330
1F
100
AcDbEntity
  8
0
  6
Continuous
 62
     7
370
    25
100
AcDbPolyline
 90
        3
 70
   128
 43
0.0
 10
6271.1671069793
 20
5087.7968408592
 10
6271.249916215
 20
5088.0484473837
 10
6271.3409860783
 20
5088.3142751699
  0
ARC
  5
101
330
1F
100
AcDbEntity
  8
0
  6
Continuous
 62
     7
370
    25
100
AcDbCircle
 10
6296.8141206994
 20
5085.0989482638
 30
0.0
 40
25.78852336239447
100
AcDbArc
 50
173.9949558921
 51
185.6648492903
  0
LINE
  5
102
330
1F
100
AcDbEntity
  8
0
  6
Continuous
 62
     7
370
    25
100
AcDbLine
 10
6271.1906125692
 20
5081.9352316625
 30
0.0
 11
6271.1515403635
 21
5082.5533819777
 31
0.0
  0
LINE
  5
103
330
1F
100
AcDbEntity
  8
0
  6
Continuous
 62
     7
370
    25
100
AcDbLine
 10
6257.3118848797
 20
5081.9352316625
 30
0.0
 11
6271.1906125692
 21
5081.9352316625
 31
0.0
  0
LINE
  5
104
330
1F
100
AcDbEntity
  8
0
  6
Continuous
 62
     7
370
    25
100
AcDbLine
 10
6257.4256768415
 20
5082.6126907841
 30
0.0
 11
6257.3118848797
 21
5081.9352316625
 31
0.0
  0
ARC
  5
105
330
1F
100
AcDbEntity
  8
0
  6
Continuous
 62
     7
370
    25
100
AcDbCircle
 10
6233.2628790482
 20
5087.3946342547
 30
0.0
 40
24.63143886489159
100
AcDbArc
 50
348.8055204805
 51
1.6111089345
  0
ARC
  5
106
330
1F
100
AcDbEntity
  8
0
  6
Continuous
 62
     7
370
    25
100
AcDbCircle
 10
6243.9645773411
 20
5082.508571908
 30
0.0
 40
14.99623680721995
100
AcDbArc
 50
21.8389588296
 51
47.5366322639
  0
ARC
  5
107
330
1F
100
AcDbEntity
  8
0
  6
Continuous
 62
     7
370
    25
100
AcDbCircle
 10
6267.9364708803
 20
5106.7377195987
 30
0.0
 40
19.10781587422078
100
AcDbArc
 50
196.3057430571
 51
223.5551470779
  0
LWPOLYLINE
  5
108
330
1F
100
AcDbEntity
  8
0
  6
Continuous
 62
     7
370
    25
100
AcDbPolyline
 90
       11
 70
   128
 43
0.0
 10
6249.5500588867
 20
5113.8969186492
 10
6249.4397271045
 20
5113.6740937113
 10
6249.3501835605
 20
5113.3265001126
 10
6249.2478775892
 20
5112.5613003115
 10
6249.1654818341
 20
5110.6806963975
 10
6249.1777480013
 20
5108.6546517443
 10
6249.2465389287
 20
5106.5264224546
 10
6249.3483444931
 20
5104.5124619944
 10
6249.4596545712
 20
5102.8292238297
 10
6249.5384652024
 20
5101.8796937664
 10
6249.5972257327
 20
5101.3729535367
  0
ARC
  5
109
330
1F
100
AcDbEntity
  8
0
  6
Continuous
 62
     7
370
    25
100
AcDbCircle
 10
6250.7326142116
 20
5112.8780212179
 30
0.0
 40
1.560957741937908
100
AcDbArc
 50
79.2740075601
 51
139.2515968547
  0
ARC
  5
10A
330
1F
100
AcDbEntity
  8
0
  6
Continuous
 62
     7
370
    25
100
AcDbCircle
 10
6250.3361176125
 20
5110.6750651096
 30
0.0
 40
3.799272668856889
100
AcDbArc
 50
36.6772711577
 51
79.5820806122
  0
LWPOLYLINE
  5
10B
330
1F
100
AcDbEntity
  8
0
  6
Continuous
 62
     7
370
    25
100
AcDbPolyline
 90
        8
 70
   128
 43
0.0
 10
6256.9018602183
 20
5125.8313760197
 10
6256.6041998671
 20
5124.7118030529
 10
6256.156887015
 20
5123.0589773789
 10
6255.6101927031
 20
5121.05394138
 10
6255.0143879723
 20
5118.8777374387
 10
6254.3923122814
 20
5116.6115779011
 10
6253.8293104061
 20
5114.5644123269
 10
6253.3831823725
 20
5112.9443974256
  0
LWPOLYLINE
  5
10C
330
1F
100
AcDbEntity
  8
0
  6
Continuous
 62
     7
370
    25
100
AcDbPolyline
 90
        6
 70
   128
 43
0.0
 10
6260.4929228278
 20
5130.2999287644
 10
6259.73037026
 20
5130.2394336116
 10
6259.0846986544
 20
5129.9744259625
 10
6258.0894762577
 20
5128.9552844876
 10
6257.3982114937
 20
5127.491326965
 10
6256.9018602183
 20
5125.8313760197
  0
LWPOLYLINE
  5
10D
330
1F
100
AcDbEntity
  8
0
  6
Continuous
 62
     7
370
    25
100
AcDbPolyline
 90
        3
 70
   128
 43
0.0
 10
6263.0077096176
 20
5130.5777928572
 10
6262.7679943338
 20
5129.8625307395
 10
6262.5942603008
 20
5129.3200102969
  0
LWPOLYLINE
  5
10E
330
1F
100
AcDbEntity
  8
0
  6
Continuous
 62
     7
370
    25
100
AcDbPolyline
 90
        3
 70
   128
 43
0.0
 10
6264.5159590269
 20
5132.3025738929
 10
6263.5174238333
 20
5131.5307801229
 10
6263.0077096176
 20
5130.5777928572
  0
LWPOLYLINE
  5
10F
330
1F
100
AcDbEntity
  8
0
  6
Continuous
 62
     7
370
    25
100
AcDbPolyline
 90
        3
 70
   128
 43
0.0
 10
6266.8976512513
 20
5132.199522896
 10
6265.5239334378
 20
5132.5091990844
 10
6264.5159590269
 20
5132.3025738929
  0
LWPOLYLINE
  5
110
330
1F
100
AcDbEntity
  8
0
  6
Continuous
 62
     7
370
    25
100
AcDbPolyline
 90
        5
 70
   128
 43
0.0
 10
6268.2879057125
 20
5127.7505840873
 10
6268.4243921365
 20
5129.3115648125
 10
6268.2437160901
 20
5130.6873322388
 10
6267.7651421572
 20
5131.5637387146
 10
6266.8976512513
 20
5132.199522896
  0
ARC
  5
111
330
1F
100
AcDbEntity
  8
0
  6
Continuous
 62
     7
370
    25
100
AcDbCircle
 10
6269.1331613442
 20
5125.2863436896
 30
0.0
 40
2.605175199582182
100
AcDbArc
 50
60.8728310782
 51
108.9324087609
  0
ARC
  5
112
330
1F
100
AcDbEntity
  8
0
  6
Continuous
 62
     7
370
    25
100
AcDbCircle
 10
6268.2613846377
 20
5124.838386078
 30
0.0
 40
3.463726744655583
100
AcDbArc
 50
338.0592537487
 51
51.8453018059
  0
LWPOLYLINE
  5
113
330
1F
100
AcDbEntity
  8
0
  6
Continuous
 62
     7
370
    25
100
AcDbPolyline
 90
        3
 70
   128
 43
0.0
 10
6272.5094162637
 20
5123.3928656475
 10
6271.9067524348
 20
5123.5429290994
 10
6271.47423631
 20
5123.5441731535
  0
LWPOLYLINE
  5
114
330
1F
100
AcDbEntity
  8
0
  6
Continuous
 62
     7
370
    25
100
AcDbPolyline
 90
        6
 70
   128
 43
0.0
 10
6273.3680707937
 20
5118.4191762186
 10
6273.6693091332
 20
5119.7548088841
 10
6273.803974954
 20
5121.2128973061
 10
6273.5060250621
 20
5122.5175475416
 10
6273.1116807258
 20
5123.0261164822
 10
6272.5094162637
 20
5123.3928656475
  0
LINE
  5
115
330
1F
100
AcDbEntity
  8
0
  6
Continuous
 62
     7
370
    25
100
AcDbLine
 10
6273.2871243913
 20
5118.0925886181
 30
0.0
 11
6273.3680707937
 21
5118.4191762186
 31
0.0
  0
ARC
  5
116
330
1F
100
AcDbEntity
  8
0
  6
Continuous
 62
     7
370
    25
100
AcDbCircle
 10
6412.2742513627
 20
5083.1144481698
 30
0.0
 40
143.3209397574824
100
AcDbArc
 50
165.8740271785
 51
169.8668399444
  0
LINE
  5
117
330
1F
100
AcDbEntity
  8
0
  6
Continuous
 62
     7
370
    25
100
AcDbLine
 10
6269.0955741809
 20
5118.5596532155
 30
0.0
 11
6269.4435042742
 21
5120.0139217156
 31
0.0
  0
LWPOLYLINE
  5
118
330
1F
100
AcDbEntity
  8
0
  6
Continuous
 62
     7
370
    25
100
AcDbPolyline
 90
        3
 70
   128
 43
0.0
 10
6273.0332328869
 20
5098.7362801448
 10
6272.4270994312
 20
5102.1679042543
 10
6271.8588873875
 20
5104.4135806099
  0
LWPOLYLINE
  5
119
330
1F
100
AcDbEntity
  8
0
  6
Continuous
 62
     7
370
    25
100
AcDbPolyline
 90
        3
 70
   128
 43
0.0
 10
6262.5942603008
 20
5129.3200102969
 10
6261.5715096895
 20
5130.0650299459
 10
6260.4929228278
 20
5130.2999287644
  0
LINE
  5
11A
330
1F
100
AcDbEntity
  8
0
  6
Continuous
 62
     7
370
    25
100
AcDbLine
 10
6272.1577664117
 20
5118.3671837217
 30
0.0
 11
6272.240580808
 21
5118.7012432977
 31
0.0
  0
LINE
  5
11B
330
1F
100
AcDbEntity
  8
0
  6
Continuous
 62
     7
370
    25
100
AcDbLine
 10
6259.176765458
 20
5110.8745045166
 30
0.0
 11
6258.0491198061
 21
5111.1559489311
 31
0.0
  0
LINE
  5
11C
330
1F
100
AcDbEntity
  8
0
  6
Continuous
 62
     7
370
    25
100
AcDbLine
 10
6264.0066193564
 20
5153.3746347648
 30
0.0
 11
6264.0066193564
 21
5158.2136729666
 31
0.0
  0
LINE
  5
11D
330
1F
100
AcDbEntity
  8
0
  6
Continuous
 62
     7
370
    25
100
AcDbLine
 10
6262.8307171955
 20
5153.3746347648
 30
0.0
 11
6264.0066193564
 21
5153.3746347648
 31
0.0
  0
LINE
  5
11E
330
1F
100
AcDbEntity
  8
0
  6
Continuous
 62
     7
370
    25
100
AcDbLine
 10
6262.8307171955
 20
5158.2136729666
 30
0.0
 11
6262.8307171955
 21
5153.3746347648
 31
0.0
  0
LINE
  5
11F
330
1F
100
AcDbEntity
  8
0
  6
Continuous
 62
     7
370
    25
100
AcDbLine
 10
6261.1025115043
 20
5158.2136729666
 30
0.0
 11
6262.8307171955
 21
5158.2136729666
 31
0.0
  0
LINE
  5
120
330
1F
100
AcDbEntity
  8
0
  6
Continuous
 62
     7
370
    25
100
AcDbLine
 10
6261.1025115043
 20
5159.1988840835
 30
0.0
 11
6261.1025115043
 21
5158.2136729666
 31
0.0
  0
LINE
  5
121
330
1F
100
AcDbEntity
  8
0
  6
Continuous
 62
     7
370
    25
100
AcDbLine
 10
6265.7307777275
 20
5159.1988840835
 30
0.0
 11
6261.1025115043
 21
5159.1988840835
 31
0.0
  0
LINE
  5
122
330
1F
100
AcDbEntity
  8
0
  6
Continuous
 62
     7
370
    25
100
AcDbLine
 10
6265.7307777275
 20
5158.2136729666
 30
0.0
 11
6265.7307777275
 21
5159.1988840835
 31
0.0
  0
LINE
  5
123
330
1F
100
AcDbEntity
  8
0
  6
Continuous
 62
     7
370
    25
100
AcDbLine
 10
6264.0066193564
 20
5158.2136729666
 30
0.0
 11
6265.7307777275
 21
5158.2136729666
 31
0.0
  0
LINE
  5
124
330
1F
100
AcDbEntity
  8
0
  6
Continuous
 62
     7
370
    25
100
AcDbLine
 10
6277.3307085234
 20
5159.1988840835
 30
0.0
 11
6276.2858772679
 21
5155.2259723873
 31
0.0
  0
LINE
  5
125
330
1F
100
AcDbEntity
  8
0
  6
Continuous
 62
     7
370
    25
100
AcDbLine
 10
6279.0948730972
 20
5159.1988840835
 30
0.0
 11
6277.3307085234
 21
5159.1988840835
 31
0.0
  0
LINE
  5
126
330
1F
100
AcDbEntity
  8
0
  6
Continuous
 62
     7
370
    25
100
AcDbLine
 10
6279.0948730972
 20
5153.3746347648
 30
0.0
 11
6279.0948730972
 21
5159.1988840835
 31
0.0
  0
LINE
  5
127
330
1F
100
AcDbEntity
  8
0
  6
Continuous
 62
     7
370
    25
100
AcDbLine
 10
6278.0017853325
 20
5153.3746347648
 30
0.0
 11
6279.0948730972
 21
5153.3746347648
 31
0.0
  0
LINE
  5
128
330
1F
100
AcDbEntity
  8
0
  6
Continuous
 62
     7
370
    25
100
AcDbLine
 10
6278.0017853325
 20
5157.9593144637
 30
0.0
 11
6278.0017853325
 21
5153.3746347648
 31
0.0
  0
LINE
  5
129
330
1F
100
AcDbEntity
  8
0
  6
Continuous
 62
     7
370
    25
100
AcDbLine
 10
6276.845964106
 20
5153.3746347648
 30
0.0
 11
6278.0017853325
 21
5157.9593144637
 31
0.0
  0
LINE
  5
12A
330
1F
100
AcDbEntity
  8
0
  6
Continuous
 62
     7
370
    25
100
AcDbLine
 10
6275.7136484694
 20
5153.3746347648
 30
0.0
 11
6276.845964106
 21
5153.3746347648
 31
0.0
  0
LINE
  5
12B
330
1F
100
AcDbEntity
  8
0
  6
Continuous
 62
     7
370
    25
100
AcDbLine
 10
6274.5615632306
 20
5157.9593144637
 30
0.0
 11
6275.7136484694
 21
5153.3746347648
 31
0.0
  0
LINE
  5
12C
330
1F
100
AcDbEntity
  8
0
  6
Continuous
 62
     7
370
    25
100
AcDbLine
 10
6274.5615632306
 20
5153.3746347648
 30
0.0
 11
6274.5615632306
 21
5157.9593144637
 31
0.0
  0
LINE
  5
12D
330
1F
100
AcDbEntity
  8
0
  6
Continuous
 62
     7
370
    25
100
AcDbLine
 10
6273.4690981306
 20
5153.3746347648
 30
0.0
 11
6274.5615632306
 21
5153.3746347648
 31
0.0
  0
LINE
  5
12E
330
1F
100
AcDbEntity
  8
0
  6
Continuous
 62
     7
370
    25
100
AcDbLine
 10
6273.4690981306
 20
5159.1988840835
 30
0.0
 11
6273.4690981306
 21
5153.3746347648
 31
0.0
  0
LINE
  5
12F
330
1F
100
AcDbEntity
  8
0
  6
Continuous
 62
     7
370
    25
100
AcDbLine
 10
6275.2290597181
 20
5159.1988840835
 30
0.0
 11
6273.4690981306
 21
5159.1988840835
 31
0.0
  0
LINE
  5
130
330
1F
100
AcDbEntity
  8
0
  6
Continuous
 62
     7
370
    25
100
AcDbLine
 10
6276.2858772679
 20
5155.2259723873
 30
0.0
 11
6275.2290597181
 21
5159.1988840835
 31
0.0
  0
LINE
  5
131
330
1F
100
AcDbEntity
  8
0
  6
Continuous
 62
     7
370
    25
100
AcDbLine
 10
6285.9309524459
 20
5159.1988840835
 30
0.0
 11
6285.9309524459
 21
5158.2136729666
 31
0.0
  0
LINE
  5
132
330
1F
100
AcDbEntity
  8
0
  6
Continuous
 62
     7
370
    25
100
AcDbLine
 10
6290.5593743353
 20
5159.1988840835
 30
0.0
 11
6285.9309524459
 21
5159.1988840835
 31
0.0
  0
LINE
  5
133
330
1F
100
AcDbEntity
  8
0
  6
Continuous
 62
     7
370
    25
100
AcDbLine
 10
6290.5593743353
 20
5158.2136729666
 30
0.0
 11
6290.5593743353
 21
5159.1988840835
 31
0.0
  0
LINE
  5
134
330
1F
100
AcDbEntity
  8
0
  6
Continuous
 62
     7
370
    25
100
AcDbLine
 10
6288.8350602981
 20
5158.2136729666
 30
0.0
 11
6290.5593743353
 21
5158.2136729666
 31
0.0
  0
LINE
  5
135
330
1F
100
AcDbEntity
  8
0
  6
Continuous
 62
     7
370
    25
100
AcDbLine
 10
6288.8350602981
 20
5153.3746347648
 30
0.0
 11
6288.8350602981
 21
5158.2136729666
 31
0.0
  0
LINE
  5
136
330
1F
100
AcDbEntity
  8
0
  6
Continuous
 62
     7
370
    25
100
AcDbLine
 10
6287.6591581371
 20
5153.3746347648
 30
0.0
 11
6288.8350602981
 21
5153.3746347648
 31
0.0
  0
LINE
  5
137
330
1F
100
AcDbEntity
  8
0
  6
Continuous
 62
     7
370
    25
100
AcDbLine
 10
6287.6591581371
 20
5158.2136729666
 30
0.0
 11
6287.6591581371
 21
5153.3746347648
 31
0.0
  0
LINE
  5
138
330
1F
100
AcDbEntity
  8
0
  6
Continuous
 62
     7
370
    25
100
AcDbLine
 10
6285.9309524459
 20
5158.2136729666
 30
0.0
 11
6287.6591581371
 21
5158.2136729666
 31
0.0
  0
LWPOLYLINE
  5
139
330
1F
100
AcDbEntity
  8
0
  6
Continuous
 62
     7
370
    25
100
AcDbPolyline
 90
        3
 70
   128
 43
0.0
 10
6269.6957504496
 20
5140.9323943855
 10
6269.2978012978
 20
5139.7967340335
 10
6269.1929487578
 20
5138.8259199292
  0
LINE
  5
13A
330
1F
100
AcDbEntity
  8
0
  6
Continuous
 62
     7
370
    25
100
AcDbLine
 10
6274.0221799916
 20
5149.6190330258
 30
0.0
 11
6269.6957504496
 21
5140.9323943855
 31
0.0
  0
LINE
  5
13B
330
1F
100
AcDbEntity
  8
0
  6
Continuous
 62
     7
370
    25
100
AcDbLine
 10
6278.3423828872
 20
5140.9323943855
 30
0.0
 11
6274.0221799916
 21
5149.6190330258
 31
0.0
  0
ARC
  5
13C
330
1F
100
AcDbEntity
  8
0
  6
Continuous
 62
     7
370
    25
100
AcDbCircle
 10
6274.0163101246
 20
5138.8234747177
 30
0.0
 40
4.823361986610158
100
AcDbArc
 50
179.9709538064
 51
270.0290461936
  0
LWPOLYLINE
  5
13D
330
1F
100
AcDbEntity
  8
0
  6
Continuous
 62
     7
370
    25
100
AcDbPolyline
 90
        3
 70
   128
 43
0.0
 10
6278.8458072437
 20
5138.8259199292
 10
6278.6777521113
 20
5140.0500678995
 10
6278.3423828872
 20
5140.9323943855
  0
ARC
  5
13E
330
1F
100
AcDbEntity
  8
0
  6
Continuous
 62
     7
370
    25
100
AcDbCircle
 10
6274.0215274212
 20
5138.8243926188
 30
0.0
 40
4.824280064311219
100
AcDbArc
 50
269.9670772052
 51
0.0181391717
  0
LINE
  5
13F
330
1F
100
AcDbEntity
  8
0
  6
Continuous
 62
     7
370
    25
100
AcDbLine
 10
6291.6893549795
 20
5159.1988840835
 30
0.0
 11
6291.6893549795
 21
5153.3746347648
 31
0.0
  0
LINE
  5
140
330
1F
100
AcDbEntity
  8
0
  6
Continuous
 62
     7
370
    25
100
AcDbLine
 10
6292.8652571405
 20
5159.1988840835
 30
0.0
 11
6291.6893549795
 21
5159.1988840835
 31
0.0
  0
LINE
  5
141
330
1F
100
AcDbEntity
  8
0
  6
Continuous
 62
     7
370
    25
100
AcDbLine
 10
6292.8652571405
 20
5153.3746347648
 30
0.0
 11
6292.8652571405
 21
5159.1988840835
 31
0.0
  0
LINE
  5
142
330
1F
100
AcDbEntity
  8
0
  6
Continuous
 62
     7
370
    25
100
AcDbLine
 10
6291.6893549795
 20
5153.3746347648
 30
0.0
 11
6292.8652571405
 21
5153.3746347648
 31
0.0
  0
ARC
  5
143
330
1F
100
AcDbEntity
  8
0
  6
Continuous
 62
     7
370
    25
100
AcDbCircle
 10
6297.9224597716
 20
5110.2273998031
 30
0.0
 40
3.125696311478225
100
AcDbArc
 50
104.1995382683
 51
161.7775342842
  0
LWPOLYLINE
  5
144
330
1F
100
AcDbEntity
  8
0
  6
Continuous
 62
     7
370
    25
100
AcDbPolyline
 90
        3
 70
   128
 43
0.0
 10
6294.9535186562
 20
5111.2048281049
 10
6294.4790047881
 20
5109.4150422563
 10
6294.1902874813
 20
5107.6076945153
  0
ARC
  5
145
330
1F
100
AcDbEntity
  8
0
  6
Continuous
 62
     7
370
    25
100
AcDbCircle
 10
6283.8729034529
 20
5107.8272380836
 30
0.0
 40
10.31971959732634
100
AcDbArc
 50
332.5290088904
 51
358.7809873312
  0
ARC
  5
146
330
1F
100
AcDbEntity
  8
0
  6
Continuous
 62
     7
370
    25
100
AcDbCircle
 10
6284.3011086114
 20
5110.5916396936
 30
0.0
 40
11.5238995432811
100
AcDbArc
 50
292.2039541555
 51
319.233295864
  0
LWPOLYLINE
  5
147
330
1F
100
AcDbEntity
  8
0
  6
Continuous
 62
     7
370
    25
100
AcDbPolyline
 90
        3
 70
   128
 43
0.0
 10
6288.6560442158
 20
5099.9223006061
 10
6287.1415325836
 20
5099.0949845778
 10
6286.1591590342
 20
5098.4489204163
  0
ARC
  5
148
330
1F
100
AcDbEntity
  8
0
  6
Continuous
 62
     7
370
    25
100
AcDbCircle
 10
6293.1268587061
 20
5090.7427621883
 30
0.0
 40
10.3891151380906
100
AcDbArc
 50
132.119033403
 51
157.9303051633
  0
ARC
  5
149
330
1F
100
AcDbEntity
  8
0
  6
Continuous
 62
     7
370
    25
100
AcDbCircle
 10
6288.2227472179
 20
5127.3543063338
 30
0.0
 40
2.255244068500605
100
AcDbArc
 50
148.4448384351
 51
199.0107814123
  0
LINE
  5
14A
330
1F
100
AcDbEntity
  8
0
  6
Continuous
 62
     7
370
    25
100
AcDbLine
 10
6289.9904145261
 20
5111.1559489311
 30
0.0
 11
6288.8626132081
 21
5110.8745045166
 31
0.0
  0
LWPOLYLINE
  5
14B
330
1F
100
AcDbEntity
  8
0
  6
Continuous
 62
     7
370
    25
100
AcDbPolyline
 90
       10
 70
   128
 43
0.0
 10
6283.5972053983
 20
5110.984871823
 10
6283.4526794562
 20
5111.5817546432
 10
6283.137414561
 20
5112.8868833708
 10
6282.6972313709
 20
5114.7150490653
 10
6282.1779505443
 20
5116.881042786
 10
6281.6253927395
 20
5119.1996555924
 10
6281.094646247
 20
5121.4462155707
 10
6280.6194089986
 20
5123.48587607
 10
6280.2430905473
 20
5125.143173935
 10
6280.0091004458
 20
5126.2426460103
  0
ARC
  5
14C
330
1F
100
AcDbEntity
  8
0
  6
Continuous
 62
     7
370
    25
100
AcDbCircle
 10
6278.9114482993
 20
5125.2391798181
 30
0.0
 40
1.487206990869515
100
AcDbArc
 50
42.4333442656
 51
119.4872579237
  0
LWPOLYLINE
  5
14D
330
1F
100
AcDbEntity
  8
0
  6
Continuous
 62
     7
370
    25
100
AcDbPolyline
 90
        6
 70
   128
 43
0.0
 10
6278.1794004193
 20
5126.5337417266
 10
6277.9254984105
 20
5126.3392207521
 10
6277.7386653405
 20
5126.0579409054
 10
6277.6187858792
 20
5125.6888719057
 10
6277.5657446967
 20
5125.2309834722
 10
6277.8328875506
 20
5123.2021746033
  0
LWPOLYLINE
  5
14E
330
1F
100
AcDbEntity
  8
0
  6
Continuous
 62
     7
370
    25
100
AcDbPolyline
 90
        6
 70
   128
 43
0.0
 10
6277.8328875506
 20
5123.2021746033
 10
6278.0391955495
 20
5122.3411908094
 10
6278.4186842391
 20
5120.7557315667
 10
6278.9713536194
 20
5118.4457968751
 10
6279.8450435079
 20
5114.7932915254
 10
6280.9592866771
 20
5110.1344675993
  0
LINE
  5
14F
330
1F
100
AcDbEntity
  8
0
  6
Continuous
 62
     7
370
    25
100
AcDbLine
 10
6280.9592866771
 20
5110.1344675993
 30
0.0
 11
6279.8286833682
 21
5109.8642311483
 31
0.0
  0
LINE
  5
150
330
1F
100
AcDbEntity
  8
0
  6
Continuous
 62
     7
370
    25
100
AcDbLine
 10
6279.8286833682
 20
5109.8642311483
 30
0.0
 11
6279.2222248268
 21
5112.4003758332
 31
0.0
  0
LINE
  5
151
330
1F
100
AcDbEntity
  8
0
  6
Continuous
 62
     7
370
    25
100
AcDbLine
 10
6279.2222248268
 20
5112.4003758332
 30
0.0
 11
6278.6781909056
 21
5114.6753012472
 31
0.0
  0
LINE
  5
152
330
1F
100
AcDbEntity
  8
0
  6
Continuous
 62
     7
370
    25
100
AcDbLine
 10
6278.6781909056
 20
5114.6753012472
 30
0.0
 11
6278.1965816046
 21
5116.6890073903
 31
0.0
  0
LINE
  5
153
330
1F
100
AcDbEntity
  8
0
  6
Continuous
 62
     7
370
    25
100
AcDbLine
 10
6278.1965816046
 20
5116.6890073903
 30
0.0
 11
6277.7773969238
 21
5118.4414942625
 31
0.0
  0
LINE
  5
154
330
1F
100
AcDbEntity
  8
0
  6
Continuous
 62
     7
370
    25
100
AcDbLine
 10
6277.7773969238
 20
5118.4414942625
 30
0.0
 11
6277.4918303137
 21
5119.6351949185
 31
0.0
  0
LINE
  5
155
330
1F
100
AcDbEntity
  8
0
  6
Continuous
 62
     7
370
    25
100
AcDbLine
 10
6277.4918303137
 20
5119.6351949185
 30
0.0
 11
6277.2448013519
 21
5120.6676326572
 31
0.0
  0
LINE
  5
156
330
1F
100
AcDbEntity
  8
0
  6
Continuous
 62
     7
370
    25
100
AcDbLine
 10
6277.2448013519
 20
5120.6676326572
 30
0.0
 11
6277.0363100382
 21
5121.5388074786
 31
0.0
  0
LINE
  5
157
330
1F
100
AcDbEntity
  8
0
  6
Continuous
 62
     7
370
    25
100
AcDbLine
 10
6277.0363100382
 20
5121.5388074786
 30
0.0
 11
6276.8663563728
 21
5122.2487193828
 31
0.0
  0
ARC
  5
158
330
1F
100
AcDbEntity
  8
0
  6
Continuous
 62
     7
370
    25
100
AcDbCircle
 10
6276.3515014578
 20
5121.4075747698
 30
0.0
 40
0.9862047675305525
100
AcDbArc
 50
58.5296803545
 51
113.4639297319
  0
LWPOLYLINE
  5
159
330
1F
100
AcDbEntity
  8
0
  6
Continuous
 62
     7
370
    25
100
AcDbPolyline
 90
        7
 70
   128
 43
0.0
 10
6275.9588226689
 20
5122.3122311754
 10
6275.6790759885
 20
5122.1225556098
 10
6275.5000842291
 20
5121.8285277754
 10
6275.4085817153
 20
5121.4449383897
 10
6275.3913027718
 20
5120.98657817
 10
6275.5263528934
 20
5119.9047080979
 10
6275.7991091904
 20
5118.7012432977
  0
LINE
  5
15A
330
1F
100
AcDbEntity
  8
0
  6
Continuous
 62
     7
370
    25
100
AcDbLine
 10
6275.7991091904
 20
5118.7012432977
 30
0.0
 11
6275.8819235867
 21
5118.3671837217
 31
0.0
  0
ARC
  5
15B
330
1F
100
AcDbEntity
  8
0
  6
Continuous
 62
     7
370
    25
100
AcDbCircle
 10
6239.9366758296
 20
5108.6405771938
 30
0.0
 40
57.79435175529583
100
AcDbArc
 50
352.9806152375
 51
4.5278893846
  0
ARC
  5
15C
330
1F
100
AcDbEntity
  8
0
  6
Continuous
 62
     7
370
    25
100
AcDbCircle
 10
6297.2826811543
 20
5112.7192654212
 30
0.0
 40
0.5530993001688295
100
AcDbArc
 50
61.0208638075
 51
103.2694527129
  0
ARC
  5
15D
330
1F
100
AcDbEntity
  8
0
  6
Continuous
 62
     7
370
    25
100
AcDbCircle
 10
6313.9706838639
 20
5087.3257183398
 30
0.0
 40
23.82758835815156
100
AcDbArc
 50
178.168731093
 51
191.4081681259
  0
LINE
  5
15E
330
1F
100
AcDbEntity
  8
0
  6
Continuous
 62
     7
370
    25
100
AcDbLine
 10
6290.7276494526
 20
5081.9352316625
 30
0.0
 11
6290.6138574907
 21
5082.6126907841
 31
0.0
  0
LINE
  5
15F
330
1F
100
AcDbEntity
  8
0
  6
Continuous
 62
     7
370
    25
100
AcDbLine
 10
6276.8490774292
 20
5081.9352316625
 30
0.0
 11
6290.7276494526
 21
5081.9352316625
 31
0.0
  0
LINE
  5
160
330
1F
100
AcDbEntity
  8
0
  6
Continuous
 62
     7
370
    25
100
AcDbLine
 10
6276.8883053011
 20
5082.5533819777
 30
0.0
 11
6276.8490774292
 21
5081.9352316625
 31
0.0
  0
ARC
  5
161
330
1F
100
AcDbEntity
  8
0
  6
Continuous
 62
     7
370
    25
100
AcDbCircle
 10
6249.8069781715
 20
5085.0939328154
 30
0.0
 40
27.20023304420518
100
AcDbArc
 50
354.6406590898
 51
5.7029376557
  0
LWPOLYLINE
  5
162
330
1F
100
AcDbEntity
  8
0
  6
Continuous
 62
     7
370
    25
100
AcDbPolyline
 90
        3
 70
   128
 43
0.0
 10
6276.6987039201
 20
5088.3142751699
 10
6276.810855604
 20
5087.9861481432
 10
6276.8725830191
 20
5087.7968408592
  0
ARC
  5
163
330
1F
100
AcDbEntity
  8
0
  6
Continuous
 62
     7
370
    25
100
AcDbCircle
 10
6300.8429737982
 20
5097.5826439242
 30
0.0
 40
25.86210407739769
100
AcDbArc
 50
177.4433469729
 51
201.0005209927
  0
LWPOLYLINE
  5
164
330
1F
100
AcDbEntity
  8
0
  6
Continuous
 62
     7
370
    25
100
AcDbPolyline
 90
        3
 70
   128
 43
0.0
 10
6276.1808026109
 20
5104.4135806099
 10
6275.4612390263
 20
5101.4844603094
 10
6275.0066127777
 20
5098.7362801448
  0
LWPOLYLINE
  5
165
330
1F
100
AcDbEntity
  8
0
  6
Continuous
 62
     7
370
    25
100
AcDbPolyline
 90
        3
 70
   128
 43
0.0
 10
6276.8507897569
 20
5108.3298298243
 10
6276.6731188096
 20
5106.3854023347
 10
6276.1808026109
 20
5104.4135806099
  0
ARC
  5
166
330
1F
100
AcDbEntity
  8
0
  6
Continuous
 62
     7
370
    25
100
AcDbCircle
 10
6139.5251652563
 20
5083.9224932479
 30
0.0
 40
139.4777588837872
100
AcDbArc
 50
10.0781277183
 51
14.1810051589
  0
LINE
  5
167
330
1F
100
AcDbEntity
  8
0
  6
Continuous
 62
     7
370
    25
100
AcDbLine
 10
6274.6717748708
 20
5118.4191762186
 30
0.0
 11
6274.7525656071
 21
5118.0925886181
 31
0.0
  0
LWPOLYLINE
  5
168
330
1F
100
AcDbEntity
  8
0
  6
Continuous
 62
     7
370
    25
100
AcDbPolyline
 90
        6
 70
   128
 43
0.0
 10
6275.5304294009
 20
5123.3928656475
 10
6274.9281202455
 20
5123.0261164822
 10
6274.5337549308
 20
5122.5175475416
 10
6274.2358123358
 20
5121.2128973061
 10
6274.3705146408
 20
5119.7548088841
 10
6274.6717748708
 20
5118.4191762186
  0
LWPOLYLINE
  5
169
330
1F
100
AcDbEntity
  8
0
  6
Continuous
 62
     7
370
    25
100
AcDbPolyline
 90
        3
 70
   128
 43
0.0
 10
6276.5654536885
 20
5123.5441731535
 10
6276.008333663
 20
5123.5261438143
 10
6275.5304294009
 20
5123.3928656475
  0
ARC
  5
16A
330
1F
100
AcDbEntity
  8
0
  6
Continuous
 62
     7
370
    25
100
AcDbCircle
 10
6279.5665397002
 20
5124.8951636393
 30
0.0
 40
3.29115367959905
100
AcDbArc
 50
125.8721656483
 51
204.2357114186
  0
LWPOLYLINE
  5
16B
330
1F
100
AcDbEntity
  8
0
  6
Continuous
 62
     7
370
    25
100
AcDbPolyline
 90
        3
 70
   128
 43
0.0
 10
6279.7517842859
 20
5127.7505840873
 10
6278.6469983962
 20
5127.8796052206
 10
6277.6379935202
 20
5127.5620723694
  0
LWPOLYLINE
  5
16C
330
1F
100
AcDbEntity
  8
0
  6
Continuous
 62
     7
370
    25
100
AcDbPolyline
 90
        5
 70
   128
 43
0.0
 10
6281.1420387471
 20
5132.199522896
 10
6280.3788901104
 20
5131.6769075646
 10
6279.905001827
 20
5130.9750009676
 10
6279.6684691577
 20
5130.1277440902
 10
6279.7517842859
 20
5127.7505840873
  0
LWPOLYLINE
  5
16D
330
1F
100
AcDbEntity
  8
0
  6
Continuous
 62
     7
370
    25
100
AcDbPolyline
 90
        3
 70
   128
 43
0.0
 10
6283.5237309715
 20
5132.3025738929
 10
6282.2260825919
 20
5132.4963772938
 10
6281.1420387471
 20
5132.199522896
  0
LWPOLYLINE
  5
16E
330
1F
100
AcDbEntity
  8
0
  6
Continuous
 62
     7
370
    25
100
AcDbPolyline
 90
        3
 70
   128
 43
0.0
 10
6285.0319803808
 20
5130.5777928572
 10
6284.3396928944
 20
5131.7396685857
 10
6283.5237309715
 20
5132.3025738929
  0
LWPOLYLINE
  5
16F
330
1F
100
AcDbEntity
  8
0
  6
Continuous
 62
     7
370
    25
100
AcDbPolyline
 90
        3
 70
   128
 43
0.0
 10
6285.4454296976
 20
5129.3203216292
 10
6285.2218239933
 20
5130.0148029473
 10
6285.0319803808
 20
5130.5777928572
  0
LWPOLYLINE
  5
170
330
1F
100
AcDbEntity
  8
0
  6
Continuous
 62
     7
370
    25
100
AcDbPolyline
 90
        3
 70
   128
 43
0.0
 10
6287.5463001722
 20
5130.2999287644
 10
6286.2139962517
 20
5129.9463115014
 10
6285.4454296976
 20
5129.3203216292
  0
LWPOLYLINE
  5
171
330
1F
100
AcDbEntity
  8
0
  6
Continuous
 62
     7
370
    25
100
AcDbPolyline
 90
        6
 70
   128
 43
0.0
 10
6291.137674114
 20
5125.8313760197
 10
6290.6426314072
 20
5127.4910642783
 10
6289.9535216466
 20
5128.9545839899
 10
6288.9586446342
 20
5129.9736379025
 10
6288.3116370967
 20
5130.238897293
 10
6287.5463001722
 20
5130.2999287644
  0
LWPOLYLINE
  5
172
330
1F
100
AcDbEntity
  8
0
  6
Continuous
 62
     7
370
    25
100
AcDbPolyline
 90
        7
 70
   128
 43
0.0
 10
6294.6563519597
 20
5112.9443974256
 10
6294.0658368975
 20
5115.0891260687
 10
6293.3115400266
 20
5117.8338101631
 10
6292.5126223327
 20
5120.7493122098
 10
6291.9312224166
 20
5122.8803485406
 10
6291.4536396683
 20
5124.6437553804
 10
6291.137674114
 20
5125.8313760197
  0
ARC
  5
173
330
1F
100
AcDbEntity
  8
0
  6
Continuous
 62
     7
370
    25
100
AcDbCircle
 10
6297.6246929697
 20
5110.8014927157
 30
0.0
 40
3.661022937338881
100
AcDbArc
 50
99.5567530229
 51
144.1737292113
  0
ARC
  5
174
330
1F
100
AcDbEntity
  8
0
  6
Continuous
 62
     7
370
    25
100
AcDbCircle
 10
6297.3126294682
 20
5112.8955131218
 30
0.0
 40
1.544769986670673
100
AcDbArc
 50
40.4101973278
 51
101.0377819773
  0
LWPOLYLINE
  5
175
330
1F
100
AcDbEntity
  8
0
  6
Continuous
 62
     7
370
    25
100
AcDbPolyline
 90
       11
 70
   128
 43
0.0
 10
6298.4419972672
 20
5101.3729535367
 10
6298.4942596865
 20
5101.8124488902
 10
6298.5638587785
 20
5102.6243338014
 10
6298.687807111
 20
5104.464011786
 10
6298.790028654
 20
5106.4722607899
 10
6298.8598602303
 20
5108.6003460362
 10
6298.8738196611
 20
5110.6317826212
 10
6298.8084247678
 20
5112.3500856412
 10
6298.666587885
 20
5113.4312549541
 10
6298.5855857736
 20
5113.7115933871
 10
6298.4888527809
 20
5113.8969186492
  0
ARC
  5
176
330
1F
100
AcDbEntity
  8
0
  6
Continuous
 62
     7
370
    25
100
AcDbCircle
 10
6279.8480577784
 20
5106.8832299022
 30
0.0
 40
19.39323932038364
100
AcDbArc
 50
316.6530626431
 51
343.49291651
  0
ARC
  5
177
330
1F
100
AcDbEntity
  8
0
  6
Continuous
 62
     7
370
    25
100
AcDbCircle
 10
6303.8568427073
 20
5082.6597481512
 30
0.0
 40
14.73736788997169
100
AcDbArc
 50
132.2337050584
 51
158.390703848
  0
ARC
  5
178
330
1F
100
AcDbEntity
  8
0
  6
Continuous
 62
     7
370
    25
100
AcDbCircle
 10
6279.5806396331
 20
5107.0310418307
 30
0.0
 40
18.53745705090995
100
AcDbArc
 50
317.3378661601
 51
342.892006834
  0
ARC
  5
179
330
1F
100
AcDbEntity
  8
0
  6
Continuous
 62
     7
370
    25
100
AcDbCircle
 10
6303.7595409849
 20
5082.7615389493
 30
0.0
 40
15.75753088729602
100
AcDbArc
 50
132.0161587656
 51
159.3116175735
  0
ARC
  5
17A
330
1F
100
AcDbEntity
  8
0
  6
Continuous
 62
     7
370
    25
100
AcDbCircle
 10
6309.5880021731
 20
5087.0455123777
 30
0.0
 40
20.60984729912867
100
AcDbArc
 50
176.4311265174
 51
191.0435524049
  0
LINE
  5
17B
330
1F
100
AcDbEntity
  8
0
  6
Continuous
 62
     7
370
    25
100
AcDbLine
 10
6278.0835100657
 20
5083.0975908677
 30
0.0
 11
6289.3598109182
 21
5083.0975908677
 31
0.0
  0
ARC
  5
17C
330
1F
100
AcDbEntity
  8
0
  6
Continuous
 62
     7
370
    25
100
AcDbCircle
 10
6253.3462535464
 20
5085.1278678307
 30
0.0
 40
24.82043280539792
100
AcDbArc
 50
355.3080424603
 51
6.9669997314
  0
LWPOLYLINE
  5
17D
330
1F
100
AcDbEntity
  8
0
  6
Continuous
 62
     7
370
    25
100
AcDbPolyline
 90
        3
 70
   128
 43
0.0
 10
6277.7980183311
 20
5088.6922326027
 10
6277.9177669021
 20
5088.3411384764
 10
6277.9834167258
 20
5088.138528077
  0
ARC
  5
17E
330
1F
100
AcDbEntity
  8
0
  6
Continuous
 62
     7
370
    25
100
AcDbCircle
 10
6300.9538290854
 20
5097.6063914892
 30
0.0
 40
24.81237192092771
100
AcDbArc
 50
177.6969021615
 51
201.05492073
  0
LWPOLYLINE
  5
17F
330
1F
100
AcDbEntity
  8
0
  6
Continuous
 62
     7
370
    25
100
AcDbPolyline
 90
        3
 70
   128
 43
0.0
 10
6277.3042452765
 20
5104.1153242503
 10
6276.595566049
 20
5101.2352947897
 10
6276.1615000073
 20
5098.6034969116
  0
LWPOLYLINE
  5
180
330
1F
100
AcDbEntity
  8
0
  6
Continuous
 62
     7
370
    25
100
AcDbPolyline
 90
        3
 70
   128
 43
0.0
 10
6278.005209988
 20
5108.4632357221
 10
6277.8306599754
 20
5106.2422806768
 10
6277.3042452765
 20
5104.1153242503
  0
ARC
  5
181
330
1F
100
AcDbEntity
  8
0
  6
Continuous
 62
     7
370
    25
100
AcDbCircle
 10
6138.2044298473
 20
5083.6712204749
 30
0.0
 40
141.9820486821111
100
AcDbArc
 50
10.0561804262
 51
14.144526688
  0
LWPOLYLINE
  5
182
330
1F
100
AcDbEntity
  8
0
  6
Continuous
 62
     7
370
    25
100
AcDbPolyline
 90
        3
 70
   128
 43
0.0
 10
6283.9332886344
 20
5130.1981230967
 10
6283.5265068304
 20
5130.9054604171
 10
6283.0657611333
 20
5131.2343927136
  0
ARC
  5
183
330
1F
100
AcDbEntity
  8
0
  6
Continuous
 62
     7
370
    25
100
AcDbCircle
 10
6228.8874886996
 20
5111.4435071607
 30
0.0
 40
58.15303697457755
100
AcDbArc
 50
15.8469533907
 51
18.8144540532
  0
LWPOLYLINE
  5
184
330
1F
100
AcDbEntity
  8
0
  6
Continuous
 62
     7
370
    25
100
AcDbPolyline
 90
        3
 70
   128
 43
0.0
 10
6284.9588172863
 20
5126.3534803151
 10
6284.8609170709
 20
5126.9077622651
 10
6284.8303927056
 20
5127.3232804823
  0
ARC
  5
185
330
1F
100
AcDbEntity
  8
0
  6
Continuous
 62
     7
370
    25
100
AcDbCircle
 10
6423.660622911
 20
5159.5150236116
 30
0.0
 40
142.6109351955512
100
AcDbArc
 50
193.4461612492
 51
194.6437428023
  0
LWPOLYLINE
  5
186
330
1F
100
AcDbEntity
  8
0
  6
Continuous
 62
     7
370
    25
100
AcDbPolyline
 90
        6
 70
   128
 43
0.0
 10
6288.8626132081
 20
5110.8745045166
 10
6287.9239692103
 20
5114.6267263139
 10
6287.1743915756
 20
5117.6060050671
 10
6286.5864274113
 20
5119.9277352665
 10
6286.0636072719
 20
5121.9768602739
 10
6285.6821979247
 20
5123.4618257556
  0
LWPOLYLINE
  5
187
330
1F
100
AcDbEntity
  8
0
  6
Continuous
 62
     7
370
    25
100
AcDbPolyline
 90
        3
 70
   128
 43
0.0
 10
6285.4519676763
 20
5099.371086739
 10
6286.843609245
 20
5100.2643920677
 10
6288.1132363213
 20
5100.949852918
  0
LWPOLYLINE
  5
188
330
1F
100
AcDbEntity
  8
0
  6
Continuous
 62
     7
370
    25
100
AcDbPolyline
 90
        6
 70
   128
 43
0.0
 10
6286.8078199165
 20
5123.7515204765
 10
6287.123681207
 20
5122.5222225499
 10
6287.5365371361
 20
5120.9070905415
 10
6288.0738345217
 20
5118.7907360362
 10
6288.9041695867
 20
5115.4960377601
 10
6289.9904145261
 20
5111.1559489311
  0
LWPOLYLINE
  5
189
330
1F
100
AcDbEntity
  8
0
  6
Continuous
 62
     7
370
    25
100
AcDbPolyline
 90
        3
 70
   128
 43
0.0
 10
6286.0905102583
 20
5126.6196694461
 10
6286.4436171754
 20
5125.1739942559
 10
6286.8078199165
 20
5123.7515204765
  0
LWPOLYLINE
  5
18A
330
1F
100
AcDbEntity
  8
0
  6
Continuous
 62
     7
370
    25
100
AcDbPolyline
 90
        7
 70
   128
 43
0.0
 10
6281.6244481722
 20
5131.1422383478
 10
6281.2811833143
 20
5130.9249420722
 10
6281.0329143377
 20
5130.6255653419
 10
6280.8722914891
 20
5130.2348940581
 10
6280.791965015
 20
5129.7437141219
 10
6280.8428021772
 20
5128.4229718973
 10
6281.1266277974
 20
5126.5896258775
  0
ARC
  5
18B
330
1F
100
AcDbEntity
  8
0
  6
Continuous
 62
     7
370
    25
100
AcDbCircle
 10
6287.6129003679
 20
5127.4156919905
 30
0.0
 40
1.724219383867157
100
AcDbArc
 50
89.8388153987
 51
139.5421157664
  0
LWPOLYLINE
  5
18C
330
1F
100
AcDbEntity
  8
0
  6
Continuous
 62
     7
370
    25
100
AcDbPolyline
 90
        7
 70
   128
 43
0.0
 10
6290.0128304529
 20
5125.5390349741
 10
6289.4896559526
 20
5127.24475177
 10
6288.9425477805
 20
5128.3704856468
 10
6288.6476139204
 20
5128.7360074209
 10
6288.331811066
 20
5128.9807115817
 10
6287.9901773585
 20
5129.1126575012
 10
6287.6177509389
 20
5129.1399045515
  0
LWPOLYLINE
  5
18D
330
1F
100
AcDbEntity
  8
0
  6
Continuous
 62
     7
370
    25
100
AcDbPolyline
 90
        8
 70
   128
 43
0.0
 10
6293.8377036324
 20
5111.5406000087
 10
6293.5719798249
 20
5112.5044500923
 10
6293.0765828423
 20
5114.3032596765
 10
6292.4342555116
 20
5116.6391187029
 10
6291.7277406602
 20
5119.214117113
 10
6291.0088926477
 20
5121.8436274227
 10
6290.4055442313
 20
5124.0661091782
 10
6290.0128304529
 20
5125.5390349741
  0
LWPOLYLINE
  5
18E
330
1F
100
AcDbEntity
  8
0
  6
Continuous
 62
     7
370
    25
100
AcDbPolyline
 90
        3
 70
   128
 43
0.0
 10
6293.0406929011
 20
5107.7790829557
 10
6293.4288725344
 20
5110.0971571459
 10
6293.8377036324
 20
5111.5406000087
  0
ARC
  5
18F
330
1F
100
AcDbEntity
  8
0
  6
Continuous
 62
     7
370
    25
100
AcDbCircle
 10
6281.2349726615
 20
5108.4540736861
 30
0.0
 40
11.82500075528447
100
AcDbArc
 50
336.4632894891
 51
356.7276828305
  0
LWPOLYLINE
  5
190
330
1F
100
AcDbEntity
  8
0
  6
Continuous
 62
     7
370
    25
100
AcDbPolyline
 90
        3
 70
   128
 43
0.0
 10
6288.1132363213
 20
5100.949852918
 10
6290.6462379645
 20
5102.4089014302
 10
6292.0761853833
 20
5103.731918502
  0
LWPOLYLINE
  5
191
330
1F
100
AcDbEntity
  8
0
  6
Continuous
 62
     7
370
    25
100
AcDbPolyline
 90
       10
 70
   128
 43
0.0
 10
6281.1266277974
 20
5126.5896258775
 10
6281.3394076346
 20
5125.5686068974
 10
6281.7189792382
 20
5123.8913323442
 10
6282.213922799
 20
5121.7659339535
 10
6282.7728185079
 20
5119.4005434609
 10
6283.3442465558
 20
5117.0032926021
 10
6283.8679164104
 20
5114.819221821
 10
6284.3053611591
 20
5113.0023629539
 10
6284.6078667281
 20
5111.7498957423
 10
6284.726719044
 20
5111.258999928
  0
LINE
  5
192
330
1F
100
AcDbEntity
  8
0
  6
Continuous
 62
     7
370
    25
100
AcDbLine
 10
6284.726719044
 20
5111.258999928
 30
0.0
 11
6283.5972053983
 21
5110.984871823
 31
0.0
  0
ARC
  5
193
330
1F
100
AcDbEntity
  8
0
  6
Continuous
 62
     7
370
    25
100
AcDbCircle
 10
6282.4473262768
 20
5129.5895486101
 30
0.0
 40
1.757263155209947
100
AcDbArc
 50
69.3945489472
 51
117.9222225446
  0
LINE
  5
194
330
1F
100
AcDbEntity
  8
0
  6
Continuous
 62
     7
370
    25
100
AcDbLine
 10
6283.4989800523
 20
5094.6463074975
 30
0.0
 11
6282.4192795772
 21
5095.0768800918
 31
0.0
  0
ARC
  5
195
330
1F
100
AcDbEntity
  8
0
  6
Continuous
 62
     7
370
    25
100
AcDbCircle
 10
6292.7796436165
 20
5090.978090664
 30
0.0
 40
11.14168828318483
100
AcDbArc
 50
131.1232464334
 51
158.4151514966
  0
LINE
  5
196
330
1F
100
AcDbEntity
  8
0
  6
Continuous
 62
     7
370
    25
100
AcDbLine
 10
6282.9536814992
 20
5157.8402298524
 30
0.0
 11
6282.1669447344
 21
5155.6789609084
 31
0.0
  0
LINE
  5
197
330
1F
100
AcDbEntity
  8
0
  6
Continuous
 62
     7
370
    25
100
AcDbLine
 10
6282.1669447344
 20
5155.6789609084
 30
0.0
 11
6283.7561405461
 21
5155.6789609084
 31
0.0
  0
LINE
  5
198
330
1F
100
AcDbEntity
  8
0
  6
Continuous
 62
     7
370
    25
100
AcDbLine
 10
6283.7561405461
 20
5155.6789609084
 30
0.0
 11
6282.9536814992
 21
5157.8402298524
 31
0.0
  0
LINE
  5
199
330
1F
100
AcDbEntity
  8
0
  6
Continuous
 62
     7
370
    25
100
AcDbLine
 10
6281.8054879144
 20
5154.6976414455
 30
0.0
 11
6284.1336309803
 21
5154.6976414455
 31
0.0
  0
LINE
  5
19A
330
1F
100
AcDbEntity
  8
0
  6
Continuous
 62
     7
370
    25
100
AcDbLine
 10
6281.3247908171
 20
5153.3746347648
 30
0.0
 11
6281.8054879144
 21
5154.6976414455
 31
0.0
  0
LINE
  5
19B
330
1F
100
AcDbEntity
  8
0
  6
Continuous
 62
     7
370
    25
100
AcDbLine
 10
6280.0772822233
 20
5153.3746347648
 30
0.0
 11
6281.3247908171
 21
5153.3746347648
 31
0.0
  0
LINE
  5
19C
330
1F
100
AcDbEntity
  8
0
  6
Continuous
 62
     7
370
    25
100
AcDbLine
 10
6282.3458051504
 20
5159.1988840835
 30
0.0
 11
6280.0772822233
 21
5153.3746347648
 31
0.0
  0
LINE
  5
19D
330
1F
100
AcDbEntity
  8
0
  6
Continuous
 62
     7
370
    25
100
AcDbLine
 10
6283.5892664242
 20
5159.1988840835
 30
0.0
 11
6282.3458051504
 21
5159.1988840835
 31
0.0
  0
LINE
  5
19E
330
1F
100
AcDbEntity
  8
0
  6
Continuous
 62
     7
370
    25
100
AcDbLine
 10
6285.9213011441
 20
5153.3746347648
 30
0.0
 11
6283.5892664242
 21
5159.1988840835
 31
0.0
  0
LINE
  5
19F
330
1F
100
AcDbEntity
  8
0
  6
Continuous
 62
     7
370
    25
100
AcDbLine
 10
6284.6420366539
 20
5153.3746347648
 30
0.0
 11
6285.9213011441
 21
5153.3746347648
 31
0.0
  0
LINE
  5
1A0
330
1F
100
AcDbEntity
  8
0
  6
Continuous
 62
     7
370
    25
100
AcDbLine
 10
6284.1336309803
 20
5154.6976414455
 30
0.0
 11
6284.6420366539
 21
5153.3746347648
 31
0.0
  0
LWPOLYLINE
  5
1A1
330
1F
100
AcDbEntity
  8
0
  6
Continuous
 62
     7
370
    25
100
AcDbPolyline
 90
        3
 70
   128
 43
0.0
 10
6296.8392584998
 20
5153.2753197557
 10
6297.7864808473
 20
5153.4205441969
 10
6298.3868914471
 20
5153.7382709109
  0
LWPOLYLINE
  5
1A2
330
1F
100
AcDbEntity
  8
0
  6
Continuous
 62
     7
370
    25
100
AcDbPolyline
 90
        3
 70
   128
 43
0.0
 10
6294.9323480587
 20
5154.0679718346
 10
6295.8982718845
 20
5153.4288109516
 10
6296.8392584998
 20
5153.2753197557
  0
LWPOLYLINE
  5
1A3
330
1F
100
AcDbEntity
  8
0
  6
Continuous
 62
     7
370
    25
100
AcDbPolyline
 90
        3
 70
   128
 43
0.0
 10
6294.1854618304
 20
5156.2351560926
 10
6294.4197283105
 20
5154.8781484459
 10
6294.9323480587
 20
5154.0679718346
  0
ARC
  5
1A4
330
1F
100
AcDbEntity
  8
0
  6
Continuous
 62
     7
370
    25
100
AcDbCircle
 10
6297.3016001106
 20
5156.4533717921
 30
0.0
 40
3.123769497410311
100
AcDbArc
 50
139.2191571816
 51
184.0057468543
  0
LWPOLYLINE
  5
1A5
330
1F
100
AcDbEntity
  8
0
  6
Continuous
 62
     7
370
    25
100
AcDbPolyline
 90
        3
 70
   128
 43
0.0
 10
6296.9107092665
 20
5159.2981990926
 10
6295.688607701
 20
5159.0458918362
 10
6294.9362397126
 20
5158.4937163856
  0
LWPOLYLINE
  5
1A6
330
1F
100
AcDbEntity
  8
0
  6
Continuous
 62
     7
370
    25
100
AcDbPolyline
 90
        3
 70
   128
 43
0.0
 10
6298.6468539318
 20
5158.6665058215
 10
6297.7734474902
 20
5159.1758863986
 10
6296.9107092665
 20
5159.2981990926
  0
LWPOLYLINE
  5
1A7
330
1F
100
AcDbEntity
  8
0
  6
Continuous
 62
     7
370
    25
100
AcDbPolyline
 90
        3
 70
   128
 43
0.0
 10
6299.2427439863
 20
5157.5938103236
 10
6298.958179773
 20
5158.2748375626
 10
6298.6468539318
 20
5158.6665058215
  0
LINE
  5
1A8
330
1F
100
AcDbEntity
  8
0
  6
Continuous
 62
     7
370
    25
100
AcDbLine
 10
6298.0788281196
 20
5157.3157905646
 30
0.0
 11
6299.2427439863
 21
5157.5938103236
 31
0.0
  0
LWPOLYLINE
  5
1A9
330
1F
100
AcDbEntity
  8
0
  6
Continuous
 62
     7
370
    25
100
AcDbPolyline
 90
        3
 70
   128
 43
0.0
 10
6297.6479441929
 20
5158.0309208966
 10
6297.9444444191
 20
5157.6773912251
 10
6298.0788281196
 20
5157.3157905646
  0
LWPOLYLINE
  5
1AA
330
1F
100
AcDbEntity
  8
0
  6
Continuous
 62
     7
370
    25
100
AcDbPolyline
 90
        3
 70
   128
 43
0.0
 10
6296.851244794
 20
5158.2930627074
 10
6297.3319538066
 20
5158.210876515
 10
6297.6479441929
 20
5158.0309208966
  0
ARC
  5
1AB
330
1F
100
AcDbEntity
  8
0
  6
Continuous
 62
     7
370
    25
100
AcDbCircle
 10
6296.8090227766
 20
5156.9674524196
 30
0.0
 40
1.326282524101433
100
AcDbArc
 50
88.1756886977
 51
139.5318332736
  0
LWPOLYLINE
  5
1AC
330
1F
100
AcDbEntity
  8
0
  6
Continuous
 62
     7
370
    25
100
AcDbPolyline
 90
        3
 70
   128
 43
0.0
 10
6295.3971672078
 20
5156.3224848075
 10
6295.5235912816
 20
5157.307644308
 10
6295.8000312259
 20
5157.8282435582
  0
ARC
  5
1AD
330
1F
100
AcDbEntity
  8
0
  6
Continuous
 62
     7
370
    25
100
AcDbCircle
 10
6297.7201613177
 20
5156.0723550409
 30
0.0
 40
2.336421737354248
100
AcDbArc
 50
173.8543210858
 51
214.4901389763
  0
ARC
  5
1AE
330
1F
100
AcDbEntity
  8
0
  6
Continuous
 62
     7
370
    25
100
AcDbCircle
 10
6296.7943485578
 20
5155.5799673159
 30
0.0
 40
1.299928175175696
100
AcDbArc
 50
219.7167538518
 51
271.4513015672
  0
LWPOLYLINE
  5
1AF
330
1F
100
AcDbEntity
  8
0
  6
Continuous
 62
     7
370
    25
100
AcDbPolyline
 90
        3
 70
   128
 43
0.0
 10
6297.6337785725
 20
5154.5784011681
 10
6297.2144830425
 20
5154.3381382981
 10
6296.8272722056
 20
5154.2804561408
  0
LWPOLYLINE
  5
1B0
330
1F
100
AcDbEntity
  8
0
  6
Continuous
 62
     7
370
    25
100
AcDbPolyline
 90
        3
 70
   128
 43
0.0
 10
6298.11852299
 20
5155.5161341067
 10
6297.8940922799
 20
5154.9068380128
 10
6297.6337785725
 20
5154.5784011681
  0
LINE
  5
1B1
330
1F
100
AcDbEntity
  8
0
  6
Continuous
 62
     7
370
    25
100
AcDbLine
 10
6299.2587776007
 20
5155.1545216206
 30
0.0
 11
6298.11852299
 21
5155.5161341067
 31
0.0
  0
LWPOLYLINE
  5
1B2
330
1F
100
AcDbEntity
  8
0
  6
Continuous
 62
     7
370
    25
100
AcDbPolyline
 90
        3
 70
   128
 43
0.0
 10
6298.3868914471
 20
5153.7382709109
 10
6298.9607586008
 20
5154.4104435998
 10
6299.2587776007
 20
5155.1545216206
  0
LINE
  5
1B3
330
1F
100
AcDbEntity
  8
0
  6
Continuous
 62
     7
370
    25
100
AcDbLine
 10
6290.7276494526
 20
5075.685374929
 30
0.0
 11
6257.3118848797
 21
5075.685374929
 31
0.0
  0
LINE
  5
1B4
330
1F
100
AcDbEntity
  8
0
  6
Continuous
 62
     7
370
    25
100
AcDbLine
 10
6274.0197671661
 20
5064.1982689118
 30
0.0
 11
6290.7276494526
 21
5075.685374929
 31
0.0
  0
LINE
  5
1B5
330
1F
100
AcDbEntity
  8
0
  6
Continuous
 62
     7
370
    25
100
AcDbLine
 10
6257.3118848797
 20
5075.685374929
 30
0.0
 11
6274.0197671661
 21
5064.1982689118
 31
0.0
  0
LINE
  5
1B6
330
1F
100
AcDbEntity
  8
0
  6
Continuous
 62
     7
370
    25
100
AcDbLine
 10
6353.3769933239
 20
5385.8893807395
 30
0.0
 11
6353.3769918447
 21
5385.5680605796
 31
0.0
  0
LINE
  5
1B7
330
1F
100
AcDbEntity
  8
0
  6
Continuous
 62
     7
370
    25
100
AcDbLine
 10
6353.3769918447
 20
5385.5680605796
 30
0.0
 11
6354.7186872447
 21
5385.5680544034
 31
0.0
  0
LINE
  5
1B8
330
1F
100
AcDbEntity
  8
0
  6
Continuous
 62
     7
370
    25
100
AcDbLine
 10
6354.7186872447
 20
5385.5680544034
 30
0.0
 11
6354.71868876
 21
5385.8972358834
 31
0.0
  0
LWPOLYLINE
  5
1B9
330
1F
100
AcDbEntity
  8
0
  6
Continuous
 62
     7
370
    25
100
AcDbPolyline
 90
        6
 70
   128
 43
0.0
 10
6354.71868876
 20
5385.8972358834
 10
6354.6550874353
 20
5386.8933346962
 10
6354.5944638994
 20
5387.0773568803
 10
6354.5040248976
 20
5387.2188874116
 10
6354.3778073379
 20
5387.3096809676
 10
6354.2098481282
 20
5387.3414922258
  0
LINE
  5
1BA
330
1F
100
AcDbEntity
  8
0
  6
Continuous
 62
     7
370
    25
100
AcDbLine
 10
6354.2098481282
 20
5387.3414922258
 30
0.0
 11
6353.8852147682
 21
5387.3414937201
 31
0.0
  0
LWPOLYLINE
  5
1BB
330
1F
100
AcDbEntity
  8
0
  6
Continuous
 62
     7
370
    25
100
AcDbPolyline
 90
        6
 70
   128
 43
0.0
 10
6353.8852147682
 20
5387.3414937201
 10
6353.7174640437
 20
5387.3090176023
 10
6353.5914025379
 20
5387.2171804201
 10
6353.5010746478
 20
5387.0743715621
 10
6353.4405247702
 20
5386.8889804171
 10
6353.3769933239
 20
5385.8893807395
  0
ARC
  5
1BC
330
1F
100
AcDbEntity
  8
0
  6
Continuous
 62
     7
370
    25
100
AcDbCircle
 10
6354.1102062138
 20
5386.738389813
 30
0.0
 40
1.451994037973788
100
AcDbArc
 50
355.7603215433
 51
86.0648770058
  0
LINE
  5
1BD
330
1F
100
AcDbEntity
  8
0
  6
Continuous
 62
     7
370
    25
100
AcDbLine
 10
6355.5582268979
 20
5386.6310455789
 30
0.0
 11
6355.5582052146
 21
5381.9205787789
 31
0.0
  0
LINE
  5
1BE
330
1F
100
AcDbEntity
  8
0
  6
Continuous
 62
     7
370
    25
100
AcDbLine
 10
6355.5582052146
 20
5381.9205787789
 30
0.0
 11
6354.7186704546
 21
5381.9205826435
 31
0.0
  0
LINE
  5
1BF
330
1F
100
AcDbEntity
  8
0
  6
Continuous
 62
     7
370
    25
100
AcDbLine
 10
6354.7186704546
 20
5381.9205826435
 30
0.0
 11
6354.7186831987
 21
5384.6890925635
 31
0.0
  0
LINE
  5
1C0
330
1F
100
AcDbEntity
  8
0
  6
Continuous
 62
     7
370
    25
100
AcDbLine
 10
6354.7186831987
 20
5384.6890925635
 30
0.0
 11
6353.3772889987
 21
5384.6890987382
 31
0.0
  0
LINE
  5
1C1
330
1F
100
AcDbEntity
  8
0
  6
Continuous
 62
     7
370
    25
100
AcDbLine
 10
6353.3772889987
 20
5384.6890987382
 30
0.0
 11
6353.3769750547
 21
5381.9205888196
 31
0.0
  0
LINE
  5
1C2
330
1F
100
AcDbEntity
  8
0
  6
Continuous
 62
     7
370
    25
100
AcDbLine
 10
6353.3769750547
 20
5381.9205888196
 30
0.0
 11
6352.5537954547
 21
5381.9205926089
 31
0.0
  0
LINE
  5
1C3
330
1F
100
AcDbEntity
  8
0
  6
Continuous
 62
     7
370
    25
100
AcDbLine
 10
6352.5537954547
 20
5381.9205926089
 30
0.0
 11
6352.5538081987
 21
5384.6891025288
 31
0.0
  0
LINE
  5
1C4
330
1F
100
AcDbEntity
  8
0
  6
Continuous
 62
     7
370
    25
100
AcDbLine
 10
6352.5538081987
 20
5384.6891025288
 30
0.0
 11
6352.1931814387
 21
5384.6891041889
 31
0.0
  0
LINE
  5
1C5
330
1F
100
AcDbEntity
  8
0
  6
Continuous
 62
     7
370
    25
100
AcDbLine
 10
6351.9025576038
 20
5385.5678565267
 30
0.0
 11
6352.5538122438
 21
5385.5678535288
 31
0.0
  0
LINE
  5
1C6
330
1F
100
AcDbEntity
  8
0
  6
Continuous
 62
     7
370
    25
100
AcDbLine
 10
6352.5538122438
 20
5385.5678535288
 30
0.0
 11
6352.5538171902
 21
5386.6424146488
 31
0.0
  0
ARC
  5
1C7
330
1F
100
AcDbEntity
  8
0
  6
Continuous
 62
     7
370
    25
100
AcDbCircle
 10
6353.9645628223
 20
5386.7724589356
 30
0.0
 40
1.416726774991724
100
AcDbArc
 50
93.2105453204
 51
185.2667121096
  0
LINE
  5
1C8
330
1F
100
AcDbEntity
  8
0
  6
Continuous
 62
     7
370
    25
100
AcDbLine
 10
6352.1931814387
 20
5384.6891041889
 30
0.0
 11
6351.9025576038
 21
5385.5678565267
 31
0.0
  0
LINE
  5
1C9
330
1F
100
AcDbEntity
  8
0
  6
Continuous
 62
     7
370
    25
100
AcDbLine
 10
6353.8852186601
 20
5388.1869621201
 30
0.0
 11
6354.2098520201
 21
5388.1869606257
 31
0.0
  0
LWPOLYLINE
  5
1CA
330
1F
100
AcDbEntity
  8
0
  6
Continuous
 62
     7
370
    25
100
AcDbPolyline
 90
       11
 70
   128
 43
0.0
 10
6376.7086962326
 20
5378.8917648187
 10
6376.7043866289
 20
5378.876937206
 10
6376.6930386951
 20
5378.8622055228
 10
6376.6521555353
 20
5378.834047276
 10
6376.5181339368
 20
5378.7900725753
 10
6376.3534746125
 20
5378.7761180078
 10
6376.2050207379
 20
5378.8084608647
 10
6376.1672336753
 20
5378.8323434926
 10
6376.138186948
 20
5378.8637817293
 10
6376.1196154883
 20
5378.9033784374
 10
6376.1132542287
 20
5378.9517364797
  0
ARC
  5
1CB
330
1F
100
AcDbEntity
  8
0
  6
Continuous
 62
     7
370
    25
100
AcDbCircle
 10
6414.7565163778
 20
5375.1466292696
 30
0.0
 40
38.83015001780554
100
AcDbArc
 50
171.089034564
 51
174.3763537718
  0
LWPOLYLINE
  5
1CC
330
1F
100
AcDbEntity
  8
0
  6
Continuous
 62
     7
370
    25
100
AcDbPolyline
 90
       13
 70
   128
 43
0.0
 10
6376.3950370002
 20
5381.1613986226
 10
6376.398329606
 20
5381.1731241165
 10
6376.406174739
 20
5381.1868247472
 10
6376.4262715776
 20
5381.2112329567
 10
6376.4792337303
 20
5381.2584803484
 10
6376.5516659857
 20
5381.3067238499
 10
6376.6186322064
 20
5381.3347829027
 10
6376.6364095983
 20
5381.3370596826
 10
6376.650725361
 20
5381.3348730561
 10
6376.6563621398
 20
5381.3319324742
 10
6376.6608659215
 20
5381.327667851
 10
6376.6641475093
 20
5381.3220097901
 10
6376.6661177067
 20
5381.3148888947
  0
LWPOLYLINE
  5
1CD
330
1F
100
AcDbEntity
  8
0
  6
Continuous
 62
     7
370
    25
100
AcDbPolyline
 90
        9
 70
   128
 43
0.0
 10
6376.6661177067
 20
5381.3148888947
 10
6376.6638723276
 20
5381.2165204241
 10
6376.6493621479
 20
5381.0802134184
 10
6376.6031735805
 20
5380.7401880469
 10
6376.4918059607
 20
5379.9777263056
 10
6376.4060662844
 20
5379.2839064446
 10
6376.3953811198
 20
5379.0812066602
 10
6376.3977956354
 20
5379.027659783
 10
6376.4045148107
 20
5378.9912826989
  0
LWPOLYLINE
  5
1CE
330
1F
100
AcDbEntity
  8
0
  6
Continuous
 62
     7
370
    25
100
AcDbPolyline
 90
        9
 70
   128
 43
0.0
 10
6376.4045148107
 20
5378.9912826989
 10
6376.4197656173
 20
5378.9679832498
 10
6376.4451852389
 20
5378.9531767114
 10
6376.516251427
 20
5378.9412848671
 10
6376.6673350786
 20
5378.9340836091
 10
6376.6847925189
 20
5378.9283289616
 10
6376.6980128209
 20
5378.9197407004
 10
6376.7062345403
 20
5378.907744196
 10
6376.7086962326
 20
5378.8917648187
  0
ARC
  5
1CF
330
1F
100
AcDbEntity
  8
0
  6
Continuous
 62
     7
370
    25
100
AcDbCircle
 10
6350.7281333262
 20
5387.6196069295
 30
0.0
 40
2.127952200114001
100
AcDbArc
 50
172.9245493579
 51
227.0788859657
  0
ARC
  5
1D0
330
1F
100
AcDbEntity
  8
0
  6
Continuous
 62
     7
370
    25
100
AcDbCircle
 10
6350.458677129
 20
5387.7593878394
 30
0.0
 40
1.846348339608085
100
AcDbArc
 50
85.272422235
 51
176.2010067711
  0
LINE
  5
1D1
330
1F
100
AcDbEntity
  8
0
  6
Continuous
 62
     7
370
    25
100
AcDbLine
 10
6370.2406261223
 20
5389.5994545927
 30
0.0
 11
6350.6108498421
 21
5389.5994545927
 31
0.0
  0
LINE
  5
1D2
330
1F
100
AcDbEntity
  8
0
  6
Continuous
 62
     7
370
    25
100
AcDbLine
 10
6370.2406218968
 20
5388.6815174727
 30
0.0
 11
6370.2406261223
 21
5389.5994545927
 31
0.0
  0
LINE
  5
1D3
330
1F
100
AcDbEntity
  8
0
  6
Continuous
 62
     7
370
    25
100
AcDbLine
 10
6350.671507297
 20
5388.6816075535
 30
0.0
 11
6370.2406218968
 21
5388.6815174727
 31
0.0
  0
ARC
  5
1D4
330
1F
100
AcDbEntity
  8
0
  6
Continuous
 62
     7
370
    25
100
AcDbCircle
 10
6350.5178720038
 20
5387.7554583915
 30
0.0
 40
0.9388056633680809
100
AcDbArc
 50
80.5811964855
 51
176.1186964062
  0
ARC
  5
1D5
330
1F
100
AcDbEntity
  8
0
  6
Continuous
 62
     7
370
    25
100
AcDbCircle
 10
6351.5917476324
 20
5387.8073017324
 30
0.0
 40
2.010562133292132
100
AcDbArc
 50
179.6664600687
 51
236.0043875236
  0
LINE
  5
1D6
330
1F
100
AcDbEntity
  8
0
  6
Continuous
 62
     7
370
    25
100
AcDbLine
 10
6351.2987402304
 20
5385.1912990662
 30
0.0
 11
6350.4675831992
 21
5386.1403840922
 31
0.0
  0
ARC
  5
1D7
330
1F
100
AcDbEntity
  8
0
  6
Continuous
 62
     7
370
    25
100
AcDbCircle
 10
6349.7724918024
 20
5383.7183598577
 30
0.0
 40
2.121080898000938
100
AcDbArc
 50
350.3763181967
 51
43.9817003617
  0
ARC
  5
1D8
330
1F
100
AcDbEntity
  8
0
  6
Continuous
 62
     7
370
    25
100
AcDbCircle
 10
6350.3234482927
 20
5383.4559242936
 30
0.0
 40
1.543029079241754
100
AcDbArc
 50
264.2705514309
 51
356.5759191929
  0
LINE
  5
1D9
330
1F
100
AcDbEntity
  8
0
  6
Continuous
 62
     7
370
    25
100
AcDbLine
 10
6348.2948274547
 20
5381.9206122138
 30
0.0
 11
6350.1694058947
 21
5381.9206035847
 31
0.0
  0
LINE
  5
1DA
330
1F
100
AcDbEntity
  8
0
  6
Continuous
 62
     7
370
    25
100
AcDbLine
 10
6348.2948317512
 20
5382.8539707738
 30
0.0
 11
6348.2948274547
 21
5381.9206122138
 31
0.0
  0
LINE
  5
1DB
330
1F
100
AcDbEntity
  8
0
  6
Continuous
 62
     7
370
    25
100
AcDbLine
 10
6350.0910078311
 20
5382.8539625056
 30
0.0
 11
6348.2948317512
 21
5382.8539707738
 31
0.0
  0
ARC
  5
1DC
330
1F
100
AcDbEntity
  8
0
  6
Continuous
 62
     7
370
    25
100
AcDbCircle
 10
6350.182716723
 20
5383.5706490657
 30
0.0
 40
0.7225303774391962
100
AcDbArc
 50
262.7079264762
 51
358.037483172
  0
ARC
  5
1DD
330
1F
100
AcDbEntity
  8
0
  6
Continuous
 62
     7
370
    25
100
AcDbCircle
 10
6349.6460811654
 20
5383.758012316
 30
0.0
 40
1.276487777164394
100
AcDbArc
 50
350.4351178169
 51
53.1164929335
  0
LINE
  5
1DE
330
1F
100
AcDbEntity
  8
0
  6
Continuous
 62
     7
370
    25
100
AcDbLine
 10
6349.2790175153
 20
5386.0613245634
 30
0.0
 11
6350.4122163726
 21
5384.779020587
 31
0.0
  0
LINE
  5
1DF
330
1F
100
AcDbEntity
  8
0
  6
Continuous
 62
     7
370
    25
100
AcDbLine
 10
6356.2719575801
 20
5388.1869511334
 30
0.0
 11
6359.009343361
 21
5385.9756486127
 31
0.0
  0
LINE
  5
1E0
330
1F
100
AcDbEntity
  8
0
  6
Continuous
 62
     7
370
    25
100
AcDbLine
 10
6359.009343361
 20
5385.9756486127
 30
0.0
 11
6359.0093530377
 21
5388.0778137726
 31
0.0
  0
LINE
  5
1E1
330
1F
100
AcDbEntity
  8
0
  6
Continuous
 62
     7
370
    25
100
AcDbLine
 10
6359.0093530377
 20
5388.0778137726
 30
0.0
 11
6359.9586450783
 21
5388.0779298828
 31
0.0
  0
LINE
  5
1E2
330
1F
100
AcDbEntity
  8
0
  6
Continuous
 62
     7
370
    25
100
AcDbLine
 10
6359.9586450783
 20
5388.0779298828
 30
0.0
 11
6359.9586335247
 21
5385.5680302829
 31
0.0
  0
LINE
  5
1E3
330
1F
100
AcDbEntity
  8
0
  6
Continuous
 62
     7
370
    25
100
AcDbLine
 10
6359.9586335247
 20
5385.5680302829
 30
0.0
 11
6360.6720558447
 21
5385.5680269988
 31
0.0
  0
LINE
  5
1E4
330
1F
100
AcDbEntity
  8
0
  6
Continuous
 62
     7
370
    25
100
AcDbLine
 10
6360.6720558447
 20
5385.5680269988
 30
0.0
 11
6360.6720673983
 21
5388.0779265988
 31
0.0
  0
LINE
  5
1E5
330
1F
100
AcDbEntity
  8
0
  6
Continuous
 62
     7
370
    25
100
AcDbLine
 10
6360.6720673983
 20
5388.0779265988
 30
0.0
 11
6363.0253429982
 21
5388.0779157662
 31
0.0
  0
LINE
  5
1E6
330
1F
100
AcDbEntity
  8
0
  6
Continuous
 62
     7
370
    25
100
AcDbLine
 10
6363.0253429982
 20
5388.0779157662
 30
0.0
 11
6363.0253396081
 21
5387.3414516462
 31
0.0
  0
LINE
  5
1E7
330
1F
100
AcDbEntity
  8
0
  6
Continuous
 62
     7
370
    25
100
AcDbLine
 10
6363.0253396081
 20
5387.3414516462
 30
0.0
 11
6361.4412685682
 21
5387.341458938
 31
0.0
  0
LINE
  5
1E8
330
1F
100
AcDbEntity
  8
0
  6
Continuous
 62
     7
370
    25
100
AcDbLine
 10
6361.4412685682
 20
5387.341458938
 30
0.0
 11
6361.4412604047
 21
5385.568023458
 31
0.0
  0
LINE
  5
1E9
330
1F
100
AcDbEntity
  8
0
  6
Continuous
 62
     7
370
    25
100
AcDbLine
 10
6361.4412604047
 20
5385.568023458
 30
0.0
 11
6363.0374698046
 21
5385.5680161103
 31
0.0
  0
LINE
  5
1EA
330
1F
100
AcDbEntity
  8
0
  6
Continuous
 62
     7
370
    25
100
AcDbLine
 10
6363.0374698046
 20
5385.5680161103
 30
0.0
 11
6363.3275213586
 21
5384.6890529352
 31
0.0
  0
LINE
  5
1EB
330
1F
100
AcDbEntity
  8
0
  6
Continuous
 62
     7
370
    25
100
AcDbLine
 10
6363.3275213586
 20
5384.6890529352
 30
0.0
 11
6361.4409551586
 21
5384.6890616194
 31
0.0
  0
LINE
  5
1EC
330
1F
100
AcDbEntity
  8
0
  6
Continuous
 62
     7
370
    25
100
AcDbLine
 10
6361.4409551586
 20
5384.6890616194
 30
0.0
 11
6361.441247262
 21
5382.7129185381
 31
0.0
  0
LINE
  5
1ED
330
1F
100
AcDbEntity
  8
0
  6
Continuous
 62
     7
370
    25
100
AcDbLine
 10
6361.441247262
 20
5382.7129185381
 30
0.0
 11
6363.025318302
 21
5382.7129112462
 31
0.0
  0
LINE
  5
1EE
330
1F
100
AcDbEntity
  8
0
  6
Continuous
 62
     7
370
    25
100
AcDbLine
 10
6363.025318302
 20
5382.7129112462
 30
0.0
 11
6363.0253146546
 21
5381.9205444062
 31
0.0
  0
LINE
  5
1EF
330
1F
100
AcDbEntity
  8
0
  6
Continuous
 62
     7
370
    25
100
AcDbLine
 10
6363.0253146546
 20
5381.9205444062
 30
0.0
 11
6360.6720390546
 21
5381.9205552389
 31
0.0
  0
LINE
  5
1F0
330
1F
100
AcDbEntity
  8
0
  6
Continuous
 62
     7
370
    25
100
AcDbLine
 10
6360.6720390546
 20
5381.9205552389
 30
0.0
 11
6360.6721421586
 21
5384.6890651584
 31
0.0
  0
LINE
  5
1F1
330
1F
100
AcDbEntity
  8
0
  6
Continuous
 62
     7
370
    25
100
AcDbLine
 10
6360.6721421586
 20
5384.6890651584
 30
0.0
 11
6359.9586294786
 21
5384.6890684429
 31
0.0
  0
LINE
  5
1F2
330
1F
100
AcDbEntity
  8
0
  6
Continuous
 62
     7
370
    25
100
AcDbLine
 10
6359.9586294786
 20
5384.6890684429
 30
0.0
 11
6359.9586167346
 21
5381.9205585229
 31
0.0
  0
LINE
  5
1F3
330
1F
100
AcDbEntity
  8
0
  6
Continuous
 62
     7
370
    25
100
AcDbLine
 10
6359.9586167346
 20
5381.9205585229
 30
0.0
 11
6359.0093246946
 21
5381.9205628927
 31
0.0
  0
LINE
  5
1F4
330
1F
100
AcDbEntity
  8
0
  6
Continuous
 62
     7
370
    25
100
AcDbLine
 10
6359.0093246946
 20
5381.9205628927
 30
0.0
 11
6359.0093374386
 21
5384.6890728127
 31
0.0
  0
LINE
  5
1F5
330
1F
100
AcDbEntity
  8
0
  6
Continuous
 62
     7
370
    25
100
AcDbLine
 10
6359.0093374386
 20
5384.6890728127
 30
0.0
 11
6357.1500664586
 21
5386.1011370913
 31
0.0
  0
LINE
  5
1F6
330
1F
100
AcDbEntity
  8
0
  6
Continuous
 62
     7
370
    25
100
AcDbLine
 10
6357.1500664586
 20
5386.1011370913
 30
0.0
 11
6357.1503785346
 21
5381.9205714498
 31
0.0
  0
LINE
  5
1F7
330
1F
100
AcDbEntity
  8
0
  6
Continuous
 62
     7
370
    25
100
AcDbLine
 10
6357.1503785346
 20
5381.9205714498
 30
0.0
 11
6356.2718383746
 21
5381.9205754939
 31
0.0
  0
LINE
  5
1F8
330
1F
100
AcDbEntity
  8
0
  6
Continuous
 62
     7
370
    25
100
AcDbLine
 10
6356.2718383746
 20
5381.9205754939
 30
0.0
 11
6356.2719575801
 21
5388.1869511334
 31
0.0
  0
LWPOLYLINE
  5
1F9
330
1F
100
AcDbEntity
  8
0
  6
Continuous
 62
     7
370
    25
100
AcDbPolyline
 90
        3
 70
   128
 43
0.0
 10
6375.9481758966
 20
5387.5344312397
 10
6375.0212194136
 20
5387.3244650445
 10
6374.4260290283
 20
5386.9808326464
  0
LWPOLYLINE
  5
1FA
330
1F
100
AcDbEntity
  8
0
  6
Continuous
 62
     7
370
    25
100
AcDbPolyline
 90
        3
 70
   128
 43
0.0
 10
6374.5109388764
 20
5387.3214894556
 10
6375.2899864937
 20
5387.564249083
 10
6375.9481758966
 20
5387.5344312397
  0
LWPOLYLINE
  5
1FB
330
1F
100
AcDbEntity
  8
0
  6
Continuous
 62
     7
370
    25
100
AcDbPolyline
 90
        8
 70
   128
 43
0.0
 10
6373.0899372225
 20
5387.2576415967
 10
6373.2743693387
 20
5387.5138409383
 10
6373.4564774819
 20
5387.6875158438
 10
6373.6364512228
 20
5387.7844687658
 10
6373.8144801324
 20
5387.8105021565
 10
6374.0491543722
 20
5387.7449230035
 10
6374.2811575024
 20
5387.5773341161
 10
6374.5109388764
 20
5387.3214894556
  0
ARC
  5
1FC
330
1F
100
AcDbEntity
  8
0
  6
Continuous
 62
     7
370
    25
100
AcDbCircle
 10
6371.7849614871
 20
5385.1304124066
 30
0.0
 40
2.495609283772813
100
AcDbArc
 50
58.4724375444
 51
96.7078262234
  0
LWPOLYLINE
  5
1FD
330
1F
100
AcDbEntity
  8
0
  6
Continuous
 62
     7
370
    25
100
AcDbPolyline
 90
        3
 70
   128
 43
0.0
 10
6372.5790719513
 20
5387.2682461883
 10
6371.975444423
 20
5387.5226592655
 10
6371.4934583595
 20
5387.6089385057
  0
ARC
  5
1FE
330
1F
100
AcDbEntity
  8
0
  6
Continuous
 62
     7
370
    25
100
AcDbCircle
 10
6374.0888999685
 20
5389.3830385592
 30
0.0
 40
2.59844711576609
100
AcDbArc
 50
234.4755633332
 51
260.3669593354
  0
LWPOLYLINE
  5
1FF
330
1F
100
AcDbEntity
  8
0
  6
Continuous
 62
     7
370
    25
100
AcDbPolyline
 90
       11
 70
   128
 43
0.0
 10
6373.6540836955
 20
5387.0128236398
 10
6373.6671770614
 20
5387.0106718968
 10
6373.6785246257
 20
5387.0045910019
 10
6373.6959823602
 20
5386.9828869907
 10
6373.7064569196
 20
5386.9522020748
 10
6373.7099483245
 20
5386.9170267227
 10
6373.7064565957
 20
5386.8818514027
 10
6373.6959817539
 20
5386.8511665832
 10
6373.6785238196
 20
5386.8294627328
 10
6373.6671761993
 20
5386.8233819424
 10
6373.6540828136
 20
5386.8212303198
  0
LINE
  5
200
330
1F
100
AcDbEntity
  8
0
  6
Continuous
 62
     7
370
    25
100
AcDbLine
 10
6373.5369771355
 20
5387.0128241789
 30
0.0
 11
6373.6540836955
 21
5387.0128236398
 31
0.0
  0
ARC
  5
201
330
1F
100
AcDbEntity
  8
0
  6
Continuous
 62
     7
370
    25
100
AcDbCircle
 10
6373.5307712806
 20
5387.0809566075
 30
0.0
 40
0.0684144754907294
100
AcDbArc
 50
183.5848161449
 51
275.204435524
  0
ARC
  5
202
330
1F
100
AcDbEntity
  8
0
  6
Continuous
 62
     7
370
    25
100
AcDbCircle
 10
6373.541359484
 20
5387.0600492074
 30
0.0
 40
0.0806029609170822
100
AcDbArc
 50
93.1162653004
 51
168.0934280527
  0
LINE
  5
203
330
1F
100
AcDbEntity
  8
0
  6
Continuous
 62
     7
370
    25
100
AcDbLine
 10
6374.0267289234
 20
5387.1405307245
 30
0.0
 11
6373.5369777234
 21
5387.1405329789
 31
0.0
  0
ARC
  5
204
330
1F
100
AcDbEntity
  8
0
  6
Continuous
 62
     7
370
    25
100
AcDbCircle
 10
6374.0277497753
 20
5387.0662459733
 30
0.0
 40
0.0742917653364346
100
AcDbArc
 50
8.0705601104
 51
90.7873328502
  0
ARC
  5
205
330
1F
100
AcDbEntity
  8
0
  6
Continuous
 62
     7
370
    25
100
AcDbCircle
 10
6374.0287884229
 20
5387.0858937051
 30
0.0
 40
0.073100814571083
100
AcDbArc
 50
268.385107741
 51
352.7559443174
  0
LINE
  5
206
330
1F
100
AcDbEntity
  8
0
  6
Continuous
 62
     7
370
    25
100
AcDbLine
 10
6373.9043206555
 20
5387.0128224879
 30
0.0
 11
6374.0267283355
 21
5387.0128219245
 31
0.0
  0
LWPOLYLINE
  5
207
330
1F
100
AcDbEntity
  8
0
  6
Continuous
 62
     7
370
    25
100
AcDbPolyline
 90
       12
 70
   128
 43
0.0
 10
6373.8829646692
 20
5386.8159281462
 10
6373.8725754045
 20
5386.8181394109
 10
6373.8633834726
 20
5386.8243885443
 10
6373.8554672738
 20
5386.834098707
 10
6373.8489052089
 20
5386.8466930593
 10
6373.8401570824
 20
5386.8782269747
 10
6373.8377662973
 20
5386.9143755743
 10
6373.8423600579
 20
5386.9505241418
 10
6373.8545655683
 20
5386.9820579607
 10
6373.8750100327
 20
5387.0043623149
 10
6373.8885178741
 20
5387.0106113438
 10
6373.9043206555
 20
5387.0128224879
  0
ARC
  5
208
330
1F
100
AcDbEntity
  8
0
  6
Continuous
 62
     7
370
    25
100
AcDbCircle
 10
6373.9690038714
 20
5387.5092468355
 30
0.0
 40
0.6986369223127922
100
AcDbArc
 50
262.9258961867
 51
310.856510822
  0
LWPOLYLINE
  5
209
330
1F
100
AcDbEntity
  8
0
  6
Continuous
 62
     7
370
    25
100
AcDbPolyline
 90
        3
 70
   128
 43
0.0
 10
6374.1970085289
 20
5389.5835029007
 10
6374.8950461464
 20
5390.0382394534
 10
6375.4530757335
 20
5390.2275229587
  0
LWPOLYLINE
  5
20A
330
1F
100
AcDbEntity
  8
0
  6
Continuous
 62
     7
370
    25
100
AcDbPolyline
 90
        3
 70
   128
 43
0.0
 10
6374.5003767527
 20
5389.4930812642
 10
6374.3327161362
 20
5389.5456793361
 10
6374.1970085289
 20
5389.5835029007
  0
LWPOLYLINE
  5
20B
330
1F
100
AcDbEntity
  8
0
  6
Continuous
 62
     7
370
    25
100
AcDbPolyline
 90
        3
 70
   128
 43
0.0
 10
6375.4530757335
 20
5390.2275229587
 10
6374.8646187116
 20
5389.8454444826
 10
6374.5003767527
 20
5389.4930812642
  0
ARC
  5
20C
330
1F
100
AcDbEntity
  8
0
  6
Continuous
 62
     7
370
    25
100
AcDbCircle
 10
6373.7599947475
 20
5387.2859815299
 30
0.0
 40
2.260730875571802
100
AcDbArc
 50
19.6263587489
 51
91.2000237016
  0
ARC
  5
20D
330
1F
100
AcDbEntity
  8
0
  6
Continuous
 62
     7
370
    25
100
AcDbCircle
 10
6373.6596715053
 20
5387.3098851185
 30
0.0
 40
2.236958859372301
100
AcDbArc
 50
88.6429567676
 51
164.5180840402
  0
LWPOLYLINE
  5
20E
330
1F
100
AcDbEntity
  8
0
  6
Continuous
 62
     7
370
    25
100
AcDbPolyline
 90
        3
 70
   128
 43
0.0
 10
6372.9462120793
 20
5388.8862607783
 10
6372.1814826732
 20
5388.4520895895
 10
6371.5038812516
 20
5387.9070059777
  0
ARC
  5
20F
330
1F
100
AcDbEntity
  8
0
  6
Continuous
 62
     7
370
    25
100
AcDbCircle
 10
6373.8111567044
 20
5389.6187194103
 30
0.0
 40
1.133412922084336
100
AcDbArc
 50
220.2588337526
 51
316.1155852901
  0
ARC
  5
210
330
1F
100
AcDbEntity
  8
0
  6
Continuous
 62
     7
370
    25
100
AcDbCircle
 10
6373.4856580118
 20
5385.6000201782
 30
0.0
 40
3.428910012843481
100
AcDbArc
 50
45.4913030425
 51
70.5389809194
  0
ARC
  5
211
330
1F
100
AcDbEntity
  8
0
  6
Continuous
 62
     7
370
    25
100
AcDbCircle
 10
6370.6607273584
 20
5386.2731063294
 30
0.0
 40
4.161584669228113
100
AcDbArc
 50
52.4577644144
 51
74.9191376857
  0
LWPOLYLINE
  5
212
330
1F
100
AcDbEntity
  8
0
  6
Continuous
 62
     7
370
    25
100
AcDbPolyline
 90
        3
 70
   128
 43
0.0
 10
6372.8504934386
 20
5389.477004779
 10
6372.2963945506
 20
5389.9974148564
 10
6371.7434968273
 20
5390.2913643147
  0
LWPOLYLINE
  5
213
330
1F
100
AcDbEntity
  8
0
  6
Continuous
 62
     7
370
    25
100
AcDbPolyline
 90
        3
 70
   128
 43
0.0
 10
6373.1965726798
 20
5389.5728450259
 10
6372.9932586406
 20
5389.5270375342
 10
6372.8504934386
 20
5389.477004779
  0
LWPOLYLINE
  5
214
330
1F
100
AcDbEntity
  8
0
  6
Continuous
 62
     7
370
    25
100
AcDbPolyline
 90
        3
 70
   128
 43
0.0
 10
6375.4568227811
 20
5386.3275552214
 10
6375.6635289624
 20
5386.0449955832
 10
6375.8080798465
 20
5385.8116883645
  0
LWPOLYLINE
  5
215
330
1F
100
AcDbEntity
  8
0
  6
Continuous
 62
     7
370
    25
100
AcDbPolyline
 90
        3
 70
   128
 43
0.0
 10
6374.8243928731
 20
5386.2693361726
 10
6375.1807042228
 20
5386.2651904908
 10
6375.4568227811
 20
5386.3275552214
  0
LWPOLYLINE
  5
216
330
1F
100
AcDbEntity
  8
0
  6
Continuous
 62
     7
370
    25
100
AcDbPolyline
 90
        3
 70
   128
 43
0.0
 10
6374.6588206853
 20
5385.7158518148
 10
6374.7464852675
 20
5386.0314618756
 10
6374.8243928731
 20
5386.2693361726
  0
LWPOLYLINE
  5
217
330
1F
100
AcDbEntity
  8
0
  6
Continuous
 62
     7
370
    25
100
AcDbPolyline
 90
        3
 70
   128
 43
0.0
 10
6375.8080798465
 20
5385.8116883645
 10
6375.1504363034
 20
5385.6540233102
 10
6374.6588206853
 20
5385.7158518148
  0
LWPOLYLINE
  5
218
330
1F
100
AcDbEntity
  8
0
  6
Continuous
 62
     7
370
    25
100
AcDbPolyline
 90
        3
 70
   128
 43
0.0
 10
6376.1358723871
 20
5385.0688674156
 10
6376.233500094
 20
5384.6883186724
 10
6376.2792103123
 20
5384.3835162758
  0
LWPOLYLINE
  5
219
330
1F
100
AcDbEntity
  8
0
  6
Continuous
 62
     7
370
    25
100
AcDbPolyline
 90
        3
 70
   128
 43
0.0
 10
6374.5161992083
 20
5385.0039662713
 10
6375.451412444
 20
5384.8977614603
 10
6376.1358723871
 20
5385.0688674156
  0
LWPOLYLINE
  5
21A
330
1F
100
AcDbEntity
  8
0
  6
Continuous
 62
     7
370
    25
100
AcDbPolyline
 90
        3
 70
   128
 43
0.0
 10
6374.438938341
 20
5384.337621867
 10
6374.476863594
 20
5384.7160924599
 10
6374.5161992083
 20
5385.0039662713
  0
LWPOLYLINE
  5
21B
330
1F
100
AcDbEntity
  8
0
  6
Continuous
 62
     7
370
    25
100
AcDbPolyline
 90
        3
 70
   128
 43
0.0
 10
6376.2792103123
 20
5384.3835162758
 10
6375.1982472429
 20
5384.183198909
 10
6374.438938341
 20
5384.337621867
  0
ARC
  5
21C
330
1F
100
AcDbEntity
  8
0
  6
Continuous
 62
     7
370
    25
100
AcDbCircle
 10
6376.0117610276
 20
5385.721603026
 30
0.0
 40
1.732680718937424
100
AcDbArc
 50
86.7753164468
 51
136.2622475469
  0
LWPOLYLINE
  5
21D
330
1F
100
AcDbEntity
  8
0
  6
Continuous
 62
     7
370
    25
100
AcDbPolyline
 90
        3
 70
   128
 43
0.0
 10
6374.759878826
 20
5386.9195067896
 10
6374.8518073108
 20
5386.8384915316
 10
6374.9121348147
 20
5386.7867070088
  0
LWPOLYLINE
  5
21E
330
1F
100
AcDbEntity
  8
0
  6
Continuous
 62
     7
370
    25
100
AcDbPolyline
 90
        3
 70
   128
 43
0.0
 10
6374.9121348147
 20
5386.7867070088
 10
6374.9699020478
 20
5386.8837219385
 10
6375.016682106
 20
5386.9542640875
  0
ARC
  5
21F
330
1F
100
AcDbEntity
  8
0
  6
Continuous
 62
     7
370
    25
100
AcDbCircle
 10
6372.6989200912
 20
5384.0517671741
 30
0.0
 40
3.714365233715713
100
AcDbArc
 50
354.8363598407
 51
51.3912096348
  0
ARC
  5
220
330
1F
100
AcDbEntity
  8
0
  6
Continuous
 62
     7
370
    25
100
AcDbCircle
 10
6373.731239355
 20
5383.8401188406
 30
0.0
 40
2.66979061270782
100
AcDbArc
 50
271.0863368061
 51
357.3669805181
  0
ARC
  5
221
330
1F
100
AcDbEntity
  8
0
  6
Continuous
 62
     7
370
    25
100
AcDbCircle
 10
6373.6953810667
 20
5383.2895059637
 30
0.0
 40
2.120461879181737
100
AcDbArc
 50
163.8861494894
 51
272.3372365448
  0
ARC
  5
222
330
1F
100
AcDbEntity
  8
0
  6
Continuous
 62
     7
370
    25
100
AcDbCircle
 10
6384.5147105349
 20
5380.0106126114
 30
0.0
 40
13.42557617938124
100
AcDbArc
 50
152.0153172891
 51
163.2579327508
  0
LWPOLYLINE
  5
223
330
1F
100
AcDbEntity
  8
0
  6
Continuous
 62
     7
370
    25
100
AcDbPolyline
 90
        6
 70
   128
 43
0.0
 10
6372.658945782
 20
5386.3103695807
 10
6372.7213837277
 20
5386.6191124119
 10
6372.6800408594
 20
5386.8765365354
 10
6372.5540318668
 20
5387.087004204
 10
6372.3624714397
 20
5387.2548776704
 10
6371.3230091816
 20
5387.5876745703
  0
LWPOLYLINE
  5
224
330
1F
100
AcDbEntity
  8
0
  6
Continuous
 62
     7
370
    25
100
AcDbPolyline
 90
        3
 70
   128
 43
0.0
 10
6371.3230091816
 20
5387.5876745703
 10
6371.4848164221
 20
5388.1040173016
 10
6371.6743029555
 20
5388.5030799932
  0
LWPOLYLINE
  5
225
330
1F
100
AcDbEntity
  8
0
  6
Continuous
 62
     7
370
    25
100
AcDbPolyline
 90
        3
 70
   128
 43
0.0
 10
6371.6743029555
 20
5388.5030799932
 10
6371.2515521941
 20
5389.4811732196
 10
6371.1421519093
 20
5390.4829604028
  0
LWPOLYLINE
  5
226
330
1F
100
AcDbEntity
  8
0
  6
Continuous
 62
     7
370
    25
100
AcDbPolyline
 90
        3
 70
   128
 43
0.0
 10
6371.1421519093
 20
5390.4829604028
 10
6372.3634939667
 20
5390.1268428497
 10
6373.2602765777
 20
5389.5941094526
  0
ARC
  5
227
330
1F
100
AcDbEntity
  8
0
  6
Continuous
 62
     7
370
    25
100
AcDbCircle
 10
6373.6960110244
 20
5387.5894780941
 30
0.0
 40
2.051441296141298
100
AcDbArc
 50
78.4539419231
 51
102.2632732352
  0
ARC
  5
228
330
1F
100
AcDbEntity
  8
0
  6
Continuous
 62
     7
370
    25
100
AcDbCircle
 10
6376.5383766907
 20
5386.7591179011
 30
0.0
 40
3.739075863599004
100
AcDbArc
 50
92.85006971
 51
130.5690086427
  0
LWPOLYLINE
  5
229
330
1F
100
AcDbEntity
  8
0
  6
Continuous
 62
     7
370
    25
100
AcDbPolyline
 90
        3
 70
   128
 43
0.0
 10
6376.3524601581
 20
5390.4935687787
 10
6376.1634810422
 20
5389.3549531718
 10
6375.7565569398
 20
5388.5083623217
  0
ARC
  5
22A
330
1F
100
AcDbEntity
  8
0
  6
Continuous
 62
     7
370
    25
100
AcDbCircle
 10
6374.7884489707
 20
5387.5980412219
 30
0.0
 40
1.328878303183176
100
AcDbArc
 50
353.6706142036
 51
43.2379426009
  0
LWPOLYLINE
  5
22B
330
1F
100
AcDbEntity
  8
0
  6
Continuous
 62
     7
370
    25
100
AcDbPolyline
 90
        3
 70
   128
 43
0.0
 10
6374.7149997826
 20
5386.8666463962
 10
6374.4829453807
 20
5386.4800772024
 10
6374.3726223975
 20
5386.1399427322
  0
LWPOLYLINE
  5
22C
330
1F
100
AcDbEntity
  8
0
  6
Continuous
 62
     7
370
    25
100
AcDbPolyline
 90
        3
 70
   128
 43
0.0
 10
6374.3726223975
 20
5386.1399427322
 10
6374.151333171
 20
5383.4527228165
 10
6374.228717011
 20
5381.3288456746
  0
LWPOLYLINE
  5
22D
330
1F
100
AcDbEntity
  8
0
  6
Continuous
 62
     7
370
    25
100
AcDbPolyline
 90
        3
 70
   128
 43
0.0
 10
6374.228717011
 20
5381.3288456746
 10
6374.246284788
 20
5381.3305839409
 10
6374.2619996272
 20
5381.3323695614
  0
ARC
  5
22E
330
1F
100
AcDbEntity
  8
0
  6
Continuous
 62
     7
370
    25
100
AcDbCircle
 10
6373.6053056578
 20
5383.9266962031
 30
0.0
 40
2.676149789018347
100
AcDbArc
 50
284.2047407325
 51
352.3457377684
  0
LWPOLYLINE
  5
22F
330
1F
100
AcDbEntity
  8
0
  6
Continuous
 62
     7
370
    25
100
AcDbPolyline
 90
        3
 70
   128
 43
0.0
 10
6376.2576105286
 20
5383.5702462552
 10
6375.1924980645
 20
5383.4164219703
 10
6374.4040858992
 20
5383.5551646674
  0
LWPOLYLINE
  5
230
330
1F
100
AcDbEntity
  8
0
  6
Continuous
 62
     7
370
    25
100
AcDbPolyline
 90
        3
 70
   128
 43
0.0
 10
6374.4040858992
 20
5383.5551646674
 10
6374.4431469311
 20
5382.5520082511
 10
6374.4736559374
 20
5381.9993458671
  0
ARC
  5
231
330
1F
100
AcDbEntity
  8
0
  6
Continuous
 62
     7
370
    25
100
AcDbCircle
 10
6382.2826742356
 20
5383.7108056226
 30
0.0
 40
7.994364344663386
100
AcDbArc
 50
157.8479882419
 51
192.3617510348
  0
LWPOLYLINE
  5
232
330
1F
100
AcDbEntity
  8
0
  6
Continuous
 62
     7
370
    25
100
AcDbPolyline
 90
        3
 70
   128
 43
0.0
 10
6374.8784001315
 20
5386.725202124
 10
6374.7931781151
 20
5386.7979042504
 10
6374.7149997826
 20
5386.8666463962
  0
LWPOLYLINE
  5
233
330
1F
100
AcDbEntity
  8
0
  6
Continuous
 62
     7
370
    25
100
AcDbPolyline
 90
        7
 70
   128
 43
0.0
 10
6372.6908164164
 20
5387.108609674
 10
6372.8378585065
 20
5386.9173329774
 10
6372.9679802889
 20
5386.6408916675
 10
6373.0803048325
 20
5386.2747251133
 10
6373.269613373
 20
5385.030400566
 10
6373.3416040701
 20
5383.4280485278
 10
6373.3135508808
 20
5381.3179464473
  0
LWPOLYLINE
  5
234
330
1F
100
AcDbEntity
  8
0
  6
Continuous
 62
     7
370
    25
100
AcDbPolyline
 90
        3
 70
   128
 43
0.0
 10
6373.3135508808
 20
5381.3179464473
 10
6373.5292611366
 20
5381.2842879148
 10
6373.6861953251
 20
5381.275445412
  0
LWPOLYLINE
  5
235
330
1F
100
AcDbEntity
  8
0
  6
Continuous
 62
     7
370
    25
100
AcDbPolyline
 90
        3
 70
   128
 43
0.0
 10
6373.6861953251
 20
5381.275445412
 10
6373.6477728077
 20
5382.5284794889
 10
6373.728614183
 20
5383.4256517767
  0
LWPOLYLINE
  5
236
330
1F
100
AcDbEntity
  8
0
  6
Continuous
 62
     7
370
    25
100
AcDbPolyline
 90
        3
 70
   128
 43
0.0
 10
6373.728614183
 20
5383.4256517767
 10
6373.7486910322
 20
5382.2230069655
 10
6373.7765251807
 20
5381.2701438762
  0
LWPOLYLINE
  5
237
330
1F
100
AcDbEntity
  8
0
  6
Continuous
 62
     7
370
    25
100
AcDbPolyline
 90
        3
 70
   128
 43
0.0
 10
6373.7765251807
 20
5381.2701438762
 10
6374.0164728862
 20
5381.2859794802
 10
6374.1596818968
 20
5381.3127317924
  0
LWPOLYLINE
  5
238
330
1F
100
AcDbEntity
  8
0
  6
Continuous
 62
     7
370
    25
100
AcDbPolyline
 90
        6
 70
   128
 43
0.0
 10
6374.1596818968
 20
5381.3127317924
 10
6374.0685820295
 20
5383.6610543816
 10
6374.1578552737
 20
5385.4518805826
 10
6374.2925998419
 20
5386.1601389908
 10
6374.4967550215
 20
5386.7063423217
 10
6374.7771684787
 20
5387.08736547
  0
ARC
  5
239
330
1F
100
AcDbEntity
  8
0
  6
Continuous
 62
     7
370
    25
100
AcDbCircle
 10
6373.3869403755
 20
5388.6074852383
 30
0.0
 40
2.059975312576123
100
AcDbArc
 50
280.4512105107
 51
312.4445293248
  0
ARC
  5
23A
330
1F
100
AcDbEntity
  8
0
  6
Continuous
 62
     7
370
    25
100
AcDbCircle
 10
6374.7503481647
 20
5389.9405657885
 30
0.0
 40
3.501663384331886
100
AcDbArc
 50
233.9735886286
 51
253.581795317
  0
LWPOLYLINE
  5
23B
330
1F
100
AcDbEntity
  8
0
  6
Continuous
 62
     7
370
    25
100
AcDbPolyline
 90
        3
 70
   128
 43
0.0
 10
6373.2230102348
 20
5381.3340309441
 10
6373.2111053493
 20
5384.3499189329
 10
6372.8398784101
 20
5386.6988263878
  0
LWPOLYLINE
  5
23C
330
1F
100
AcDbEntity
  8
0
  6
Continuous
 62
     7
370
    25
100
AcDbPolyline
 90
        3
 70
   128
 43
0.0
 10
6372.8398784101
 20
5386.6988263878
 10
6372.7892351301
 20
5386.3387493326
 10
6372.6162940242
 20
5385.911129177
  0
LWPOLYLINE
  5
23D
330
1F
100
AcDbEntity
  8
0
  6
Continuous
 62
     7
370
    25
100
AcDbPolyline
 90
        9
 70
   128
 43
0.0
 10
6372.6162940242
 20
5385.911129177
 10
6372.4374294207
 20
5385.5694544106
 10
6372.1538415025
 20
5384.9981970744
 10
6371.7640615981
 20
5383.822134145
 10
6371.7142665033
 20
5383.1003046327
 10
6371.8880638367
 20
5382.408418901
 10
6372.1672300063
 20
5381.9909023857
 10
6372.604395486
 20
5381.6273520257
 10
6373.2230102348
 20
5381.3340309441
  0
ARC
  5
23E
330
1F
100
AcDbEntity
  8
0
  6
Continuous
 62
     7
370
    25
100
AcDbCircle
 10
6373.2133446931
 20
5387.94322907
 30
0.0
 40
0.1853462409880283
100
AcDbArc
 50
271.3491213685
 51
358.6598885161
  0
ARC
  5
23F
330
1F
100
AcDbEntity
  8
0
  6
Continuous
 62
     7
370
    25
100
AcDbCircle
 10
6373.2174109229
 20
5387.9332065892
 30
0.0
 40
0.1813185463298029
100
AcDbArc
 50
1.7975951329
 51
89.905427691
  0
ARC
  5
240
330
1F
100
AcDbEntity
  8
0
  6
Continuous
 62
     7
370
    25
100
AcDbCircle
 10
6373.2175450144
 20
5387.9336523634
 30
0.0
 40
0.1808726005707092
100
AcDbArc
 50
89.9476712805
 51
178.3387177805
  0
ARC
  5
241
330
1F
100
AcDbEntity
  8
0
  6
Continuous
 62
     7
370
    25
100
AcDbCircle
 10
6373.2221014331
 20
5387.9432871628
 30
0.0
 40
0.1854050024411975
100
AcDbArc
 50
181.3571291509
 51
268.6423433602
  0
ARC
  5
242
330
1F
100
AcDbEntity
  8
0
  6
Continuous
 62
     7
370
    25
100
AcDbCircle
 10
6374.4218851437
 20
5387.9375259539
 30
0.0
 40
0.1796024654962211
100
AcDbArc
 50
269.564701157
 51
0.4347713541
  0
ARC
  5
243
330
1F
100
AcDbEntity
  8
0
  6
Continuous
 62
     7
370
    25
100
AcDbCircle
 10
6374.4218915799
 20
5387.9402298264
 30
0.0
 40
0.1795958652187704
100
AcDbArc
 50
359.5721731292
 51
90.4368367568
  0
ARC
  5
244
330
1F
100
AcDbEntity
  8
0
  6
Continuous
 62
     7
370
    25
100
AcDbCircle
 10
6374.4232906065
 20
5387.9414250962
 30
0.0
 40
0.1784168531103951
100
AcDbArc
 50
90.8890303462
 51
180.8139924778
  0
ARC
  5
245
330
1F
100
AcDbEntity
  8
0
  6
Continuous
 62
     7
370
    25
100
AcDbCircle
 10
6374.4228794869
 20
5387.9359254651
 30
0.0
 40
0.1780124225288886
100
AcDbArc
 50
179.0456373002
 51
269.2407517615
  0
LINE
  5
246
330
1F
100
AcDbEntity
  8
0
  6
Continuous
 62
     7
370
    25
100
AcDbLine
 10
6371.7222543138
 20
5388.5722352925
 30
0.0
 11
6371.7861091306
 21
5388.6627757185
 31
0.0
  0
LWPOLYLINE
  5
247
330
1F
100
AcDbEntity
  8
0
  6
Continuous
 62
     7
370
    25
100
AcDbPolyline
 90
        3
 70
   128
 43
0.0
 10
6371.7861091306
 20
5388.6627757185
 10
6371.4520576187
 20
5389.5210600864
 10
6371.3762735178
 20
5390.2328127251
  0
LWPOLYLINE
  5
248
330
1F
100
AcDbEntity
  8
0
  6
Continuous
 62
     7
370
    25
100
AcDbPolyline
 90
        3
 70
   128
 43
0.0
 10
6371.3762735178
 20
5390.2328127251
 10
6372.1110934662
 20
5389.8229865254
 10
6372.6215809485
 20
5389.3705316327
  0
LWPOLYLINE
  5
249
330
1F
100
AcDbEntity
  8
0
  6
Continuous
 62
     7
370
    25
100
AcDbPolyline
 90
        3
 70
   128
 43
0.0
 10
6372.6215809485
 20
5389.3705316327
 10
6372.7182763695
 20
5389.4175321666
 10
6372.7972411564
 20
5389.4504391841
  0
LWPOLYLINE
  5
24A
330
1F
100
AcDbEntity
  8
0
  6
Continuous
 62
     7
370
    25
100
AcDbPolyline
 90
        3
 70
   128
 43
0.0
 10
6372.7972411564
 20
5389.4504391841
 10
6371.9590901951
 20
5390.1339124574
 10
6371.2378426835
 20
5390.3817868823
  0
LWPOLYLINE
  5
24B
330
1F
100
AcDbEntity
  8
0
  6
Continuous
 62
     7
370
    25
100
AcDbPolyline
 90
        3
 70
   128
 43
0.0
 10
6371.2378426835
 20
5390.3817868823
 10
6371.3700390713
 20
5389.394914037
 10
6371.7222543138
 20
5388.5722352925
  0
LWPOLYLINE
  5
24C
330
1F
100
AcDbEntity
  8
0
  6
Continuous
 62
     7
370
    25
100
AcDbPolyline
 90
        3
 70
   128
 43
0.0
 10
6374.5642310298
 20
5389.4663946503
 10
6374.6511495351
 20
5389.4287215344
 10
6374.7292581665
 20
5389.3918167706
  0
LWPOLYLINE
  5
24D
330
1F
100
AcDbEntity
  8
0
  6
Continuous
 62
     7
370
    25
100
AcDbPolyline
 90
        3
 70
   128
 43
0.0
 10
6374.7292581665
 20
5389.3918167706
 10
6375.4571091483
 20
5389.9479591164
 10
6376.1078241706
 20
5390.2008336248
  0
LWPOLYLINE
  5
24E
330
1F
100
AcDbEntity
  8
0
  6
Continuous
 62
     7
370
    25
100
AcDbPolyline
 90
        3
 70
   128
 43
0.0
 10
6376.1078241706
 20
5390.2008336248
 10
6375.9289124218
 20
5389.3898038241
 10
6375.6021328758
 20
5388.7638408726
  0
LWPOLYLINE
  5
24F
330
1F
100
AcDbEntity
  8
0
  6
Continuous
 62
     7
370
    25
100
AcDbPolyline
 90
        3
 70
   128
 43
0.0
 10
6375.6021328758
 20
5388.7638408726
 10
6375.6672006186
 20
5388.6749148055
 10
6375.7084858606
 20
5388.604114023
  0
LWPOLYLINE
  5
250
330
1F
100
AcDbEntity
  8
0
  6
Continuous
 62
     7
370
    25
100
AcDbPolyline
 90
        3
 70
   128
 43
0.0
 10
6375.7084858606
 20
5388.604114023
 10
6376.1778713739
 20
5389.623819248
 10
6376.293996797
 20
5390.3977272078
  0
LWPOLYLINE
  5
251
330
1F
100
AcDbEntity
  8
0
  6
Continuous
 62
     7
370
    25
100
AcDbPolyline
 90
        3
 70
   128
 43
0.0
 10
6376.293996797
 20
5390.3977272078
 10
6375.2365760991
 20
5390.0033449051
 10
6374.5642310298
 20
5389.4663946503
  0
LWPOLYLINE
  5
252
330
1F
100
AcDbEntity
  8
0
  6
Continuous
 62
     7
370
    25
100
AcDbPolyline
 90
        7
 70
   128
 43
0.0
 10
6376.0604029589
 20
5387.521900803
 10
6376.068058229
 20
5387.6423584044
 10
6376.0259028779
 20
5387.7660630246
 10
6375.9420005848
 20
5387.8909941812
 10
6375.5204488491
 20
5388.2529420436
 10
6375.0134670968
 20
5388.5531913617
 10
6374.6387746731
 20
5388.7371891071
  0
LWPOLYLINE
  5
253
330
1F
100
AcDbEntity
  8
0
  6
Continuous
 62
     7
370
    25
100
AcDbPolyline
 90
       13
 70
   128
 43
0.0
 10
6374.6387746731
 20
5388.7371891071
 10
6374.3022528983
 20
5388.5165470668
 10
6373.9827115974
 20
5388.4174250296
 10
6373.6889416806
 20
5388.411630635
 10
6373.4297340577
 20
5388.4709715226
 10
6373.1249570397
 20
5388.6204407194
 10
6372.9473940513
 20
5388.7578822735
 10
6372.915589481
 20
5388.7923585543
 10
6372.9143622641
 20
5388.7946644828
 10
6372.9142012035
 20
5388.7953972411
 10
6372.9142150907
 20
5388.7955775417
 10
6372.9142628974
 20
5388.7957254413
 10
6372.9143447031
 20
5388.795840685
  0
ARC
  5
254
330
1F
100
AcDbEntity
  8
0
  6
Continuous
 62
     7
370
    25
100
AcDbCircle
 10
6373.9897532295
 20
5385.8432477102
 30
0.0
 40
3.142341288548613
100
AcDbArc
 50
110.0128944193
 51
145.3938451763
  0
LWPOLYLINE
  5
255
330
1F
100
AcDbEntity
  8
0
  6
Continuous
 62
     7
370
    25
100
AcDbPolyline
 90
        3
 70
   128
 43
0.0
 10
6371.4033695267
 20
5387.6278844004
 10
6372.6390114611
 20
5388.1393742315
 10
6373.7818283486
 20
5388.2582850518
  0
ARC
  5
256
330
1F
100
AcDbEntity
  8
0
  6
Continuous
 62
     7
370
    25
100
AcDbCircle
 10
6373.9617059264
 20
5384.9214163848
 30
0.0
 40
3.341713399444072
100
AcDbArc
 50
51.0950545192
 51
93.0856055746
  0
LWPOLYLINE
  5
257
330
1F
100
AcDbEntity
  8
0
  6
Continuous
 62
     7
370
    25
100
AcDbPolyline
 90
        3
 70
   128
 43
0.0
 10
6364.6962689442
 20
5379.1072082345
 10
6364.5544810175
 20
5378.9422910131
 10
6364.4056397387
 20
5378.8192623723
  0
ARC
  5
258
330
1F
100
AcDbEntity
  8
0
  6
Continuous
 62
     7
370
    25
100
AcDbCircle
 10
6365.6817143356
 20
5379.395506053
 30
0.0
 40
1.737612320274334
100
AcDbArc
 50
157.5724576046
 51
196.1810086263
  0
LWPOLYLINE
  5
259
330
1F
100
AcDbEntity
  8
0
  6
Continuous
 62
     7
370
    25
100
AcDbPolyline
 90
        5
 70
   128
 43
0.0
 10
6364.0755302429
 20
5380.0584308119
 10
6364.1035082495
 20
5380.1217881031
 10
6364.1159088199
 20
5380.1374758597
 10
6364.121819476
 20
5380.1413788433
 10
6364.1275779907
 20
5380.1426762123
  0
ARC
  5
25A
330
1F
100
AcDbEntity
  8
0
  6
Continuous
 62
     7
370
    25
100
AcDbCircle
 10
6364.0819168971
 20
5379.8925567448
 30
0.0
 40
0.2542531877729833
100
AcDbArc
 50
23.4193027813
 51
79.6541747808
  0
ARC
  5
25B
330
1F
100
AcDbEntity
  8
0
  6
Continuous
 62
     7
370
    25
100
AcDbCircle
 10
6365.5971420043
 20
5379.4120974922
 30
0.0
 40
1.407646956960068
100
AcDbArc
 50
155.5996074527
 51
195.7025534482
  0
LWPOLYLINE
  5
25C
330
1F
100
AcDbEntity
  8
0
  6
Continuous
 62
     7
370
    25
100
AcDbPolyline
 90
        8
 70
   128
 43
0.0
 10
6364.242028874
 20
5379.0311272054
 10
6364.2731305217
 20
5378.9956672987
 10
6364.306310407
 20
5378.9737328312
 10
6364.3409722939
 20
5378.9639059693
 10
6364.3944396107
 20
5378.9687659264
 10
6364.447887603
 20
5378.9928926828
 10
6364.4993039737
 20
5379.0315010504
 10
6364.6212403886
 20
5379.1863639398
  0
LINE
  5
25D
330
1F
100
AcDbEntity
  8
0
  6
Continuous
 62
     7
370
    25
100
AcDbLine
 10
6364.6212403886
 20
5379.1863639398
 30
0.0
 11
6364.6212403955
 21
5379.1878699398
 31
0.0
  0
LWPOLYLINE
  5
25E
330
1F
100
AcDbEntity
  8
0
  6
Continuous
 62
     7
370
    25
100
AcDbPolyline
 90
        3
 70
   128
 43
0.0
 10
6364.6212403955
 20
5379.1878699398
 10
6364.7318838342
 20
5379.5639923648
 10
6364.8009397838
 20
5379.9413209126
  0
LWPOLYLINE
  5
25F
330
1F
100
AcDbEntity
  8
0
  6
Continuous
 62
     7
370
    25
100
AcDbPolyline
 90
        6
 70
   128
 43
0.0
 10
6364.8009397838
 20
5379.9413209126
 10
6364.8455481506
 20
5380.0818305073
 10
6364.8665504232
 20
5380.1168787956
 10
6364.8732816107
 20
5380.123362513
 10
6364.8798588395
 20
5380.127250891
 10
6364.8862706056
 20
5380.1285464399
  0
ARC
  5
260
330
1F
100
AcDbEntity
  8
0
  6
Continuous
 62
     7
370
    25
100
AcDbCircle
 10
6364.8679632799
 20
5379.902737509
 30
0.0
 40
0.2265498431317516
100
AcDbArc
 50
23.9720476075
 51
85.3649163224
  0
LWPOLYLINE
  5
261
330
1F
100
AcDbEntity
  8
0
  6
Continuous
 62
     7
370
    25
100
AcDbPolyline
 90
        8
 70
   128
 43
0.0
 10
6365.0749717899
 20
5379.9947826512
 10
6364.9670229041
 20
5379.5217278918
 10
6364.9436399394
 20
5379.281576246
 10
6364.9720884706
 20
5379.0772408592
 10
6365.0020160151
 20
5379.0182752695
 10
6365.0447465497
 20
5378.9731250384
 10
6365.1017543037
 20
5378.9441738011
 10
6365.174513506
 20
5378.933805193
  0
LWPOLYLINE
  5
262
330
1F
100
AcDbEntity
  8
0
  6
Continuous
 62
     7
370
    25
100
AcDbPolyline
 90
        8
 70
   128
 43
0.0
 10
6365.174513506
 20
5378.933805193
 10
6365.3017495991
 20
5378.9799385054
 10
6365.3955559405
 20
5379.0850908174
 10
6365.4985127199
 20
5379.3984687066
 10
6365.5122376457
 20
5379.7591942225
 10
6365.4950938157
 20
5379.8699624283
 10
6365.4857335332
 20
5379.8995413266
 10
6365.475236124
 20
5379.9196314087
  0
LWPOLYLINE
  5
263
330
1F
100
AcDbEntity
  8
0
  6
Continuous
 62
     7
370
    25
100
AcDbPolyline
 90
        7
 70
   128
 43
0.0
 10
6365.475236124
 20
5379.9196314087
 10
6365.4426390567
 20
5379.9853872838
 10
6365.4323635799
 20
5380.0178599854
 10
6365.432059659
 20
5380.02422908
 10
6365.4329640337
 20
5380.0295834279
 10
6365.4352278621
 20
5380.0337654721
 10
6365.4390023025
 20
5380.0366176555
  0
LWPOLYLINE
  5
264
330
1F
100
AcDbEntity
  8
0
  6
Continuous
 62
     7
370
    25
100
AcDbPolyline
 90
        8
 70
   128
 43
0.0
 10
6365.4390023025
 20
5380.0366176555
 10
6365.4638241299
 20
5380.0535288962
 10
6365.5032707111
 20
5380.0728100259
 10
6365.5811049936
 20
5380.1009457914
 10
6365.6682643475
 20
5380.1171273602
 10
6365.7049512361
 20
5380.1130048527
 10
6365.7153314896
 20
5380.1079577694
 10
6365.7229137175
 20
5380.1007117086
  0
LWPOLYLINE
  5
265
330
1F
100
AcDbEntity
  8
0
  6
Continuous
 62
     7
370
    25
100
AcDbPolyline
 90
        8
 70
   128
 43
0.0
 10
6365.7229137175
 20
5380.1007117086
 10
6365.731860799
 20
5380.0439491695
 10
6365.7336654682
 20
5379.9562087454
 10
6365.7201236609
 20
5379.7711356068
 10
6365.637241533
 20
5379.367632718
 10
6365.4321920619
 20
5378.9497539587
 10
6365.2776302083
 20
5378.8187624961
 10
6365.0840021718
 20
5378.7743202096
  0
LWPOLYLINE
  5
266
330
1F
100
AcDbEntity
  8
0
  6
Continuous
 62
     7
370
    25
100
AcDbPolyline
 90
       11
 70
   128
 43
0.0
 10
6365.0840021718
 20
5378.7743202096
 10
6364.9646536202
 20
5378.7886244647
 10
6364.8751804513
 20
5378.8263346459
 10
6364.8107709592
 20
5378.8796487543
 10
6364.766613438
 20
5378.9407647907
 10
6364.7198074848
 20
5379.0551946511
 10
6364.7075356409
 20
5379.092904477
 10
6364.7020773807
 20
5379.1034697392
 10
6364.7002098456
 20
5379.1055225944
 10
6364.6982811256
 20
5379.1067807997
 10
6364.6962689442
 20
5379.1072082345
  0
ARC
  5
267
330
1F
100
AcDbEntity
  8
0
  6
Continuous
 62
     7
370
    25
100
AcDbCircle
 10
6364.2501851397
 20
5379.0398084513
 30
0.0
 40
0.2698271767353529
100
AcDbArc
 50
208.4461970352
 51
305.1785630345
  0
LWPOLYLINE
  5
268
330
1F
100
AcDbEntity
  8
0
  6
Continuous
 62
     7
370
    25
100
AcDbPolyline
 90
        6
 70
   128
 43
0.0
 10
6369.4890232449
 20
5379.0334825324
 10
6369.4752397246
 20
5379.0649316409
 10
6369.469812798
 20
5379.0707370017
 10
6369.4634360232
 20
5379.0745216208
 10
6369.4560306853
 20
5379.0756865106
 10
6369.4475180697
 20
5379.0736326835
  0
LWPOLYLINE
  5
269
330
1F
100
AcDbEntity
  8
0
  6
Continuous
 62
     7
370
    25
100
AcDbPolyline
 90
        8
 70
   128
 43
0.0
 10
6369.0486074885
 20
5378.7909583197
 10
6369.1798457986
 20
5378.831433814
 10
6369.3136564218
 20
5378.8916068447
 10
6369.4423943634
 20
5378.9688146364
 10
6369.47970297
 20
5379.0041439893
 10
6369.4862879906
 20
5379.0147301781
 10
6369.4894868609
 20
5379.0245449497
 10
6369.4890232449
 20
5379.0334825324
  0
ARC
  5
26A
330
1F
100
AcDbEntity
  8
0
  6
Continuous
 62
     7
370
    25
100
AcDbCircle
 10
6368.9065124697
 20
5379.2765928209
 30
0.0
 40
0.5059959121335216
100
AcDbArc
 50
195.410830615
 51
286.309298046
  0
LWPOLYLINE
  5
26B
330
1F
100
AcDbEntity
  8
0
  6
Continuous
 62
     7
370
    25
100
AcDbPolyline
 90
        9
 70
   128
 43
0.0
 10
6368.3219042392
 20
5379.2234246249
 10
6368.3234125803
 20
5379.2056628818
 10
6368.3276337302
 20
5379.1926291296
 10
6368.3341115973
 20
5379.1835042737
 10
6368.354575508
 20
5379.173022596
 10
6368.3789599157
 20
5379.1688530404
 10
6368.4020696512
 20
5379.1616656078
 10
6368.4115230264
 20
5379.154024563
 10
6368.418709545
 20
5379.1421302993
  0
LWPOLYLINE
  5
26C
330
1F
100
AcDbEntity
  8
0
  6
Continuous
 62
     7
370
    25
100
AcDbPolyline
 90
        8
 70
   128
 43
0.0
 10
6368.4546136811
 20
5379.380258854
 10
6368.4443365771
 20
5379.3531495483
 10
6368.4271557996
 20
5379.335248876
 10
6368.3822839563
 20
5379.312944752
 10
6368.3403996149
 20
5379.2850891216
 10
6368.330628236
 20
5379.2696862553
 10
6368.3242112409
 20
5379.2494802793
 10
6368.3219042392
 20
5379.2234246249
  0
LWPOLYLINE
  5
26D
330
1F
100
AcDbEntity
  8
0
  6
Continuous
 62
     7
370
    25
100
AcDbPolyline
 90
        3
 70
   128
 43
0.0
 10
6368.5791614028
 20
5379.7108252807
 10
6368.4966935605
 20
5379.5350691125
 10
6368.4546136811
 20
5379.380258854
  0
ARC
  5
26E
330
1F
100
AcDbEntity
  8
0
  6
Continuous
 62
     7
370
    25
100
AcDbCircle
 10
6369.3237034096
 20
5379.3277948969
 30
0.0
 40
0.8372903168899362
100
AcDbArc
 50
94.855856521
 51
152.7763993892
  0
LWPOLYLINE
  5
26F
330
1F
100
AcDbEntity
  8
0
  6
Continuous
 62
     7
370
    25
100
AcDbPolyline
 90
        6
 70
   128
 43
0.0
 10
6369.4475180697
 20
5379.0736326835
 10
6369.064684735
 20
5378.9422698307
 10
6368.9719255947
 20
5378.9397341184
 10
6368.8858313193
 20
5378.9608617534
 10
6368.8091445025
 20
5379.0114234091
 10
6368.7446077381
 20
5379.0971897591
  0
LWPOLYLINE
  5
270
330
1F
100
AcDbEntity
  8
0
  6
Continuous
 62
     7
370
    25
100
AcDbPolyline
 90
       13
 70
   128
 43
0.0
 10
6369.0179809912
 20
5379.9950657007
 10
6369.0830602589
 20
5380.0416086972
 10
6369.1446416349
 20
5380.065973036
 10
6369.2004459449
 20
5380.0704010989
 10
6369.2534825555
 20
5380.0543446179
 10
6369.2930778347
 20
5380.0190870684
 10
6369.3120012584
 20
5379.9819638533
 10
6369.3201694862
 20
5379.9371829164
 10
6369.3162134695
 20
5379.8860912058
 10
6369.2987641597
 20
5379.8300356698
 10
6369.2521425891
 20
5379.7499015077
 10
6369.175853925
 20
5379.6665301079
 10
6369.0666530149
 20
5379.5831142367
  0
ARC
  5
271
330
1F
100
AcDbEntity
  8
0
  6
Continuous
 62
     7
370
    25
100
AcDbCircle
 10
6369.6044061497
 20
5379.3725044709
 30
0.0
 40
0.8552642581889276
100
AcDbArc
 50
133.2879640692
 51
174.5043744098
  0
LWPOLYLINE
  5
272
330
1F
100
AcDbEntity
  8
0
  6
Continuous
 62
     7
370
    25
100
AcDbPolyline
 90
        8
 70
   128
 43
0.0
 10
6368.7446077381
 20
5379.0971897591
 10
6368.7389737454
 20
5379.1127733873
 10
6368.7336141485
 20
5379.1336892431
 10
6368.7257868909
 20
5379.1814204257
 10
6368.7265942637
 20
5379.2359404458
 10
6368.7306981641
 20
5379.250679112
 10
6368.7372997097
 20
5379.2623823401
 10
6368.7467470548
 20
5379.2702592693
  0
LWPOLYLINE
  5
273
330
1F
100
AcDbEntity
  8
0
  6
Continuous
 62
     7
370
    25
100
AcDbPolyline
 90
        3
 70
   128
 43
0.0
 10
6368.7467470548
 20
5379.2702592693
 10
6369.11141342
 20
5379.4602541304
 10
6369.3714977985
 20
5379.6403709534
  0
LWPOLYLINE
  5
274
330
1F
100
AcDbEntity
  8
0
  6
Continuous
 62
     7
370
    25
100
AcDbPolyline
 90
        9
 70
   128
 43
0.0
 10
6369.3714977985
 20
5379.6403709534
 10
6369.44608656
 20
5379.7156451963
 10
6369.49744155
 20
5379.8003565187
 10
6369.5244050025
 20
5379.8883491508
 10
6369.5258191518
 20
5379.973467323
 10
6369.5005262321
 20
5380.0495552657
 10
6369.4473684774
 20
5380.1104572092
 10
6369.365188122
 20
5380.1500173837
 10
6369.2528274
 20
5380.1620800197
  0
LWPOLYLINE
  5
275
330
1F
100
AcDbEntity
  8
0
  6
Continuous
 62
     7
370
    25
100
AcDbPolyline
 90
       10
 70
   128
 43
0.0
 10
6369.0666530149
 20
5379.5831142367
 10
6369.0121684072
 20
5379.5505302535
 10
6368.9362813508
 20
5379.5068911116
 10
6368.7984568322
 20
5379.4433610244
 10
6368.7798100853
 20
5379.4393961166
 10
6368.7654933571
 20
5379.4395035218
 10
6368.7602105583
 20
5379.4412779081
 10
6368.756312434
 20
5379.4443026522
 10
6368.7538997077
 20
5379.4486551807
 10
6368.7530731025
 20
5379.4544129201
  0
ARC
  5
276
330
1F
100
AcDbEntity
  8
0
  6
Continuous
 62
     7
370
    25
100
AcDbCircle
 10
6374.4226920634
 20
5387.9382558523
 30
0.0
 40
0.0717464315986771
100
AcDbArc
 50
269.5892686069
 51
0.4818086999
  0
ARC
  5
277
330
1F
100
AcDbEntity
  8
0
  6
Continuous
 62
     7
370
    25
100
AcDbCircle
 10
6374.4230962484
 20
5387.9377918374
 30
0.0
 40
0.0712864907812474
100
AcDbArc
 50
179.1415814456
 51
269.2617421061
  0
ARC
  5
278
330
1F
100
AcDbEntity
  8
0
  6
Continuous
 62
     7
370
    25
100
AcDbCircle
 10
6374.4232039781
 20
5387.9398224015
 30
0.0
 40
0.0713927092097302
100
AcDbArc
 50
90.8230906254
 51
180.7725308435
  0
ARC
  5
279
330
1F
100
AcDbEntity
  8
0
  6
Continuous
 62
     7
370
    25
100
AcDbCircle
 10
6374.4227472816
 20
5387.9395182945
 30
0.0
 40
0.0716917066677054
100
AcDbArc
 50
359.4732236409
 51
90.4546440707
  0
LINE
  5
27A
330
1F
100
AcDbEntity
  8
0
  6
Continuous
 62
     7
370
    25
100
AcDbLine
 10
6377.4583745115
 20
5390.1271538879
 30
0.0
 11
6377.5597283115
 21
5390.1271534214
 31
0.0
  0
LWPOLYLINE
  5
27B
330
1F
100
AcDbEntity
  8
0
  6
Continuous
 62
     7
370
    25
100
AcDbPolyline
 90
        3
 70
   128
 43
0.0
 10
6377.7002062865
 20
5389.7567671347
 10
6377.7647539388
 20
5389.7996330587
 10
6377.801921928
 20
5389.8439941865
  0
LINE
  5
27C
330
1F
100
AcDbEntity
  8
0
  6
Continuous
 62
     7
370
    25
100
AcDbLine
 10
6377.8072209761
 20
5389.3938808821
 30
0.0
 11
6377.9187553361
 21
5389.3938803687
 31
0.0
  0
LINE
  5
27D
330
1F
100
AcDbEntity
  8
0
  6
Continuous
 62
     7
370
    25
100
AcDbLine
 10
6377.6133099476
 20
5389.7265872947
 30
0.0
 11
6377.8072209761
 21
5389.3938808821
 31
0.0
  0
LINE
  5
27E
330
1F
100
AcDbEntity
  8
0
  6
Continuous
 62
     7
370
    25
100
AcDbLine
 10
6377.4583726676
 20
5389.7265880079
 30
0.0
 11
6377.6133099476
 21
5389.7265872947
 31
0.0
  0
LINE
  5
27F
330
1F
100
AcDbEntity
  8
0
  6
Continuous
 62
     7
370
    25
100
AcDbLine
 10
6377.4583711361
 20
5389.3938824879
 30
0.0
 11
6377.4583726676
 21
5389.7265880079
 31
0.0
  0
LINE
  5
280
330
1F
100
AcDbEntity
  8
0
  6
Continuous
 62
     7
370
    25
100
AcDbLine
 10
6377.3652099761
 20
5389.3938829168
 30
0.0
 11
6377.4583711361
 21
5389.3938824879
 31
0.0
  0
LINE
  5
281
330
1F
100
AcDbEntity
  8
0
  6
Continuous
 62
     7
370
    25
100
AcDbLine
 10
6377.3652137169
 20
5390.2065506368
 30
0.0
 11
6377.3652099761
 21
5389.3938829168
 31
0.0
  0
LINE
  5
282
330
1F
100
AcDbEntity
  8
0
  6
Continuous
 62
     7
370
    25
100
AcDbLine
 10
6377.5597286769
 20
5390.2065497414
 30
0.0
 11
6377.3652137169
 21
5390.2065506368
 31
0.0
  0
LWPOLYLINE
  5
283
330
1F
100
AcDbEntity
  8
0
  6
Continuous
 62
     7
370
    25
100
AcDbPolyline
 90
        3
 70
   128
 43
0.0
 10
6377.7648456132
 20
5390.1492605572
 10
6377.664483422
 20
5390.1954484594
 10
6377.5597286769
 20
5390.2065497414
  0
ARC
  5
284
330
1F
100
AcDbEntity
  8
0
  6
Continuous
 62
     7
370
    25
100
AcDbCircle
 10
6377.6210747577
 20
5389.9869950487
 30
0.0
 40
0.2167951893681774
100
AcDbArc
 50
356.2423664471
 51
48.4583418321
  0
LINE
  5
285
330
1F
100
AcDbEntity
  8
0
  6
Continuous
 62
     7
370
    25
100
AcDbLine
 10
6377.4583730066
 20
5389.8002314079
 30
0.0
 11
6377.4583745115
 21
5390.1271538879
 31
0.0
  0
LINE
  5
286
330
1F
100
AcDbEntity
  8
0
  6
Continuous
 62
     7
370
    25
100
AcDbLine
 10
6377.5616544866
 20
5389.8002309325
 30
0.0
 11
6377.4583730066
 21
5389.8002314079
 31
0.0
  0
LWPOLYLINE
  5
287
330
1F
100
AcDbEntity
  8
0
  6
Continuous
 62
     7
370
    25
100
AcDbPolyline
 90
        3
 70
   128
 43
0.0
 10
6377.6936405236
 20
5389.8430308449
 10
6377.6287187817
 20
5389.808500477
 10
6377.5616544866
 20
5389.8002309325
  0
LWPOLYLINE
  5
288
330
1F
100
AcDbEntity
  8
0
  6
Continuous
 62
     7
370
    25
100
AcDbPolyline
 90
        3
 70
   128
 43
0.0
 10
6377.7414415408
 20
5389.9684201849
 10
6377.7265382325
 20
5389.8884973607
 10
6377.6936405236
 20
5389.8430308449
  0
ARC
  5
289
330
1F
100
AcDbEntity
  8
0
  6
Continuous
 62
     7
370
    25
100
AcDbCircle
 10
6377.5859422246
 20
5389.9737857035
 30
0.0
 40
0.1555918575321462
100
AcDbArc
 50
358.0237877658
 51
99.6993789429
  0
LINE
  5
28A
330
1F
100
AcDbEntity
  8
0
  6
Continuous
 62
     7
370
    25
100
AcDbLine
 10
6377.9187553361
 20
5389.3938803687
 30
0.0
 11
6377.7002062865
 21
5389.7567671347
 31
0.0
  0
LWPOLYLINE
  5
28B
330
1F
100
AcDbEntity
  8
0
  6
Continuous
 62
     7
370
    25
100
AcDbPolyline
 90
        3
 70
   128
 43
0.0
 10
6377.801921928
 20
5389.8439941865
 10
6377.8306193128
 20
5389.9120615725
 10
6377.8374038809
 20
5389.9727871432
  0
LWPOLYLINE
  5
28C
330
1F
100
AcDbEntity
  8
0
  6
Continuous
 62
     7
370
    25
100
AcDbPolyline
 90
        8
 70
   128
 43
0.0
 10
6368.3760637438
 20
5380.0369053356
 10
6368.1238612745
 20
5379.9979500415
 10
6367.9998213896
 20
5379.9811281219
 10
6367.9603067194
 20
5379.9694042703
 10
6367.9531622088
 20
5379.9655031944
 10
6367.9479886607
 20
5379.9612852476
 10
6367.9453962652
 20
5379.9577326037
 10
6367.944172682
 20
5379.9539568437
  0
LWPOLYLINE
  5
28D
330
1F
100
AcDbEntity
  8
0
  6
Continuous
 62
     7
370
    25
100
AcDbPolyline
 90
       11
 70
   128
 43
0.0
 10
6367.8587780408
 20
5378.9891533968
 10
6367.8909284401
 20
5378.9593679201
 10
6367.9319389185
 20
5378.942985674
 10
6368.0300384233
 20
5378.9388577383
 10
6368.217039795
 20
5378.9641361464
 10
6368.2379388695
 20
5378.9626947758
 10
6368.2538298731
 20
5378.9573518
 10
6368.2596542536
 20
5378.9529493134
 10
6368.2639349027
 20
5378.9472499496
 10
6368.2665745827
 20
5378.9401465498
 10
6368.2674760556
 20
5378.9315319554
  0
LWPOLYLINE
  5
28E
330
1F
100
AcDbEntity
  8
0
  6
Continuous
 62
     7
370
    25
100
AcDbPolyline
 90
       12
 70
   128
 43
0.0
 10
6368.2674760556
 20
5378.9315319554
 10
6368.2641174229
 20
5378.915919614
 10
6368.2544136795
 20
5378.9001689381
 10
6368.2389228438
 20
5378.884487
 10
6368.163307967
 20
5378.8399243374
 10
6367.9311592058
 20
5378.7806097136
 10
6367.8047583151
 20
5378.7770396636
 10
6367.6915617467
 20
5378.798315729
 10
6367.6446233637
 20
5378.8200182287
 10
6367.6066359975
 20
5378.8500288656
 10
6367.5794829603
 20
5378.8890465091
 10
6367.5650475643
 20
5378.9377700289
  0
LWPOLYLINE
  5
28F
330
1F
100
AcDbEntity
  8
0
  6
Continuous
 62
     7
370
    25
100
AcDbPolyline
 90
        7
 70
   128
 43
0.0
 10
6367.6654420173
 20
5379.9138382867
 10
6367.6642875483
 20
5379.9225869093
 10
6367.659539451
 20
5379.9293119345
 10
6367.6515919484
 20
5379.9342459227
 10
6367.6408392637
 20
5379.9376214344
 10
6367.5255401205
 20
5379.9374135106
 10
6367.4365000234
 20
5379.9412184206
  0
LWPOLYLINE
  5
290
330
1F
100
AcDbEntity
  8
0
  6
Continuous
 62
     7
370
    25
100
AcDbPolyline
 90
        9
 70
   128
 43
0.0
 10
6367.4365000234
 20
5379.9412184206
 10
6367.4235681606
 20
5379.9462722083
 10
6367.4135532513
 20
5379.9556096112
 10
6367.4063665004
 20
5379.9684013887
 10
6367.4006949318
 20
5379.9922520427
 10
6367.4008872474
 20
5380.0192105595
 10
6367.4176647976
 20
5380.0712564304
 10
6367.4336506655
 20
5380.0907464088
 10
6367.4543016842
 20
5380.1021494987
  0
ARC
  5
291
330
1F
100
AcDbEntity
  8
0
  6
Continuous
 62
     7
370
    25
100
AcDbCircle
 10
6367.4130083279
 20
5381.202896472
 30
0.0
 40
1.101521239302967
100
AcDbArc
 50
272.1483830276
 51
285.0757142907
  0
ARC
  5
292
330
1F
100
AcDbEntity
  8
0
  6
Continuous
 62
     7
370
    25
100
AcDbCircle
 10
6368.897557626
 20
5380.1352770048
 30
0.0
 40
1.198055559610282
100
AcDbArc
 50
154.4648053668
 51
179.8082577762
  0
ARC
  5
293
330
1F
100
AcDbEntity
  8
0
  6
Continuous
 62
     7
370
    25
100
AcDbCircle
 10
6368.0426674643
 20
5380.3436046007
 30
0.0
 40
0.3821947483090894
100
AcDbArc
 50
93.0174835338
 51
126.2769011599
  0
ARC
  5
294
330
1F
100
AcDbEntity
  8
0
  6
Continuous
 62
     7
370
    25
100
AcDbCircle
 10
6364.9267791962
 20
5380.7185869071
 30
0.0
 40
3.095776488802039
100
AcDbArc
 50
349.4962005683
 51
0.1236786311
  0
ARC
  5
295
330
1F
100
AcDbEntity
  8
0
  6
Continuous
 62
     7
370
    25
100
AcDbCircle
 10
6368.2894368807
 20
5381.9806521596
 30
0.0
 40
1.854034541478664
100
AcDbArc
 50
260.1001510097
 51
273.5104757621
  0
LWPOLYLINE
  5
296
330
1F
100
AcDbEntity
  8
0
  6
Continuous
 62
     7
370
    25
100
AcDbPolyline
 90
        9
 70
   128
 43
0.0
 10
6368.4029613328
 20
5380.1300964918
 10
6368.4132848174
 20
5380.1240586785
 10
6368.41998753
 20
5380.1140019797
 10
6368.422924759
 20
5380.101134255
 10
6368.4219517929
 20
5380.0866633644
 10
6368.4169239199
 20
5380.0717971674
 10
6368.4076964285
 20
5380.0577435237
 10
6368.394124607
 20
5380.0457102932
 10
6368.3760637438
 20
5380.0369053356
  0
ARC
  5
297
330
1F
100
AcDbEntity
  8
0
  6
Continuous
 62
     7
370
    25
100
AcDbCircle
 10
6369.9232209559
 20
5379.2926106521
 30
0.0
 40
2.086626668896979
100
AcDbArc
 50
161.5217195851
 51
188.3621564248
  0
LWPOLYLINE
  5
298
330
1F
100
AcDbEntity
  8
0
  6
Continuous
 62
     7
370
    25
100
AcDbPolyline
 90
        3
 70
   128
 43
0.0
 10
6367.5650475643
 20
5378.9377700289
 10
6367.5964028287
 20
5379.3957744388
 10
6367.6654420173
 20
5379.9138382867
  0
ARC
  5
299
330
1F
100
AcDbEntity
  8
0
  6
Continuous
 62
     7
370
    25
100
AcDbCircle
 10
6373.6759283341
 20
5379.688506756
 30
0.0
 40
0.3636027065619821
100
AcDbArc
 50
67.8284020054
 51
165.501354746
  0
ARC
  5
29A
330
1F
100
AcDbEntity
  8
0
  6
Continuous
 62
     7
370
    25
100
AcDbCircle
 10
6373.4582919994
 20
5379.3081574225
 30
0.0
 40
0.5354138540377926
100
AcDbArc
 50
176.5486875316
 51
272.5830785764
  0
LWPOLYLINE
  5
29B
330
1F
100
AcDbEntity
  8
0
  6
Continuous
 62
     7
370
    25
100
AcDbPolyline
 90
        8
 70
   128
 43
0.0
 10
6373.5102834992
 20
5378.8801833417
 10
6373.4248377938
 20
5378.8938960219
 10
6373.3574319844
 20
5378.9310253503
 10
6373.3064676025
 20
5378.9878863405
 10
6373.2573520562
 20
5379.102113784
 10
6373.2362383356
 20
5379.2400094182
 10
6373.2564370455
 20
5379.5370579421
 10
6373.3239050792
 20
5379.7795372796
  0
LWPOLYLINE
  5
29C
330
1F
100
AcDbEntity
  8
0
  6
Continuous
 62
     7
370
    25
100
AcDbPolyline
 90
        8
 70
   128
 43
0.0
 10
6373.8131453701
 20
5380.0252238676
 10
6373.872445847
 20
5379.9762779671
 10
6373.9169388558
 20
5379.8965934198
 10
6373.9464554205
 20
5379.7928568664
 10
6373.9434566914
 20
5379.4042015777
 10
6373.799586834
 20
5379.0397973025
 10
6373.6733994981
 20
5378.9231078265
 10
6373.5102834992
 20
5378.8801833417
  0
ARC
  5
29D
330
1F
100
AcDbEntity
  8
0
  6
Continuous
 62
     7
370
    25
100
AcDbCircle
 10
6373.7472243912
 20
5379.3416914911
 30
0.0
 40
0.8233762029209202
100
AcDbArc
 50
92.2922458479
 51
180.090599431
  0
ARC
  5
29E
330
1F
100
AcDbEntity
  8
0
  6
Continuous
 62
     7
370
    25
100
AcDbCircle
 10
6373.7384160005
 20
5379.6292870086
 30
0.0
 40
0.5356653212988867
100
AcDbArc
 50
356.5418100869
 51
92.5812036413
  0
ARC
  5
29F
330
1F
100
AcDbEntity
  8
0
  6
Continuous
 62
     7
370
    25
100
AcDbCircle
 10
6373.4497073002
 20
5379.5960365886
 30
0.0
 40
0.8233991539847849
100
AcDbArc
 50
272.2770343259
 51
0.0653399339
  0
LWPOLYLINE
  5
2A0
330
1F
100
AcDbEntity
  8
0
  6
Continuous
 62
     7
370
    25
100
AcDbPolyline
 90
       10
 70
   128
 43
0.0
 10
6362.3306462668
 20
5379.5683262039
 10
6362.2761616591
 20
5379.5357422208
 10
6362.2002746026
 20
5379.4921030788
 10
6362.0624500841
 20
5379.4285729916
 10
6362.0438033371
 20
5379.4246080839
 10
6362.0294866089
 20
5379.4247154891
 10
6362.0242038101
 20
5379.4264898753
 10
6362.0203056859
 20
5379.4295146195
 10
6362.0178929595
 20
5379.433867148
 10
6362.0170663544
 20
5379.4396248874
  0
ARC
  5
2A1
330
1F
100
AcDbEntity
  8
0
  6
Continuous
 62
     7
370
    25
100
AcDbCircle
 10
6362.8683994016
 20
5379.3577164382
 30
0.0
 40
0.8552642581866404
100
AcDbArc
 50
133.2879640692
 51
174.5043744101
  0
LWPOLYLINE
  5
2A2
330
1F
100
AcDbEntity
  8
0
  6
Continuous
 62
     7
370
    25
100
AcDbPolyline
 90
        8
 70
   128
 43
0.0
 10
6362.00860099
 20
5379.0824017264
 10
6362.0029669972
 20
5379.0979853546
 10
6361.9976074004
 20
5379.1189012103
 10
6361.9897801427
 20
5379.166632393
 10
6361.9905875156
 20
5379.221152413
 10
6361.994691416
 20
5379.2358910793
 10
6362.0012929616
 20
5379.2475943074
 10
6362.0107403067
 20
5379.2554712365
  0
ARC
  5
2A3
330
1F
100
AcDbEntity
  8
0
  6
Continuous
 62
     7
370
    25
100
AcDbCircle
 10
6362.5876966615
 20
5379.3130068642
 30
0.0
 40
0.8372903168808183
100
AcDbArc
 50
94.8558565208
 51
152.7763993895
  0
LWPOLYLINE
  5
2A4
330
1F
100
AcDbEntity
  8
0
  6
Continuous
 62
     7
370
    25
100
AcDbPolyline
 90
        6
 70
   128
 43
0.0
 10
6362.7530164967
 20
5379.0186944997
 10
6362.7392329765
 20
5379.0501436081
 10
6362.7338060499
 20
5379.055948969
 10
6362.727429275
 20
5379.0597335881
 10
6362.7200239372
 20
5379.0608984779
 10
6362.7115113216
 20
5379.0588446507
  0
LWPOLYLINE
  5
2A5
330
1F
100
AcDbEntity
  8
0
  6
Continuous
 62
     7
370
    25
100
AcDbPolyline
 90
        8
 70
   128
 43
0.0
 10
6362.3126007403
 20
5378.776170287
 10
6362.4438390504
 20
5378.8166457813
 10
6362.5776496736
 20
5378.8768188119
 10
6362.7063876153
 20
5378.9540266037
 10
6362.7436962218
 20
5378.9893559565
 10
6362.7502812425
 20
5378.9999421454
 10
6362.7534801127
 20
5379.009756917
 10
6362.7530164967
 20
5379.0186944997
  0
ARC
  5
2A6
330
1F
100
AcDbEntity
  8
0
  6
Continuous
 62
     7
370
    25
100
AcDbCircle
 10
6362.1705057216
 20
5379.2618047882
 30
0.0
 40
0.5059959121326487
100
AcDbArc
 50
195.4108306149
 51
286.3092980461
  0
LWPOLYLINE
  5
2A7
330
1F
100
AcDbEntity
  8
0
  6
Continuous
 62
     7
370
    25
100
AcDbPolyline
 90
        9
 70
   128
 43
0.0
 10
6361.5858974911
 20
5379.2086365922
 10
6361.5874058321
 20
5379.1908748491
 10
6361.5916269821
 20
5379.1778410969
 10
6361.5981048492
 20
5379.168716241
 10
6361.6185687598
 20
5379.1582345632
 10
6361.6429531676
 20
5379.1540650076
 10
6361.6660629031
 20
5379.1468775751
 10
6361.6755162782
 20
5379.1392365303
 10
6361.6827027968
 20
5379.1273422665
  0
LWPOLYLINE
  5
2A8
330
1F
100
AcDbEntity
  8
0
  6
Continuous
 62
     7
370
    25
100
AcDbPolyline
 90
        8
 70
   128
 43
0.0
 10
6361.718606933
 20
5379.3654708213
 10
6361.7083298289
 20
5379.3383615155
 10
6361.6911490514
 20
5379.3204608433
 10
6361.6462772081
 20
5379.2981567192
 10
6361.6043928668
 20
5379.2703010889
 10
6361.5946214879
 20
5379.2548982226
 10
6361.5882044927
 20
5379.2346922466
 10
6361.5858974911
 20
5379.2086365922
  0
LWPOLYLINE
  5
2A9
330
1F
100
AcDbEntity
  8
0
  6
Continuous
 62
     7
370
    25
100
AcDbPolyline
 90
        3
 70
   128
 43
0.0
 10
6361.8431546547
 20
5379.696037248
 10
6361.7606868124
 20
5379.5202810797
 10
6361.718606933
 20
5379.3654708213
  0
LWPOLYLINE
  5
2AA
330
1F
100
AcDbEntity
  8
0
  6
Continuous
 62
     7
370
    25
100
AcDbPolyline
 90
        9
 70
   128
 43
0.0
 10
6362.6354910504
 20
5379.6255829207
 10
6362.7100798119
 20
5379.7008571636
 10
6362.7614348018
 20
5379.7855684859
 10
6362.7883982544
 20
5379.8735611181
 10
6362.7898124037
 20
5379.9586792903
 10
6362.7645194839
 20
5380.034767233
 10
6362.7113617293
 20
5380.0956691764
 10
6362.6291813739
 20
5380.135229351
 10
6362.5168206519
 20
5380.1472919869
  0
LWPOLYLINE
  5
2AB
330
1F
100
AcDbEntity
  8
0
  6
Continuous
 62
     7
370
    25
100
AcDbPolyline
 90
        3
 70
   128
 43
0.0
 10
6362.0107403067
 20
5379.2554712365
 10
6362.3754066718
 20
5379.4454660977
 10
6362.6354910504
 20
5379.6255829207
  0
LWPOLYLINE
  5
2AC
330
1F
100
AcDbEntity
  8
0
  6
Continuous
 62
     7
370
    25
100
AcDbPolyline
 90
        6
 70
   128
 43
0.0
 10
6362.7115113216
 20
5379.0588446507
 10
6362.3286779869
 20
5378.927481798
 10
6362.2359188466
 20
5378.9249460857
 10
6362.1498245712
 20
5378.9460737207
 10
6362.0731377544
 20
5378.9966353764
 10
6362.00860099
 20
5379.0824017264
  0
LWPOLYLINE
  5
2AD
330
1F
100
AcDbEntity
  8
0
  6
Continuous
 62
     7
370
    25
100
AcDbPolyline
 90
       13
 70
   128
 43
0.0
 10
6362.2819742431
 20
5379.980277668
 10
6362.3470535107
 20
5380.0268206644
 10
6362.4086348867
 20
5380.0511850033
 10
6362.4644391968
 20
5380.0556130662
 10
6362.5174758074
 20
5380.0395565852
 10
6362.5570710866
 20
5380.0042990356
 10
6362.5759945102
 20
5379.9671758206
 10
6362.5841627381
 20
5379.9223948836
 10
6362.5802067214
 20
5379.8713031731
 10
6362.5627574115
 20
5379.8152476371
 10
6362.5161358409
 20
5379.735113475
 10
6362.4398471768
 20
5379.6517420752
 10
6362.3306462668
 20
5379.5683262039
  0
LWPOLYLINE
  5
2AE
330
1F
100
AcDbEntity
  8
0
  6
Continuous
 62
     7
370
    25
100
AcDbPolyline
 90
        8
 70
   128
 43
0.0
 10
6358.7745854895
 20
5378.8694079732
 10
6358.7702720682
 20
5378.8494944154
 10
6358.7579868998
 20
5378.8313004256
 10
6358.7134307479
 20
5378.8004998128
 10
6358.5718811704
 20
5378.7642486913
 10
6358.395526748
 20
5378.770886102
 10
6358.3395061051
 20
5378.7891582149
 10
6358.2990808089
 20
5378.8171519621
  0
LWPOLYLINE
  5
2AF
330
1F
100
AcDbEntity
  8
0
  6
Continuous
 62
     7
370
    25
100
AcDbPolyline
 90
       12
 70
   128
 43
0.0
 10
6358.2990808089
 20
5378.8171519621
 10
6358.2690115903
 20
5378.8748118497
 10
6358.2540610123
 20
5378.9505120603
 10
6358.2517247235
 20
5379.0407268492
 10
6358.2817365153
 20
5379.2905440228
 10
6358.3851237716
 20
5379.8407962379
 10
6358.3870574614
 20
5379.9019158639
 10
6358.3798669702
 20
5379.9476036057
 10
6358.3722931106
 20
5379.9638762841
 10
6358.3617697504
 20
5379.975349908
 10
6358.348074071
 20
5379.9817107832
 10
6358.330983254
 20
5379.9826452152
  0
LWPOLYLINE
  5
2B0
330
1F
100
AcDbEntity
  8
0
  6
Continuous
 62
     7
370
    25
100
AcDbPolyline
 90
        6
 70
   128
 43
0.0
 10
6358.330983254
 20
5379.9826452152
 10
6358.2811022133
 20
5379.9671503532
 10
6358.2257863754
 20
5379.9311375172
 10
6358.1316737444
 20
5379.8372665355
 10
6357.9591256849
 20
5379.5754234128
 10
6357.7333372939
 20
5378.9138096463
  0
LWPOLYLINE
  5
2B1
330
1F
100
AcDbEntity
  8
0
  6
Continuous
 62
     7
370
    25
100
AcDbPolyline
 90
       10
 70
   128
 43
0.0
 10
6357.7333372939
 20
5378.9138096463
 10
6357.7219705762
 20
5378.885884449
 10
6357.6992389067
 20
5378.8588542076
 10
6357.6478878965
 20
5378.8208179517
 10
6357.5796170857
 20
5378.7889450555
 10
6357.5174595561
 20
5378.7751278063
 10
6357.5010990376
 20
5378.7756112576
 10
6357.4879893307
 20
5378.7790238933
 10
6357.4787733248
 20
5378.7855964639
 10
6357.4740939095
 20
5378.7955597197
  0
ARC
  5
2B2
330
1F
100
AcDbEntity
  8
0
  6
Continuous
 62
     7
370
    25
100
AcDbCircle
 10
6359.089299617
 20
5378.8290477108
 30
0.0
 40
1.615552822668359
100
AcDbArc
 50
163.1360401014
 51
181.1877407904
  0
LINE
  5
2B3
330
1F
100
AcDbEntity
  8
0
  6
Continuous
 62
     7
370
    25
100
AcDbLine
 10
6357.5432216211
 20
5379.2977200414
 30
0.0
 11
6357.5442156066
 21
5379.3032621169
 31
0.0
  0
LWPOLYLINE
  5
2B4
330
1F
100
AcDbEntity
  8
0
  6
Continuous
 62
     7
370
    25
100
AcDbPolyline
 90
        9
 70
   128
 43
0.0
 10
6357.5442156066
 20
5379.3032621169
 10
6357.6173607239
 20
5379.7899040367
 10
6357.6202875779
 20
5379.9051042367
 10
6357.6162891044
 20
5379.935651232
 10
6357.609315943
 20
5379.9584028785
 10
6357.600894605
 20
5379.9719987293
 10
6357.5902044919
 20
5379.9802749103
 10
6357.5772159109
 20
5379.9834431147
 10
6357.5618991697
 20
5379.9817150355
  0
ARC
  5
2B5
330
1F
100
AcDbEntity
  8
0
  6
Continuous
 62
     7
370
    25
100
AcDbCircle
 10
6358.3410010438
 20
5378.7903967316
 30
0.0
 40
1.423460231816043
100
AcDbArc
 50
123.1840023846
 51
176.6064356068
  0
LWPOLYLINE
  5
2B6
330
1F
100
AcDbEntity
  8
0
  6
Continuous
 62
     7
370
    25
100
AcDbPolyline
 90
       12
 70
   128
 43
0.0
 10
6356.9200368736
 20
5378.8746573901
 10
6356.9163320331
 20
5378.8655462131
 10
6356.9082403886
 20
5378.8553566068
 10
6356.8881364235
 20
5378.8380221392
 10
6356.8365253912
 20
5378.8069693103
 10
6356.7682061585
 20
5378.780114571
 10
6356.7086829553
 20
5378.7733167993
 10
6356.6942323971
 20
5378.7775039429
 10
6356.6837041783
 20
5378.7856304644
 10
6356.6792280236
 20
5378.7934479018
 10
6356.6770405017
 20
5378.8033329934
 10
6356.6773597609
 20
5378.8154124672
  0
LWPOLYLINE
  5
2B7
330
1F
100
AcDbEntity
  8
0
  6
Continuous
 62
     7
370
    25
100
AcDbPolyline
 90
        3
 70
   128
 43
0.0
 10
6356.6773597609
 20
5378.8154124672
 10
6356.7841278121
 20
5379.659128103
 10
6356.8455855073
 20
5380.0203020528
  0
LWPOLYLINE
  5
2B8
330
1F
100
AcDbEntity
  8
0
  6
Continuous
 62
     7
370
    25
100
AcDbPolyline
 90
        9
 70
   128
 43
0.0
 10
6356.8455855073
 20
5380.0203020528
 10
6356.8519887012
 20
5380.0326838881
 10
6356.8639559964
 20
5380.0465176887
 10
6356.8916444854
 20
5380.0697931607
 10
6356.9572934685
 20
5380.1096336936
 10
6357.0334699039
 20
5380.1382252236
 10
6357.0627257281
 20
5380.1402636599
 10
6357.0734064159
 20
5380.1371887014
 10
6357.0807930968
 20
5380.1309919701
  0
LWPOLYLINE
  5
2B9
330
1F
100
AcDbEntity
  8
0
  6
Continuous
 62
     7
370
    25
100
AcDbPolyline
 90
       19
 70
   128
 43
0.0
 10
6357.0807930968
 20
5380.1309919701
 10
6357.0844145697
 20
5380.1227288878
 10
6357.0869116277
 20
5380.1100716901
 10
6357.0887692311
 20
5380.0822248812
 10
6357.0867450905
 20
5380.0125252671
 10
6357.0713333525
 20
5379.8478407974
 10
6357.0360029657
 20
5379.5591446807
 10
6357.030695936
 20
5379.5047521147
 10
6357.0302223982
 20
5379.4908259428
 10
6357.0304037469
 20
5379.4872796755
 10
6357.0308077622
 20
5379.4848883082
 10
6357.0310527562
 20
5379.4842258974
 10
6357.031341704
 20
5379.4837895624
 10
6357.0315877479
 20
5379.483612863
 10
6357.031859315
 20
5379.4835669143
 10
6357.0321567479
 20
5379.4836532521
 10
6357.0324803892
 20
5379.483873412
 10
6357.0328305813
 20
5379.4842289296
 10
6357.0340438883
 20
5379.4861229853
  0
LWPOLYLINE
  5
2BA
330
1F
100
AcDbEntity
  8
0
  6
Continuous
 62
     7
370
    25
100
AcDbPolyline
 90
        4
 70
   128
 43
0.0
 10
6357.0340438883
 20
5379.4861229853
 10
6357.3397388938
 20
5379.954880821
 10
6357.5026250421
 20
5380.0894236206
 10
6357.6884340282
 20
5380.142163693
  0
LWPOLYLINE
  5
2BB
330
1F
100
AcDbEntity
  8
0
  6
Continuous
 62
     7
370
    25
100
AcDbPolyline
 90
        6
 70
   128
 43
0.0
 10
6357.6884340282
 20
5380.142163693
 10
6357.759284867
 20
5380.1315214179
 10
6357.8120477359
 20
5380.1021454096
 10
6357.849010949
 20
5380.05786078
 10
6357.8724628203
 20
5380.0024926409
 10
6357.8769231678
 20
5379.7466872254
  0
LWPOLYLINE
  5
2BC
330
1F
100
AcDbEntity
  8
0
  6
Continuous
 62
     7
370
    25
100
AcDbPolyline
 90
        6
 70
   128
 43
0.0
 10
6358.5315229023
 20
5380.1321900921
 10
6358.5667329357
 20
5380.1169419815
 10
6358.5943346882
 20
5380.093143988
 10
6358.6295441801
 20
5380.024166614
 10
6358.6398029139
 20
5379.8305641487
 10
6358.5782058071
 20
5379.4597909972
  0
LWPOLYLINE
  5
2BD
330
1F
100
AcDbEntity
  8
0
  6
Continuous
 62
     7
370
    25
100
AcDbPolyline
 90
        6
 70
   128
 43
0.0
 10
6358.5782058071
 20
5379.4597909972
 10
6358.5249000463
 20
5379.1466073341
 10
6358.5172447452
 20
5379.0076618585
 10
6358.5208188947
 20
5378.980336712
 10
6358.5274217708
 20
5378.9584174683
 10
6358.5374209471
 20
5378.9427512649
  0
LWPOLYLINE
  5
2BE
330
1F
100
AcDbEntity
  8
0
  6
Continuous
 62
     7
370
    25
100
AcDbPolyline
 90
        9
 70
   128
 43
0.0
 10
6358.5374209471
 20
5378.9427512649
 10
6358.5890038311
 20
5378.9111216302
 10
6358.6478392636
 20
5378.9011198574
 10
6358.7493375304
 20
5378.8978441932
 10
6358.7600600574
 20
5378.894264673
 10
6358.7680763636
 20
5378.8886293871
 10
6358.7717436766
 20
5378.883510247
 10
6358.7739480723
 20
5378.8771471472
 10
6358.7745854895
 20
5378.8694079732
  0
LWPOLYLINE
  5
2BF
330
1F
100
AcDbEntity
  8
0
  6
Continuous
 62
     7
370
    25
100
AcDbPolyline
 90
       12
 70
   128
 43
0.0
 10
6357.8552777217
 20
5379.5681226901
 10
6357.8553767857
 20
5379.5682175283
 10
6357.8559188431
 20
5379.5690653727
 10
6357.8566298569
 20
5379.5703601616
 10
6357.8585160543
 20
5379.5739977206
 10
6357.8638149614
 20
5379.5844828936
 10
6357.8792329735
 20
5379.6145786873
 10
6357.9246125851
 20
5379.6969006888
 10
6358.056045615
 20
5379.8912827646
 10
6358.2692435781
 20
5380.0879085215
 10
6358.3954743672
 20
5380.1373301244
 10
6358.5315229023
 20
5380.1321900921
  0
LWPOLYLINE
  5
2C0
330
1F
100
AcDbEntity
  8
0
  6
Continuous
 62
     7
370
    25
100
AcDbPolyline
 90
        8
 70
   128
 43
0.0
 10
6357.8769231678
 20
5379.7466872254
 10
6357.8572844206
 20
5379.6365158858
 10
6357.8515764619
 20
5379.5889950233
 10
6357.8519345395
 20
5379.5742193968
 10
6357.853189618
 20
5379.5699644851
 10
6357.8537866518
 20
5379.5690728686
 10
6357.854477838
 20
5379.5684602342
 10
6357.8552660659
 20
5379.568135965
  0
CIRCLE
  5
2C1
330
1F
100
AcDbEntity
  8
0
  6
Continuous
 62
     7
370
    25
100
AcDbCircle
 10
6377.5902986064
 20
5389.8002006806
 30
0.0
 40
0.6977298000002774
  0
CIRCLE
  5
2C2
330
1F
100
AcDbEntity
  8
0
  6
Continuous
 62
     7
370
    25
100
AcDbCircle
 10
6377.5902986064
 20
5389.8002006806
 30
0.0
 40
0.6060445199992135
  0
LWPOLYLINE
  5
2C3
330
1F
100
AcDbEntity
  8
0
  6
Continuous
 62
     7
370
    25
100
AcDbPolyline
 90
        9
 70
   128
 43
0.0
 10
6367.225564812
 20
5378.8873205916
 10
6367.2213190446
 20
5378.8693169473
 10
6367.2092447899
 20
5378.8527766152
 10
6367.1655880723
 20
5378.8243874808
 10
6367.0280825771
 20
5378.7884864856
 10
6366.8606049538
 20
5378.7863278805
 10
6366.8250010697
 20
5378.7932109343
 10
6366.795940543
 20
5378.8034219846
 10
6366.7750295287
 20
5378.8170828255
  0
ARC
  5
2C4
330
1F
100
AcDbEntity
  8
0
  6
Continuous
 62
     7
370
    25
100
AcDbCircle
 10
6367.3243032709
 20
5379.0305284077
 30
0.0
 40
0.5892882660059723
100
AcDbArc
 50
154.9479705662
 51
201.2359275652
  0
LWPOLYLINE
  5
2C5
330
1F
100
AcDbEntity
  8
0
  6
Continuous
 62
     7
370
    25
100
AcDbPolyline
 90
        5
 70
   128
 43
0.0
 10
6366.7904530999
 20
5379.2800572745
 10
6366.5033400031
 20
5378.9049328211
 10
6366.3147901581
 20
5378.7903407372
 10
6366.2023389488
 20
5378.7747337415
 10
6366.075130991
 20
5378.7958514473
  0
ARC
  5
2C6
330
1F
100
AcDbEntity
  8
0
  6
Continuous
 62
     7
370
    25
100
AcDbCircle
 10
6366.1922535879
 20
5379.1357736643
 30
0.0
 40
0.359534165724173
100
AcDbArc
 50
179.1722718911
 51
250.9882483571
  0
ARC
  5
2C7
330
1F
100
AcDbEntity
  8
0
  6
Continuous
 62
     7
370
    25
100
AcDbCircle
 10
6366.9000301927
 20
5379.094978516
 30
0.0
 40
1.06826363111922
100
AcDbArc
 50
116.5860245959
 51
177.5326403363
  0
LWPOLYLINE
  5
2C8
330
1F
100
AcDbEntity
  8
0
  6
Continuous
 62
     7
370
    25
100
AcDbPolyline
 90
        9
 70
   128
 43
0.0
 10
6366.4219384454
 20
5380.0502876109
 10
6366.5696090624
 20
5380.1056533087
 10
6366.7667260409
 20
5380.1497230103
 10
6366.9225005335
 20
5380.1622810612
 10
6367.0516153602
 20
5380.1439301454
 10
6367.0883507831
 20
5380.1267269781
 10
6367.1162834001
 20
5380.1030055332
 10
6367.1340457194
 20
5380.0721934341
 10
6367.1402702491
 20
5380.0337183042
  0
ARC
  5
2C9
330
1F
100
AcDbEntity
  8
0
  6
Continuous
 62
     7
370
    25
100
AcDbCircle
 10
6366.3351053619
 20
5385.2279491922
 30
0.0
 40
5.25626531037703
100
AcDbArc
 50
272.0589885458
 51
278.8113695983
  0
ARC
  5
2CA
330
1F
100
AcDbEntity
  8
0
  6
Continuous
 62
     7
370
    25
100
AcDbCircle
 10
6367.0665690958
 20
5379.1927889495
 30
0.0
 40
0.9520535359464154
100
AcDbArc
 50
124.7461271548
 51
180.9635500127
  0
LWPOLYLINE
  5
2CB
330
1F
100
AcDbEntity
  8
0
  6
Continuous
 62
     7
370
    25
100
AcDbPolyline
 90
        6
 70
   128
 43
0.0
 10
6366.1146501845
 20
5379.1767789054
 10
6366.1235149704
 20
5379.0948406989
 10
6366.1524312236
 20
5379.0169205964
 10
6366.2048806999
 20
5378.9586819231
 10
6366.2410184454
 20
5378.9418379115
 10
6366.2843451551
 20
5378.9357880042
  0
ARC
  5
2CC
330
1F
100
AcDbEntity
  8
0
  6
Continuous
 62
     7
370
    25
100
AcDbCircle
 10
6366.2183960068
 20
5379.3621140211
 30
0.0
 40
0.4313967580105393
100
AcDbArc
 50
278.7934891487
 51
329.5694906705
  0
LWPOLYLINE
  5
2CD
330
1F
100
AcDbEntity
  8
0
  6
Continuous
 62
     7
370
    25
100
AcDbPolyline
 90
        3
 70
   128
 43
0.0
 10
6366.5903653118
 20
5379.1436145955
 10
6366.8217547488
 20
5379.5845876911
 10
6366.9406642053
 20
5379.859083463
  0
LWPOLYLINE
  5
2CE
330
1F
100
AcDbEntity
  8
0
  6
Continuous
 62
     7
370
    25
100
AcDbPolyline
 90
        8
 70
   128
 43
0.0
 10
6366.9406642053
 20
5379.859083463
 10
6366.9479413246
 20
5379.8670597041
 10
6366.9581938306
 20
5379.8730324285
 10
6366.9708153491
 20
5379.8770174311
 10
6367.0168302387
 20
5379.8772040574
 10
6367.0623367736
 20
5379.8600698036
 10
6367.0797831266
 20
5379.8451406159
 10
6367.0909628532
 20
5379.8260411312
  0
ARC
  5
2CF
330
1F
100
AcDbEntity
  8
0
  6
Continuous
 62
     7
370
    25
100
AcDbCircle
 10
6360.7991489999
 20
5380.1573216655
 30
0.0
 40
6.300529212389587
100
AcDbArc
 50
349.1107345609
 51
356.9860098063
  0
LWPOLYLINE
  5
2D0
330
1F
100
AcDbEntity
  8
0
  6
Continuous
 62
     7
370
    25
100
AcDbPolyline
 90
       10
 70
   128
 43
0.0
 10
6366.9862316592
 20
5378.9670794533
 10
6366.9970665427
 20
5378.9449939281
 10
6367.0162260065
 20
5378.9312512222
 10
6367.0713161546
 20
5378.9214274954
 10
6367.1911636908
 20
5378.9208593699
 10
6367.2053028432
 20
5378.9168715816
 10
6367.2161544769
 20
5378.9103163136
 10
6367.2212624536
 20
5378.9042502825
 10
6367.2244592413
 20
5378.8966389368
 10
6367.225564812
 20
5378.8873205916
  0
LINE
  5
2D1
330
1F
100
AcDbEntity
  8
0
  6
Continuous
 62
     7
370
    25
100
AcDbLine
 10
6377.6945940245
 20
5381.0537136405
 30
0.0
 11
6377.7666711845
 21
5381.0537133087
 31
0.0
  0
LINE
  5
2D2
330
1F
100
AcDbEntity
  8
0
  6
Continuous
 62
     7
370
    25
100
AcDbLine
 10
6377.6945929541
 20
5380.8211872405
 30
0.0
 11
6377.6945940245
 21
5381.0537136405
 31
0.0
  0
LINE
  5
2D3
330
1F
100
AcDbEntity
  8
0
  6
Continuous
 62
     7
370
    25
100
AcDbLine
 10
6377.7680556341
 20
5380.8211869023
 30
0.0
 11
6377.6945929541
 21
5380.8211872405
 31
0.0
  0
LWPOLYLINE
  5
2D4
330
1F
100
AcDbEntity
  8
0
  6
Continuous
 62
     7
370
    25
100
AcDbPolyline
 90
        3
 70
   128
 43
0.0
 10
6377.8619096942
 20
5380.8516076703
 10
6377.8157493713
 20
5380.8270598996
 10
6377.7680556341
 20
5380.8211869023
  0
LWPOLYLINE
  5
2D5
330
1F
100
AcDbEntity
  8
0
  6
Continuous
 62
     7
370
    25
100
AcDbPolyline
 90
        3
 70
   128
 43
0.0
 10
6377.8959155847
 20
5380.9407928337
 10
6377.8853177018
 20
5380.883951498
 10
6377.8619096942
 20
5380.8516076703
  0
ARC
  5
2D6
330
1F
100
AcDbEntity
  8
0
  6
Continuous
 62
     7
370
    25
100
AcDbCircle
 10
6377.7853152569
 20
5380.9446282877
 30
0.0
 40
0.1106668117595626
100
AcDbArc
 50
358.0138639471
 51
99.6988916981
  0
LWPOLYLINE
  5
2D7
330
1F
100
AcDbEntity
  8
0
  6
Continuous
 62
     7
370
    25
100
AcDbPolyline
 90
        3
 70
   128
 43
0.0
 10
6377.9389265374
 20
5380.8523000757
 10
6377.9593427921
 20
5380.9007174278
 10
6377.964167519
 20
5380.9438948795
  0
LWPOLYLINE
  5
2D8
330
1F
100
AcDbEntity
  8
0
  6
Continuous
 62
     7
370
    25
100
AcDbPolyline
 90
        3
 70
   128
 43
0.0
 10
6377.8665780117
 20
5380.7902532088
 10
6377.9124954743
 20
5380.8207557768
 10
6377.9389265374
 20
5380.8523000757
  0
LINE
  5
2D9
330
1F
100
AcDbEntity
  8
0
  6
Continuous
 62
     7
370
    25
100
AcDbLine
 10
6378.0220261437
 20
5380.5321542132
 30
0.0
 11
6377.8665780117
 21
5380.7902532088
 31
0.0
  0
LINE
  5
2DA
330
1F
100
AcDbEntity
  8
0
  6
Continuous
 62
     7
370
    25
100
AcDbLine
 10
6377.9426900637
 20
5380.5321545784
 30
0.0
 11
6378.0220261437
 21
5380.5321542132
 31
0.0
  0
LINE
  5
2DB
330
1F
100
AcDbEntity
  8
0
  6
Continuous
 62
     7
370
    25
100
AcDbLine
 10
6377.804771673
 20
5380.7688080533
 30
0.0
 11
6377.9426900637
 21
5380.5321545784
 31
0.0
  0
LINE
  5
2DC
330
1F
100
AcDbEntity
  8
0
  6
Continuous
 62
     7
370
    25
100
AcDbLine
 10
6377.694592713
 20
5380.7688085605
 30
0.0
 11
6377.804771673
 21
5380.7688080533
 31
0.0
  0
LINE
  5
2DD
330
1F
100
AcDbEntity
  8
0
  6
Continuous
 62
     7
370
    25
100
AcDbLine
 10
6377.6945916237
 20
5380.5321557205
 30
0.0
 11
6377.694592713
 21
5380.7688085605
 31
0.0
  0
LINE
  5
2DE
330
1F
100
AcDbEntity
  8
0
  6
Continuous
 62
     7
370
    25
100
AcDbLine
 10
6377.6283276237
 20
5380.5321560255
 30
0.0
 11
6377.6945916237
 21
5380.5321557205
 31
0.0
  0
LINE
  5
2DF
330
1F
100
AcDbEntity
  8
0
  6
Continuous
 62
     7
370
    25
100
AcDbLine
 10
6377.6283302843
 20
5381.1101588255
 30
0.0
 11
6377.6283276237
 21
5380.5321560255
 31
0.0
  0
LINE
  5
2E0
330
1F
100
AcDbEntity
  8
0
  6
Continuous
 62
     7
370
    25
100
AcDbLine
 10
6377.7666714443
 20
5381.1101581887
 30
0.0
 11
6377.6283302843
 21
5381.1101588255
 31
0.0
  0
LWPOLYLINE
  5
2E1
330
1F
100
AcDbEntity
  8
0
  6
Continuous
 62
     7
370
    25
100
AcDbPolyline
 90
        3
 70
   128
 43
0.0
 10
6377.9125725369
 20
5381.0694352771
 10
6377.8411809821
 20
5381.1022707545
 10
6377.7666714443
 20
5381.1101581887
  0
ARC
  5
2E2
330
1F
100
AcDbEntity
  8
0
  6
Continuous
 62
     7
370
    25
100
AcDbCircle
 10
6377.8102744929
 20
5380.9540199778
 30
0.0
 40
0.1542257471521312
100
AcDbArc
 50
356.2357586102
 51
48.4479096172
  0
CIRCLE
  5
2E3
330
1F
100
AcDbEntity
  8
0
  6
Continuous
 62
     7
370
    25
100
AcDbCircle
 10
6377.788416754
 20
5380.8211566886
 30
0.0
 40
0.4310473199993988
  0
CIRCLE
  5
2E4
330
1F
100
AcDbEntity
  8
0
  6
Continuous
 62
     7
370
    25
100
AcDbCircle
 10
6377.788416754
 20
5380.8211566886
 30
0.0
 40
0.4962571200001375
  0
LWPOLYLINE
  5
2E5
330
1F
100
AcDbEntity
  8
0
  6
Continuous
 62
     7
370
    25
100
AcDbPolyline
 90
        8
 70
   128
 43
0.0
 10
6355.1118123959
 20
5378.7882514337
 10
6355.243050706
 20
5378.828726928
 10
6355.3768613292
 20
5378.8888999587
 10
6355.5055992708
 20
5378.9661077504
 10
6355.5429078774
 20
5379.0014371033
 10
6355.549492898
 20
5379.0120232921
 10
6355.5526917683
 20
5379.0218380637
 10
6355.5522281523
 20
5379.0307756464
  0
LWPOLYLINE
  5
2E6
330
1F
100
AcDbEntity
  8
0
  6
Continuous
 62
     7
370
    25
100
AcDbPolyline
 90
        8
 70
   128
 43
0.0
 10
6354.5178185885
 20
5379.377551968
 10
6354.5075414845
 20
5379.3504426623
 10
6354.490360707
 20
5379.33254199
 10
6354.4454888637
 20
5379.310237866
 10
6354.4036045223
 20
5379.2823822356
 10
6354.3938331434
 20
5379.2669793693
 10
6354.3874161483
 20
5379.2467733934
 10
6354.3851091466
 20
5379.2207177389
  0
ARC
  5
2E7
330
1F
100
AcDbEntity
  8
0
  6
Continuous
 62
     7
370
    25
100
AcDbCircle
 10
6355.386908317
 20
5379.3250880109
 30
0.0
 40
0.8372903168880467
100
AcDbArc
 50
94.855856521
 51
152.7763993893
  0
LWPOLYLINE
  5
2E8
330
1F
100
AcDbEntity
  8
0
  6
Continuous
 62
     7
370
    25
100
AcDbPolyline
 90
        9
 70
   128
 43
0.0
 10
6355.4347027059
 20
5379.6376640674
 10
6355.5092914674
 20
5379.7129383103
 10
6355.5606464573
 20
5379.7976496327
 10
6355.5876099099
 20
5379.8856422648
 10
6355.5890240592
 20
5379.970760437
 10
6355.5637311395
 20
5380.0468483797
 10
6355.5105733848
 20
5380.1077503232
 10
6355.4283930294
 20
5380.1473104977
 10
6355.3160323074
 20
5380.1593731337
  0
LWPOLYLINE
  5
2E9
330
1F
100
AcDbEntity
  8
0
  6
Continuous
 62
     7
370
    25
100
AcDbPolyline
 90
        8
 70
   128
 43
0.0
 10
6354.8078126455
 20
5379.0944828731
 10
6354.8021786528
 20
5379.1100665013
 10
6354.7968190559
 20
5379.1309823571
 10
6354.7889917982
 20
5379.1787135397
 10
6354.7897991711
 20
5379.2332335598
 10
6354.7939030715
 20
5379.247972226
 10
6354.8005046171
 20
5379.2596754541
 10
6354.8099519622
 20
5379.2675523833
  0
LWPOLYLINE
  5
2EA
330
1F
100
AcDbEntity
  8
0
  6
Continuous
 62
     7
370
    25
100
AcDbPolyline
 90
        6
 70
   128
 43
0.0
 10
6355.5522281523
 20
5379.0307756464
 10
6355.538444632
 20
5379.0622247549
 10
6355.5330177054
 20
5379.0680301157
 10
6355.5266409306
 20
5379.0718147348
 10
6355.5192355927
 20
5379.0729796246
 10
6355.5107229771
 20
5379.0709257975
  0
ARC
  5
2EB
330
1F
100
AcDbEntity
  8
0
  6
Continuous
 62
     7
370
    25
100
AcDbCircle
 10
6354.9697173771
 20
5379.2738859349
 30
0.0
 40
0.5059959121333105
100
AcDbArc
 50
195.410830615
 51
286.309298046
  0
LWPOLYLINE
  5
2EC
330
1F
100
AcDbEntity
  8
0
  6
Continuous
 62
     7
370
    25
100
AcDbPolyline
 90
        9
 70
   128
 43
0.0
 10
6354.3851091466
 20
5379.2207177389
 10
6354.3866174877
 20
5379.2029559959
 10
6354.3908386376
 20
5379.1899222436
 10
6354.3973165047
 20
5379.1807973877
 10
6354.4177804154
 20
5379.17031571
 10
6354.4421648231
 20
5379.1661461544
 10
6354.4652745586
 20
5379.1589587218
 10
6354.4747279338
 20
5379.151317677
 10
6354.4819144524
 20
5379.1394234133
  0
LWPOLYLINE
  5
2ED
330
1F
100
AcDbEntity
  8
0
  6
Continuous
 62
     7
370
    25
100
AcDbPolyline
 90
        3
 70
   128
 43
0.0
 10
6354.6423663102
 20
5379.7081183947
 10
6354.5598984679
 20
5379.5323622265
 10
6354.5178185885
 20
5379.377551968
  0
LWPOLYLINE
  5
2EE
330
1F
100
AcDbEntity
  8
0
  6
Continuous
 62
     7
370
    25
100
AcDbPolyline
 90
        3
 70
   128
 43
0.0
 10
6354.8099519622
 20
5379.2675523833
 10
6355.1746183273
 20
5379.4575472444
 10
6355.4347027059
 20
5379.6376640674
  0
LWPOLYLINE
  5
2EF
330
1F
100
AcDbEntity
  8
0
  6
Continuous
 62
     7
370
    25
100
AcDbPolyline
 90
       10
 70
   128
 43
0.0
 10
6355.1298579223
 20
5379.5804073507
 10
6355.0753733146
 20
5379.5478233675
 10
6354.9994862582
 20
5379.5041842256
 10
6354.8616617396
 20
5379.4406541384
 10
6354.8430149927
 20
5379.4366892306
 10
6354.8286982645
 20
5379.4367966358
 10
6354.8234154656
 20
5379.4385710221
 10
6354.8195173414
 20
5379.4415957662
 10
6354.8171046151
 20
5379.4459482947
 10
6354.8162780099
 20
5379.4517060341
  0
LWPOLYLINE
  5
2F0
330
1F
100
AcDbEntity
  8
0
  6
Continuous
 62
     7
370
    25
100
AcDbPolyline
 90
        6
 70
   128
 43
0.0
 10
6355.5107229771
 20
5379.0709257975
 10
6355.1278896424
 20
5378.9395629447
 10
6355.0351305021
 20
5378.9370272324
 10
6354.9490362267
 20
5378.9581548674
 10
6354.8723494099
 20
5379.0087165231
 10
6354.8078126455
 20
5379.0944828731
  0
LWPOLYLINE
  5
2F1
330
1F
100
AcDbEntity
  8
0
  6
Continuous
 62
     7
370
    25
100
AcDbPolyline
 90
       13
 70
   128
 43
0.0
 10
6355.0811858986
 20
5379.9923588147
 10
6355.1462651663
 20
5380.0389018112
 10
6355.2078465423
 20
5380.06326615
 10
6355.2636508523
 20
5380.0676942129
 10
6355.3166874629
 20
5380.051637732
 10
6355.3562827421
 20
5380.0163801824
 10
6355.3752061658
 20
5379.9792569673
 10
6355.3833743936
 20
5379.9344760304
 10
6355.3794183769
 20
5379.8833843198
 10
6355.3619690671
 20
5379.8273287839
 10
6355.3153474964
 20
5379.7471946217
 10
6355.2390588323
 20
5379.6638232219
 10
6355.1298579223
 20
5379.5804073507
  0
ARC
  5
2F2
330
1F
100
AcDbEntity
  8
0
  6
Continuous
 62
     7
370
    25
100
AcDbCircle
 10
6355.6676110571
 20
5379.3697975849
 30
0.0
 40
0.8552642581997503
100
AcDbArc
 50
133.2879640696
 51
174.5043744099
  0
LWPOLYLINE
  5
2F3
330
1F
100
AcDbEntity
  8
0
  6
Continuous
 62
     7
370
    25
100
AcDbPolyline
 90
       14
 70
   128
 43
0.0
 10
6371.8858236293
 20
5379.3342196994
 10
6371.8970351891
 20
5379.2224454603
 10
6371.9246367391
 20
5379.1338722228
 10
6371.9663030424
 20
5379.0661094286
 10
6372.0197088623
 20
5379.0167665194
 10
6372.2271110537
 20
5378.9553515171
 10
6372.4564603707
 20
5378.9736553766
 10
6372.6201446731
 20
5379.0034172096
 10
6372.6684458002
 20
5379.0096901713
 10
6372.70430091
 20
5379.0093916764
 10
6372.7141651463
 20
5379.0070822896
 10
6372.7217972885
 20
5379.0033711533
 10
6372.7270747165
 20
5378.998132203
 10
6372.7298748105
 20
5378.9912393741
  0
LWPOLYLINE
  5
2F4
330
1F
100
AcDbEntity
  8
0
  6
Continuous
 62
     7
370
    25
100
AcDbPolyline
 90
        7
 70
   128
 43
0.0
 10
6372.7298748105
 20
5378.9912393741
 10
6372.729615413
 20
5378.9652092462
 10
6372.7190312027
 20
5378.9410069705
 10
6372.6992370755
 20
5378.9186319681
 10
6372.6713479273
 20
5378.8980836604
 10
6372.5011390423
 20
5378.834145802
 10
6372.1110886215
 20
5378.7937755025
  0
ARC
  5
2F5
330
1F
100
AcDbEntity
  8
0
  6
Continuous
 62
     7
370
    25
100
AcDbCircle
 10
6372.0554712887
 20
5379.3096824121
 30
0.0
 40
0.5188961621651129
100
AcDbArc
 50
215.5620198655
 51
276.1530070714
  0
ARC
  5
2F6
330
1F
100
AcDbEntity
  8
0
  6
Continuous
 62
     7
370
    25
100
AcDbCircle
 10
6372.3326898965
 20
5379.2934198424
 30
0.0
 40
0.7553731735514386
100
AcDbArc
 50
133.8570249325
 51
202.2088699029
  0
LWPOLYLINE
  5
2F7
330
1F
100
AcDbEntity
  8
0
  6
Continuous
 62
     7
370
    25
100
AcDbPolyline
 90
        9
 70
   128
 43
0.0
 10
6371.8093211487
 20
5379.8380975316
 10
6372.0210689617
 20
5380.0072992527
 10
6372.2673136297
 20
5380.1058764009
 10
6372.5053136305
 20
5380.1419047891
 10
6372.6923274417
 20
5380.1234602301
 10
6372.7359476908
 20
5380.1066027639
 10
6372.7675707303
 20
5380.0848891647
 10
6372.7856135409
 20
5380.0586185368
 10
6372.7884931033
 20
5380.0280899843
  0
ARC
  5
2F8
330
1F
100
AcDbEntity
  8
0
  6
Continuous
 62
     7
370
    25
100
AcDbCircle
 10
6373.0400744457
 20
5376.6265588658
 30
0.0
 40
3.41082205950663
100
AcDbArc
 50
94.2299631481
 51
105.9090533313
  0
ARC
  5
2F9
330
1F
100
AcDbEntity
  8
0
  6
Continuous
 62
     7
370
    25
100
AcDbCircle
 10
6372.6742843636
 20
5379.3604593712
 30
0.0
 40
0.7888972366070841
100
AcDbArc
 50
136.1747938087
 51
181.9060781609
  0
LINE
  5
2FA
330
1F
100
AcDbEntity
  8
0
  6
Continuous
 62
     7
370
    25
100
AcDbLine
 10
6366.5225177345
 20
5381.9205283079
 30
0.0
 11
6363.7384960146
 21
5381.9205411233
 31
0.0
  0
LINE
  5
2FB
330
1F
100
AcDbEntity
  8
0
  6
Continuous
 62
     7
370
    25
100
AcDbLine
 10
6363.7385243582
 20
5388.0779124833
 30
0.0
 11
6364.6323353582
 21
5388.0779083689
 31
0.0
  0
LINE
  5
2FC
330
1F
100
AcDbEntity
  8
0
  6
Continuous
 62
     7
370
    25
100
AcDbLine
 10
6364.6323353582
 20
5388.0779083689
 30
0.0
 11
6364.632310662
 21
5382.7129038489
 31
0.0
  0
LINE
  5
2FD
330
1F
100
AcDbEntity
  8
0
  6
Continuous
 62
     7
370
    25
100
AcDbLine
 10
6364.632310662
 20
5382.7129038489
 30
0.0
 11
6366.522521382
 21
5382.7128951479
 31
0.0
  0
LINE
  5
2FE
330
1F
100
AcDbEntity
  8
0
  6
Continuous
 62
     7
370
    25
100
AcDbLine
 10
6366.522521382
 20
5382.7128951479
 30
0.0
 11
6366.5225177345
 21
5381.9205283079
 31
0.0
  0
LINE
  5
2FF
330
1F
100
AcDbEntity
  8
0
  6
Continuous
 62
     7
370
    25
100
AcDbLine
 10
6363.7384960146
 20
5381.9205411233
 30
0.0
 11
6363.7385243582
 21
5388.0779124833
 31
0.0
  0
ARC
  5
300
330
1F
100
AcDbEntity
  8
0
  6
Continuous
 62
     7
370
    25
100
AcDbCircle
 10
6352.8600962939
 20
5379.0385657223
 30
0.0
 40
0.2698271767350069
100
AcDbArc
 50
208.4461970351
 51
305.178563035
  0
ARC
  5
301
330
1F
100
AcDbEntity
  8
0
  6
Continuous
 62
     7
370
    25
100
AcDbCircle
 10
6354.2916254897
 20
5379.3942633239
 30
0.0
 40
1.737612320289173
100
AcDbArc
 50
157.5724576047
 51
196.1810086261
  0
ARC
  5
302
330
1F
100
AcDbEntity
  8
0
  6
Continuous
 62
     7
370
    25
100
AcDbCircle
 10
6352.6918280513
 20
5379.8913140157
 30
0.0
 40
0.2542531877820787
100
AcDbArc
 50
23.4193027824
 51
79.6541747795
  0
ARC
  5
303
330
1F
100
AcDbEntity
  8
0
  6
Continuous
 62
     7
370
    25
100
AcDbCircle
 10
6354.2070531585
 20
5379.4108547632
 30
0.0
 40
1.407646956950683
100
AcDbArc
 50
155.5996074526
 51
195.7025534483
  0
LWPOLYLINE
  5
304
330
1F
100
AcDbEntity
  8
0
  6
Continuous
 62
     7
370
    25
100
AcDbPolyline
 90
        7
 70
   128
 43
0.0
 10
6354.0851472781
 20
5379.9183886797
 10
6354.0525502108
 20
5379.9841445548
 10
6354.042274734
 20
5380.0166172564
 10
6354.0419708131
 20
5380.022986351
 10
6354.0428751878
 20
5380.0283406989
 10
6354.0451390163
 20
5380.0325227431
 10
6354.0489134566
 20
5380.0353749265
  0
LWPOLYLINE
  5
305
330
1F
100
AcDbEntity
  8
0
  6
Continuous
 62
     7
370
    25
100
AcDbPolyline
 90
       11
 70
   128
 43
0.0
 10
6353.693913326
 20
5378.7730774806
 10
6353.5745647744
 20
5378.7873817356
 10
6353.4850916054
 20
5378.8250919169
 10
6353.4206821134
 20
5378.8784060252
 10
6353.3765245922
 20
5378.9395220616
 10
6353.3297186389
 20
5379.0539519221
 10
6353.317446795
 20
5379.091661748
 10
6353.3119885349
 20
5379.1022270102
 10
6353.3101209998
 20
5379.1042798654
 10
6353.3081922797
 20
5379.1055380706
 10
6353.3061800984
 20
5379.1059655054
  0
LWPOLYLINE
  5
306
330
1F
100
AcDbEntity
  8
0
  6
Continuous
 62
     7
370
    25
100
AcDbPolyline
 90
        3
 70
   128
 43
0.0
 10
6353.3061800984
 20
5379.1059655054
 10
6353.1643921717
 20
5378.9410482841
 10
6353.0155508929
 20
5378.8180196433
  0
LWPOLYLINE
  5
307
330
1F
100
AcDbEntity
  8
0
  6
Continuous
 62
     7
370
    25
100
AcDbPolyline
 90
        8
 70
   128
 43
0.0
 10
6353.6848829441
 20
5379.9935399222
 10
6353.5769340582
 20
5379.5204851628
 10
6353.5535510935
 20
5379.280333517
 10
6353.5819996248
 20
5379.0759981302
 10
6353.6119271692
 20
5379.0170325405
 10
6353.6546577039
 20
5378.9718823094
 10
6353.7116654578
 20
5378.9429310721
 10
6353.7844246602
 20
5378.932562464
  0
LWPOLYLINE
  5
308
330
1F
100
AcDbEntity
  8
0
  6
Continuous
 62
     7
370
    25
100
AcDbPolyline
 90
        5
 70
   128
 43
0.0
 10
6352.685441397
 20
5380.0571880828
 10
6352.7134194037
 20
5380.1205453741
 10
6352.725819974
 20
5380.1362331307
 10
6352.7317306302
 20
5380.1401361143
 10
6352.7374891448
 20
5380.1414334833
  0
LWPOLYLINE
  5
309
330
1F
100
AcDbEntity
  8
0
  6
Continuous
 62
     7
370
    25
100
AcDbPolyline
 90
        8
 70
   128
 43
0.0
 10
6354.3328248717
 20
5380.0994689796
 10
6354.3417719531
 20
5380.0427064405
 10
6354.3435766224
 20
5379.9549660164
 10
6354.3300348151
 20
5379.7698928778
 10
6354.2471526872
 20
5379.366389989
 10
6354.0421032161
 20
5378.9485112297
 10
6353.8875413625
 20
5378.817519767
 10
6353.693913326
 20
5378.7730774806
  0
LWPOLYLINE
  5
30A
330
1F
100
AcDbEntity
  8
0
  6
Continuous
 62
     7
370
    25
100
AcDbPolyline
 90
        8
 70
   128
 43
0.0
 10
6353.7844246602
 20
5378.932562464
 10
6353.9116607532
 20
5378.9786957763
 10
6354.0054670947
 20
5379.0838480884
 10
6354.1084238741
 20
5379.3972259775
 10
6354.1221487998
 20
5379.7579514935
 10
6354.1050049699
 20
5379.8687196992
 10
6354.0956446873
 20
5379.8982985975
 10
6354.0851472781
 20
5379.9183886797
  0
LINE
  5
30B
330
1F
100
AcDbEntity
  8
0
  6
Continuous
 62
     7
370
    25
100
AcDbLine
 10
6353.2311515427
 20
5379.1851212108
 30
0.0
 11
6353.2311515497
 21
5379.1866272108
 31
0.0
  0
ARC
  5
30C
330
1F
100
AcDbEntity
  8
0
  6
Continuous
 62
     7
370
    25
100
AcDbCircle
 10
6353.477874434
 20
5379.90149478
 30
0.0
 40
0.2265498431402637
100
AcDbArc
 50
23.9720476091
 51
85.3649163214
  0
LWPOLYLINE
  5
30D
330
1F
100
AcDbEntity
  8
0
  6
Continuous
 62
     7
370
    25
100
AcDbPolyline
 90
        8
 70
   128
 43
0.0
 10
6354.0489134566
 20
5380.0353749265
 10
6354.0737352841
 20
5380.0522861672
 10
6354.1131818653
 20
5380.0715672969
 10
6354.1910161478
 20
5380.0997030624
 10
6354.2781755016
 20
5380.1158846312
 10
6354.3148623903
 20
5380.1117621237
 10
6354.3252426438
 20
5380.1067150404
 10
6354.3328248717
 20
5380.0994689796
  0
LWPOLYLINE
  5
30E
330
1F
100
AcDbEntity
  8
0
  6
Continuous
 62
     7
370
    25
100
AcDbPolyline
 90
        6
 70
   128
 43
0.0
 10
6353.410850938
 20
5379.9400781836
 10
6353.4554593048
 20
5380.0805877783
 10
6353.4764615773
 20
5380.1156360666
 10
6353.4831927648
 20
5380.122119784
 10
6353.4897699937
 20
5380.126008162
 10
6353.4961817598
 20
5380.1273037108
  0
LWPOLYLINE
  5
30F
330
1F
100
AcDbEntity
  8
0
  6
Continuous
 62
     7
370
    25
100
AcDbPolyline
 90
        8
 70
   128
 43
0.0
 10
6352.8519400281
 20
5379.0298844764
 10
6352.8830416758
 20
5378.9944245697
 10
6352.9162215612
 20
5378.9724901022
 10
6352.9508834481
 20
5378.9626632403
 10
6353.0043507649
 20
5378.9675231974
 10
6353.0577987571
 20
5378.9916499538
 10
6353.1092151279
 20
5379.0302583214
 10
6353.2311515427
 20
5379.1851212108
  0
LWPOLYLINE
  5
310
330
1F
100
AcDbEntity
  8
0
  6
Continuous
 62
     7
370
    25
100
AcDbPolyline
 90
        3
 70
   128
 43
0.0
 10
6353.2311515497
 20
5379.1866272108
 10
6353.3417949883
 20
5379.5627496357
 10
6353.410850938
 20
5379.9400781836
  0
LWPOLYLINE
  5
311
330
1F
100
AcDbEntity
  8
0
  6
Continuous
 62
     7
370
    25
100
AcDbPolyline
 90
       11
 70
   128
 43
0.0
 10
6360.7880277845
 20
5381.1840905849
 10
6360.7901434547
 20
5381.189170916
 10
6360.794409395
 20
5381.1952128485
 10
6360.8049913632
 20
5381.2063237813
 10
6360.833544403
 20
5381.2295848841
 10
6360.903448037
 20
5381.2737121136
 10
6360.9857219219
 20
5381.3092608649
 10
6361.0173473544
 20
5381.3137594237
 10
6361.0253758233
 20
5381.3125189413
 10
6361.031871564
 20
5381.3097151542
 10
6361.0366689421
 20
5381.3052320804
  0
LWPOLYLINE
  5
312
330
1F
100
AcDbEntity
  8
0
  6
Continuous
 62
     7
370
    25
100
AcDbPolyline
 90
        9
 70
   128
 43
0.0
 10
6361.5087946484
 20
5380.1552181871
 10
6361.5319427537
 20
5380.1318897655
 10
6361.5443369073
 20
5380.1066615832
 10
6361.5466558235
 20
5380.0794579695
 10
6361.5395782168
 20
5380.0502032535
 10
6361.5031676475
 20
5379.9893315933
 10
6361.4404137464
 20
5379.9204261737
 10
6361.2994511796
 20
5379.7947022882
 10
6360.9687702057
 20
5379.5116165129
  0
LWPOLYLINE
  5
313
330
1F
100
AcDbEntity
  8
0
  6
Continuous
 62
     7
370
    25
100
AcDbPolyline
 90
       11
 70
   128
 43
0.0
 10
6361.5931525148
 20
5378.3622043188
 10
6361.5924570552
 20
5378.3613048706
 10
6361.5915997366
 20
5378.360684982
 10
6361.5905858736
 20
5378.3603364541
 10
6361.5894207804
 20
5378.3602510878
 10
6361.586658162
 20
5378.3608370442
 10
6361.5833543972
 20
5378.3623772597
 10
6361.5688463632
 20
5378.373683743
 10
6361.5503217484
 20
5378.3925348305
 10
6361.5169755884
 20
5378.4314166644
 10
6361.4437580716
 20
5378.5266300864
  0
LWPOLYLINE
  5
314
330
1F
100
AcDbEntity
  8
0
  6
Continuous
 62
     7
370
    25
100
AcDbPolyline
 90
       11
 70
   128
 43
0.0
 10
6360.807265918
 20
5379.3274635764
 10
6360.8058671954
 20
5379.3271834888
 10
6360.8044914462
 20
5379.3263544547
 10
6360.8018058244
 20
5379.3231169972
 10
6360.7966767788
 20
5379.310796676
 10
6360.7872170126
 20
5379.2665516162
 10
6360.7701270484
 20
5379.1298614873
 10
6360.750650495
 20
5378.9720832918
 10
6360.7408895703
 20
5378.9249975913
 10
6360.7367310394
 20
5378.9129975932
 10
6360.7323555353
 20
5378.9054224812
  0
LWPOLYLINE
  5
315
330
1F
100
AcDbEntity
  8
0
  6
Continuous
 62
     7
370
    25
100
AcDbPolyline
 90
       13
 70
   128
 43
0.0
 10
6360.7323555353
 20
5378.9054224812
 10
6360.7264595485
 20
5378.8976405242
 10
6360.7160933218
 20
5378.8875972003
 10
6360.6924545838
 20
5378.8685651768
 10
6360.6356044971
 20
5378.830739094
 10
6360.5796678757
 20
5378.8011786951
 10
6360.5302902527
 20
5378.7845640876
 10
6360.51557776
 20
5378.7834374349
 10
6360.5039831448
 20
5378.7858747817
 10
6360.4995419225
 20
5378.7885764635
 10
6360.4961044268
 20
5378.7923449557
 10
6360.4937454102
 20
5378.7972388617
 10
6360.4925396253
 20
5378.8033167851
  0
ARC
  5
316
330
1F
100
AcDbEntity
  8
0
  6
Continuous
 62
     7
370
    25
100
AcDbCircle
 10
6346.954838649
 20
5382.0524276314
 30
0.0
 40
14.1016398194334
100
AcDbArc
 50
349.7809272167
 51
356.9626788136
  0
ARC
  5
317
330
1F
100
AcDbEntity
  8
0
  6
Continuous
 62
     7
370
    25
100
AcDbCircle
 10
6366.0946249215
 20
5374.3474328589
 30
0.0
 40
7.400014169714548
100
AcDbArc
 50
128.2946395258
 51
135.3211401891
  0
ARC
  5
318
330
1F
100
AcDbEntity
  8
0
  6
Continuous
 62
     7
370
    25
100
AcDbCircle
 10
6359.0131819833
 20
5377.7050100315
 30
0.0
 40
2.662358404568392
100
AcDbArc
 50
14.2909920601
 51
42.7322898014
  0
ARC
  5
319
330
1F
100
AcDbEntity
  8
0
  6
Continuous
 62
     7
370
    25
100
AcDbCircle
 10
6358.1469082884
 20
5376.5596909307
 30
0.0
 40
3.839019163271781
100
AcDbArc
 50
30.8207966145
 51
46.1336544293
  0
ARC
  5
31A
330
1F
100
AcDbEntity
  8
0
  6
Continuous
 62
     7
370
    25
100
AcDbCircle
 10
6383.6198943338
 20
5377.1416045715
 30
0.0
 40
23.18697529418012
100
AcDbArc
 50
169.9595750136
 51
175.8903314028
  0
LINE
  5
31B
330
1F
100
AcDbEntity
  8
0
  6
Continuous
 62
     7
370
    25
100
AcDbLine
 10
6370.2405606545
 20
5381.9205111929
 30
0.0
 11
6369.4009054145
 21
5381.9205150581
 31
0.0
  0
LINE
  5
31C
330
1F
100
AcDbEntity
  8
0
  6
Continuous
 62
     7
370
    25
100
AcDbLine
 10
6369.4009054145
 20
5381.9205150581
 30
0.0
 11
6369.4009181585
 21
5384.689024978
 31
0.0
  0
LINE
  5
31D
330
1F
100
AcDbEntity
  8
0
  6
Continuous
 62
     7
370
    25
100
AcDbLine
 10
6368.0595540785
 20
5384.6890311526
 30
0.0
 11
6368.0592401345
 21
5381.920521234
 31
0.0
  0
LINE
  5
31E
330
1F
100
AcDbEntity
  8
0
  6
Continuous
 62
     7
370
    25
100
AcDbLine
 10
6367.2360732786
 20
5384.6890349433
 30
0.0
 11
6366.8755368786
 21
5384.6890366029
 31
0.0
  0
LINE
  5
31F
330
1F
100
AcDbEntity
  8
0
  6
Continuous
 62
     7
370
    25
100
AcDbLine
 10
6366.8755368786
 20
5384.6890366029
 30
0.0
 11
6366.5849431636
 21
5385.5677889406
 31
0.0
  0
LINE
  5
320
330
1F
100
AcDbEntity
  8
0
  6
Continuous
 62
     7
370
    25
100
AcDbLine
 10
6366.5849431636
 20
5385.5677889406
 30
0.0
 11
6367.2360773236
 21
5385.5677859433
 31
0.0
  0
LINE
  5
321
330
1F
100
AcDbEntity
  8
0
  6
Continuous
 62
     7
370
    25
100
AcDbLine
 10
6367.2360773236
 20
5385.5677859433
 30
0.0
 11
6367.2360822701
 21
5386.6423470632
 31
0.0
  0
ARC
  5
322
330
1F
100
AcDbEntity
  8
0
  6
Continuous
 62
     7
370
    25
100
AcDbCircle
 10
6368.6468794819
 20
5386.7723468882
 30
0.0
 40
1.41677405661249
100
AcDbArc
 50
93.2125272829
 51
185.2647301471
  0
LWPOLYLINE
  5
323
330
1F
100
AcDbEntity
  8
0
  6
Continuous
 62
     7
370
    25
100
AcDbPolyline
 90
        6
 70
   128
 43
0.0
 10
6369.4009237199
 20
5385.897168298
 10
6369.3373223951
 20
5386.8932671108
 10
6369.2766988592
 20
5387.0772892949
 10
6369.1862598575
 20
5387.2188198262
 10
6369.0600422977
 20
5387.3096133822
 10
6368.8920830881
 20
5387.3414246403
  0
LINE
  5
324
330
1F
100
AcDbEntity
  8
0
  6
Continuous
 62
     7
370
    25
100
AcDbLine
 10
6368.8920830881
 20
5387.3414246403
 30
0.0
 11
6368.5674798481
 21
5387.3414261345
 31
0.0
  0
LINE
  5
325
330
1F
100
AcDbEntity
  8
0
  6
Continuous
 62
     7
370
    25
100
AcDbLine
 10
6370.2405823378
 20
5386.6309779929
 30
0.0
 11
6370.2405606545
 21
5381.9205111929
 31
0.0
  0
LINE
  5
326
330
1F
100
AcDbEntity
  8
0
  6
Continuous
 62
     7
370
    25
100
AcDbLine
 10
6367.2360605345
 20
5381.9205250233
 30
0.0
 11
6367.2360732786
 21
5384.6890349433
 31
0.0
  0
LINE
  5
327
330
1F
100
AcDbEntity
  8
0
  6
Continuous
 62
     7
370
    25
100
AcDbLine
 10
6369.4009222046
 20
5385.567986818
 30
0.0
 11
6369.4009237199
 21
5385.897168298
 31
0.0
  0
LINE
  5
328
330
1F
100
AcDbEntity
  8
0
  6
Continuous
 62
     7
370
    25
100
AcDbLine
 10
6368.0592584037
 20
5385.889313154
 30
0.0
 11
6368.0592569246
 21
5385.567992994
 31
0.0
  0
LWPOLYLINE
  5
329
330
1F
100
AcDbEntity
  8
0
  6
Continuous
 62
     7
370
    25
100
AcDbPolyline
 90
        6
 70
   128
 43
0.0
 10
6368.5674798481
 20
5387.3414261345
 10
6368.3997291235
 20
5387.3089500167
 10
6368.2736676177
 20
5387.2171128345
 10
6368.1833397276
 20
5387.0743039766
 10
6368.1227898501
 20
5386.8889128315
 10
6368.0592584037
 20
5385.889313154
  0
ARC
  5
32A
330
1F
100
AcDbEntity
  8
0
  6
Continuous
 62
     7
370
    25
100
AcDbCircle
 10
6368.7924610337
 20
5386.73822731
 30
0.0
 40
1.452087369055923
100
AcDbArc
 50
355.7643499984
 51
86.0659158094
  0
LINE
  5
32B
330
1F
100
AcDbEntity
  8
0
  6
Continuous
 62
     7
370
    25
100
AcDbLine
 10
6368.56748374
 20
5388.1868945345
 30
0.0
 11
6368.8920869799
 21
5388.1868930403
 31
0.0
  0
LINE
  5
32C
330
1F
100
AcDbEntity
  8
0
  6
Continuous
 62
     7
370
    25
100
AcDbLine
 10
6368.0592569246
 20
5385.567992994
 30
0.0
 11
6369.4009222046
 21
5385.567986818
 31
0.0
  0
LINE
  5
32D
330
1F
100
AcDbEntity
  8
0
  6
Continuous
 62
     7
370
    25
100
AcDbLine
 10
6369.4009181585
 20
5384.689024978
 30
0.0
 11
6368.0595540785
 21
5384.6890311526
 31
0.0
  0
LINE
  5
32E
330
1F
100
AcDbEntity
  8
0
  6
Continuous
 62
     7
370
    25
100
AcDbLine
 10
6368.0592401345
 20
5381.920521234
 30
0.0
 11
6367.2360605345
 21
5381.9205250233
 31
0.0
  0
ARC
  5
32F
330
1F
100
AcDbEntity
  8
0
  6
Continuous
 62
     7
370
    25
100
AcDbCircle
 10
6375.2890973226
 20
5379.3441542336
 30
0.0
 40
0.8233762029190298
100
AcDbArc
 50
92.2922458478
 51
180.090599431
  0
ARC
  5
330
330
1F
100
AcDbEntity
  8
0
  6
Continuous
 62
     7
370
    25
100
AcDbCircle
 10
6375.0001649307
 20
5379.310620165
 30
0.0
 40
0.5354138540395688
100
AcDbArc
 50
176.5486875318
 51
272.5830785763
  0
LWPOLYLINE
  5
331
330
1F
100
AcDbEntity
  8
0
  6
Continuous
 62
     7
370
    25
100
AcDbPolyline
 90
        8
 70
   128
 43
0.0
 10
6375.0521564306
 20
5378.8826460841
 10
6374.9667107251
 20
5378.8963587643
 10
6374.8993049157
 20
5378.9334880927
 10
6374.8483405339
 20
5378.990349083
 10
6374.7992249875
 20
5379.1045765265
 10
6374.778111267
 20
5379.2424721606
 10
6374.7983099768
 20
5379.5395206845
 10
6374.8657780105
 20
5379.7820000221
  0
LWPOLYLINE
  5
332
330
1F
100
AcDbEntity
  8
0
  6
Continuous
 62
     7
370
    25
100
AcDbPolyline
 90
        8
 70
   128
 43
0.0
 10
6375.3550183015
 20
5380.02768661
 10
6375.4143187784
 20
5379.9787407095
 10
6375.4588117871
 20
5379.8990561622
 10
6375.4883283518
 20
5379.7953196088
 10
6375.4853296228
 20
5379.4066643201
 10
6375.3414597653
 20
5379.0422600449
 10
6375.2152724294
 20
5378.9255705689
 10
6375.0521564306
 20
5378.8826460841
  0
ARC
  5
333
330
1F
100
AcDbEntity
  8
0
  6
Continuous
 62
     7
370
    25
100
AcDbCircle
 10
6375.2178012654
 20
5379.6909694984
 30
0.0
 40
0.3636027065586271
100
AcDbArc
 50
67.8284020048
 51
165.5013547469
  0
ARC
  5
334
330
1F
100
AcDbEntity
  8
0
  6
Continuous
 62
     7
370
    25
100
AcDbCircle
 10
6375.2802889319
 20
5379.631749751
 30
0.0
 40
0.535665321298777
100
AcDbArc
 50
356.5418100871
 51
92.5812036415
  0
ARC
  5
335
330
1F
100
AcDbEntity
  8
0
  6
Continuous
 62
     7
370
    25
100
AcDbCircle
 10
6374.9915802316
 20
5379.598499331
 30
0.0
 40
0.8233991539885284
100
AcDbArc
 50
272.2770343261
 51
0.0653399336
  0
ARC
  5
336
330
1F
100
AcDbEntity
  8
0
  6
Continuous
 62
     7
370
    25
100
AcDbCircle
 10
6373.2175782888
 20
5387.9348993142
 30
0.0
 40
0.0726394532314306
100
AcDbArc
 50
1.8927288639
 51
89.8963354521
  0
ARC
  5
337
330
1F
100
AcDbEntity
  8
0
  6
Continuous
 62
     7
370
    25
100
AcDbCircle
 10
6373.217643554
 20
5387.9351955658
 30
0.0
 40
0.0723431130268989
100
AcDbArc
 50
89.947600917
 51
178.3337319954
  0
ARC
  5
338
330
1F
100
AcDbEntity
  8
0
  6
Continuous
 62
     7
370
    25
100
AcDbCircle
 10
6373.21939469
 20
5387.9390149198
 30
0.0
 40
0.0740835303749173
100
AcDbArc
 50
181.3270915843
 51
268.6962293254
  0
ARC
  5
339
330
1F
100
AcDbEntity
  8
0
  6
Continuous
 62
     7
370
    25
100
AcDbCircle
 10
6373.2160323336
 20
5387.9390992551
 30
0.0
 40
0.0741676420229411
100
AcDbArc
 50
271.2954088211
 51
358.6087296353
  0
LWPOLYLINE
  5
33A
330
1F
100
AcDbEntity
  8
0
  6
Continuous
 62
     7
370
    25
100
AcDbPolyline
 90
        9
 70
   128
 43
0.0
 10
6360.2910672622
 20
5378.8721720325
 10
6360.2868214947
 20
5378.8541683883
 10
6360.2747472401
 20
5378.8376280562
 10
6360.2310905225
 20
5378.8092389217
 10
6360.0935850273
 20
5378.7733379266
 10
6359.926107404
 20
5378.7711793215
 10
6359.8905035199
 20
5378.7780623752
 10
6359.8614429932
 20
5378.7882734255
 10
6359.8405319789
 20
5378.8019342664
  0
ARC
  5
33B
330
1F
100
AcDbEntity
  8
0
  6
Continuous
 62
     7
370
    25
100
AcDbCircle
 10
6360.3898057211
 20
5379.0153798487
 30
0.0
 40
0.5892882660087044
100
AcDbArc
 50
154.9479705662
 51
201.2359275649
  0
LWPOLYLINE
  5
33C
330
1F
100
AcDbEntity
  8
0
  6
Continuous
 62
     7
370
    25
100
AcDbPolyline
 90
        5
 70
   128
 43
0.0
 10
6359.8559555501
 20
5379.2649087154
 10
6359.5688424533
 20
5378.8897842621
 10
6359.3802926083
 20
5378.7751921781
 10
6359.267841399
 20
5378.7595851824
 10
6359.1406334412
 20
5378.7807028882
  0
ARC
  5
33D
330
1F
100
AcDbEntity
  8
0
  6
Continuous
 62
     7
370
    25
100
AcDbCircle
 10
6359.2577560381
 20
5379.1206251052
 30
0.0
 40
0.3595341657166206
100
AcDbArc
 50
179.1722718902
 51
250.9882483579
  0
ARC
  5
33E
330
1F
100
AcDbEntity
  8
0
  6
Continuous
 62
     7
370
    25
100
AcDbCircle
 10
6359.9655326429
 20
5379.0798299569
 30
0.0
 40
1.068263631116957
100
AcDbArc
 50
116.5860245959
 51
177.5326403362
  0
LWPOLYLINE
  5
33F
330
1F
100
AcDbEntity
  8
0
  6
Continuous
 62
     7
370
    25
100
AcDbPolyline
 90
        9
 70
   128
 43
0.0
 10
6359.4874408956
 20
5380.0351390518
 10
6359.6351115126
 20
5380.0905047496
 10
6359.8322284911
 20
5380.1345744513
 10
6359.9880029836
 20
5380.1471325022
 10
6360.1171178104
 20
5380.1287815864
 10
6360.1538532333
 20
5380.111578419
 10
6360.1817858503
 20
5380.0878569741
 10
6360.1995481696
 20
5380.057044875
 10
6360.2057726993
 20
5380.0185697452
  0
ARC
  5
340
330
1F
100
AcDbEntity
  8
0
  6
Continuous
 62
     7
370
    25
100
AcDbCircle
 10
6359.4006078121
 20
5385.2128006323
 30
0.0
 40
5.256265309574336
100
AcDbArc
 50
272.0589885452
 51
278.8113695987
  0
ARC
  5
341
330
1F
100
AcDbEntity
  8
0
  6
Continuous
 62
     7
370
    25
100
AcDbCircle
 10
6360.132071546
 20
5379.1776403904
 30
0.0
 40
0.952053535941051
100
AcDbArc
 50
124.7461271547
 51
180.963550013
  0
LWPOLYLINE
  5
342
330
1F
100
AcDbEntity
  8
0
  6
Continuous
 62
     7
370
    25
100
AcDbPolyline
 90
        6
 70
   128
 43
0.0
 10
6359.1801526347
 20
5379.1616303463
 10
6359.1890174206
 20
5379.0796921399
 10
6359.2179336738
 20
5379.0017720374
 10
6359.2703831501
 20
5378.9435333641
 10
6359.3065208956
 20
5378.9266893525
 10
6359.3498476053
 20
5378.9206394452
  0
ARC
  5
343
330
1F
100
AcDbEntity
  8
0
  6
Continuous
 62
     7
370
    25
100
AcDbCircle
 10
6359.283898457
 20
5379.346965462
 30
0.0
 40
0.4313967580159794
100
AcDbArc
 50
278.793489149
 51
329.5694906702
  0
LWPOLYLINE
  5
344
330
1F
100
AcDbEntity
  8
0
  6
Continuous
 62
     7
370
    25
100
AcDbPolyline
 90
        3
 70
   128
 43
0.0
 10
6359.655867762
 20
5379.1284660365
 10
6359.887257199
 20
5379.569439132
 10
6360.0061666555
 20
5379.843934904
  0
LWPOLYLINE
  5
345
330
1F
100
AcDbEntity
  8
0
  6
Continuous
 62
     7
370
    25
100
AcDbPolyline
 90
        8
 70
   128
 43
0.0
 10
6360.0061666555
 20
5379.843934904
 10
6360.0134437748
 20
5379.851911145
 10
6360.0236962808
 20
5379.8578838694
 10
6360.0363177993
 20
5379.8618688721
 10
6360.0823326889
 20
5379.8620554984
 10
6360.1278392237
 20
5379.8449212445
 10
6360.1452855767
 20
5379.8299920568
 10
6360.1564653034
 20
5379.8108925721
  0
ARC
  5
346
330
1F
100
AcDbEntity
  8
0
  6
Continuous
 62
     7
370
    25
100
AcDbCircle
 10
6353.8646514518
 20
5380.1421731062
 30
0.0
 40
6.300529210674571
100
AcDbArc
 50
349.1107345598
 51
356.9860098075
  0
LWPOLYLINE
  5
347
330
1F
100
AcDbEntity
  8
0
  6
Continuous
 62
     7
370
    25
100
AcDbPolyline
 90
       10
 70
   128
 43
0.0
 10
6360.0517341094
 20
5378.9519308942
 10
6360.0625689929
 20
5378.9298453691
 10
6360.0817284567
 20
5378.9161026632
 10
6360.1368186048
 20
5378.9062789363
 10
6360.256666141
 20
5378.9057108109
 10
6360.2708052933
 20
5378.9017230225
 10
6360.2816569271
 20
5378.8951677546
 10
6360.2867649038
 20
5378.8891017234
 10
6360.2899616915
 20
5378.8814903778
 10
6360.2910672622
 20
5378.8721720325
  0
LWPOLYLINE
  5
348
330
1F
100
AcDbEntity
  8
0
  6
Continuous
 62
     7
370
    25
100
AcDbPolyline
 90
        9
 70
   128
 43
0.0
 10
6370.6280754357
 20
5379.9352098491
 10
6370.6057283504
 20
5379.9241998848
 10
6370.5729629598
 20
5379.9156458901
 10
6370.5053919099
 20
5379.9057604176
 10
6370.3585727741
 20
5379.8924858697
 10
6370.2008064643
 20
5379.8701272022
 10
6370.1404599592
 20
5379.8474948559
 10
6370.1256614065
 20
5379.835652803
 10
6370.1169686339
 20
5379.8218405218
  0
LWPOLYLINE
  5
349
330
1F
100
AcDbEntity
  8
0
  6
Continuous
 62
     7
370
    25
100
AcDbPolyline
 90
       14
 70
   128
 43
0.0
 10
6370.1117594224
 20
5380.1582508258
 10
6370.1136287056
 20
5380.155459125
 10
6370.1151848452
 20
5380.1513812697
 10
6370.1170714432
 20
5380.1426574604
 10
6370.1190800694
 20
5380.1213339209
 10
6370.1202127318
 20
5380.0721423529
 10
6370.1251347512
 20
5379.9898973774
 10
6370.1269004409
 20
5379.9833898653
 10
6370.1290692275
 20
5379.9783123323
 10
6370.1316854289
 20
5379.974834347
 10
6370.133967856
 20
5379.9733775674
 10
6370.1365455795
 20
5379.9729874524
 10
6370.139437296
 20
5379.9737355389
 10
6370.1426617021
 20
5379.9756933636
  0
LWPOLYLINE
  5
34A
330
1F
100
AcDbEntity
  8
0
  6
Continuous
 62
     7
370
    25
100
AcDbPolyline
 90
        3
 70
   128
 43
0.0
 10
6369.8020322161
 20
5379.4530225716
 10
6369.8393732033
 20
5379.7759194944
 10
6369.8682386296
 20
5380.0294588268
  0
LWPOLYLINE
  5
34B
330
1F
100
AcDbEntity
  8
0
  6
Continuous
 62
     7
370
    25
100
AcDbPolyline
 90
        6
 70
   128
 43
0.0
 10
6370.1426617021
 20
5379.9756933636
 10
6370.4574126853
 20
5380.1382269647
 10
6370.582477164
 20
5380.1644223178
 10
6370.6291337481
 20
5380.1618518529
 10
6370.6414986057
 20
5380.1573374685
 10
6370.6500640282
 20
5380.1508087079
  0
ARC
  5
34C
330
1F
100
AcDbEntity
  8
0
  6
Continuous
 62
     7
370
    25
100
AcDbCircle
 10
6370.4414224676
 20
5380.0631670157
 30
0.0
 40
0.2263014958335207
100
AcDbArc
 50
325.5679932407
 51
22.785262149
  0
ARC
  5
34D
330
1F
100
AcDbEntity
  8
0
  6
Continuous
 62
     7
370
    25
100
AcDbCircle
 10
6371.0710975366
 20
5379.0012778935
 30
0.0
 40
1.347070911944768
100
AcDbArc
 50
160.4059765283
 51
187.8183044023
  0
ARC
  5
34E
330
1F
100
AcDbEntity
  8
0
  6
Continuous
 62
     7
370
    25
100
AcDbCircle
 10
6395.5088113257
 20
5375.7965681956
 30
0.0
 40
25.70891854178998
100
AcDbArc
 50
170.9920767223
 51
173.0482417033
  0
LWPOLYLINE
  5
34F
330
1F
100
AcDbEntity
  8
0
  6
Continuous
 62
     7
370
    25
100
AcDbPolyline
 90
        9
 70
   128
 43
0.0
 10
6369.9888941882
 20
5378.9082111514
 10
6369.9821579275
 20
5378.8942824491
 10
6369.9693884075
 20
5378.8801644594
 10
6369.9396907987
 20
5378.8585065192
 10
6369.869091508
 20
5378.8256000729
 10
6369.7871678429
 20
5378.8063029425
 10
6369.7527547554
 20
5378.808263417
 10
6369.743243001
 20
5378.8121658292
 10
6369.7365484131
 20
5378.818033033
  0
LWPOLYLINE
  5
350
330
1F
100
AcDbEntity
  8
0
  6
Continuous
 62
     7
370
    25
100
AcDbPolyline
 90
        9
 70
   128
 43
0.0
 10
6369.8682386296
 20
5380.0294588268
 10
6369.8755665763
 20
5380.0483457711
 10
6369.890865506
 20
5380.0678672572
 10
6369.9124828704
 20
5380.0873181658
 10
6369.978941382
 20
5380.1288354922
 10
6370.0584653805
 20
5380.1590638405
 10
6370.0935761691
 20
5380.1633009814
 10
6370.1039020394
 20
5380.1617828938
 10
6370.1117594224
 20
5380.1582508258
  0
ARC
  5
351
330
1F
100
AcDbEntity
  8
0
  6
Continuous
 62
     7
370
    25
100
AcDbCircle
 10
6274.0187553361
 20
5379.5994545927
 30
0.0
 40
5.599999999999954
100
AcDbArc
 50
94.4980126049
 51
84.2523695851
  0
LINE
  5
352
330
1F
100
AcDbEntity
  8
0
  6
Continuous
 62
     7
370
    25
100
AcDbLine
 10
6273.5795780464
 20
5385.1822068985
 30
0.0
 11
6273.5795780464
 21
5384.98156601
 31
0.0
  0
ARC
  5
353
330
1F
100
AcDbEntity
  8
0
  6
Continuous
 62
     7
370
    25
100
AcDbCircle
 10
6274.0187553361
 20
5379.5994545927
 30
0.0
 40
5.400000000000178
100
AcDbArc
 50
94.6649681226
 51
84.0387368535
  0
LINE
  5
354
330
1F
100
AcDbEntity
  8
0
  6
Continuous
 62
     7
370
    25
100
AcDbLine
 10
6274.5795780464
 20
5384.9702532193
 30
0.0
 11
6274.5795780464
 21
5385.1713014937
 31
0.0
  0
ARC
  5
355
330
1F
100
AcDbEntity
  8
0
  6
Continuous
 62
     7
370
    25
100
AcDbCircle
 10
6273.5795780464
 20
5381.3847829442
 30
0.0
 40
0.5331629282969021
100
AcDbArc
 50
310.7111856769
 51
90.0
  0
ARC
  5
356
330
1F
100
AcDbEntity
  8
0
  6
Continuous
 62
     7
370
    25
100
AcDbCircle
 10
6274.5795780464
 20
5380.2226346901
 30
0.0
 40
1.000000000000909
100
AcDbArc
 50
130.7111856769
 51
180.0
  0
LINE
  5
357
330
1F
100
AcDbEntity
  8
0
  6
Continuous
 62
     7
370
    25
100
AcDbLine
 10
6273.5795780464
 20
5380.2226346901
 30
0.0
 11
6273.5795780464
 21
5379.6526892957
 31
0.0
  0
LINE
  5
358
330
1F
100
AcDbEntity
  8
0
  6
Continuous
 62
     7
370
    25
100
AcDbLine
 10
6273.5795780464
 20
5379.6526892957
 30
0.0
 11
6273.7658047081
 21
5379.4704762982
 31
0.0
  0
LINE
  5
359
330
1F
100
AcDbEntity
  8
0
  6
Continuous
 62
     7
370
    25
100
AcDbLine
 10
6273.7658047081
 20
5379.4704762982
 30
0.0
 11
6273.7658047081
 21
5376.9760594806
 31
0.0
  0
ARC
  5
35A
330
1F
100
AcDbEntity
  8
0
  6
Continuous
 62
     7
370
    25
100
AcDbCircle
 10
6274.2658047081
 20
5376.9760594806
 30
0.0
 40
0.5
100
AcDbArc
 50
180.0
 51
0.0
  0
LINE
  5
35B
330
1F
100
AcDbEntity
  8
0
  6
Continuous
 62
     7
370
    25
100
AcDbLine
 10
6274.7658047081
 20
5376.9760594806
 30
0.0
 11
6274.7658047081
 21
5379.8910854709
 31
0.0
  0
LINE
  5
35C
330
1F
100
AcDbEntity
  8
0
  6
Continuous
 62
     7
370
    25
100
AcDbLine
 10
6274.7658047081
 20
5379.8910854709
 30
0.0
 11
6274.5795780464
 21
5380.0732984685
 31
0.0
  0
LINE
  5
35D
330
1F
100
AcDbEntity
  8
0
  6
Continuous
 62
     7
370
    25
100
AcDbLine
 10
6274.5795780464
 20
5380.0732984685
 30
0.0
 11
6274.5795780464
 21
5380.2226346901
 31
0.0
  0
ARC
  5
35E
330
1F
100
AcDbEntity
  8
0
  6
Continuous
 62
     7
370
    25
100
AcDbCircle
 10
6273.5795780464
 20
5381.3847829442
 30
0.0
 40
1.533162928297243
100
AcDbArc
 50
310.7111856769
 51
49.2888143231
  0
LINE
  5
35F
330
1F
100
AcDbEntity
  8
0
  6
Continuous
 62
     7
370
    25
100
AcDbLine
 10
6273.5795780464
 20
5384.98156601
 30
0.0
 11
6273.5795780464
 21
5381.9179458725
 31
0.0
  0
LINE
  5
360
330
1F
100
AcDbEntity
  8
0
  6
Continuous
 62
     7
370
    25
100
AcDbLine
 10
6274.5795780464
 20
5382.5469311984
 30
0.0
 11
6274.5795780464
 21
5384.9702532193
 31
0.0
  0
CIRCLE
  5
361
330
1F
100
AcDbEntity
  8
0
  6
Continuous
 62
     7
370
    25
100
AcDbCircle
 10
6274.0187553361
 20
5375.5994545927
 30
0.0
 40
11.0
  0
ARC
  5
362
330
1F
100
AcDbEntity
  8
0
  6
Continuous
 62
     7
370
    25
100
AcDbCircle
 10
6274.0187553361
 20
5379.5994545927
 30
0.0
 40
5.599999999999954
100
AcDbArc
 50
84.2523695851
 51
94.4980126049
  0
CIRCLE
  5
363
330
1F
100
AcDbEntity
  8
0
  6
Continuous
 62
     7
370
    25
100
AcDbCircle
 10
6274.0187553361
 20
5375.5994545927
 30
0.0
 40
12.0
  0
LINE
  5
364
330
1F
100
AcDbEntity
  8
0
  6
Continuous
 62
     7
370
    25
100
AcDbLine
 10
6387.0187553361
 20
5059.1994545927
 30
0.0
 11
6387.0187553361
 21
5399.2994545927
 31
0.0
  0
LINE
  5
365
330
1F
100
AcDbEntity
  8
0
  6
Continuous
 62
     7
370
    25
100
AcDbLine
 10
6387.0187553361
 20
5059.1994545927
 30
0.0
 11
6384.5187553361
 21
5059.1994545927
 31
0.0
  0
LINE
  5
366
330
1F
100
AcDbEntity
  8
0
  6
Continuous
 62
     7
370
    25
100
AcDbLine
 10
6384.5187553361
 20
5059.1994545927
 30
0.0
 11
6163.5187553361
 21
5059.1994545927
 31
0.0
  0
LINE
  5
367
330
1F
100
AcDbEntity
  8
0
  6
Continuous
 62
     7
370
    25
100
AcDbLine
 10
6161.0187553361
 20
5059.1994545927
 30
0.0
 11
6163.5187553361
 21
5059.1994545927
 31
0.0
  0
LINE
  5
368
330
1F
100
AcDbEntity
  8
0
  6
Continuous
 62
     7
370
    25
100
AcDbLine
 10
6161.0187553361
 20
5399.2994545927
 30
0.0
 11
6161.0187553361
 21
5059.1994545927
 31
0.0
  0
LINE
  5
369
330
1F
100
AcDbEntity
  8
0
  6
Continuous
 62
     7
370
    25
100
AcDbLine
 10
6387.0187553361
 20
5399.2994545927
 30
0.0
 11
6161.0187553361
 21
5399.2994545927
 31
0.0
  0
LINE
  5
36A
330
1F
100
AcDbEntity
  8
0
  6
Continuous
 62
     7
370
    25
100
AcDbLine
 10
6229.0187553361
 20
5237.8994545927
 30
0.0
 11
6229.0187553361
 21
5137.8994545927
 31
0.0
  0
ARC
  5
36B
330
1F
100
AcDbEntity
  8
0
  6
Continuous
 62
     7
370
    25
100
AcDbCircle
 10
6224.0187553361
 20
5237.8994545927
 30
0.0
 40
5.0
100
AcDbArc
 50
0.0
 51
180.0
  0
LINE
  5
36C
330
1F
100
AcDbEntity
  8
0
  6
Continuous
 62
     7
370
    25
100
AcDbLine
 10
6219.0187553361
 20
5237.8994545927
 30
0.0
 11
6219.0187553361
 21
5137.8994545927
 31
0.0
  0
ARC
  5
36D
330
1F
100
AcDbEntity
  8
0
  6
Continuous
 62
     7
370
    25
100
AcDbCircle
 10
6224.0187553361
 20
5137.8994545927
 30
0.0
 40
5.0
100
AcDbArc
 50
180.0
 51
0.0
  0
ARC
  5
36E
330
1F
100
AcDbEntity
  8
0
  6
Continuous
 62
     7
370
    25
100
AcDbCircle
 10
6165.5814723141
 20
5399.2390522717
 30
0.0
 40
4.56311677056682
100
AcDbArc
 50
162.6546746576
 51
179.2415492922
  0
LINE
  5
36F
330
1F
100
AcDbEntity
  8
0
  6
Continuous
 62
     7
370
    25
100
AcDbLine
 10
6161.2258621173
 20
5400.5994545927
 30
0.0
 11
6386.8116485549
 21
5400.5994545927
 31
0.0
  0
ARC
  5
370
330
1F
100
AcDbEntity
  8
0
  6
Continuous
 62
     7
370
    25
100
AcDbCircle
 10
6382.456038358
 20
5399.2390522716
 30
0.0
 40
4.56311677062869
100
AcDbArc
 50
0.7584507079
 51
17.3453253424
  0
LINE
  5
371
330
1F
100
AcDbEntity
  8
0
  6
Continuous
 62
     7
370
    25
100
AcDbLine
 10
6161.0187553361
 20
5059.1994545927
 30
0.0
 11
6159.7187553361
 21
5059.1994545927
 31
0.0
  0
LINE
  5
372
330
1F
100
AcDbEntity
  8
0
  6
Continuous
 62
     7
370
    25
100
AcDbLine
 10
6159.7187553361
 20
5059.1994545927
 30
0.0
 11
6159.7187553361
 21
5398.4923478115
 31
0.0
  0
LINE
  5
373
330
1F
100
AcDbEntity
  8
0
  6
Continuous
 62
     7
370
    25
100
AcDbLine
 10
6159.7187553361
 20
5399.0923478115
 30
0.0
 11
6159.7187553361
 21
5398.4923478115
 31
0.0
  0
ARC
  5
374
330
1F
100
AcDbEntity
  8
0
  6
Continuous
 62
     7
370
    25
100
AcDbCircle
 10
6161.0791576572
 20
5394.7367376147
 30
0.0
 40
4.563116770572114
100
AcDbArc
 50
90.7584507078
 51
107.3453253424
  0
LINE
  5
375
330
1F
100
AcDbEntity
  8
0
  6
Continuous
 62
     7
370
    25
100
AcDbLine
 10
6388.3187553361
 20
5399.0923478115
 30
0.0
 11
6388.3187553361
 21
5398.4923478115
 31
0.0
  0
LINE
  5
376
330
1F
100
AcDbEntity
  8
0
  6
Continuous
 62
     7
370
    25
100
AcDbLine
 10
6388.3187553361
 20
5059.1994545927
 30
0.0
 11
6388.3187553361
 21
5398.4923478115
 31
0.0
  0
LINE
  5
377
330
1F
100
AcDbEntity
  8
0
  6
Continuous
 62
     7
370
    25
100
AcDbLine
 10
6388.3187553361
 20
5059.1994545927
 30
0.0
 11
6387.0187553361
 21
5059.1994545927
 31
0.0
  0
ARC
  5
378
330
1F
100
AcDbEntity
  8
0
  6
Continuous
 62
     7
370
    25
100
AcDbCircle
 10
6386.958353015
 20
5394.7367376147
 30
0.0
 40
4.563116770573968
100
AcDbArc
 50
72.6546746576
 51
89.2415492922
  0
LINE
  5
379
330
1F
100
AcDbEntity
  8
0
  6
Continuous
 62
     7
370
    25
100
AcDbLine
 10
6384.5187553361
 20
5059.1994545927
 30
0.0
 11
6384.5187553361
 21
5057.8994545927
 31
0.0
  0
LINE
  5
37A
330
1F
100
AcDbEntity
  8
0
  6
Continuous
 62
     7
370
    25
100
AcDbLine
 10
6384.5187553361
 20
5057.8994545927
 30
0.0
 11
6163.5187553361
 21
5057.8994545927
 31
0.0
  0
LINE
  5
37B
330
1F
100
AcDbEntity
  8
0
  6
Continuous
 62
     7
370
    25
100
AcDbLine
 10
6163.5187553361
 20
5059.1994545927
 30
0.0
 11
6163.5187553361
 21
5057.8994545927
 31
0.0
  0
ARC
  5
37C
330
1F
100
AcDbEntity
  8
0
  6
Continuous
 62
     7
370
    25
100
AcDbCircle
 10
6161.0187553361
 20
5398.4923478115
 30
0.0
 40
1.300000000000182
100
AcDbArc
 50
90.0
 51
148.7078523361
  0
LINE
  5
37D
330
1F
100
AcDbEntity
  8
0
  6
Continuous
 62
     7
370
    25
100
AcDbLine
 10
6161.0700537761
 20
5399.7923478115
 30
0.0
 11
6161.0187553361
 21
5399.7923478115
 31
0.0
  0
ARC
  5
37E
330
1F
100
AcDbEntity
  8
0
  6
Continuous
 62
     7
370
    25
100
AcDbCircle
 10
6387.0187553361
 20
5398.4923478115
 30
0.0
 40
1.300000000000182
100
AcDbArc
 50
31.5452176143
 51
90.0
  0
LINE
  5
37F
330
1F
100
AcDbEntity
  8
0
  6
Continuous
 62
     7
370
    25
100
AcDbLine
 10
6387.0187553361
 20
5399.7923478115
 30
0.0
 11
6386.9674568961
 21
5399.7923478115
 31
0.0
  0
LINE
  5
380
330
1F
100
AcDbEntity
  8
0
  6
Continuous
 62
     7
370
    25
100
AcDbLine
 10
6384.5187553361
 20
5057.3994545927
 30
0.0
 11
6163.5187553361
 21
5057.3994545927
 31
0.0
  0
LINE
  5
381
330
1F
100
AcDbEntity
  8
0
  6
Continuous
 62
     7
370
    25
100
AcDbLine
 10
6163.5187553361
 20
5057.8994545927
 30
0.0
 11
6163.5187553361
 21
5057.3994545927
 31
0.0
  0
LINE
  5
382
330
1F
100
AcDbEntity
  8
0
  6
Continuous
 62
     7
370
    25
100
AcDbLine
 10
6384.5187553361
 20
5057.8994545927
 30
0.0
 11
6384.5187553361
 21
5057.3994545927
 31
0.0
  0
LINE
  5
383
330
1F
100
AcDbEntity
  8
0
  6
Continuous
 62
     7
370
    25
100
AcDbLine
 10
6384.5187553361
 20
5057.3994545927
 30
0.0
 11
6384.5187553361
 21
5040.6994545927
 31
0.0
  0
LINE
  5
384
330
1F
100
AcDbEntity
  8
0
  6
Continuous
 62
     7
370
    25
100
AcDbLine
 10
6384.5187553361
 20
5040.6994545927
 30
0.0
 11
6163.5187553361
 21
5040.6994545927
 31
0.0
  0
LINE
  5
385
330
1F
100
AcDbEntity
  8
0
  6
Continuous
 62
     7
370
    25
100
AcDbLine
 10
6163.5187553361
 20
5057.3994545927
 30
0.0
 11
6163.5187553361
 21
5040.6994545927
 31
0.0
  0
LINE
  5
386
330
1F
100
AcDbEntity
  8
0
  6
Continuous
 62
     7
370
    25
100
AcDbLine
 10
6163.5187553361
 20
5040.6994545927
 30
0.0
 11
6163.5187553361
 21
5037.8994545927
 31
0.0
  0
LINE
  5
387
330
1F
100
AcDbEntity
  8
0
  6
Continuous
 62
     7
370
    25
100
AcDbLine
 10
6384.5187553361
 20
5040.6994545927
 30
0.0
 11
6384.5187553361
 21
5037.8994545927
 31
0.0
  0
LINE
  5
388
330
1F
100
AcDbEntity
  8
0
  6
Continuous
 62
     7
370
    25
100
AcDbLine
 10
6164.3187553361
 20
5036.6994545927
 30
0.0
 11
6383.7187553361
 21
5036.6994545927
 31
0.0
  0
LINE
  5
389
330
1F
100
AcDbEntity
  8
0
  6
Continuous
 62
     7
370
    25
100
AcDbLine
 10
6164.3187553361
 20
5036.6994545927
 30
0.0
 11
6164.3187553361
 21
5037.8994545927
 31
0.0
  0
LINE
  5
38A
330
1F
100
AcDbEntity
  8
0
  6
Continuous
 62
     7
370
    25
100
AcDbLine
 10
6383.7187553361
 20
5036.6994545927
 30
0.0
 11
6383.7187553361
 21
5037.8994545927
 31
0.0
  0
LINE
  5
38B
330
1F
100
AcDbEntity
  8
0
  6
Continuous
 62
     7
370
    25
100
AcDbLine
 10
6164.3187553361
 20
5034.6994545927
 30
0.0
 11
6383.7187553361
 21
5034.6994545927
 31
0.0
  0
LINE
  5
38C
330
1F
100
AcDbEntity
  8
0
  6
Continuous
 62
     7
370
    25
100
AcDbLine
 10
6383.7187553361
 20
5034.6994545927
 30
0.0
 11
6383.7187553361
 21
5036.6994545927
 31
0.0
  0
LINE
  5
38D
330
1F
100
AcDbEntity
  8
0
  6
Continuous
 62
     7
370
    25
100
AcDbLine
 10
6164.3187553361
 20
5034.6994545927
 30
0.0
 11
6164.3187553361
 21
5036.6994545927
 31
0.0
  0
ARC
  5
38E
330
1F
100
AcDbEntity
  8
0
  6
Continuous
 62
     7
370
    25
100
AcDbCircle
 10
6164.3187553361
 20
5036.6994545927
 30
0.0
 40
0.5
100
AcDbArc
 50
180.0
 51
270.0
  0
ARC
  5
38F
330
1F
100
AcDbEntity
  8
0
  6
Continuous
 62
     7
370
    25
100
AcDbCircle
 10
6164.3187553361
 20
5036.6994545927
 30
0.0
 40
2.0
100
AcDbArc
 50
180.0
 51
270.0
  0
LINE
  5
390
330
1F
100
AcDbEntity
  8
0
  6
Continuous
 62
     7
370
    25
100
AcDbLine
 10
6163.2187553361
 20
5044.6994545927
 30
0.0
 11
6163.5187553361
 21
5044.6994545927
 31
0.0
  0
LINE
  5
391
330
1F
100
AcDbEntity
  8
0
  6
Continuous
 62
     7
370
    25
100
AcDbLine
 10
6163.8187553361
 20
5037.8994545927
 30
0.0
 11
6163.8187553361
 21
5036.6994545927
 31
0.0
  0
LINE
  5
392
330
1F
100
AcDbEntity
  8
0
  6
Continuous
 62
     7
370
    25
100
AcDbLine
 10
6384.8187553361
 20
5044.6994545927
 30
0.0
 11
6384.5187553361
 21
5044.6994545927
 31
0.0
  0
LINE
  5
393
330
1F
100
AcDbEntity
  8
0
  6
Continuous
 62
     7
370
    25
100
AcDbLine
 10
6384.2187553361
 20
5036.6994545927
 30
0.0
 11
6384.2187553361
 21
5037.8994545927
 31
0.0
  0
ARC
  5
394
330
1F
100
AcDbEntity
  8
0
  6
Continuous
 62
     7
370
    25
100
AcDbCircle
 10
6383.7187553361
 20
5036.6994545927
 30
0.0
 40
2.0
100
AcDbArc
 50
270.0
 51
0.0
  0
ARC
  5
395
330
1F
100
AcDbEntity
  8
0
  6
Continuous
 62
     7
370
    25
100
AcDbCircle
 10
6383.7187553361
 20
5036.6994545927
 30
0.0
 40
0.5
100
AcDbArc
 50
270.0
 51
0.0
  0
LINE
  5
396
330
1F
100
AcDbEntity
  8
0
  6
Continuous
 62
     7
370
    25
100
AcDbLine
 10
6163.2187553361
 20
5036.6994545927
 30
0.0
 11
6163.2187553361
 21
5059.1994545927
 31
0.0
  0
LINE
  5
397
330
1F
100
AcDbEntity
  8
0
  6
Continuous
 62
     7
370
    25
100
AcDbLine
 10
6163.2187553361
 20
5036.6994545927
 30
0.0
 11
6161.5187553361
 21
5036.6994545927
 31
0.0
  0
LINE
  5
398
330
1F
100
AcDbEntity
  8
0
  6
Continuous
 62
     7
370
    25
100
AcDbLine
 10
6161.5187553361
 20
5036.6994545927
 30
0.0
 11
6161.5187553361
 21
5059.1994545927
 31
0.0
  0
LINE
  5
399
330
1F
100
AcDbEntity
  8
0
  6
Continuous
 62
     7
370
    25
100
AcDbLine
 10
6386.5187553361
 20
5036.6994545927
 30
0.0
 11
6384.8187553361
 21
5036.6994545927
 31
0.0
  0
LINE
  5
39A
330
1F
100
AcDbEntity
  8
0
  6
Continuous
 62
     7
370
    25
100
AcDbLine
 10
6384.8187553361
 20
5059.1994545927
 30
0.0
 11
6384.8187553361
 21
5036.6994545927
 31
0.0
  0
LINE
  5
39B
330
1F
100
AcDbEntity
  8
0
  6
Continuous
 62
     7
370
    25
100
AcDbLine
 10
6386.5187553361
 20
5059.1994545927
 30
0.0
 11
6386.5187553361
 21
5036.6994545927
 31
0.0
  0
LINE
  5
39C
330
1F
100
AcDbEntity
  8
0
  6
Continuous
 62
     7
370
    25
100
AcDbLine
 10
6163.8187553361
 20
5036.6994545927
 30
0.0
 11
6164.3187553361
 21
5036.6994545927
 31
0.0
  0
LINE
  5
39D
330
1F
100
AcDbEntity
  8
0
  6
Continuous
 62
     7
370
    25
100
AcDbLine
 10
6383.7187553361
 20
5036.6994545927
 30
0.0
 11
6384.2187553361
 21
5036.6994545927
 31
0.0
  0
LINE
  5
39E
330
1F
100
AcDbEntity
  8
0
  6
Continuous
 62
     8
370
    25
100
AcDbLine
 10
6272.3605844125
 20
5031.4071290299
 30
0.0
 11
6273.0276954421
 21
5031.4071290299
 31
0.0
  0
LINE
  5
39F
330
1F
100
AcDbEntity
  8
0
  6
Continuous
 62
     8
370
    25
100
AcDbLine
 10
6275.0098152301
 20
5031.4071290299
 30
0.0
 11
6275.6769262597
 21
5031.4071290299
 31
0.0
  0
LINE
  5
3A0
330
1F
100
AcDbEntity
  8
0
  6
Continuous
 62
     8
370
    25
100
AcDbLine
 10
6161.0187553361
 20
5399.2994545927
 30
0.0
 11
6161.0187553361
 21
5399.7923478115
 31
0.0
  0
LINE
  5
3A1
330
1F
100
AcDbEntity
  8
0
  6
Continuous
 62
     8
370
    25
100
AcDbLine
 10
6387.0187553361
 20
5399.2994545927
 30
0.0
 11
6387.0187553361
 21
5399.7923478115
 31
0.0
  0
LINE
  5
3A2
330
1F
100
AcDbEntity
  8
0
  6
Continuous
 62
     8
370
    25
100
AcDbLine
 10
6163.8187553361
 20
5036.6994545927
 30
0.0
 11
6163.2187553361
 21
5036.6994545927
 31
0.0
  0
LINE
  5
3A3
330
1F
100
AcDbEntity
  8
0
  6
Continuous
 62
     8
370
    25
100
AcDbLine
 10
6384.2187553361
 20
5036.6994545927
 30
0.0
 11
6384.8187553361
 21
5036.6994545927
 31
0.0
  0
ARC
  5
3A4
330
1F
100
AcDbEntity
  8
0
  6
Continuous
 62
     7
370
    25
100
AcDbCircle
 10
6607.6359756186
 20
5035.8994545927
 30
0.0
 40
2.500000000000909
100
AcDbArc
 50
270.0
 51
331.3145979859
  0
ARC
  5
3A5
330
1F
100
AcDbEntity
  8
0
  6
Continuous
 62
     7
370
    25
100
AcDbCircle
 10
6592.5349551042
 20
5035.8994545927
 30
0.0
 40
2.500000000000909
100
AcDbArc
 50
208.6854020141
 51
270.0
  0
ARC
  5
3A6
330
1F
100
AcDbEntity
  8
0
  6
Continuous
 62
     7
370
    25
100
AcDbCircle
 10
6600.4354653614
 20
5363.7994545927
 30
0.0
 40
37.0
100
AcDbArc
 50
71.0753555839
 51
108.9246444161
  0
LINE
  5
3A7
330
1F
100
AcDbEntity
  8
0
  6
Continuous
 62
     7
370
    25
100
AcDbLine
 10
6591.9354653614
 20
5398.7994545927
 30
0.0
 11
6591.9354653614
 21
5397.9994545927
 31
0.0
  0
LINE
  5
3A8
330
1F
100
AcDbEntity
  8
0
  6
Continuous
 62
     7
370
    25
100
AcDbLine
 10
6608.9354653614
 20
5397.9994545927
 30
0.0
 11
6608.9354653614
 21
5398.7994545927
 31
0.0
  0
LINE
  5
3A9
330
1F
100
AcDbEntity
  8
0
  6
Continuous
 62
     7
370
    25
100
AcDbLine
 10
6736.6854653614
 20
5030.6194545927
 30
0.0
 11
6736.6854653614
 21
5031.6194545927
 31
0.0
  0
LINE
  5
3AA
330
1F
100
AcDbEntity
  8
0
  6
Continuous
 62
     7
370
    25
100
AcDbLine
 10
6732.0189885557
 20
5028.9351624615
 30
0.0
 11
6732.0854653614
 21
5028.5994545927
 31
0.0
  0
LINE
  5
3AB
330
1F
100
AcDbEntity
  8
0
  6
Continuous
 62
     7
370
    25
100
AcDbLine
 10
6736.2854653614
 20
5028.5994545927
 30
0.0
 11
6736.6854653614
 21
5030.6194545927
 31
0.0
  0
LINE
  5
3AC
330
1F
100
AcDbEntity
  8
0
  6
Continuous
 62
     7
370
    25
100
AcDbLine
 10
6732.0854653614
 20
5028.5994545927
 30
0.0
 11
6732.0854653614
 21
5027.5994545927
 31
0.0
  0
LINE
  5
3AD
330
1F
100
AcDbEntity
  8
0
  6
Continuous
 62
     7
370
    25
100
AcDbLine
 10
6736.2854653614
 20
5027.5994545927
 30
0.0
 11
6736.2854653614
 21
5028.5994545927
 31
0.0
  0
ARC
  5
3AE
330
1F
100
AcDbEntity
  8
0
  6
Continuous
 62
     7
370
    25
100
AcDbCircle
 10
6736.9354653614
 20
5032.4994545927
 30
0.0
 40
0.5000000000009095
100
AcDbArc
 50
270.0
 51
90.0
  0
ARC
  5
3AF
330
1F
100
AcDbEntity
  8
0
  6
Continuous
 62
     7
370
    25
100
AcDbCircle
 10
6730.4354653614
 20
5032.4994545927
 30
0.0
 40
0.5000000000009095
100
AcDbArc
 50
90.0
 51
270.0
  0
LINE
  5
3B0
330
1F
100
AcDbEntity
  8
0
  6
Continuous
 62
     7
370
    25
100
AcDbLine
 10
6736.9354653614
 20
5032.9994545927
 30
0.0
 11
6736.9354653614
 21
5034.6994545927
 31
0.0
  0
LINE
  5
3B1
330
1F
100
AcDbEntity
  8
0
  6
Continuous
 62
     7
370
    25
100
AcDbLine
 10
6730.4354653614
 20
5034.6994545927
 30
0.0
 11
6730.4354653614
 21
5032.9994545927
 31
0.0
  0
LINE
  5
3B2
330
1F
100
AcDbEntity
  8
0
  6
Continuous
 62
     7
370
    25
100
AcDbLine
 10
6736.9354653614
 20
5031.698746078
 30
0.0
 11
6736.9354653614
 21
5031.9994545927
 31
0.0
  0
LINE
  5
3B3
330
1F
100
AcDbEntity
  8
0
  6
Continuous
 62
     7
370
    25
100
AcDbLine
 10
6730.4354653614
 20
5031.9994545927
 30
0.0
 11
6730.4354653614
 21
5031.6994545927
 31
0.0
  0
LINE
  5
3B4
330
1F
100
AcDbEntity
  8
0
  6
Continuous
 62
     7
370
    25
100
AcDbLine
 10
6697.9354653614
 20
5034.6994545927
 30
0.0
 11
6697.9354653614
 21
5034.1994545927
 31
0.0
  0
LINE
  5
3B5
330
1F
100
AcDbEntity
  8
0
  6
Continuous
 62
     7
370
    25
100
AcDbLine
 10
6720.4354653614
 20
5034.1994545927
 30
0.0
 11
6720.4354653614
 21
5034.6994545927
 31
0.0
  0
LINE
  5
3B6
330
1F
100
AcDbEntity
  8
0
  6
Continuous
 62
     7
370
    25
100
AcDbLine
 10
6772.7079581981
 20
5123.5545507672
 30
0.0
 11
6772.6943478829
 21
5123.5545507672
 31
0.0
  0
LINE
  5
3B7
330
1F
100
AcDbEntity
  8
0
  6
Continuous
 62
     7
370
    25
100
AcDbLine
 10
6772.6192153614
 20
5389.5994545928
 30
0.0
 11
6772.5854653614
 21
5389.5994545928
 31
0.0
  0
LINE
  5
3B8
330
1F
100
AcDbEntity
  8
0
  6
Continuous
 62
     7
370
    25
100
AcDbLine
 10
6772.5854653614
 20
5363.5994545927
 30
0.0
 11
6773.6854653614
 21
5363.5994545927
 31
0.0
  0
LINE
  5
3B9
330
1F
100
AcDbEntity
  8
0
  6
Continuous
 62
     7
370
    25
100
AcDbLine
 10
6773.6854653614
 20
5387.5994545927
 30
0.0
 11
6772.5854653614
 21
5387.5994545927
 31
0.0
  0
LINE
  5
3BA
330
1F
100
AcDbEntity
  8
0
  6
Continuous
 62
     7
370
    25
100
AcDbLine
 10
6773.6854653614
 20
5363.5994545927
 30
0.0
 11
6774.6854653614
 21
5364.5994545927
 31
0.0
  0
LINE
  5
3BB
330
1F
100
AcDbEntity
  8
0
  6
Continuous
 62
     7
370
    25
100
AcDbLine
 10
6774.6854653614
 20
5386.5994545927
 30
0.0
 11
6773.6854653614
 21
5387.5994545927
 31
0.0
  0
ARC
  5
3BC
330
1F
100
AcDbEntity
  8
0
  6
Continuous
 62
     7
370
    25
100
AcDbCircle
 10
6774.6854653614
 20
5374.1994545927
 30
0.0
 40
0.1999999999998181
100
AcDbArc
 50
270.0
 51
0.0
  0
LINE
  5
3BD
330
1F
100
AcDbEntity
  8
0
  6
Continuous
 62
     7
370
    25
100
AcDbLine
 10
6771.2854653614
 20
5036.6994545927
 30
0.0
 11
6771.2854653614
 21
5059.1994545927
 31
0.0
  0
ARC
  5
3BE
330
1F
100
AcDbEntity
  8
0
  6
Continuous
 62
     7
370
    25
100
AcDbCircle
 10
6580.2854653614
 20
5283.9994545927
 30
0.0
 40
1.000000000000909
100
AcDbArc
 50
0.0
 51
90.0
  0
ARC
  5
3BF
330
1F
100
AcDbEntity
  8
0
  6
Continuous
 62
     7
370
    25
100
AcDbCircle
 10
6580.2854653614
 20
5305.9994545927
 30
0.0
 40
1.000000000000909
100
AcDbArc
 50
270.0
 51
0.0
  0
ARC
  5
3C0
330
1F
100
AcDbEntity
  8
0
  6
Continuous
 62
     7
370
    25
100
AcDbCircle
 10
6580.2854653614
 20
5106.9994545927
 30
0.0
 40
1.000000000000909
100
AcDbArc
 50
0.0
 51
90.0
  0
ARC
  5
3C1
330
1F
100
AcDbEntity
  8
0
  6
Continuous
 62
     7
370
    25
100
AcDbCircle
 10
6580.2854653614
 20
5128.9994545927
 30
0.0
 40
1.000000000000909
100
AcDbArc
 50
270.0
 51
0.0
  0
LINE
  5
3C2
330
1F
100
AcDbEntity
  8
0
  6
Continuous
 62
     7
370
    25
100
AcDbLine
 10
6580.2854653614
 20
5304.9994545927
 30
0.0
 11
6579.0854653614
 21
5304.9994545927
 31
0.0
  0
LINE
  5
3C3
330
1F
100
AcDbEntity
  8
0
  6
Continuous
 62
     7
370
    25
100
AcDbLine
 10
6579.0854653614
 20
5284.9994545927
 30
0.0
 11
6580.2854653614
 21
5284.9994545927
 31
0.0
  0
ARC
  5
3C4
330
1F
100
AcDbEntity
  8
0
  6
Continuous
 62
     7
370
    25
100
AcDbCircle
 10
6579.0854653614
 20
5302.9994545927
 30
0.0
 40
2.0
100
AcDbArc
 50
90.0
 51
180.0
  0
ARC
  5
3C5
330
1F
100
AcDbEntity
  8
0
  6
Continuous
 62
     7
370
    25
100
AcDbCircle
 10
6579.0854653614
 20
5286.9994545927
 30
0.0
 40
2.0
100
AcDbArc
 50
180.0
 51
270.0
  0
LINE
  5
3C6
330
1F
100
AcDbEntity
  8
0
  6
Continuous
 62
     7
370
    25
100
AcDbLine
 10
6580.2854653614
 20
5127.9994545927
 30
0.0
 11
6579.0854653614
 21
5127.9994545927
 31
0.0
  0
LINE
  5
3C7
330
1F
100
AcDbEntity
  8
0
  6
Continuous
 62
     7
370
    25
100
AcDbLine
 10
6579.0854653614
 20
5107.9994545927
 30
0.0
 11
6580.2854653614
 21
5107.9994545927
 31
0.0
  0
ARC
  5
3C8
330
1F
100
AcDbEntity
  8
0
  6
Continuous
 62
     7
370
    25
100
AcDbCircle
 10
6579.0854653614
 20
5125.9994545927
 30
0.0
 40
2.000000000000909
100
AcDbArc
 50
90.0
 51
180.0
  0
ARC
  5
3C9
330
1F
100
AcDbEntity
  8
0
  6
Continuous
 62
     7
370
    25
100
AcDbCircle
 10
6579.0854653614
 20
5109.9994545927
 30
0.0
 40
2.0
100
AcDbArc
 50
180.0
 51
270.0
  0
LINE
  5
3CA
330
1F
100
AcDbEntity
  8
0
  6
Continuous
 62
     7
370
    25
100
AcDbLine
 10
6607.6359756186
 20
5033.3994545927
 30
0.0
 11
6592.5349551042
 21
5033.3994545927
 31
0.0
  0
LINE
  5
3CB
330
1F
100
AcDbEntity
  8
0
  6
Continuous
 62
     7
370
    25
100
AcDbLine
 10
6588.4354653614
 20
5398.7994545927
 30
0.0
 11
6612.4354653614
 21
5398.7994545927
 31
0.0
  0
LINE
  5
3CC
330
1F
100
AcDbEntity
  8
0
  6
Continuous
 62
     7
370
    25
100
AcDbLine
 10
6736.1209846128
 20
5030.6194545927
 30
0.0
 11
6736.6854653614
 21
5030.6194545927
 31
0.0
  0
LINE
  5
3CD
330
1F
100
AcDbEntity
  8
0
  6
Continuous
 62
     7
370
    25
100
AcDbLine
 10
6735.1986590188
 20
5028.5994545927
 30
0.0
 11
6736.2854653614
 21
5028.5994545927
 31
0.0
  0
LINE
  5
3CE
330
1F
100
AcDbEntity
  8
0
  6
Continuous
 62
     7
370
    25
100
AcDbLine
 10
6732.0854653614
 20
5028.5994545927
 30
0.0
 11
6732.1722717039
 21
5028.5994545927
 31
0.0
  0
LINE
  5
3CF
330
1F
100
AcDbEntity
  8
0
  6
Continuous
 62
     7
370
    25
100
AcDbLine
 10
6734.7420621901
 20
5027.5994545927
 30
0.0
 11
6736.2854653614
 21
5027.5994545927
 31
0.0
  0
LINE
  5
3D0
330
1F
100
AcDbEntity
  8
0
  6
Continuous
 62
     7
370
    25
100
AcDbLine
 10
6732.0854653614
 20
5027.5994545927
 30
0.0
 11
6732.6288685327
 21
5027.5994545927
 31
0.0
  0
LINE
  5
3D1
330
1F
100
AcDbEntity
  8
0
  6
Continuous
 62
     7
370
    25
100
AcDbLine
 10
6736.9354653614
 20
5032.9994545927
 30
0.0
 11
6730.4354653614
 21
5032.9994545927
 31
0.0
  0
LINE
  5
3D2
330
1F
100
AcDbEntity
  8
0
  6
Continuous
 62
     7
370
    25
100
AcDbLine
 10
6736.9354653614
 20
5031.9994545927
 30
0.0
 11
6730.4354653614
 21
5031.9994545927
 31
0.0
  0
LINE
  5
3D3
330
1F
100
AcDbEntity
  8
0
  6
Continuous
 62
     7
370
    25
100
AcDbLine
 10
6730.8902964599
 20
5031.4071290299
 30
0.0
 11
6733.0854653614
 21
5026.5994545927
 31
0.0
  0
ARC
  5
3D4
330
1F
100
AcDbEntity
  8
0
  6
Continuous
 62
     7
370
    25
100
AcDbCircle
 10
6730.4354653614
 20
5031.1994545928
 30
0.0
 40
0.4999999999454303
100
AcDbArc
 50
24.5412886772
 51
90.0000000042
  0
ARC
  5
3D5
330
1F
100
AcDbEntity
  8
0
  6
Continuous
 62
     7
370
    25
100
AcDbCircle
 10
6736.9335505062
 20
5031.2012387542
 30
0.0
 40
0.4975177675384286
100
AcDbArc
 50
90.3712462879
 51
155.5540264069
  0
LINE
  5
3D6
330
1F
100
AcDbEntity
  8
0
  6
Continuous
 62
     7
370
    25
100
AcDbLine
 10
6734.2854653614
 20
5026.5994545927
 30
0.0
 11
6736.4806342629
 21
5031.4071290299
 31
0.0
  0
LINE
  5
3D7
330
1F
100
AcDbEntity
  8
0
  6
Continuous
 62
     7
370
    25
100
AcDbLine
 10
6734.2854653614
 20
5026.5994545927
 30
0.0
 11
6733.0854653614
 21
5026.5994545927
 31
0.0
  0
LINE
  5
3D8
330
1F
100
AcDbEntity
  8
0
  6
Continuous
 62
     7
370
    25
100
AcDbLine
 10
6720.4354653614
 20
5034.1994545927
 30
0.0
 11
6697.9354653614
 21
5034.1994545927
 31
0.0
  0
LINE
  5
3D9
330
1F
100
AcDbEntity
  8
0
  6
Continuous
 62
     7
370
    25
100
AcDbLine
 10
6772.6943478829
 20
5159.1988840835
 30
0.0
 11
6772.5854653614
 21
5159.1988840835
 31
0.0
  0
LINE
  5
3DA
330
1F
100
AcDbEntity
  8
0
  6
Continuous
 62
     7
370
    25
100
AcDbLine
 10
6772.6943478829
 20
5153.3746347648
 30
0.0
 11
6772.5854653614
 21
5153.3746347648
 31
0.0
  0
LINE
  5
3DB
330
1F
100
AcDbEntity
  8
0
  6
Continuous
 62
     7
370
    25
100
AcDbLine
 10
6772.6943478829
 20
5159.1988840835
 30
0.0
 11
6772.6943478829
 21
5153.3746347648
 31
0.0
  0
LINE
  5
3DC
330
1F
100
AcDbEntity
  8
0
  6
Continuous
 62
     7
370
    25
100
AcDbLine
 10
6772.6943478829
 20
5153.2753197557
 30
0.0
 11
6772.5854653614
 21
5153.2753197557
 31
0.0
  0
LINE
  5
3DD
330
1F
100
AcDbEntity
  8
0
  6
Continuous
 62
     7
370
    25
100
AcDbLine
 10
6772.6943478829
 20
5113.8969186492
 30
0.0
 11
6772.5854653614
 21
5113.8969186492
 31
0.0
  0
LINE
  5
3DE
330
1F
100
AcDbEntity
  8
0
  6
Continuous
 62
     7
370
    25
100
AcDbLine
 10
6772.6943478829
 20
5113.8969186492
 30
0.0
 11
6772.6943478829
 21
5101.3729535367
 31
0.0
  0
LINE
  5
3DF
330
1F
100
AcDbEntity
  8
0
  6
Continuous
 62
     7
370
    25
100
AcDbLine
 10
6772.6943478829
 20
5101.3729535367
 30
0.0
 11
6772.5854653614
 21
5101.3729535367
 31
0.0
  0
LINE
  5
3E0
330
1F
100
AcDbEntity
  8
0
  6
Continuous
 62
     7
370
    25
100
AcDbLine
 10
6772.6943478829
 20
5093.5714326733
 30
0.0
 11
6772.5854653614
 21
5093.5714326733
 31
0.0
  0
LINE
  5
3E1
330
1F
100
AcDbEntity
  8
0
  6
Continuous
 62
     7
370
    25
100
AcDbLine
 10
6772.6943478829
 20
5125.8313760197
 30
0.0
 11
6772.5854653614
 21
5125.8313760197
 31
0.0
  0
LINE
  5
3E2
330
1F
100
AcDbEntity
  8
0
  6
Continuous
 62
     7
370
    25
100
AcDbLine
 10
6772.6943478829
 20
5125.8313760197
 30
0.0
 11
6772.6943478829
 21
5114.5857420609
 31
0.0
  0
LINE
  5
3E3
330
1F
100
AcDbEntity
  8
0
  6
Continuous
 62
     7
370
    25
100
AcDbLine
 10
6772.6943478829
 20
5088.0871582447
 30
0.0
 11
6772.5854653614
 21
5088.0871582447
 31
0.0
  0
LINE
  5
3E4
330
1F
100
AcDbEntity
  8
0
  6
Continuous
 62
     7
370
    25
100
AcDbLine
 10
6772.6943478829
 20
5082.6126907841
 30
0.0
 11
6772.5854653614
 21
5082.6126907841
 31
0.0
  0
LINE
  5
3E5
330
1F
100
AcDbEntity
  8
0
  6
Continuous
 62
     7
370
    25
100
AcDbLine
 10
6772.6943478829
 20
5081.9352316625
 30
0.0
 11
6772.5854653614
 21
5081.9352316625
 31
0.0
  0
LINE
  5
3E6
330
1F
100
AcDbEntity
  8
0
  6
Continuous
 62
     7
370
    25
100
AcDbLine
 10
6772.6943478829
 20
5082.6126907841
 30
0.0
 11
6772.6943478829
 21
5081.9352316625
 31
0.0
  0
LINE
  5
3E7
330
1F
100
AcDbEntity
  8
0
  6
Continuous
 62
     7
370
    25
100
AcDbLine
 10
6772.6943478829
 20
5130.5777928572
 30
0.0
 11
6772.5854653614
 21
5130.5777928572
 31
0.0
  0
LINE
  5
3E8
330
1F
100
AcDbEntity
  8
0
  6
Continuous
 62
     7
370
    25
100
AcDbLine
 10
6772.6943478829
 20
5130.5777928572
 30
0.0
 11
6772.6943478829
 21
5130.4561875936
 31
0.0
  0
LINE
  5
3E9
330
1F
100
AcDbEntity
  8
0
  6
Continuous
 62
     7
370
    25
100
AcDbLine
 10
6772.6943478829
 20
5132.3025738929
 30
0.0
 11
6772.5854653614
 21
5132.3025738929
 31
0.0
  0
LINE
  5
3EA
330
1F
100
AcDbEntity
  8
0
  6
Continuous
 62
     7
370
    25
100
AcDbLine
 10
6772.6943478829
 20
5138.8259199292
 30
0.0
 11
6772.5854653614
 21
5138.8259199292
 31
0.0
  0
LINE
  5
3EB
330
1F
100
AcDbEntity
  8
0
  6
Continuous
 62
     7
370
    25
100
AcDbLine
 10
6772.6943478829
 20
5134.0001133509
 30
0.0
 11
6772.5854653614
 21
5134.0001133509
 31
0.0
  0
LINE
  5
3EC
330
1F
100
AcDbEntity
  8
0
  6
Continuous
 62
     7
370
    25
100
AcDbLine
 10
6772.6943478829
 20
5140.9323943855
 30
0.0
 11
6772.5854653614
 21
5140.9323943855
 31
0.0
  0
LINE
  5
3ED
330
1F
100
AcDbEntity
  8
0
  6
Continuous
 62
     7
370
    25
100
AcDbLine
 10
6772.6943478829
 20
5149.6190330258
 30
0.0
 11
6772.5854653614
 21
5149.6190330258
 31
0.0
  0
LINE
  5
3EE
330
1F
100
AcDbEntity
  8
0
  6
Continuous
 62
     7
370
    25
100
AcDbLine
 10
6772.6943478829
 20
5149.6190330258
 30
0.0
 11
6772.6943478829
 21
5140.9323943855
 31
0.0
  0
LINE
  5
3EF
330
1F
100
AcDbEntity
  8
0
  6
Continuous
 62
     7
370
    25
100
AcDbLine
 10
6772.6943478829
 20
5108.3298298243
 30
0.0
 11
6772.5854653614
 21
5108.3298298243
 31
0.0
  0
LINE
  5
3F0
330
1F
100
AcDbEntity
  8
0
  6
Continuous
 62
     7
370
    25
100
AcDbLine
 10
6772.6943478829
 20
5104.4135806099
 30
0.0
 11
6772.5854653614
 21
5104.4135806099
 31
0.0
  0
LINE
  5
3F1
330
1F
100
AcDbEntity
  8
0
  6
Continuous
 62
     7
370
    25
100
AcDbLine
 10
6772.6943478829
 20
5088.3142751699
 30
0.0
 11
6772.6943478829
 21
5087.7968408592
 31
0.0
  0
LINE
  5
3F2
330
1F
100
AcDbEntity
  8
0
  6
Continuous
 62
     7
370
    25
100
AcDbLine
 10
6772.6943478829
 20
5159.2981990926
 30
0.0
 11
6772.5854653614
 21
5159.2981990926
 31
0.0
  0
LINE
  5
3F3
330
1F
100
AcDbEntity
  8
0
  6
Continuous
 62
     7
370
    25
100
AcDbLine
 10
6772.6943478829
 20
5075.685374929
 30
0.0
 11
6772.5854653614
 21
5075.685374929
 31
0.0
  0
LINE
  5
3F4
330
1F
100
AcDbEntity
  8
0
  6
Continuous
 62
     7
370
    25
100
AcDbLine
 10
6772.6943478829
 20
5075.685374929
 30
0.0
 11
6772.6943478829
 21
5064.1982689118
 31
0.0
  0
LINE
  5
3F5
330
1F
100
AcDbEntity
  8
0
  6
Continuous
 62
     7
370
    25
100
AcDbLine
 10
6772.6943478829
 20
5064.1982689118
 30
0.0
 11
6772.5854653614
 21
5064.1982689118
 31
0.0
  0
LINE
  5
3F6
330
1F
100
AcDbEntity
  8
0
  6
Continuous
 62
     7
370
    25
100
AcDbLine
 10
6772.6154653614
 20
5387.8817201736
 30
0.0
 11
6772.5854653614
 21
5387.8817201736
 31
0.0
  0
LINE
  5
3F7
330
1F
100
AcDbEntity
  8
0
  6
Continuous
 62
     7
370
    25
100
AcDbLine
 10
6772.6154653614
 20
5390.4829604028
 30
0.0
 11
6772.5854653614
 21
5390.4829604028
 31
0.0
  0
LINE
  5
3F8
330
1F
100
AcDbEntity
  8
0
  6
Continuous
 62
     7
370
    25
100
AcDbLine
 10
6772.6154653614
 20
5390.4935687787
 30
0.0
 11
6772.5854653614
 21
5390.4935687787
 31
0.0
  0
CIRCLE
  5
3F9
330
1F
100
AcDbEntity
  8
0
  6
Continuous
 62
     7
370
    25
100
AcDbCircle
 10
6767.2854653614
 20
5040.6994545927
 30
0.0
 40
3.000000000000318
  0
LINE
  5
3FA
330
1F
100
AcDbEntity
  8
0
  6
Continuous
 62
     7
370
    25
100
AcDbLine
 10
6773.6854653614
 20
5363.5994545927
 30
0.0
 11
6773.6854653614
 21
5387.5994545927
 31
0.0
  0
LINE
  5
3FB
330
1F
100
AcDbEntity
  8
0
  6
Continuous
 62
     7
370
    25
100
AcDbLine
 10
6774.6854653614
 20
5386.5994545927
 30
0.0
 11
6774.6854653614
 21
5364.5994545927
 31
0.0
  0
ARC
  5
3FC
330
1F
100
AcDbEntity
  8
0
  6
Continuous
 62
     7
370
    25
100
AcDbCircle
 10
6774.6851766571
 20
5384.9819180929
 30
0.0
 40
0.2002890137542995
100
AcDbArc
 50
359.8992811871
 51
89.9174116286
  0
LINE
  5
3FD
330
1F
100
AcDbEntity
  8
0
  6
Continuous
 62
     7
370
    25
100
AcDbLine
 10
6774.8854653614
 20
5384.98156601
 30
0.0
 11
6774.8854653614
 21
5374.1994545927
 31
0.0
  0
LINE
  5
3FE
330
1F
100
AcDbEntity
  8
0
  6
Continuous
 62
     7
370
    25
100
AcDbLine
 10
6762.5854653614
 20
5398.4923478115
 30
0.0
 11
6762.5854653614
 21
5399.7923478115
 31
0.0
  0
LINE
  5
3FF
330
1F
100
AcDbEntity
  8
0
  6
Continuous
 62
     7
370
    25
100
AcDbLine
 10
6762.5854653614
 20
5399.7923478115
 30
0.0
 11
6771.2854653614
 21
5399.7923478115
 31
0.0
  0
LINE
  5
400
330
1F
100
AcDbEntity
  8
0
  6
Continuous
 62
     7
370
    25
100
AcDbLine
 10
6771.2854653614
 20
5399.7923478115
 30
0.0
 11
6771.2854653614
 21
5399.0923478115
 31
0.0
  0
LINE
  5
401
330
1F
100
AcDbEntity
  8
0
  6
Continuous
 62
     7
370
    25
100
AcDbLine
 10
6771.2854653614
 20
5398.4923478115
 30
0.0
 11
6762.5854653614
 21
5398.4923478115
 31
0.0
  0
LINE
  5
402
330
1F
100
AcDbEntity
  8
0
  6
Continuous
 62
     7
370
    25
100
AcDbLine
 10
6771.2854653614
 20
5059.1994545927
 30
0.0
 11
6765.5854653614
 21
5059.1994545927
 31
0.0
  0
LINE
  5
403
330
1F
100
AcDbEntity
  8
0
  6
Continuous
 62
     7
370
    25
100
AcDbLine
 10
6771.2854653614
 20
5059.1994545927
 30
0.0
 11
6771.2854653614
 21
5398.4923478115
 31
0.0
  0
LINE
  5
404
330
1F
100
AcDbEntity
  8
0
  6
Continuous
 62
     7
370
    25
100
AcDbLine
 10
6762.5854653614
 20
5062.1994545927
 30
0.0
 11
6762.5854653614
 21
5398.4923478115
 31
0.0
  0
ARC
  5
405
330
1F
100
AcDbEntity
  8
0
  6
Continuous
 62
     7
370
    25
100
AcDbCircle
 10
6765.5854653614
 20
5062.1994545927
 30
0.0
 40
3.0
100
AcDbArc
 50
180.0
 51
270.0
  0
LINE
  5
406
330
1F
100
AcDbEntity
  8
0
  6
Continuous
 62
     7
370
    25
100
AcDbLine
 10
6772.5854653614
 20
5059.1994545927
 30
0.0
 11
6771.2854653614
 21
5059.1994545927
 31
0.0
  0
ARC
  5
407
330
1F
100
AcDbEntity
  8
0
  6
Continuous
 62
     7
370
    25
100
AcDbCircle
 10
6771.2250630403
 20
5403.6550647894
 30
0.0
 40
4.563116770470054
100
AcDbArc
 50
270.7584507076
 51
287.3453253426
  0
LINE
  5
408
330
1F
100
AcDbEntity
  8
0
  6
Continuous
 62
     7
370
    25
100
AcDbLine
 10
6772.5854653614
 20
5399.2994545927
 30
0.0
 11
6772.5854653614
 21
5059.1994545927
 31
0.0
  0
LINE
  5
409
330
1F
100
AcDbEntity
  8
0
  6
Continuous
 62
     7
370
    25
100
AcDbLine
 10
6771.2854653614
 20
5399.0923478115
 30
0.0
 11
6771.2854653614
 21
5398.4923478115
 31
0.0
  0
LINE
  5
40A
330
1F
100
AcDbEntity
  8
0
  6
Continuous
 62
     7
370
    25
100
AcDbLine
 10
6771.7854653614
 20
5399.2994545927
 30
0.0
 11
6772.5854653614
 21
5399.2994545927
 31
0.0
  0
ARC
  5
40B
330
1F
100
AcDbEntity
  8
0
  6
Continuous
 62
     7
370
    25
100
AcDbCircle
 10
6771.2171750779
 20
5399.9643219212
 30
0.0
 40
0.8746441624031515
100
AcDbArc
 50
274.4780855797
 51
310.5219144204
  0
LINE
  5
40C
330
1F
100
AcDbEntity
  8
0
  6
Continuous
 62
     7
370
    25
100
AcDbLine
 10
6771.2854653614
 20
5399.7994545927
 30
0.0
 11
6771.2854653614
 21
5400.5994545927
 31
0.0
  0
ARC
  5
40D
330
1F
100
AcDbEntity
  8
0
  6
Continuous
 62
     7
370
    25
100
AcDbCircle
 10
6771.2854653614
 20
5399.2994545927
 30
0.0
 40
1.299999999999272
100
AcDbArc
 50
0.0
 51
90.0000000001
  0
ARC
  5
40E
330
1F
100
AcDbEntity
  8
0
  6
Continuous
 62
     7
370
    25
100
AcDbCircle
 10
6771.2854653614
 20
5399.2994545927
 30
0.0
 40
0.499999999998181
100
AcDbArc
 50
359.9999999999
 51
90.0000000002
  0
LINE
  5
40F
330
1F
100
AcDbEntity
  8
0
  6
Continuous
 62
     7
370
    25
100
AcDbLine
 10
6771.2854653614
 20
5399.7994545927
 30
0.0
 11
6762.5854653614
 21
5399.7994545927
 31
0.0
  0
LINE
  5
410
330
1F
100
AcDbEntity
  8
0
  6
Continuous
 62
     7
370
    25
100
AcDbLine
 10
6771.2854653614
 20
5400.5994545927
 30
0.0
 11
6762.5854653614
 21
5400.5994545927
 31
0.0
  0
LINE
  5
411
330
1F
100
AcDbEntity
  8
0
  6
Continuous
 62
     7
370
    25
100
AcDbLine
 10
6762.5854653614
 20
5400.5994545927
 30
0.0
 11
6762.5854653614
 21
5399.7994545927
 31
0.0
  0
LINE
  5
412
330
1F
100
AcDbEntity
  8
0
  6
Continuous
 62
     7
370
    25
100
AcDbLine
 10
6771.2854653614
 20
5057.8994545927
 30
0.0
 11
6771.2854653614
 21
5058.6994545927
 31
0.0
  0
ARC
  5
413
330
1F
100
AcDbEntity
  8
0
  6
Continuous
 62
     7
370
    25
100
AcDbCircle
 10
6771.2854653614
 20
5059.1994545927
 30
0.0
 40
1.300000000000182
100
AcDbArc
 50
270.0
 51
0.0
  0
ARC
  5
414
330
1F
100
AcDbEntity
  8
0
  6
Continuous
 62
     7
370
    25
100
AcDbCircle
 10
6771.2854653614
 20
5059.1994545927
 30
0.0
 40
0.5
100
AcDbArc
 50
270.0
 51
0.0
  0
LINE
  5
415
330
1F
100
AcDbEntity
  8
0
  6
Continuous
 62
     7
370
    25
100
AcDbLine
 10
6585.0854653614
 20
5034.6994545927
 30
0.0
 11
6585.0854653614
 21
5036.6994545927
 31
0.0
  0
LINE
  5
416
330
1F
100
AcDbEntity
  8
0
  6
Continuous
 62
     7
370
    25
100
AcDbLine
 10
6757.1854653614
 20
5036.6994545927
 30
0.0
 11
6757.1854653614
 21
5034.6994545927
 31
0.0
  0
LINE
  5
417
330
1F
100
AcDbEntity
  8
0
  6
Continuous
 62
     7
370
    25
100
AcDbLine
 10
6585.0854653614
 20
5034.6994545927
 30
0.0
 11
6757.1854653614
 21
5034.6994545927
 31
0.0
  0
ARC
  5
418
330
1F
100
AcDbEntity
  8
0
  6
Continuous
 62
     7
370
    25
100
AcDbCircle
 10
6757.1854653614
 20
5036.6994545927
 30
0.0
 40
2.000000000000909
100
AcDbArc
 50
270.0
 51
0.0
  0
ARC
  5
419
330
1F
100
AcDbEntity
  8
0
  6
Continuous
 62
     7
370
    25
100
AcDbCircle
 10
6757.1854653614
 20
5036.6994545927
 30
0.0
 40
0.5000000000009095
100
AcDbArc
 50
270.0
 51
0.0
  0
LINE
  5
41A
330
1F
100
AcDbEntity
  8
0
  6
Continuous
 62
     7
370
    25
100
AcDbLine
 10
6584.0854653614
 20
5034.6994545927
 30
0.0
 11
6584.0854653614
 21
5036.1994545927
 31
0.0
  0
LINE
  5
41B
330
1F
100
AcDbEntity
  8
0
  6
Continuous
 62
     7
370
    25
100
AcDbLine
 10
6585.0854653614
 20
5034.6994545927
 30
0.0
 11
6584.0854653614
 21
5034.6994545927
 31
0.0
  0
LINE
  5
41C
330
1F
100
AcDbEntity
  8
0
  6
Continuous
 62
     7
370
    25
100
AcDbLine
 10
6584.0854653614
 20
5036.1994545927
 30
0.0
 11
6585.0854653614
 21
5036.1994545927
 31
0.0
  0
ARC
  5
41D
330
1F
100
AcDbEntity
  8
0
  6
Continuous
 62
     7
370
    25
100
AcDbCircle
 10
6584.0854653614
 20
5036.6994545927
 30
0.0
 40
2.000000000000909
100
AcDbArc
 50
180.0
 51
270.0
  0
ARC
  5
41E
330
1F
100
AcDbEntity
  8
0
  6
Continuous
 62
     7
370
    25
100
AcDbCircle
 10
6584.0854653614
 20
5036.6994545927
 30
0.0
 40
0.5000000000009095
100
AcDbArc
 50
180.0
 51
270.0
  0
LINE
  5
41F
330
1F
100
AcDbEntity
  8
0
  6
Continuous
 62
     7
370
    25
100
AcDbLine
 10
6583.3854653614
 20
5397.1994545927
 30
0.0
 11
6583.3854653614
 21
5397.9994545927
 31
0.0
  0
ARC
  5
420
330
1F
100
AcDbEntity
  8
0
  6
Continuous
 62
     7
370
    25
100
AcDbCircle
 10
6579.0298551646
 20
5396.6390522717
 30
0.0
 40
4.563116770508006
100
AcDbArc
 50
0.7584507077
 51
17.3453253425
  0
ARC
  5
421
330
1F
100
AcDbEntity
  8
0
  6
Continuous
 62
     7
370
    25
100
AcDbCircle
 10
6582.7205980329
 20
5396.6311643093
 30
0.0
 40
0.8746441624036698
100
AcDbArc
 50
4.4780855797
 51
40.5219144203
  0
LINE
  5
422
330
1F
100
AcDbEntity
  8
0
  6
Continuous
 62
     7
370
    25
100
AcDbLine
 10
6583.3854653614
 20
5397.9994545927
 30
0.0
 11
6762.5854653614
 21
5397.9994545927
 31
0.0
  0
ARC
  5
423
330
1F
100
AcDbEntity
  8
0
  6
Continuous
 62
     7
370
    25
100
AcDbCircle
 10
6583.3854653614
 20
5396.6994545927
 30
0.0
 40
0.4999999999990905
100
AcDbArc
 50
89.9999999998
 51
180.0
  0
ARC
  5
424
330
1F
100
AcDbEntity
  8
0
  6
Continuous
 62
     7
370
    25
100
AcDbCircle
 10
6583.3854653614
 20
5396.6994545927
 30
0.0
 40
1.299999999999272
100
AcDbArc
 50
89.9999999999
 51
180.0
  0
LINE
  5
425
330
1F
100
AcDbEntity
  8
0
  6
Continuous
 62
     7
370
    25
100
AcDbLine
 10
6582.5854653614
 20
5396.6994545927
 30
0.0
 11
6582.5854653614
 21
5036.6994545927
 31
0.0
  0
LINE
  5
426
330
1F
100
AcDbEntity
  8
0
  6
Continuous
 62
     7
370
    25
100
AcDbLine
 10
6762.5854653614
 20
5396.6994545927
 30
0.0
 11
6582.5854653614
 21
5396.6994545927
 31
0.0
  0
LINE
  5
427
330
1F
100
AcDbEntity
  8
0
  6
Continuous
 62
     7
370
    25
100
AcDbLine
 10
6770.4354653614
 20
5036.6994545927
 30
0.0
 11
6582.5854653614
 21
5036.6994545927
 31
0.0
  0
LINE
  5
428
330
1F
100
AcDbEntity
  8
0
  6
Continuous
 62
     7
370
    25
100
AcDbLine
 10
6581.2854653614
 20
5396.6994545927
 30
0.0
 11
6581.2854653614
 21
5036.6994545927
 31
0.0
  0
LINE
  5
429
330
1F
100
AcDbEntity
  8
0
  6
Continuous
 62
     7
370
    25
100
AcDbLine
 10
6582.5854653614
 20
5036.6994545927
 30
0.0
 11
6581.2854653614
 21
5036.6994545927
 31
0.0
  0
LINE
  5
42A
330
1F
100
AcDbEntity
  8
0
  6
Continuous
 62
     7
370
    25
100
AcDbLine
 10
6582.5854653614
 20
5396.6994545927
 30
0.0
 11
6581.2854653614
 21
5396.6994545927
 31
0.0
  0
LINE
  5
42B
330
1F
100
AcDbEntity
  8
0
  6
Continuous
 62
     7
370
    25
100
AcDbLine
 10
6771.2854653614
 20
5036.6994545927
 30
0.0
 11
6770.4354653614
 21
5036.6994545927
 31
0.0
  0
LINE
  5
42C
330
1F
100
AcDbEntity
  8
0
  6
Continuous
 62
     7
370
    25
100
AcDbLine
 10
6577.0854653614
 20
5286.9994545927
 30
0.0
 11
6577.0854653614
 21
5302.9994545927
 31
0.0
  0
LINE
  5
42D
330
1F
100
AcDbEntity
  8
0
  6
Continuous
 62
     7
370
    25
100
AcDbLine
 10
6577.0854653614
 20
5109.9994545927
 30
0.0
 11
6577.0854653614
 21
5125.9994545927
 31
0.0
  0
LINE
  5
42E
330
1F
100
AcDbEntity
  8
0
  6
Continuous
 62
     8
370
    25
100
AcDbLine
 10
6770.4354653614
 20
5036.6994545927
 30
0.0
 11
6770.4354653614
 21
5059.1994545927
 31
0.0
  0
LINE
  5
42F
330
1F
100
AcDbEntity
  8
0
  6
Continuous
 62
     8
370
    25
100
AcDbLine
 10
6580.2854653614
 20
5294.9994545927
 30
0.0
 11
6580.2854653614
 21
5304.9994545927
 31
0.0
  0
LINE
  5
430
330
1F
100
AcDbEntity
  8
0
  6
Continuous
 62
     8
370
    25
100
AcDbLine
 10
6580.2854653614
 20
5284.9994545927
 30
0.0
 11
6580.2854653614
 21
5294.9994545927
 31
0.0
  0
LINE
  5
431
330
1F
100
AcDbEntity
  8
0
  6
Continuous
 62
     8
370
    25
100
AcDbLine
 10
6580.2854653614
 20
5117.9994545927
 30
0.0
 11
6580.2854653614
 21
5127.9994545927
 31
0.0
  0
LINE
  5
432
330
1F
100
AcDbEntity
  8
0
  6
Continuous
 62
     8
370
    25
100
AcDbLine
 10
6580.2854653614
 20
5107.9994545927
 30
0.0
 11
6580.2854653614
 21
5117.9994545927
 31
0.0
  0
LINE
  5
433
330
1F
100
AcDbEntity
  8
0
  6
Continuous
 62
     8
370
    25
100
AcDbLine
 10
6579.0854653614
 20
5304.9994545927
 30
0.0
 11
6579.0854653614
 21
5284.9994545927
 31
0.0
  0
LINE
  5
434
330
1F
100
AcDbEntity
  8
0
  6
Continuous
 62
     8
370
    25
100
AcDbLine
 10
6579.0854653614
 20
5127.9994545927
 30
0.0
 11
6579.0854653614
 21
5107.9994545927
 31
0.0
  0
LINE
  5
435
330
1F
100
AcDbEntity
  8
0
  6
Continuous
 62
     7
370
    25
100
AcDbLine
 10
6249.1618224148
 20
4687.3152583137
 30
0.0
 11
6249.1618224148
 21
4687.3016479985
 31
0.0
  0
LINE
  5
436
330
1F
100
AcDbEntity
  8
0
  6
Continuous
 62
     7
370
    25
100
AcDbLine
 10
6298.8769017704
 20
4687.3016479985
 30
0.0
 11
6298.8769017704
 21
4687.3152583137
 31
0.0
  0
LINE
  5
437
330
1F
100
AcDbEntity
  8
0
  6
Continuous
 62
     7
370
    25
100
AcDbLine
 10
6376.6676624728
 20
4687.3903908351
 30
0.0
 11
6376.6676624728
 21
4687.4241408351
 31
0.0
  0
LINE
  5
438
330
1F
100
AcDbEntity
  8
0
  6
Continuous
 62
     7
370
    25
100
AcDbLine
 10
6376.7087310097
 20
4687.3903908351
 30
0.0
 11
6376.7087310097
 21
4687.4241408351
 31
0.0
  0
LINE
  5
439
330
1F
100
AcDbEntity
  8
0
  6
Continuous
 62
     7
370
    25
100
AcDbLine
 10
6365.4320280535
 20
4687.3941408351
 30
0.0
 11
6365.4320280535
 21
4687.3903908351
 31
0.0
  0
LINE
  5
43A
330
1F
100
AcDbEntity
  8
0
  6
Continuous
 62
     7
370
    25
100
AcDbLine
 10
6362.7924122434
 20
4687.3903908351
 30
0.0
 11
6362.7924122434
 21
4687.3941408351
 31
0.0
  0
LINE
  5
43B
330
1F
100
AcDbEntity
  8
0
  6
Continuous
 62
     7
370
    25
100
AcDbLine
 10
6362.5843858451
 20
4687.3903908351
 30
0.0
 11
6362.5843858451
 21
4687.3941408351
 31
0.0
  0
LINE
  5
43C
330
1F
100
AcDbEntity
  8
0
  6
Continuous
 62
     7
370
    25
100
AcDbLine
 10
6362.7537503541
 20
4687.3903908351
 30
0.0
 11
6362.7537503541
 21
4687.3941408351
 31
0.0
  0
LINE
  5
43D
330
1F
100
AcDbEntity
  8
0
  6
Continuous
 62
     7
370
    25
100
AcDbLine
 10
6358.6433683951
 20
4687.3903908351
 30
0.0
 11
6358.6433683951
 21
4687.3941408351
 31
0.0
  0
LINE
  5
43E
330
1F
100
AcDbEntity
  8
0
  6
Continuous
 62
     7
370
    25
100
AcDbLine
 10
6357.0302096467
 20
4687.3941408351
 30
0.0
 11
6357.0302096467
 21
4687.3903908351
 31
0.0
  0
LINE
  5
43F
330
1F
100
AcDbEntity
  8
0
  6
Continuous
 62
     7
370
    25
100
AcDbLine
 10
6357.0888759573
 20
4687.3903908351
 30
0.0
 11
6357.0888759573
 21
4687.3941408351
 31
0.0
  0
LINE
  5
440
330
1F
100
AcDbEntity
  8
0
  6
Continuous
 62
     7
370
    25
100
AcDbLine
 10
6358.774595288
 20
4687.3903908351
 30
0.0
 11
6358.774595288
 21
4687.3941408351
 31
0.0
  0
LINE
  5
441
330
1F
100
AcDbEntity
  8
0
  6
Continuous
 62
     7
370
    25
100
AcDbLine
 10
6356.6768546995
 20
4687.3941408351
 30
0.0
 11
6356.6768546995
 21
4687.3903908351
 31
0.0
  0
LINE
  5
442
330
1F
100
AcDbEntity
  8
0
  6
Continuous
 62
     7
370
    25
100
AcDbLine
 10
6367.1406373573
 20
4687.3903908351
 30
0.0
 11
6367.1406373573
 21
4687.3941408351
 31
0.0
  0
LINE
  5
443
330
1F
100
AcDbEntity
  8
0
  6
Continuous
 62
     7
370
    25
100
AcDbLine
 10
6367.0921445928
 20
4687.3903908351
 30
0.0
 11
6367.0921445928
 21
4687.3941408351
 31
0.0
  0
LINE
  5
444
330
1F
100
AcDbEntity
  8
0
  6
Continuous
 62
     7
370
    25
100
AcDbLine
 10
6365.8326528086
 20
4687.3941408351
 30
0.0
 11
6365.8326528086
 21
4687.3903908351
 31
0.0
  0
LINE
  5
445
330
1F
100
AcDbEntity
  8
0
  6
Continuous
 62
     7
370
    25
100
AcDbLine
 10
6355.5916238989
 20
4687.3903908351
 30
0.0
 11
6355.5916238989
 21
4687.3941408351
 31
0.0
  0
LINE
  5
446
330
1F
100
AcDbEntity
  8
0
  6
Continuous
 62
     7
370
    25
100
AcDbLine
 10
6354.0419392077
 20
4687.3941408351
 30
0.0
 11
6354.0419392077
 21
4687.3903908351
 31
0.0
  0
LINE
  5
447
330
1F
100
AcDbEntity
  8
0
  6
Continuous
 62
     7
370
    25
100
AcDbLine
 10
6361.0390978373
 20
4687.3903908351
 30
0.0
 11
6361.0390978373
 21
4687.3941408351
 31
0.0
  0
LINE
  5
448
330
1F
100
AcDbEntity
  8
0
  6
Continuous
 62
     7
370
    25
100
AcDbLine
 10
6360.4917713932
 20
4687.3941408351
 30
0.0
 11
6360.4917713932
 21
4687.3903908351
 31
0.0
  0
LINE
  5
449
330
1F
100
AcDbEntity
  8
0
  6
Continuous
 62
     7
370
    25
100
AcDbLine
 10
6361.5469843101
 20
4687.3903908351
 30
0.0
 11
6361.5469843101
 21
4687.3941408351
 31
0.0
  0
LINE
  5
44A
330
1F
100
AcDbEntity
  8
0
  6
Continuous
 62
     7
370
    25
100
AcDbLine
 10
6360.2061398075
 20
4687.3903908351
 30
0.0
 11
6360.2061398075
 21
4687.3941408351
 31
0.0
  0
LINE
  5
44B
330
1F
100
AcDbEntity
  8
0
  6
Continuous
 62
     7
370
    25
100
AcDbLine
 10
6360.1576470429
 20
4687.3903908351
 30
0.0
 11
6360.1576470429
 21
4687.3941408351
 31
0.0
  0
LINE
  5
44C
330
1F
100
AcDbEntity
  8
0
  6
Continuous
 62
     7
370
    25
100
AcDbLine
 10
6358.8981552588
 20
4687.3941408351
 30
0.0
 11
6358.8981552588
 21
4687.3903908351
 31
0.0
  0
LINE
  5
44D
330
1F
100
AcDbEntity
  8
0
  6
Continuous
 62
     7
370
    25
100
AcDbLine
 10
6370.6642161449
 20
4687.3903908351
 30
0.0
 11
6370.6642161449
 21
4687.4241408351
 31
0.0
  0
LINE
  5
44E
330
1F
100
AcDbEntity
  8
0
  6
Continuous
 62
     7
370
    25
100
AcDbLine
 10
6262.0187553361
 20
4687.4241408351
 30
0.0
 11
6262.0187553361
 21
4686.3241408351
 31
0.0
  0
LINE
  5
44F
330
1F
100
AcDbEntity
  8
0
  6
Continuous
 62
     7
370
    25
100
AcDbLine
 10
6286.0187553361
 20
4686.3241408351
 30
0.0
 11
6286.0187553361
 21
4687.4241408351
 31
0.0
  0
LINE
  5
450
330
1F
100
AcDbEntity
  8
0
  6
Continuous
 62
     7
370
    25
100
AcDbLine
 10
6262.0187553361
 20
4686.3241408351
 30
0.0
 11
6263.0187553361
 21
4685.3241408352
 31
0.0
  0
LINE
  5
451
330
1F
100
AcDbEntity
  8
0
  6
Continuous
 62
     7
370
    25
100
AcDbLine
 10
6285.0187553361
 20
4685.3241408352
 30
0.0
 11
6286.0187553361
 21
4686.3241408351
 31
0.0
  0
ARC
  5
452
330
1F
100
AcDbEntity
  8
0
  6
Continuous
 62
     7
370
    25
100
AcDbCircle
 10
6279.4187553361
 20
4685.3241408352
 30
0.0
 40
0.2000000000007276
100
AcDbArc
 50
270.0
 51
0.0
  0
ARC
  5
453
330
1F
100
AcDbEntity
  8
0
  6
Continuous
 62
     7
370
    25
100
AcDbCircle
 10
6268.6187553361
 20
4685.3241408352
 30
0.0
 40
0.2000000000007276
100
AcDbArc
 50
180.0
 51
270.0
  0
LINE
  5
454
330
1F
100
AcDbEntity
  8
0
  6
Continuous
 62
     7
370
    25
100
AcDbLine
 10
6274.1127409747
 20
4685.1241408351
 30
0.0
 11
6274.1127409747
 21
4685.3241408352
 31
0.0
  0
ARC
  5
455
330
1F
100
AcDbEntity
  8
0
  6
Continuous
 62
     7
370
    25
100
AcDbCircle
 10
6338.0187553361
 20
4879.7241408351
 30
0.0
 40
1.0
100
AcDbArc
 50
270.0
 51
0.0
  0
ARC
  5
456
330
1F
100
AcDbEntity
  8
0
  6
Continuous
 62
     7
370
    25
100
AcDbCircle
 10
6360.0187553361
 20
4879.7241408351
 30
0.0
 40
1.0
100
AcDbArc
 50
180.0
 51
270.0
  0
ARC
  5
457
330
1F
100
AcDbEntity
  8
0
  6
Continuous
 62
     7
370
    25
100
AcDbCircle
 10
6188.0187553361
 20
4879.7241408351
 30
0.0
 40
1.0
100
AcDbArc
 50
270.0
 51
0.0
  0
ARC
  5
458
330
1F
100
AcDbEntity
  8
0
  6
Continuous
 62
     7
370
    25
100
AcDbCircle
 10
6210.0187553361
 20
4879.7241408351
 30
0.0
 40
1.0
100
AcDbArc
 50
180.0
 51
270.0
  0
ARC
  5
459
330
1F
100
AcDbEntity
  8
0
  6
Continuous
 62
     7
370
    25
100
AcDbCircle
 10
6357.0187553361
 20
4880.9241408351
 30
0.0
 40
2.0
100
AcDbArc
 50
0.0
 51
90.0
  0
ARC
  5
45A
330
1F
100
AcDbEntity
  8
0
  6
Continuous
 62
     7
370
    25
100
AcDbCircle
 10
6341.0187553361
 20
4880.9241408351
 30
0.0
 40
2.0
100
AcDbArc
 50
90.0
 51
180.0
  0
ARC
  5
45B
330
1F
100
AcDbEntity
  8
0
  6
Continuous
 62
     7
370
    25
100
AcDbCircle
 10
6207.0187553361
 20
4880.9241408351
 30
0.0
 40
2.0
100
AcDbArc
 50
0.0
 51
90.0
  0
ARC
  5
45C
330
1F
100
AcDbEntity
  8
0
  6
Continuous
 62
     7
370
    25
100
AcDbCircle
 10
6191.0187553361
 20
4880.9241408351
 30
0.0
 40
2.0
100
AcDbArc
 50
90.0
 51
180.0
  0
LINE
  5
45D
330
1F
100
AcDbEntity
  8
0
  6
Continuous
 62
     7
370
    25
100
AcDbLine
 10
6209.0187553361
 20
4879.7241408351
 30
0.0
 11
6209.0187553361
 21
4880.9241408351
 31
0.0
  0
LINE
  5
45E
330
1F
100
AcDbEntity
  8
0
  6
Continuous
 62
     7
370
    25
100
AcDbLine
 10
6189.0187553361
 20
4880.9241408351
 30
0.0
 11
6189.0187553361
 21
4879.7241408351
 31
0.0
  0
LINE
  5
45F
330
1F
100
AcDbEntity
  8
0
  6
Continuous
 62
     7
370
    25
100
AcDbLine
 10
6359.0187553361
 20
4879.7241408351
 30
0.0
 11
6359.0187553361
 21
4880.9241408351
 31
0.0
  0
LINE
  5
460
330
1F
100
AcDbEntity
  8
0
  6
Continuous
 62
     7
370
    25
100
AcDbLine
 10
6339.0187553361
 20
4880.9241408351
 30
0.0
 11
6339.0187553361
 21
4879.7241408351
 31
0.0
  0
CIRCLE
  5
461
330
1F
100
AcDbEntity
  8
0
  6
Continuous
 62
     7
370
    25
100
AcDbCircle
 10
6367.2187553361
 20
4859.5741408351
 30
0.0
 40
11.99999999999909
  0
LINE
  5
462
330
1F
100
AcDbEntity
  8
0
  6
Continuous
 62
     7
370
    25
100
AcDbLine
 10
6250.631004691
 20
4687.3152583137
 30
0.0
 11
6250.631004691
 21
4687.4241408351
 31
0.0
  0
LINE
  5
463
330
1F
100
AcDbEntity
  8
0
  6
Continuous
 62
     7
370
    25
100
AcDbLine
 10
6250.631004691
 20
4687.3152583137
 30
0.0
 11
6248.3624817638
 21
4687.3152583137
 31
0.0
  0
LINE
  5
464
330
1F
100
AcDbEntity
  8
0
  6
Continuous
 62
     7
370
    25
100
AcDbLine
 10
6248.3624817638
 20
4687.3152583137
 30
0.0
 11
6248.3624817638
 21
4687.4241408351
 31
0.0
  0
LINE
  5
465
330
1F
100
AcDbEntity
  8
0
  6
Continuous
 62
     7
370
    25
100
AcDbLine
 10
6251.8744659648
 20
4687.3152583137
 30
0.0
 11
6251.8744659648
 21
4687.4241408351
 31
0.0
  0
LINE
  5
466
330
1F
100
AcDbEntity
  8
0
  6
Continuous
 62
     7
370
    25
100
AcDbLine
 10
6251.8744659648
 20
4687.3152583137
 30
0.0
 11
6250.631004691
 21
4687.3152583137
 31
0.0
  0
LINE
  5
467
330
1F
100
AcDbEntity
  8
0
  6
Continuous
 62
     7
370
    25
100
AcDbLine
 10
6254.2065006846
 20
4687.3152583137
 30
0.0
 11
6254.2065006846
 21
4687.4241408351
 31
0.0
  0
LINE
  5
468
330
1F
100
AcDbEntity
  8
0
  6
Continuous
 62
     7
370
    25
100
AcDbLine
 10
6254.2065006846
 20
4687.3152583137
 30
0.0
 11
6251.8744659648
 21
4687.3152583137
 31
0.0
  0
LINE
  5
469
330
1F
100
AcDbEntity
  8
0
  6
Continuous
 62
     7
370
    25
100
AcDbLine
 10
6259.8735271833
 20
4687.3152583137
 30
0.0
 11
6259.8735271833
 21
4687.4241408351
 31
0.0
  0
LINE
  5
46A
330
1F
100
AcDbEntity
  8
0
  6
Continuous
 62
     7
370
    25
100
AcDbLine
 10
6259.8735271833
 20
4687.3152583137
 30
0.0
 11
6258.6974693561
 21
4687.3152583137
 31
0.0
  0
LINE
  5
46B
330
1F
100
AcDbEntity
  8
0
  6
Continuous
 62
     7
370
    25
100
AcDbLine
 10
6258.6974693561
 20
4687.3152583137
 30
0.0
 11
6258.6974693561
 21
4687.4241408351
 31
0.0
  0
LINE
  5
46C
330
1F
100
AcDbEntity
  8
0
  6
Continuous
 62
     7
370
    25
100
AcDbLine
 10
6256.4051295067
 20
4687.3152583137
 30
0.0
 11
6256.4051295067
 21
4687.4241408351
 31
0.0
  0
LINE
  5
46D
330
1F
100
AcDbEntity
  8
0
  6
Continuous
 62
     7
370
    25
100
AcDbLine
 10
6256.4051295067
 20
4687.3152583137
 30
0.0
 11
6255.2292273457
 21
4687.3152583137
 31
0.0
  0
LINE
  5
46E
330
1F
100
AcDbEntity
  8
0
  6
Continuous
 62
     7
370
    25
100
AcDbLine
 10
6255.2292273457
 20
4687.3152583137
 30
0.0
 11
6255.2292273457
 21
4687.4241408351
 31
0.0
  0
LINE
  5
46F
330
1F
100
AcDbEntity
  8
0
  6
Continuous
 62
     7
370
    25
100
AcDbLine
 10
6256.4488716972
 20
4687.3152583137
 30
0.0
 11
6256.4488716972
 21
4687.4241408351
 31
0.0
  0
LINE
  5
470
330
1F
100
AcDbEntity
  8
0
  6
Continuous
 62
     7
370
    25
100
AcDbLine
 10
6256.4488716972
 20
4687.3152583137
 30
0.0
 11
6256.4051295067
 21
4687.3152583137
 31
0.0
  0
LINE
  5
471
330
1F
100
AcDbEntity
  8
0
  6
Continuous
 62
     7
370
    25
100
AcDbLine
 10
6258.6459438577
 20
4687.3152583137
 30
0.0
 11
6258.6459438577
 21
4687.4241408351
 31
0.0
  0
LINE
  5
472
330
1F
100
AcDbEntity
  8
0
  6
Continuous
 62
     7
370
    25
100
AcDbLine
 10
6258.6974693561
 20
4687.3152583137
 30
0.0
 11
6258.6459438577
 21
4687.3152583137
 31
0.0
  0
LINE
  5
473
330
1F
100
AcDbEntity
  8
0
  6
Continuous
 62
     7
370
    25
100
AcDbLine
 10
6256.8084605232
 20
4687.3152583137
 30
0.0
 11
6256.8084605232
 21
4687.4241408351
 31
0.0
  0
LINE
  5
474
330
1F
100
AcDbEntity
  8
0
  6
Continuous
 62
     7
370
    25
100
AcDbLine
 10
6256.8084605232
 20
4687.3152583137
 30
0.0
 11
6256.5238785202
 21
4687.3152583137
 31
0.0
  0
LINE
  5
475
330
1F
100
AcDbEntity
  8
0
  6
Continuous
 62
     7
370
    25
100
AcDbLine
 10
6258.3399041901
 20
4687.3152583137
 30
0.0
 11
6258.3399041901
 21
4687.4241408351
 31
0.0
  0
LINE
  5
476
330
1F
100
AcDbEntity
  8
0
  6
Continuous
 62
     7
370
    25
100
AcDbLine
 10
6258.5765692121
 20
4687.3152583137
 30
0.0
 11
6258.3399041901
 21
4687.3152583137
 31
0.0
  0
LINE
  5
477
330
1F
100
AcDbEntity
  8
0
  6
Continuous
 62
     7
370
    25
100
AcDbLine
 10
6257.5850789878
 20
4687.3152583137
 30
0.0
 11
6257.5850789878
 21
4687.4241408351
 31
0.0
  0
LINE
  5
478
330
1F
100
AcDbEntity
  8
0
  6
Continuous
 62
     7
370
    25
100
AcDbLine
 10
6257.5850789878
 20
4687.3152583137
 30
0.0
 11
6256.8084605232
 21
4687.3152583137
 31
0.0
  0
LINE
  5
479
330
1F
100
AcDbEntity
  8
0
  6
Continuous
 62
     7
370
    25
100
AcDbLine
 10
6258.3399041901
 20
4687.3152583137
 30
0.0
 11
6257.5850789878
 21
4687.3152583137
 31
0.0
  0
LINE
  5
47A
330
1F
100
AcDbEntity
  8
0
  6
Continuous
 62
     7
370
    25
100
AcDbLine
 10
6260.4929228278
 20
4687.3152583137
 30
0.0
 11
6260.4929228278
 21
4687.4241408351
 31
0.0
  0
LINE
  5
47B
330
1F
100
AcDbEntity
  8
0
  6
Continuous
 62
     7
370
    25
100
AcDbLine
 10
6256.9018602183
 20
4687.3152583137
 30
0.0
 11
6256.8641303301
 21
4687.3152583137
 31
0.0
  0
LINE
  5
47C
330
1F
100
AcDbEntity
  8
0
  6
Continuous
 62
     7
370
    25
100
AcDbLine
 10
6255.2212742641
 20
4687.3152583137
 30
0.0
 11
6254.2144537662
 21
4687.3152583137
 31
0.0
  0
LINE
  5
47D
330
1F
100
AcDbEntity
  8
0
  6
Continuous
 62
     7
370
    25
100
AcDbLine
 10
6262.0187553361
 20
4687.3152583137
 30
0.0
 11
6261.1025115043
 21
4687.3152583137
 31
0.0
  0
LINE
  5
47E
330
1F
100
AcDbEntity
  8
0
  6
Continuous
 62
     7
370
    25
100
AcDbLine
 10
6261.1025115043
 20
4687.3152583137
 30
0.0
 11
6261.1025115043
 21
4687.4241408351
 31
0.0
  0
LINE
  5
47F
330
1F
100
AcDbEntity
  8
0
  6
Continuous
 62
     7
370
    25
100
AcDbLine
 10
6290.5593743353
 20
4687.3152583137
 30
0.0
 11
6290.5593743353
 21
4687.4241408351
 31
0.0
  0
LINE
  5
480
330
1F
100
AcDbEntity
  8
0
  6
Continuous
 62
     7
370
    25
100
AcDbLine
 10
6290.5593743353
 20
4687.3152583137
 30
0.0
 11
6286.0187553361
 21
4687.3152583137
 31
0.0
  0
LINE
  5
481
330
1F
100
AcDbEntity
  8
0
  6
Continuous
 62
     7
370
    25
100
AcDbLine
 10
6292.8652571405
 20
4687.3152583137
 30
0.0
 11
6292.8652571405
 21
4687.4241408351
 31
0.0
  0
LINE
  5
482
330
1F
100
AcDbEntity
  8
0
  6
Continuous
 62
     7
370
    25
100
AcDbLine
 10
6292.8652571405
 20
4687.3152583137
 30
0.0
 11
6291.6893549795
 21
4687.3152583137
 31
0.0
  0
LINE
  5
483
330
1F
100
AcDbEntity
  8
0
  6
Continuous
 62
     7
370
    25
100
AcDbLine
 10
6291.6893549795
 20
4687.3152583137
 30
0.0
 11
6291.6893549795
 21
4687.4241408351
 31
0.0
  0
LINE
  5
484
330
1F
100
AcDbEntity
  8
0
  6
Continuous
 62
     7
370
    25
100
AcDbLine
 10
6291.137674114
 20
4687.3152583137
 30
0.0
 11
6291.137674114
 21
4687.4241408351
 31
0.0
  0
LINE
  5
485
330
1F
100
AcDbEntity
  8
0
  6
Continuous
 62
     7
370
    25
100
AcDbLine
 10
6294.1854618304
 20
4687.3152583137
 30
0.0
 11
6292.8722778294
 21
4687.3152583137
 31
0.0
  0
LINE
  5
486
330
1F
100
AcDbEntity
  8
0
  6
Continuous
 62
     7
370
    25
100
AcDbLine
 10
6291.6823342906
 20
4687.3152583137
 30
0.0
 11
6291.137674114
 21
4687.3152583137
 31
0.0
  0
LINE
  5
487
330
1F
100
AcDbEntity
  8
0
  6
Continuous
 62
     7
370
    25
100
AcDbLine
 10
6296.9107092665
 20
4687.3152583137
 30
0.0
 11
6296.9107092665
 21
4687.4241408351
 31
0.0
  0
LINE
  5
488
330
1F
100
AcDbEntity
  8
0
  6
Continuous
 62
     7
370
    25
100
AcDbLine
 10
6294.9362397126
 20
4687.3152583137
 30
0.0
 11
6294.9362397126
 21
4687.4241408351
 31
0.0
  0
LINE
  5
489
330
1F
100
AcDbEntity
  8
0
  6
Continuous
 62
     7
370
    25
100
AcDbLine
 10
6298.6468539318
 20
4687.3152583137
 30
0.0
 11
6298.6468539318
 21
4687.4241408351
 31
0.0
  0
LINE
  5
48A
330
1F
100
AcDbEntity
  8
0
  6
Continuous
 62
     7
370
    25
100
AcDbLine
 10
6299.2427439863
 20
4687.3152583137
 30
0.0
 11
6299.2427439863
 21
4687.4241408351
 31
0.0
  0
LINE
  5
48B
330
1F
100
AcDbEntity
  8
0
  6
Continuous
 62
     7
370
    25
100
AcDbLine
 10
6299.2427439863
 20
4687.3152583137
 30
0.0
 11
6298.6468539318
 21
4687.3152583137
 31
0.0
  0
LINE
  5
48C
330
1F
100
AcDbEntity
  8
0
  6
Continuous
 62
     7
370
    25
100
AcDbLine
 10
6294.1854618304
 20
4687.3152583137
 30
0.0
 11
6294.1854618304
 21
4687.4241408351
 31
0.0
  0
LINE
  5
48D
330
1F
100
AcDbEntity
  8
0
  6
Continuous
 62
     7
370
    25
100
AcDbLine
 10
6299.2587776007
 20
4687.3152583137
 30
0.0
 11
6299.2587776007
 21
4687.4241408351
 31
0.0
  0
LINE
  5
48E
330
1F
100
AcDbEntity
  8
0
  6
Continuous
 62
     7
370
    25
100
AcDbLine
 10
6376.6661177067
 20
4687.3941408351
 30
0.0
 11
6376.6661177067
 21
4687.4241408351
 31
0.0
  0
LINE
  5
48F
330
1F
100
AcDbEntity
  8
0
  6
Continuous
 62
     7
370
    25
100
AcDbLine
 10
6376.5706982711
 20
4687.3941408351
 30
0.0
 11
6376.6661177067
 21
4687.3941408351
 31
0.0
  0
LINE
  5
490
330
1F
100
AcDbEntity
  8
0
  6
Continuous
 62
     7
370
    25
100
AcDbLine
 10
6376.6981444407
 20
4687.3941408351
 30
0.0
 11
6376.7086962326
 21
4687.3941408351
 31
0.0
  0
LINE
  5
491
330
1F
100
AcDbEntity
  8
0
  6
Continuous
 62
     7
370
    25
100
AcDbLine
 10
6370.2406261223
 20
4687.3941408351
 30
0.0
 11
6370.2406261223
 21
4687.4241408351
 31
0.0
  0
LINE
  5
492
330
1F
100
AcDbEntity
  8
0
  6
Continuous
 62
     7
370
    25
100
AcDbLine
 10
6350.6108498421
 20
4687.3941408351
 30
0.0
 11
6350.6108498421
 21
4687.4241408351
 31
0.0
  0
LINE
  5
493
330
1F
100
AcDbEntity
  8
0
  6
Continuous
 62
     7
370
    25
100
AcDbLine
 10
6370.2406261223
 20
4687.3941408351
 30
0.0
 11
6350.6108498421
 21
4687.3941408351
 31
0.0
  0
LINE
  5
494
330
1F
100
AcDbEntity
  8
0
  6
Continuous
 62
     7
370
    25
100
AcDbLine
 10
6348.616385895
 20
4687.3941408351
 30
0.0
 11
6348.616385895
 21
4687.4241408351
 31
0.0
  0
LINE
  5
495
330
1F
100
AcDbEntity
  8
0
  6
Continuous
 62
     7
370
    25
100
AcDbLine
 10
6348.2948317512
 20
4687.3941408351
 30
0.0
 11
6348.2948317512
 21
4687.4241408351
 31
0.0
  0
LINE
  5
496
330
1F
100
AcDbEntity
  8
0
  6
Continuous
 62
     7
370
    25
100
AcDbLine
 10
6348.2948274547
 20
4687.3941408351
 30
0.0
 11
6348.2948274547
 21
4687.4241408351
 31
0.0
  0
LINE
  5
497
330
1F
100
AcDbEntity
  8
0
  6
Continuous
 62
     7
370
    25
100
AcDbLine
 10
6348.2948317512
 20
4687.3941408351
 30
0.0
 11
6348.2948274547
 21
4687.3941408351
 31
0.0
  0
LINE
  5
498
330
1F
100
AcDbEntity
  8
0
  6
Continuous
 62
     7
370
    25
100
AcDbLine
 10
6348.2948317512
 20
4687.4241408351
 30
0.0
 11
6348.2948274547
 21
4687.4241408351
 31
0.0
  0
LINE
  5
499
330
1F
100
AcDbEntity
  8
0
  6
Continuous
 62
     7
370
    25
100
AcDbLine
 10
6348.4522162123
 20
4687.3941408351
 30
0.0
 11
6348.2948317512
 21
4687.3941408351
 31
0.0
  0
LINE
  5
49A
330
1F
100
AcDbEntity
  8
0
  6
Continuous
 62
     7
370
    25
100
AcDbLine
 10
6376.3524601581
 20
4687.3941408351
 30
0.0
 11
6376.3524601581
 21
4687.4241408351
 31
0.0
  0
LINE
  5
49B
330
1F
100
AcDbEntity
  8
0
  6
Continuous
 62
     7
370
    25
100
AcDbLine
 10
6374.1066184821
 20
4687.3941408351
 30
0.0
 11
6374.1066184821
 21
4687.4241408351
 31
0.0
  0
LINE
  5
49C
330
1F
100
AcDbEntity
  8
0
  6
Continuous
 62
     7
370
    25
100
AcDbLine
 10
6371.1421519093
 20
4687.3941408351
 30
0.0
 11
6371.1421519093
 21
4687.4241408351
 31
0.0
  0
LINE
  5
49D
330
1F
100
AcDbEntity
  8
0
  6
Continuous
 62
     7
370
    25
100
AcDbLine
 10
6373.2602765777
 20
4687.3941408351
 30
0.0
 11
6373.2602765777
 21
4687.4241408351
 31
0.0
  0
LINE
  5
49E
330
1F
100
AcDbEntity
  8
0
  6
Continuous
 62
     7
370
    25
100
AcDbLine
 10
6373.2602765777
 20
4687.3941408351
 30
0.0
 11
6374.1066184821
 21
4687.3941408351
 31
0.0
  0
LINE
  5
49F
330
1F
100
AcDbEntity
  8
0
  6
Continuous
 62
     7
370
    25
100
AcDbLine
 10
6377.5597286769
 20
4687.3941408351
 30
0.0
 11
6377.5597286769
 21
4687.4241408351
 31
0.0
  0
LINE
  5
4A0
330
1F
100
AcDbEntity
  8
0
  6
Continuous
 62
     7
370
    25
100
AcDbLine
 10
6377.3652137169
 20
4687.3941408351
 30
0.0
 11
6377.3652137169
 21
4687.4241408351
 31
0.0
  0
LINE
  5
4A1
330
1F
100
AcDbEntity
  8
0
  6
Continuous
 62
     7
370
    25
100
AcDbLine
 10
6377.3652099761
 20
4687.3941408351
 30
0.0
 11
6377.3652099761
 21
4687.4241408351
 31
0.0
  0
LINE
  5
4A2
330
1F
100
AcDbEntity
  8
0
  6
Continuous
 62
     7
370
    25
100
AcDbLine
 10
6377.3652137169
 20
4687.4241408351
 30
0.0
 11
6377.3652099761
 21
4687.4241408351
 31
0.0
  0
LINE
  5
4A3
330
1F
100
AcDbEntity
  8
0
  6
Continuous
 62
     7
370
    25
100
AcDbLine
 10
6377.3652137169
 20
4687.3941408351
 30
0.0
 11
6377.3652099761
 21
4687.3941408351
 31
0.0
  0
LINE
  5
4A4
330
1F
100
AcDbEntity
  8
0
  6
Continuous
 62
     7
370
    25
100
AcDbLine
 10
6377.7648456132
 20
4687.3941408351
 30
0.0
 11
6377.7648456132
 21
4687.4241408351
 31
0.0
  0
LINE
  5
4A5
330
1F
100
AcDbEntity
  8
0
  6
Continuous
 62
     7
370
    25
100
AcDbLine
 10
6377.7648456132
 20
4687.3941408351
 30
0.0
 11
6377.5597286769
 21
4687.3941408351
 31
0.0
  0
LINE
  5
4A6
330
1F
100
AcDbEntity
  8
0
  6
Continuous
 62
     7
370
    25
100
AcDbLine
 10
6377.8374038809
 20
4687.3941408351
 30
0.0
 11
6377.8374038809
 21
4687.4241408351
 31
0.0
  0
LINE
  5
4A7
330
1F
100
AcDbEntity
  8
0
  6
Continuous
 62
     7
370
    25
100
AcDbLine
 10
6377.8374038809
 20
4687.3941408351
 30
0.0
 11
6377.7648456132
 21
4687.3941408351
 31
0.0
  0
LINE
  5
4A8
330
1F
100
AcDbEntity
  8
0
  6
Continuous
 62
     7
370
    25
100
AcDbLine
 10
6377.9187553361
 20
4687.3941408351
 30
0.0
 11
6377.9187553361
 21
4687.4241408351
 31
0.0
  0
LINE
  5
4A9
330
1F
100
AcDbEntity
  8
0
  6
Continuous
 62
     7
370
    25
100
AcDbLine
 10
6377.5903018182
 20
4687.3941408351
 30
0.0
 11
6376.8925688064
 21
4687.3941408351
 31
0.0
  0
LINE
  5
4AA
330
1F
100
AcDbEntity
  8
0
  6
Continuous
 62
     7
370
    25
100
AcDbLine
 10
6378.2737971924
 20
4687.3941408351
 30
0.0
 11
6377.5903018182
 21
4687.3941408351
 31
0.0
  0
LINE
  5
4AB
330
1F
100
AcDbEntity
  8
0
  6
Continuous
 62
     7
370
    25
100
AcDbLine
 10
6377.964167519
 20
4687.3941408351
 30
0.0
 11
6377.964167519
 21
4687.4241408351
 31
0.0
  0
LINE
  5
4AC
330
1F
100
AcDbEntity
  8
0
  6
Continuous
 62
     7
370
    25
100
AcDbLine
 10
6378.0220261437
 20
4687.3941408351
 30
0.0
 11
6378.0220261437
 21
4687.4241408351
 31
0.0
  0
LINE
  5
4AD
330
1F
100
AcDbEntity
  8
0
  6
Continuous
 62
     7
370
    25
100
AcDbLine
 10
6370.6500640282
 20
4687.3941408351
 30
0.0
 11
6370.6500640282
 21
4687.4241408351
 31
0.0
  0
LINE
  5
4AE
330
1F
100
AcDbEntity
  8
0
  6
Continuous
 62
     7
370
    25
100
AcDbLine
 10
6262.0187553361
 20
4686.3241408351
 30
0.0
 11
6286.0187553361
 21
4686.3241408351
 31
0.0
  0
LINE
  5
4AF
330
1F
100
AcDbEntity
  8
0
  6
Continuous
 62
     7
370
    25
100
AcDbLine
 10
6285.0187553361
 20
4685.3241408352
 30
0.0
 11
6263.0187553361
 21
4685.3241408352
 31
0.0
  0
LINE
  5
4B0
330
1F
100
AcDbEntity
  8
0
  6
Continuous
 62
     7
370
    25
100
AcDbLine
 10
6273.5795780464
 20
4685.1241408351
 30
0.0
 11
6268.6187553361
 21
4685.1241408351
 31
0.0
  0
LINE
  5
4B1
330
1F
100
AcDbEntity
  8
0
  6
Continuous
 62
     7
370
    25
100
AcDbLine
 10
6279.4187553361
 20
4685.1241408351
 30
0.0
 11
6274.5795780464
 21
4685.1241408351
 31
0.0
  0
LINE
  5
4B2
330
1F
100
AcDbEntity
  8
0
  6
Continuous
 62
     7
370
    25
100
AcDbLine
 10
6274.5795780464
 20
4685.1241408351
 30
0.0
 11
6274.5795780464
 21
4685.3241408352
 31
0.0
  0
LINE
  5
4B3
330
1F
100
AcDbEntity
  8
0
  6
Continuous
 62
     7
370
    25
100
AcDbLine
 10
6273.5795780464
 20
4685.3241408352
 30
0.0
 11
6273.5795780464
 21
4685.1241408351
 31
0.0
  0
LINE
  5
4B4
330
1F
100
AcDbEntity
  8
0
  6
Continuous
 62
     7
370
    25
100
AcDbLine
 10
6273.5795780464
 20
4685.1241408351
 30
0.0
 11
6274.1127409747
 21
4685.1241408351
 31
0.0
  0
LINE
  5
4B5
330
1F
100
AcDbEntity
  8
0
  6
Continuous
 62
     7
370
    25
100
AcDbLine
 10
6274.1127409747
 20
4685.1241408351
 30
0.0
 11
6274.5795780464
 21
4685.1241408351
 31
0.0
  0
LINE
  5
4B6
330
1F
100
AcDbEntity
  8
0
  6
Continuous
 62
     7
370
    25
100
AcDbLine
 10
6161.2258621173
 20
4688.7241408352
 30
0.0
 11
6386.8116485549
 21
4688.7241408352
 31
0.0
  0
LINE
  5
4B7
330
1F
100
AcDbEntity
  8
0
  6
Continuous
 62
     7
370
    25
100
AcDbLine
 10
6161.2258621173
 20
4697.4241408351
 30
0.0
 11
6386.8116485549
 21
4697.4241408351
 31
0.0
  0
LINE
  5
4B8
330
1F
100
AcDbEntity
  8
0
  6
Continuous
 62
     7
370
    25
100
AcDbLine
 10
6161.2258621173
 20
4688.7241408352
 30
0.0
 11
6161.2258621173
 21
4697.4241408351
 31
0.0
  0
LINE
  5
4B9
330
1F
100
AcDbEntity
  8
0
  6
Continuous
 62
     7
370
    25
100
AcDbLine
 10
6386.8116485549
 20
4697.4241408351
 30
0.0
 11
6386.8116485549
 21
4688.7241408352
 31
0.0
  0
ARC
  5
4BA
330
1F
100
AcDbEntity
  8
0
  6
Continuous
 62
     7
370
    25
100
AcDbCircle
 10
6156.6631451394
 20
4688.7845431562
 30
0.0
 40
4.563116770469917
100
AcDbArc
 50
342.6546746574
 51
359.2415492924
  0
LINE
  5
4BB
330
1F
100
AcDbEntity
  8
0
  6
Continuous
 62
     7
370
    25
100
AcDbLine
 10
6161.0187553361
 20
4688.2241408352
 30
0.0
 11
6161.0187553361
 21
4687.4241408351
 31
0.0
  0
ARC
  5
4BC
330
1F
100
AcDbEntity
  8
0
  6
Continuous
 62
     7
370
    25
100
AcDbCircle
 10
6160.3538880076
 20
4688.7924311186
 30
0.0
 40
0.874644162394636
100
AcDbArc
 50
319.4780855796
 51
355.5219144205
  0
LINE
  5
4BD
330
1F
100
AcDbEntity
  8
0
  6
Continuous
 62
     7
370
    25
100
AcDbLine
 10
6387.0187553361
 20
4688.2241408352
 30
0.0
 11
6387.0187553361
 21
4687.4241408351
 31
0.0
  0
ARC
  5
4BE
330
1F
100
AcDbEntity
  8
0
  6
Continuous
 62
     7
370
    25
100
AcDbCircle
 10
6391.3743655328
 20
4688.7845431562
 30
0.0
 40
4.563116770405389
100
AcDbArc
 50
180.7584507075
 51
197.3453253428
  0
ARC
  5
4BF
330
1F
100
AcDbEntity
  8
0
  6
Continuous
 62
     7
370
    25
100
AcDbCircle
 10
6387.6836226646
 20
4688.7924311186
 30
0.0
 40
0.8746441623863335
100
AcDbArc
 50
184.4780855794
 51
220.5219144208
  0
LINE
  5
4C0
330
1F
100
AcDbEntity
  8
0
  6
Continuous
 62
     7
370
    25
100
AcDbLine
 10
6387.0187553361
 20
4687.4241408351
 30
0.0
 11
6161.0187553361
 21
4687.4241408351
 31
0.0
  0
LINE
  5
4C1
330
1F
100
AcDbEntity
  8
0
  6
Continuous
 62
     7
370
    25
100
AcDbLine
 10
6161.2258621173
 20
4688.7241408352
 30
0.0
 11
6161.0187553361
 21
4688.7241408352
 31
0.0
  0
LINE
  5
4C2
330
1F
100
AcDbEntity
  8
0
  6
Continuous
 62
     7
370
    25
100
AcDbLine
 10
6161.0187553361
 20
4697.4241408351
 30
0.0
 11
6161.0187553361
 21
4688.7241408352
 31
0.0
  0
LINE
  5
4C3
330
1F
100
AcDbEntity
  8
0
  6
Continuous
 62
     7
370
    25
100
AcDbLine
 10
6161.0187553361
 20
4697.4241408351
 30
0.0
 11
6161.2258621173
 21
4697.4241408351
 31
0.0
  0
LINE
  5
4C4
330
1F
100
AcDbEntity
  8
0
  6
Continuous
 62
     7
370
    25
100
AcDbLine
 10
6387.0187553361
 20
4688.7241408352
 30
0.0
 11
6386.8116485549
 21
4688.7241408352
 31
0.0
  0
LINE
  5
4C5
330
1F
100
AcDbEntity
  8
0
  6
Continuous
 62
     7
370
    25
100
AcDbLine
 10
6386.8116485549
 20
4697.4241408351
 30
0.0
 11
6387.0187553361
 21
4697.4241408351
 31
0.0
  0
LINE
  5
4C6
330
1F
100
AcDbEntity
  8
0
  6
Continuous
 62
     7
370
    25
100
AcDbLine
 10
6387.0187553361
 20
4697.4241408351
 30
0.0
 11
6387.0187553361
 21
4688.7241408352
 31
0.0
  0
LINE
  5
4C7
330
1F
100
AcDbEntity
  8
0
  6
Continuous
 62
     7
370
    25
100
AcDbLine
 10
6161.0187553361
 20
4688.7241408352
 30
0.0
 11
6159.8654990766
 21
4688.7241408351
 31
0.0
  0
LINE
  5
4C8
330
1F
100
AcDbEntity
  8
0
  6
Continuous
 62
     7
370
    25
100
AcDbLine
 10
6159.7187553361
 20
4688.7241408352
 30
0.0
 11
6159.7187553361
 21
4697.4241408351
 31
0.0
  0
LINE
  5
4C9
330
1F
100
AcDbEntity
  8
0
  6
Continuous
 62
     7
370
    25
100
AcDbLine
 10
6159.7187553361
 20
4697.4241408351
 30
0.0
 11
6161.0187553361
 21
4697.4241408351
 31
0.0
  0
LINE
  5
4CA
330
1F
100
AcDbEntity
  8
0
  6
Continuous
 62
     7
370
    25
100
AcDbLine
 10
6388.1720115956
 20
4688.7241408352
 30
0.0
 11
6387.0187553361
 21
4688.7241408352
 31
0.0
  0
LINE
  5
4CB
330
1F
100
AcDbEntity
  8
0
  6
Continuous
 62
     7
370
    25
100
AcDbLine
 10
6388.3187553361
 20
4697.4241408351
 30
0.0
 11
6388.3187553361
 21
4688.7241408352
 31
0.0
  0
LINE
  5
4CC
330
1F
100
AcDbEntity
  8
0
  6
Continuous
 62
     7
370
    25
100
AcDbLine
 10
6387.0187553361
 20
4697.4241408351
 30
0.0
 11
6388.3187553361
 21
4697.4241408351
 31
0.0
  0
LINE
  5
4CD
330
1F
100
AcDbEntity
  8
0
  6
Continuous
 62
     7
370
    25
100
AcDbLine
 10
6388.1720115956
 20
4688.7241408352
 30
0.0
 11
6388.3187553361
 21
4688.7241408352
 31
0.0
  0
ARC
  5
4CE
330
1F
100
AcDbEntity
  8
0
  6
Continuous
 62
     7
370
    25
100
AcDbCircle
 10
6387.0187553361
 20
4688.7241408352
 30
0.0
 40
1.300000000001091
100
AcDbArc
 50
270.0
 51
360.0
  0
ARC
  5
4CF
330
1F
100
AcDbEntity
  8
0
  6
Continuous
 62
     7
370
    25
100
AcDbCircle
 10
6387.0187553361
 20
4688.7241408351
 30
0.0
 40
0.499999999998181
100
AcDbArc
 50
269.9999999999
 51
0.0000000002
  0
LINE
  5
4D0
330
1F
100
AcDbEntity
  8
0
  6
Continuous
 62
     7
370
    25
100
AcDbLine
 10
6159.8654990766
 20
4688.7241408351
 30
0.0
 11
6159.7187553361
 21
4688.7241408351
 31
0.0
  0
ARC
  5
4D1
330
1F
100
AcDbEntity
  8
0
  6
Continuous
 62
     7
370
    25
100
AcDbCircle
 10
6161.0187553361
 20
4688.7241408351
 30
0.0
 40
0.4999999999990905
100
AcDbArc
 50
179.9999999998
 51
270.0000000002
  0
ARC
  5
4D2
330
1F
100
AcDbEntity
  8
0
  6
Continuous
 62
     7
370
    25
100
AcDbCircle
 10
6161.0187553361
 20
4688.7241408352
 30
0.0
 40
1.300000000001091
100
AcDbArc
 50
180.0
 51
270.0
  0
ARC
  5
4D3
330
1F
100
AcDbEntity
  8
0
  6
Continuous
 62
     7
370
    25
100
AcDbCircle
 10
6384.358353015
 20
4872.0614238571
 30
0.0
 40
4.563116770553004
100
AcDbArc
 50
72.6546746575
 51
89.2415492922
  0
LINE
  5
4D4
330
1F
100
AcDbEntity
  8
0
  6
Continuous
 62
     7
370
    25
100
AcDbLine
 10
6385.7187553361
 20
4697.4241408351
 30
0.0
 11
6385.7187553361
 21
4876.417034054
 31
0.0
  0
ARC
  5
4D5
330
1F
100
AcDbEntity
  8
0
  6
Continuous
 62
     7
370
    25
100
AcDbCircle
 10
6168.181472314
 20
4876.5637385141
 30
0.0
 40
4.56311677050746
100
AcDbArc
 50
162.6546746574
 51
179.2415492923
  0
LINE
  5
4D6
330
1F
100
AcDbEntity
  8
0
  6
Continuous
 62
     7
370
    25
100
AcDbLine
 10
6384.2116485549
 20
4877.9241408351
 30
0.0
 11
6163.8258621173
 21
4877.9241408351
 31
0.0
  0
ARC
  5
4D7
330
1F
100
AcDbEntity
  8
0
  6
Continuous
 62
     7
370
    25
100
AcDbCircle
 10
6379.8560383581
 20
4876.5637385141
 30
0.0
 40
4.563116770538497
100
AcDbArc
 50
0.7584507078
 51
17.3453253425
  0
LINE
  5
4D8
330
1F
100
AcDbEntity
  8
0
  6
Continuous
 62
     7
370
    25
100
AcDbLine
 10
6384.4187553361
 20
4876.6241408351
 30
0.0
 11
6163.6187553361
 21
4876.6241408351
 31
0.0
  0
LINE
  5
4D9
330
1F
100
AcDbEntity
  8
0
  6
Continuous
 62
     7
370
    25
100
AcDbLine
 10
6162.3187553361
 20
4697.4241408351
 30
0.0
 11
6162.3187553361
 21
4876.417034054
 31
0.0
  0
ARC
  5
4DA
330
1F
100
AcDbEntity
  8
0
  6
Continuous
 62
     7
370
    25
100
AcDbCircle
 10
6163.6791576572
 20
4872.0614238571
 30
0.0
 40
4.563116770558736
100
AcDbArc
 50
90.7584507078
 51
107.3453253425
  0
LINE
  5
4DB
330
1F
100
AcDbEntity
  8
0
  6
Continuous
 62
     7
370
    25
100
AcDbLine
 10
6386.5187553361
 20
4877.4241408351
 30
0.0
 11
6385.7187553361
 21
4877.4241408351
 31
0.0
  0
LINE
  5
4DC
330
1F
100
AcDbEntity
  8
0
  6
Continuous
 62
     7
370
    25
100
AcDbLine
 10
6386.5187553361
 20
4877.4241408351
 30
0.0
 11
6386.5187553361
 21
4697.4241408351
 31
0.0
  0
LINE
  5
4DD
330
1F
100
AcDbEntity
  8
0
  6
Continuous
 62
     7
370
    25
100
AcDbLine
 10
6385.7187553361
 20
4877.4241408351
 30
0.0
 11
6385.7187553361
 21
4697.4241408351
 31
0.0
  0
LINE
  5
4DE
330
1F
100
AcDbEntity
  8
0
  6
Continuous
 62
     7
370
    25
100
AcDbLine
 10
6385.2187553361
 20
4877.9241408351
 30
0.0
 11
6385.2187553361
 21
4878.7241408351
 31
0.0
  0
ARC
  5
4DF
330
1F
100
AcDbEntity
  8
0
  6
Continuous
 62
     7
370
    25
100
AcDbCircle
 10
6385.2187553361
 20
4877.4241408351
 30
0.0
 40
1.300000000000182
100
AcDbArc
 50
0.0
 51
90.0
  0
ARC
  5
4E0
330
1F
100
AcDbEntity
  8
0
  6
Continuous
 62
     7
370
    25
100
AcDbCircle
 10
6385.2187553361
 20
4877.4241408351
 30
0.0
 40
0.5
100
AcDbArc
 50
0.0
 51
90.0
  0
LINE
  5
4E1
330
1F
100
AcDbEntity
  8
0
  6
Continuous
 62
     7
370
    25
100
AcDbLine
 10
6162.8187553361
 20
4878.7241408351
 30
0.0
 11
6162.8187553361
 21
4877.9241408351
 31
0.0
  0
LINE
  5
4E2
330
1F
100
AcDbEntity
  8
0
  6
Continuous
 62
     7
370
    25
100
AcDbLine
 10
6162.8187553361
 20
4878.7241408351
 30
0.0
 11
6385.2187553361
 21
4878.7241408351
 31
0.0
  0
LINE
  5
4E3
330
1F
100
AcDbEntity
  8
0
  6
Continuous
 62
     7
370
    25
100
AcDbLine
 10
6162.8187553361
 20
4877.9241408351
 30
0.0
 11
6385.2187553361
 21
4877.9241408351
 31
0.0
  0
LINE
  5
4E4
330
1F
100
AcDbEntity
  8
0
  6
Continuous
 62
     7
370
    25
100
AcDbLine
 10
6162.3187553361
 20
4877.4241408351
 30
0.0
 11
6161.5187553361
 21
4877.4241408351
 31
0.0
  0
LINE
  5
4E5
330
1F
100
AcDbEntity
  8
0
  6
Continuous
 62
     7
370
    25
100
AcDbLine
 10
6161.5187553361
 20
4697.4241408351
 30
0.0
 11
6161.5187553361
 21
4877.4241408351
 31
0.0
  0
LINE
  5
4E6
330
1F
100
AcDbEntity
  8
0
  6
Continuous
 62
     7
370
    25
100
AcDbLine
 10
6162.3187553361
 20
4697.4241408351
 30
0.0
 11
6162.3187553361
 21
4877.4241408351
 31
0.0
  0
ARC
  5
4E7
330
1F
100
AcDbEntity
  8
0
  6
Continuous
 62
     7
370
    25
100
AcDbCircle
 10
6162.8187553361
 20
4877.4241408351
 30
0.0
 40
1.300000000001091
100
AcDbArc
 50
90.0
 51
180.0
  0
ARC
  5
4E8
330
1F
100
AcDbEntity
  8
0
  6
Continuous
 62
     7
370
    25
100
AcDbCircle
 10
6162.8187553361
 20
4877.4241408351
 30
0.0
 40
0.5000000000009095
100
AcDbArc
 50
90.0
 51
180.0
  0
LINE
  5
4E9
330
1F
100
AcDbEntity
  8
0
  6
Continuous
 62
     7
370
    25
100
AcDbLine
 10
6341.0187562997
 20
4882.9241408351
 30
0.0
 11
6357.0187553361
 21
4882.9241408351
 31
0.0
  0
LINE
  5
4EA
330
1F
100
AcDbEntity
  8
0
  6
Continuous
 62
     7
370
    25
100
AcDbLine
 10
6191.0187562997
 20
4882.9241408351
 30
0.0
 11
6207.0187553361
 21
4882.9241408351
 31
0.0
  0
LINE
  5
4EB
330
1F
100
AcDbEntity
  8
0
  6
Continuous
 62
     8
370
    25
100
AcDbLine
 10
6384.4187553361
 20
4697.4241408351
 30
0.0
 11
6384.4187553361
 21
4876.6241408351
 31
0.0
  0
LINE
  5
4EC
330
1F
100
AcDbEntity
  8
0
  6
Continuous
 62
     8
370
    25
100
AcDbLine
 10
6163.6187553361
 20
4876.6241408351
 30
0.0
 11
6163.6187553361
 21
4697.4241408351
 31
0.0
  0
LINE
  5
4ED
330
1F
100
AcDbEntity
  8
0
  6
Continuous
 62
     8
370
    25
100
AcDbLine
 10
6339.0187553361
 20
4879.7241408351
 30
0.0
 11
6359.0187553361
 21
4879.7241408351
 31
0.0
  0
LINE
  5
4EE
330
1F
100
AcDbEntity
  8
0
  6
Continuous
 62
     8
370
    25
100
AcDbLine
 10
6189.0187553361
 20
4879.7241408351
 30
0.0
 11
6209.0187553361
 21
4879.7241408351
 31
0.0
  0
LINE
  5
4EF
330
1F
100
AcDbEntity
  8
0
  6
Continuous
 62
     8
370
    25
100
AcDbLine
 10
6359.0187553361
 20
4880.9241408351
 30
0.0
 11
6339.0187553361
 21
4880.9241408351
 31
0.0
  0
LINE
  5
4F0
330
1F
100
AcDbEntity
  8
0
  6
Continuous
 62
     8
370
    25
100
AcDbLine
 10
6209.0187553361
 20
4880.9241408351
 30
0.0
 11
6189.0187553361
 21
4880.9241408351
 31
0.0
  0
ENDSEC
  0
SECTION
  2
OBJECTS
  0
DICTIONARY
  5
C
330
0
100
AcDbDictionary
281
     1
  3
ACAD_GROUP
350
D
  3
ACAD_LAYOUT
350
1A
  3
ACAD_MLINESTYLE
350
17
  3
ACAD_PLOTSETTINGS
350
19
  3
ACAD_PLOTSTYLENAME
350
E
  3
ACAD_SCALELIST
350
47
  3
DWGPROPS
350
4F1
  0
DICTIONARY
  5
D
102
{ACAD_REACTORS
330
C
102
}
330
C
100
AcDbDictionary
281
     1
  0
DICTIONARY
  5
1A
102
{ACAD_REACTORS
330
C
102
}
330
C
100
AcDbDictionary
281
     1
  3
Layout1
350
1E
  3
Layout2
350
26
  3
Model
350
22
  0
DICTIONARY
  5
17
102
{ACAD_REACTORS
330
C
102
}
330
C
100
AcDbDictionary
281
     1
  3
Standard
350
18
  0
DICTIONARY
  5
19
102
{ACAD_REACTORS
330
C
102
}
330
C
100
AcDbDictionary
281
     1
  0
ACDBDICTIONARYWDFLT
  5
E
102
{ACAD_REACTORS
330
C
102
}
330
C
100
AcDbDictionary
281
     1
  3
Normal
350
F
100
AcDbDictionaryWithDefault
340
F
  0
DICTIONARY
  5
47
102
{ACAD_REACTORS
330
C
102
}
330
C
100
AcDbDictionary
281
     1
  3
A0
350
48
  3
A1
350
49
  3
A2
350
4A
  3
A3
350
4B
  3
A4
350
4C
  3
A5
350
4D
  3
A6
350
4E
  3
A7
350
4F
  3
A8
350
50
  3
A9
350
51
  3
B0
350
52
  3
B1
350
53
  3
B2
350
54
  3
B3
350
55
  3
B4
350
56
  3
B5
350
57
  3
B6
350
58
  3
B7
350
59
  3
B8
350
5A
  3
B9
350
5B
  3
C0
350
5C
  3
C1
350
5D
  3
C2
350
5E
  3
C3
350
5F
  3
C4
350
60
  3
C5
350
61
  3
C6
350
62
  3
C7
350
63
  3
C8
350
64
  3
C9
350
65
  3
D0
350
66
  3
D1
350
67
  3
D2
350
68
  0
XRECORD
  5
4F1
102
{ACAD_REACTORS
330
C
102
}
330
C
100
AcDbXrecord
280
     1
  1
DWGPROPS COOKIE
  2

  3

  4

  6

  7

  8
radek.stransky
  9

300
=
301
=
302
=
303
=
304
=
305
=
306
=
307
=
308
=
309
=
 40
0.0
 41
2459110.246298773
 42
2459110.246299028
  1

 90
        0
  0
LAYOUT
  5
1E
102
{ACAD_REACTORS
330
1A
102
}
330
1A
100
AcDbPlotSettings
  1

  2
none_device
  4

  6

 40
0.0
 41
0.0
 42
0.0
 43
0.0
 44
0.0
 45
0.0
 46
0.0
 47
0.0
 48
0.0
 49
0.0
140
0.0
141
0.0
142
1.0
143
1.0
 70
   688
 72
     1
 73
     0
 74
     5
  7

 75
    16
147
1.0
148
0.0
149
0.0
100
AcDbLayout
  1
Layout1
 70
     1
 71
     1
 10
0.0
 20
0.0
 11
420.0
 21
297.0
 12
0.0
 22
0.0
 32
0.0
 14
1.0000000000E+20
 24
1.0000000000E+20
 34
1.0000000000E+20
 15
-1.0000000000E+20
 25
-1.0000000000E+20
 35
-1.0000000000E+20
146
0.0
 13
0.0
 23
0.0
 33
0.0
 16
1.0
 26
0.0
 36
0.0
 17
0.0
 27
1.0
 37
0.0
 76
     0
330
1B
  0
LAYOUT
  5
26
102
{ACAD_REACTORS
330
1A
102
}
330
1A
100
AcDbPlotSettings
  1

  2
none_device
  4

  6

 40
0.0
 41
0.0
 42
0.0
 43
0.0
 44
0.0
 45
0.0
 46
0.0
 47
0.0
 48
0.0
 49
0.0
140
0.0
141
0.0
142
1.0
143
1.0
 70
   688
 72
     1
 73
     0
 74
     5
  7

 75
    16
147
1.0
148
0.0
149
0.0
100
AcDbLayout
  1
Layout2
 70
     1
 71
     2
 10
0.0
 20
0.0
 11
0.0
 21
0.0
 12
0.0
 22
0.0
 32
0.0
 14
0.0
 24
0.0
 34
0.0
 15
0.0
 25
0.0
 35
0.0
146
0.0
 13
0.0
 23
0.0
 33
0.0
 16
1.0
 26
0.0
 36
0.0
 17
0.0
 27
1.0
 37
0.0
 76
     0
330
23
  0
LAYOUT
  5
22
102
{ACAD_REACTORS
330
1A
102
}
330
1A
100
AcDbPlotSettings
  1

  2
none_device
  4
Letter_(8.50_x_11.00_Inches)
  6

 40
6.35
 41
6.35
 42
6.35000508
 43
6.35000508
 44
215.9
 45
279.4
 46
0.0
 47
0.0
 48
0.0
 49
0.0
140
0.0
141
0.0
142
1.0
143
1.0
 70
  1712
 72
     1
 73
     0
 74
     0
  7

 75
     0
147
1.0
148
0.0
149
0.0
100
AcDbLayout
  1
Model
 70
     1
 71
     0
 10
0.0
 20
0.0
 11
20000.0
 21
10000.0
 12
0.0
 22
0.0
 32
0.0
 14
0.0
 24
0.0
 34
0.0
 15
20000.0
 25
10000.0
 35
0.0
146
0.0
 13
0.0
 23
0.0
 33
0.0
 16
1.0
 26
0.0
 36
0.0
 17
0.0
 27
1.0
 37
0.0
 76
     0
330
1F
331
29
  0
MLINESTYLE
  5
18
102
{ACAD_REACTORS
330
17
102
}
330
17
100
AcDbMlineStyle
  2
Standard
 70
     0
  3

 62
   256
 51
90.0
 52
90.0
 71
     2
 49
0.5
 62
   256
  6
BYLAYER
 49
-0.5
 62
   256
  6
BYLAYER
  0
ACDBPLACEHOLDER
  5
F
102
{ACAD_REACTORS
330
E
102
}
330
E
  0
SCALE
  5
48
102
{ACAD_REACTORS
330
47
102
}
330
47
100
AcDbScale
 70
     0
300
1:1
140
1.0
141
1.0
290
     1
  0
SCALE
  5
49
102
{ACAD_REACTORS
330
47
102
}
330
47
100
AcDbScale
 70
     0
300
1:2
140
1.0
141
2.0
290
     0
  0
SCALE
  5
4A
102
{ACAD_REACTORS
330
47
102
}
330
47
100
AcDbScale
 70
     0
300
1:4
140
1.0
141
4.0
290
     0
  0
SCALE
  5
4B
102
{ACAD_REACTORS
330
47
102
}
330
47
100
AcDbScale
 70
     0
300
1:5
140
1.0
141
5.0
290
     0
  0
SCALE
  5
4C
102
{ACAD_REACTORS
330
47
102
}
330
47
100
AcDbScale
 70
     0
300
1:8
140
1.0
141
8.0
290
     0
  0
SCALE
  5
4D
102
{ACAD_REACTORS
330
47
102
}
330
47
100
AcDbScale
 70
     0
300
1:10
140
1.0
141
10.0
290
     0
  0
SCALE
  5
4E
102
{ACAD_REACTORS
330
47
102
}
330
47
100
AcDbScale
 70
     0
300
1:16
140
1.0
141
16.0
290
     0
  0
SCALE
  5
4F
102
{ACAD_REACTORS
330
47
102
}
330
47
100
AcDbScale
 70
     0
300
1:20
140
1.0
141
20.0
290
     0
  0
SCALE
  5
50
102
{ACAD_REACTORS
330
47
102
}
330
47
100
AcDbScale
 70
     0
300
1:30
140
1.0
141
30.0
290
     0
  0
SCALE
  5
51
102
{ACAD_REACTORS
330
47
102
}
330
47
100
AcDbScale
 70
     0
300
1:40
140
1.0
141
40.0
290
     0
  0
SCALE
  5
52
102
{ACAD_REACTORS
330
47
102
}
330
47
100
AcDbScale
 70
     0
300
1:50
140
1.0
141
50.0
290
     0
  0
SCALE
  5
53
102
{ACAD_REACTORS
330
47
102
}
330
47
100
AcDbScale
 70
     0
300
1:100
140
1.0
141
100.0
290
     0
  0
SCALE
  5
54
102
{ACAD_REACTORS
330
47
102
}
330
47
100
AcDbScale
 70
     0
300
2:1
140
2.0
141
1.0
290
     0
  0
SCALE
  5
55
102
{ACAD_REACTORS
330
47
102
}
330
47
100
AcDbScale
 70
     0
300
4:1
140
4.0
141
1.0
290
     0
  0
SCALE
  5
56
102
{ACAD_REACTORS
330
47
102
}
330
47
100
AcDbScale
 70
     0
300
8:1
140
8.0
141
1.0
290
     0
  0
SCALE
  5
57
102
{ACAD_REACTORS
330
47
102
}
330
47
100
AcDbScale
 70
     0
300
10:1
140
10.0
141
1.0
290
     0
  0
SCALE
  5
58
102
{ACAD_REACTORS
330
47
102
}
330
47
100
AcDbScale
 70
     0
300
100:1
140
100.0
141
1.0
290
     0
  0
SCALE
  5
59
102
{ACAD_REACTORS
330
47
102
}
330
47
100
AcDbScale
 70
     0
300
1/128" = 1'-0"
140
0.0078125
141
12.0
290
     0
  0
SCALE
  5
5A
102
{ACAD_REACTORS
330
47
102
}
330
47
100
AcDbScale
 70
     0
300
1/64" = 1'-0"
140
0.015625
141
12.0
290
     0
  0
SCALE
  5
5B
102
{ACAD_REACTORS
330
47
102
}
330
47
100
AcDbScale
 70
     0
300
1/32" = 1'-0"
140
0.03125
141
12.0
290
     0
  0
SCALE
  5
5C
102
{ACAD_REACTORS
330
47
102
}
330
47
100
AcDbScale
 70
     0
300
1/16" = 1'-0"
140
0.0625
141
12.0
290
     0
  0
SCALE
  5
5D
102
{ACAD_REACTORS
330
47
102
}
330
47
100
AcDbScale
 70
     0
300
3/32" = 1'-0"
140
0.09375
141
12.0
290
     0
  0
SCALE
  5
5E
102
{ACAD_REACTORS
330
47
102
}
330
47
100
AcDbScale
 70
     0
300
1/8" = 1'-0"
140
0.125
141
12.0
290
     0
  0
SCALE
  5
5F
102
{ACAD_REACTORS
330
47
102
}
330
47
100
AcDbScale
 70
     0
300
3/16" = 1'-0"
140
0.1875
141
12.0
290
     0
  0
SCALE
  5
60
102
{ACAD_REACTORS
330
47
102
}
330
47
100
AcDbScale
 70
     0
300
1/4" = 1'-0"
140
0.25
141
12.0
290
     0
  0
SCALE
  5
61
102
{ACAD_REACTORS
330
47
102
}
330
47
100
AcDbScale
 70
     0
300
3/8" = 1'-0"
140
0.375
141
12.0
290
     0
  0
SCALE
  5
62
102
{ACAD_REACTORS
330
47
102
}
330
47
100
AcDbScale
 70
     0
300
1/2" = 1'-0"
140
0.5
141
12.0
290
     0
  0
SCALE
  5
63
102
{ACAD_REACTORS
330
47
102
}
330
47
100
AcDbScale
 70
     0
300
3/4" = 1'-0"
140
0.75
141
12.0
290
     0
  0
SCALE
  5
64
102
{ACAD_REACTORS
330
47
102
}
330
47
100
AcDbScale
 70
     0
300
1" = 1'-0"
140
1.0
141
12.0
290
     0
  0
SCALE
  5
65
102
{ACAD_REACTORS
330
47
102
}
330
47
100
AcDbScale
 70
     0
300
1-1/2" = 1'-0"
140
1.5
141
12.0
290
     0
  0
SCALE
  5
66
102
{ACAD_REACTORS
330
47
102
}
330
47
100
AcDbScale
 70
     0
300
3" = 1'-0"
140
3.0
141
12.0
290
     0
  0
SCALE
  5
67
102
{ACAD_REACTORS
330
47
102
}
330
47
100
AcDbScale
 70
     0
300
6" = 1'-0"
140
6.0
141
12.0
290
     0
  0
SCALE
  5
68
102
{ACAD_REACTORS
330
47
102
}
330
47
100
AcDbScale
 70
     0
300
1'-0" = 1'-0"
140
12.0
141
12.0
290
     0
  0
ENDSEC
  0
EOF
