  0
SECTION
  2
HEADER
  9
$ACADVER
  1
AC1015
  9
$ACADMAINTVER
 70
     6
  9
$DWGCODEPAGE
  3
ANSI_1250
  9
$INSBASE
 10
0.0
 20
0.0
 30
0.0
  9
$EXTMIN
 10
0.0
 20
0.0
 30
0.0
  9
$EXTMAX
 10
20000.0
 20
10000.0
 30
0.0
  9
$LIMMIN
 10
0.0
 20
0.0
  9
$LIMMAX
 10
20000.0
 20
10000.0
  9
$ORTHOMODE
 70
     0
  9
$REGENMODE
 70
     1
  9
$FILLMODE
 70
     1
  9
$QTEXTMODE
 70
     0
  9
$MIRRTEXT
 70
     1
  9
$LTSCALE
 40
1.0
  9
$ATTMODE
 70
     1
  9
$TEXTSIZE
 40
2.0
  9
$TRACEWID
 40
1.0
  9
$TEXTSTYLE
  7
Standard
  9
$CLAYER
  8
0
  9
$CELTYPE
  6
ByLayer
  9
$CECOLOR
 62
   256
  9
$CELTSCALE
 40
1.0
  9
$DISPSILH
 70
     0
  9
$DIMSCALE
 40
1.0
  9
$DIMASZ
 40
2.0
  9
$DIMEXO
 40
1.0
  9
$DIMDLI
 40
3.75
  9
$DIMRND
 40
0.0
  9
$DIMDLE
 40
0.0
  9
$DIMEXE
 40
1.0
  9
$DIMTP
 40
0.0
  9
$DIMTM
 40
0.0
  9
$DIMTXT
 40
2.0
  9
$DIMCEN
 40
2.5
  9
$DIMTSZ
 40
0.0
  9
$DIMTOL
 70
     0
  9
$DIMLIM
 70
     0
  9
$DIMTIH
 70
     1
  9
$DIMTOH
 70
     1
  9
$DIMSE1
 70
     0
  9
$DIMSE2
 70
     0
  9
$DIMTAD
 70
     1
  9
$DIMZIN
 70
     0
  9
$DIMBLK
  1

  9
$DIMASO
 70
     1
  9
$DIMSHO
 70
     1
  9
$DIMPOST
  1

  9
$DIMAPOST
  1

  9
$DIMALT
 70
     0
  9
$DIMALTD
 70
     3
  9
$DIMALTF
 40
0.0393700787
  9
$DIMLFAC
 40
1.0
  9
$DIMTOFL
 70
     1
  9
$DIMTVP
 40
0.0
  9
$DIMTIX
 70
     0
  9
$DIMSOXD
 70
     0
  9
$DIMSAH
 70
     0
  9
$DIMBLK1
  1

  9
$DIMBLK2
  1

  9
$DIMSTYLE
  2
ISO-25
  9
$DIMCLRD
 70
     0
  9
$DIMCLRE
 70
     0
  9
$DIMCLRT
 70
     0
  9
$DIMTFAC
 40
1.0
  9
$DIMGAP
 40
1.524
  9
$DIMJUST
 70
     0
  9
$DIMSD1
 70
     0
  9
$DIMSD2
 70
     0
  9
$DIMTOLJ
 70
     0
  9
$DIMTZIN
 70
     0
  9
$DIMALTZ
 70
     0
  9
$DIMALTTZ
 70
     0
  9
$DIMUPT
 70
     0
  9
$DIMDEC
 70
     2
  9
$DIMTDEC
 70
     0
  9
$DIMALTU
 70
     2
  9
$DIMALTTD
 70
     3
  9
$DIMTXSTY
  7
Standard
  9
$DIMAUNIT
 70
     0
  9
$DIMADEC
 70
     2
  9
$DIMALTRND
 40
0.0
  9
$DIMAZIN
 70
     0
  9
$DIMDSEP
 70
    44
  9
$DIMATFIT
 70
     3
  9
$DIMFRAC
 70
     0
  9
$DIMLDRBLK
  1

  9
$DIMLUNIT
 70
     2
  9
$DIMLWD
 70
    -2
  9
$DIMLWE
 70
    -2
  9
$DIMTMOVE
 70
     0
  9
$LUNITS
 70
     2
  9
$LUPREC
 70
     3
  9
$SKETCHINC
 40
1.0
  9
$FILLETRAD
 40
10.0
  9
$AUNITS
 70
     0
  9
$AUPREC
 70
     2
  9
$MENU
  1
.
  9
$ELEVATION
 40
0.0
  9
$PELEVATION
 40
0.0
  9
$THICKNESS
 40
0.0
  9
$LIMCHECK
 70
     0
  9
$CHAMFERA
 40
0.0
  9
$CHAMFERB
 40
0.0
  9
$CHAMFERC
 40
0.0
  9
$CHAMFERD
 40
0.0
  9
$SKPOLY
 70
     0
  9
$TDCREATE
 40
2460290.548357697
  9
$TDUCREATE
 40
2460290.50669103
  9
$TDUPDATE
 40
2460290.548359225
  9
$TDUUPDATE
 40
2460290.506692558
  9
$TDINDWG
 40
0.0000000116
  9
$TDUSRTIMER
 40
0.0000000116
  9
$USRTIMER
 70
     1
  9
$ANGBASE
 50
0.0
  9
$ANGDIR
 70
     0
  9
$PDMODE
 70
     0
  9
$PDSIZE
 40
-1.0
  9
$PLINEWID
 40
0.0
  9
$SPLFRAME
 70
     0
  9
$SPLINETYPE
 70
     6
  9
$SPLINESEGS
 70
     8
  9
$HANDSEED
  5
1B4
  9
$SURFTAB1
 70
     6
  9
$SURFTAB2
 70
     6
  9
$SURFTYPE
 70
     6
  9
$SURFU
 70
     6
  9
$SURFV
 70
     6
  9
$UCSBASE
  2

  9
$UCSNAME
  2

  9
$UCSORG
 10
0.0
 20
0.0
 30
0.0
  9
$UCSXDIR
 10
1.0
 20
0.0
 30
0.0
  9
$UCSYDIR
 10
0.0
 20
1.0
 30
0.0
  9
$UCSORTHOREF
  2

  9
$UCSORTHOVIEW
 70
     0
  9
$UCSORGTOP
 10
0.0
 20
0.0
 30
0.0
  9
$UCSORGBOTTOM
 10
0.0
 20
0.0
 30
0.0
  9
$UCSORGLEFT
 10
0.0
 20
0.0
 30
0.0
  9
$UCSORGRIGHT
 10
0.0
 20
0.0
 30
0.0
  9
$UCSORGFRONT
 10
0.0
 20
0.0
 30
0.0
  9
$UCSORGBACK
 10
0.0
 20
0.0
 30
0.0
  9
$PUCSBASE
  2

  9
$PUCSNAME
  2

  9
$PUCSORG
 10
0.0
 20
0.0
 30
0.0
  9
$PUCSXDIR
 10
1.0
 20
0.0
 30
0.0
  9
$PUCSYDIR
 10
0.0
 20
1.0
 30
0.0
  9
$PUCSORTHOREF
  2

  9
$PUCSORTHOVIEW
 70
     0
  9
$PUCSORGTOP
 10
0.0
 20
0.0
 30
0.0
  9
$PUCSORGBOTTOM
 10
0.0
 20
0.0
 30
0.0
  9
$PUCSORGLEFT
 10
0.0
 20
0.0
 30
0.0
  9
$PUCSORGRIGHT
 10
0.0
 20
0.0
 30
0.0
  9
$PUCSORGFRONT
 10
0.0
 20
0.0
 30
0.0
  9
$PUCSORGBACK
 10
0.0
 20
0.0
 30
0.0
  9
$USERI1
 70
     0
  9
$USERI2
 70
     0
  9
$USERI3
 70
     0
  9
$USERI4
 70
     0
  9
$USERI5
 70
     0
  9
$USERR1
 40
0.0
  9
$USERR2
 40
0.0
  9
$USERR3
 40
0.0
  9
$USERR4
 40
0.0
  9
$USERR5
 40
0.0
  9
$WORLDVIEW
 70
     1
  9
$SHADEDGE
 70
     3
  9
$SHADEDIF
 70
    70
  9
$TILEMODE
 70
     1
  9
$MAXACTVP
 70
    64
  9
$PINSBASE
 10
0.0
 20
0.0
 30
0.0
  9
$PLIMCHECK
 70
     0
  9
$PEXTMIN
 10
1.0000000000E+20
 20
1.0000000000E+20
 30
1.0000000000E+20
  9
$PEXTMAX
 10
-1.0000000000E+20
 20
-1.0000000000E+20
 30
-1.0000000000E+20
  9
$PLIMMIN
 10
0.0
 20
0.0
  9
$PLIMMAX
 10
420.0
 20
297.0
  9
$UNITMODE
 70
     0
  9
$VISRETAIN
 70
     1
  9
$PLINEGEN
 70
     0
  9
$PSLTSCALE
 70
     1
  9
$TREEDEPTH
 70
  3020
  9
$CMLSTYLE
  2
Standard
  9
$CMLJUST
 70
     0
  9
$CMLSCALE
 40
20.0
  9
$PROXYGRAPHICS
 70
     1
  9
$MEASUREMENT
 70
     1
  9
$CELWEIGHT
370
    -1
  9
$ENDCAPS
280
     0
  9
$JOINSTYLE
280
     0
  9
$LWDISPLAY
290
     1
  9
$INSUNITS
 70
     4
  9
$HYPERLINKBASE
  1

  9
$STYLESHEET
  1

  9
$XEDIT
290
     1
  9
$CEPSNTYPE
380
     0
  9
$PSTYLEMODE
290
     1
  9
$FINGERPRINTGUID
  2
{584cadf4-74e4-4ec8-a5ea-3ea960be1f67}
  9
$VERSIONGUID
  2
{FAEB1C32-E019-11D5-929B-00C0DF256EC4}
  9
$EXTNAMES
290
     1
  9
$PSVPSCALE
 40
0.0
  9
$OLESTARTUP
290
     0
  0
ENDSEC
  0
SECTION
  2
CLASSES
  0
CLASS
  1
ACDBDICTIONARYWDFLT
  2
AcDbDictionaryWithDefault
  3
ObjectDBX Classes
 90
        0
280
     0
281
     0
  0
CLASS
  1
VISUALSTYLE
  2
AcDbVisualStyle
  3
ObjectDBX Classes
 90
     4095
280
     0
281
     0
  0
CLASS
  1
MATERIAL
  2
AcDbMaterial
  3
ObjectDBX Classes
 90
     1153
280
     0
281
     0
  0
CLASS
  1
SCALE
  2
AcDbScale
  3
ObjectDBX Classes
 90
     1153
280
     0
281
     0
  0
CLASS
  1
TABLESTYLE
  2
AcDbTableStyle
  3
ObjectDBX Classes
 90
     4095
280
     0
281
     0
  0
CLASS
  1
MLEADERSTYLE
  2
AcDbMLeaderStyle
  3
ACDB_MLEADERSTYLE_CLASS
 90
     4095
280
     0
281
     0
  0
CLASS
  1
SUN
  2
AcDbSun
  3
SCENEOE
 90
     1153
280
     0
281
     0
  0
CLASS
  1
ACDBPLACEHOLDER
  2
AcDbPlaceHolder
  3
ObjectDBX Classes
 90
        0
280
     0
281
     0
  0
CLASS
  1
LAYOUT
  2
AcDbLayout
  3
ObjectDBX Classes
 90
        0
280
     0
281
     0
  0
ENDSEC
  0
SECTION
  2
TABLES
  0
TABLE
  2
VPORT
  5
8
330
0
100
AcDbSymbolTable
 70
     1
  0
VPORT
  5
29
330
8
100
AcDbSymbolTableRecord
100
AcDbViewportTableRecord
  2
*Active
 70
     0
 10
0.0
 20
0.0
 11
1.0
 21
1.0
 12
10000.0
 22
5000.0
 13
0.0
 23
0.0
 14
10.0
 24
10.0
 15
10.0
 25
10.0
 16
0.0
 26
0.0
 36
1.0
 17
0.0
 27
0.0
 37
0.0
 40
10000.0
 41
2.0
 42
50.0
 43
0.0
 44
0.0
 50
0.0
 51
0.0
 71
     0
 72
  2000
 73
     1
 74
     3
 75
     0
 76
     0
 77
     0
 78
     0
281
     0
 65
     1
110
0.0
120
0.0
130
0.0
111
1.0
121
0.0
131
0.0
112
0.0
122
1.0
132
0.0
 79
     0
146
0.0
  0
ENDTAB
  0
TABLE
  2
LTYPE
  5
5
330
0
100
AcDbSymbolTable
 70
     6
  0
LTYPE
  5
14
330
5
100
AcDbSymbolTableRecord
100
AcDbLinetypeTableRecord
  2
ByBlock
 70
     0
  3

 72
    65
 73
     0
 40
0.0
  0
LTYPE
  5
15
330
5
100
AcDbSymbolTableRecord
100
AcDbLinetypeTableRecord
  2
ByLayer
 70
     0
  3

 72
    65
 73
     0
 40
0.0
  0
LTYPE
  5
16
330
5
100
AcDbSymbolTableRecord
100
AcDbLinetypeTableRecord
  2
Continuous
 70
     0
  3
Solid line
 72
    65
 73
     0
 40
0.0
  0
LTYPE
  5
6E
330
5
100
AcDbSymbolTableRecord
100
AcDbLinetypeTableRecord
  2
HIDDEN
 70
     0
  3
Hidden __ __ __ __ __ __ __ __ __ __ __ __ __ __
 72
    65
 73
     2
 40
1.905
 49
1.27
 74
     0
 49
-0.635
 74
     0
  0
LTYPE
  5
6F
330
5
100
AcDbSymbolTableRecord
100
AcDbLinetypeTableRecord
  2
PHANTOM
 70
     0
  3
Phantom ______  __  __  ______  __  __  ______
 72
    65
 73
     6
 40
12.7
 49
6.35
 74
     0
 49
-1.27
 74
     0
 49
1.27
 74
     0
 49
-1.27
 74
     0
 49
1.27
 74
     0
 49
-1.27
 74
     0
  0
LTYPE
  5
70
330
5
100
AcDbSymbolTableRecord
100
AcDbLinetypeTableRecord
  2
CENTER
 70
     0
  3
Center ____ _ ____ _ ____ _ ____ _ ____ _ ____
 72
    65
 73
     4
 40
10.16
 49
6.35
 74
     0
 49
-1.27
 74
     0
 49
1.27
 74
     0
 49
-1.27
 74
     0
  0
LTYPE
  5
71
330
5
100
AcDbSymbolTableRecord
100
AcDbLinetypeTableRecord
  2
CENTERX2
 70
     0
  3
Center (2x) ________  __  ________  __  _____
 72
    65
 73
     4
 40
20.32
 49
12.7
 74
     0
 49
-2.54
 74
     0
 49
2.54
 74
     0
 49
-2.54
 74
     0
  0
LTYPE
  5
72
330
5
100
AcDbSymbolTableRecord
100
AcDbLinetypeTableRecord
  2
DOT2
 70
     0
  3
Dot (.5x) ........................................
 72
    65
 73
     2
 40
0.635
 49
0.0
 74
     0
 49
-0.635
 74
     0
  0
ENDTAB
  0
TABLE
  2
LAYER
  5
2
330
0
100
AcDbSymbolTable
 70
    13
  0
LAYER
  5
10
330
2
100
AcDbSymbolTableRecord
100
AcDbLayerTableRecord
  2
0
 70
     0
 62
     7
  6
Continuous
370
    -3
390
F
  0
LAYER
  5
73
330
2
100
AcDbSymbolTableRecord
100
AcDbLayerTableRecord
  2
FORMAT
 70
     0
 62
     7
  6
Continuous
370
    -3
390
F
  0
LAYER
  5
74
330
2
100
AcDbSymbolTableRecord
100
AcDbLayerTableRecord
  2
OSA
 70
     0
 62
     7
  6
CENTER
370
    -3
390
F
  0
LAYER
  5
75
330
2
100
AcDbSymbolTableRecord
100
AcDbLayerTableRecord
  2
0_35
 70
     0
 62
     7
  6
Continuous
370
    35
390
F
  0
LAYER
  5
76
330
2
100
AcDbSymbolTableRecord
100
AcDbLayerTableRecord
  2
0_5
 70
     0
 62
     7
  6
Continuous
370
    50
390
F
  0
LAYER
  5
77
330
2
100
AcDbSymbolTableRecord
100
AcDbLayerTableRecord
  2
0_25
 70
     0
 62
     7
  6
Continuous
370
    25
390
F
  0
LAYER
  5
78
330
2
100
AcDbSymbolTableRecord
100
AcDbLayerTableRecord
  2
0_18
 70
     0
 62
     7
  6
Continuous
370
    -3
390
F
  0
LAYER
  5
79
330
2
100
AcDbSymbolTableRecord
100
AcDbLayerTableRecord
  2
SLD-0
 70
     0
 62
   179
  6
Continuous
370
    -3
390
F
  0
LAYER
  5
7A
330
2
100
AcDbSymbolTableRecord
100
AcDbLayerTableRecord
  2
KOTY
 70
     0
 62
     7
  6
Continuous
370
    -3
390
F
  0
LAYER
  5
7B
330
2
100
AcDbSymbolTableRecord
100
AcDbLayerTableRecord
  2
SILNA
 70
     0
 62
   179
  6
Continuous
370
    -3
390
F
  0
LAYER
  5
7C
330
2
100
AcDbSymbolTableRecord
100
AcDbLayerTableRecord
  2
0_18_1
 70
     0
 62
   179
  6
Continuous
370
    -3
390
F
  0
LAYER
  5
7D
330
2
100
AcDbSymbolTableRecord
100
AcDbLayerTableRecord
  2
0_35_1
 70
     0
 62
   179
  6
Continuous
370
    35
390
F
  0
LAYER
  5
7E
330
2
100
AcDbSymbolTableRecord
100
AcDbLayerTableRecord
  2
0_5_1
 70
     0
 62
   179
  6
Continuous
370
    50
390
F
  0
ENDTAB
  0
TABLE
  2
STYLE
  5
3
330
0
100
AcDbSymbolTable
 70
     1
  0
STYLE
  5
11
330
3
100
AcDbSymbolTableRecord
100
AcDbTextStyleTableRecord
  2
Standard
 70
     0
 40
0.0
 41
1.0
 50
0.0
 71
     0
 42
2.0
  3
txt
  4

  0
ENDTAB
  0
TABLE
  2
VIEW
  5
6
330
0
100
AcDbSymbolTable
 70
     0
  0
ENDTAB
  0
TABLE
  2
UCS
  5
7
330
0
100
AcDbSymbolTable
 70
     0
  0
ENDTAB
  0
TABLE
  2
APPID
  5
9
330
0
100
AcDbSymbolTable
 70
     1
  0
APPID
  5
12
330
9
100
AcDbSymbolTableRecord
100
AcDbRegAppTableRecord
  2
ACAD
 70
     0
  0
ENDTAB
  0
TABLE
  2
DIMSTYLE
  5
A
330
0
100
AcDbSymbolTable
 70
     1
100
AcDbDimStyleTable
  0
DIMSTYLE
105
27
330
A
100
AcDbSymbolTableRecord
100
AcDbDimStyleTableRecord
  2
ISO-25
 70
     0
 41
2.5
 42
0.625
 43
3.75
 44
1.25
 73
     0
 74
     0
 77
     1
 78
     8
140
2.5
141
2.5
143
0.0393700787
147
0.625
171
     3
172
     1
178
     0
271
     2
272
     2
274
     3
278
    44
283
     0
284
     8
340
11
  0
ENDTAB
  0
TABLE
  2
BLOCK_RECORD
  5
1
330
0
100
AcDbSymbolTable
 70
     1
  0
BLOCK_RECORD
  5
1F
330
1
100
AcDbSymbolTableRecord
100
AcDbBlockTableRecord
  2
*Model_Space
340
22
  0
BLOCK_RECORD
  5
1B
330
1
100
AcDbSymbolTableRecord
100
AcDbBlockTableRecord
  2
*Paper_Space
340
1E
  0
BLOCK_RECORD
  5
23
330
1
100
AcDbSymbolTableRecord
100
AcDbBlockTableRecord
  2
*Paper_Space0
340
26
  0
ENDTAB
  0
ENDSEC
  0
SECTION
  2
BLOCKS
  0
BLOCK
  5
20
330
1F
100
AcDbEntity
  8
0
100
AcDbBlockBegin
  2
*Model_Space
 70
     0
 10
0.0
 20
0.0
 30
0.0
  3
*Model_Space
  1

  0
ENDBLK
  5
21
330
1F
100
AcDbEntity
  8
0
100
AcDbBlockEnd
  0
BLOCK
  5
1C
330
1B
100
AcDbEntity
 67
     1
  8
0
100
AcDbBlockBegin
  2
*Paper_Space
 70
     0
 10
0.0
 20
0.0
 30
0.0
  3
*Paper_Space
  1

  0
ENDBLK
  5
1D
330
1B
100
AcDbEntity
 67
     1
  8
0
100
AcDbBlockEnd
  0
BLOCK
  5
24
330
23
100
AcDbEntity
  8
0
100
AcDbBlockBegin
  2
*Paper_Space0
 70
     0
 10
0.0
 20
0.0
 30
0.0
  3
*Paper_Space0
  1

  0
ENDBLK
  5
25
330
23
100
AcDbEntity
  8
0
100
AcDbBlockEnd
  0
ENDSEC
  0
SECTION
  2
ENTITIES
  0
LINE
  5
7F
330
1F
100
AcDbEntity
  8
0
  6
Continuous
 62
     7
370
    25
100
AcDbLine
 10
8005.8354414006
 20
5454.4746236986
 30
0.0
 11
7982.3354414006
 21
5454.4746236986
 31
0.0
  0
LINE
  5
80
330
1F
100
AcDbEntity
  8
0
  6
Continuous
 62
     7
370
    25
100
AcDbLine
 10
8157.3354414006
 20
5454.4746236986
 30
0.0
 11
8133.8354414006
 21
5454.4746236986
 31
0.0
  0
LINE
  5
81
330
1F
100
AcDbEntity
  8
0
  6
Continuous
 62
     7
370
    25
100
AcDbLine
 10
7945.8354414006
 20
5455.9746236986
 30
0.0
 11
7946.2881349972
 21
5450.8003122131
 31
0.0
  0
LINE
  5
82
330
1F
100
AcDbEntity
  8
0
  6
Continuous
 62
     7
370
    25
100
AcDbLine
 10
7963.3827478041
 20
5450.8003122131
 30
0.0
 11
7963.8354414006
 21
5455.9746236986
 31
0.0
  0
LINE
  5
83
330
1F
100
AcDbEntity
  8
0
  6
Continuous
 62
     7
370
    25
100
AcDbLine
 10
8175.8354414006
 20
5455.9746236986
 30
0.0
 11
8176.2881349972
 21
5450.8003122131
 31
0.0
  0
LINE
  5
84
330
1F
100
AcDbEntity
  8
0
  6
Continuous
 62
     7
370
    25
100
AcDbLine
 10
8193.3827478041
 20
5450.8003122131
 30
0.0
 11
8193.8354414006
 21
5455.9746236986
 31
0.0
  0
ARC
  5
85
330
1F
100
AcDbEntity
  8
0
  6
Continuous
 62
     7
370
    25
100
AcDbCircle
 10
7961.3903584079
 20
5450.9746236986
 30
0.0
 40
1.99999999999968
100
AcDbArc
 50
270.0
 51
355.0
  0
ARC
  5
86
330
1F
100
AcDbEntity
  8
0
  6
Continuous
 62
     7
370
    25
100
AcDbCircle
 10
7948.2805243934
 20
5450.9746236986
 30
0.0
 40
2.000000000000586
100
AcDbArc
 50
185.0
 51
270.0
  0
ARC
  5
87
330
1F
100
AcDbEntity
  8
0
  6
Continuous
 62
     7
370
    25
100
AcDbCircle
 10
8191.3903584079
 20
5450.9746236986
 30
0.0
 40
2.000000000000586
100
AcDbArc
 50
270.0
 51
355.0
  0
ARC
  5
88
330
1F
100
AcDbEntity
  8
0
  6
Continuous
 62
     7
370
    25
100
AcDbCircle
 10
8178.2805243934
 20
5450.9746236986
 30
0.0
 40
2.000000000000586
100
AcDbArc
 50
185.0
 51
270.0
  0
LINE
  5
89
330
1F
100
AcDbEntity
  8
0
  6
Continuous
 62
     7
370
    25
100
AcDbLine
 10
7943.4233714638
 20
5448.9746236984
 30
0.0
 11
7943.4212899619
 21
5448.9746234442
 31
0.0
  0
LINE
  5
8A
330
1F
100
AcDbEntity
  8
0
  6
Continuous
 62
     7
370
    25
100
AcDbLine
 10
8196.2664541257
 20
5448.9746011442
 30
0.0
 11
8196.2471579861
 21
5448.974623693
 31
0.0
  0
LINE
  5
8B
330
1F
100
AcDbEntity
  8
0
  6
Continuous
 62
     7
370
    25
100
AcDbLine
 10
7930.8354414006
 20
5432.4746236986
 30
0.0
 11
7931.3756236607
 21
5426.3003122131
 31
0.0
  0
LINE
  5
8C
330
1F
100
AcDbEntity
  8
0
  6
Continuous
 62
     7
370
    25
100
AcDbLine
 10
7948.2952591406
 20
5426.3003122131
 30
0.0
 11
7948.8354414006
 21
5432.4746236986
 31
0.0
  0
LINE
  5
8D
330
1F
100
AcDbEntity
  8
0
  6
Continuous
 62
     7
370
    25
100
AcDbLine
 10
8190.8354414006
 20
5432.4746236986
 30
0.0
 11
8191.3756236607
 21
5426.3003122131
 31
0.0
  0
LINE
  5
8E
330
1F
100
AcDbEntity
  8
0
  6
Continuous
 62
     7
370
    25
100
AcDbLine
 10
8208.2952591406
 20
5426.3003122131
 30
0.0
 11
8208.8354414006
 21
5432.4746236986
 31
0.0
  0
ARC
  5
8F
330
1F
100
AcDbEntity
  8
0
  6
Continuous
 62
     7
370
    25
100
AcDbCircle
 10
7933.3680130569
 20
5426.4746236986
 30
0.0
 40
2.0
100
AcDbArc
 50
185.0
 51
270.0
  0
ARC
  5
90
330
1F
100
AcDbEntity
  8
0
  6
Continuous
 62
     7
370
    25
100
AcDbCircle
 10
7946.3028697444
 20
5426.4746236986
 30
0.0
 40
2.000000000000586
100
AcDbArc
 50
270.0
 51
355.0
  0
ARC
  5
91
330
1F
100
AcDbEntity
  8
0
  6
Continuous
 62
     7
370
    25
100
AcDbCircle
 10
8193.3680130569
 20
5426.4746236986
 30
0.0
 40
2.000000000000586
100
AcDbArc
 50
185.0
 51
270.0
  0
ARC
  5
92
330
1F
100
AcDbEntity
  8
0
  6
Continuous
 62
     7
370
    25
100
AcDbCircle
 10
8206.3028697444
 20
5426.4746236986
 30
0.0
 40
2.000000000000586
100
AcDbArc
 50
270.0
 51
355.0
  0
LINE
  5
93
330
1F
100
AcDbEntity
  8
0
  6
Continuous
 62
     7
370
    25
100
AcDbLine
 10
8020.8354414006
 20
5454.4746236986
 30
0.0
 11
8005.8354414006
 21
5454.4746236986
 31
0.0
  0
LINE
  5
94
330
1F
100
AcDbEntity
  8
0
  6
Continuous
 62
     7
370
    25
100
AcDbLine
 10
8133.8354414006
 20
5454.4746236986
 30
0.0
 11
8118.8354414006
 21
5454.4746236986
 31
0.0
  0
LINE
  5
95
330
1F
100
AcDbEntity
  8
0
  6
Continuous
 62
     7
370
    25
100
AcDbLine
 10
7982.3354414006
 20
5454.4746236986
 30
0.0
 11
7982.3354414006
 21
5448.9802948238
 31
0.0
  0
LINE
  5
96
330
1F
100
AcDbEntity
  8
0
  6
Continuous
 62
     7
370
    25
100
AcDbLine
 10
8005.8354414006
 20
5454.4746236986
 30
0.0
 11
8005.8354414006
 21
5448.9802948238
 31
0.0
  0
LINE
  5
97
330
1F
100
AcDbEntity
  8
0
  6
Continuous
 62
     7
370
    25
100
AcDbLine
 10
8157.3354414006
 20
5448.9793314171
 30
0.0
 11
8157.3354414006
 21
5454.4746236986
 31
0.0
  0
LINE
  5
98
330
1F
100
AcDbEntity
  8
0
  6
Continuous
 62
     7
370
    25
100
AcDbLine
 10
8133.8354414006
 20
5448.9793314171
 30
0.0
 11
8133.8354414006
 21
5454.4746236986
 31
0.0
  0
SPLINE
  5
99
330
1F
100
AcDbEntity
  8
0
  6
Continuous
 62
     7
370
    25
100
AcDbSpline
210
0.0
220
0.0
230
1.0
 70
    24
 71
     3
 72
    30
 73
    26
 74
     0
 42
0.00000001
 43
0.00000001
 40
0.0
 40
0.0
 40
0.0
 40
0.0
 40
0.0551547103424814
 40
0.1064085193214885
 40
0.1543296257337603
 40
0.1995447098160891
 40
0.2427012495378824
 40
0.2844346241989909
 40
0.3253352288767997
 40
0.3699698934073187
 40
0.4147436673986089
 40
0.4600030035069254
 40
0.5059144284624304
 40
0.5524985323258784
 40
0.5917884288333624
 40
0.6314477614727457
 40
0.6714461349941594
 40
0.7117988808076966
 40
0.7525818118086005
 40
0.7939295679456561
 40
0.8335857899320995
 40
0.8740273118119596
 40
0.9153216124755541
 40
0.9574038504625935
 40
1.0
 40
1.0
 40
1.0
 40
1.0
 10
7904.835441400646
 20
5455.974623698641
 30
0.0
 10
7904.870910444283
 20
5455.974623698641
 30
0.0
 10
7904.939339929122
 20
5455.974623698641
 30
0.0
 10
7905.487657404972
 20
5455.974623698641
 30
0.0
 10
7906.384141113189
 20
5455.974623698641
 30
0.0
 10
7907.73780652339
 20
5455.974623698641
 30
0.0
 10
7909.644212386193
 20
5455.974623698641
 30
0.0
 10
7912.209353607825
 20
5455.974623698641
 30
0.0
 10
7915.632155508418
 20
5455.974623698641
 30
0.0
 10
7920.085247617403
 20
5455.974623698641
 30
0.0
 10
7925.725693566271
 20
5455.974623698641
 30
0.0
 10
7932.435730723706
 20
5455.974623698641
 30
0.0
 10
7940.214298372575
 20
5455.974623698641
 30
0.0
 10
7948.546611280643
 20
5455.974623698641
 30
0.0
 10
7957.22749358041
 20
5455.974623698641
 30
0.0
 10
7966.078052858317
 20
5455.974623698641
 30
0.0
 10
7975.619502470509
 20
5455.974623698641
 30
0.0
 10
7985.841909313541
 20
5455.974623698641
 30
0.0
 10
7996.734608961492
 20
5455.974623698641
 30
0.0
 10
8008.05637340188
 20
5455.974623698641
 30
0.0
 10
8019.739353317676
 20
5455.974623698641
 30
0.0
 10
8031.711833773036
 20
5455.974623698641
 30
0.0
 10
8044.131237601606
 20
5455.974623698641
 30
0.0
 10
8056.89123099496
 20
5455.974623698641
 30
0.0
 10
8065.503282472296
 20
5455.974623698641
 30
0.0
 10
8069.835441400647
 20
5455.974623698641
 30
0.0
  0
LINE
  5
9A
330
1F
100
AcDbEntity
  8
0
  6
Continuous
 62
     7
370
    25
100
AcDbLine
 10
7904.8354414006
 20
5461.9746236967
 30
0.0
 11
7904.8354414006
 21
5455.9746236986
 31
0.0
  0
SPLINE
  5
9B
330
1F
100
AcDbEntity
  8
0
  6
Continuous
 62
     7
370
    25
100
AcDbSpline
210
0.0
220
0.0
230
1.0
 70
    24
 71
     3
 72
    31
 73
    27
 74
     0
 42
0.00000001
 43
0.00000001
 40
0.0
 40
0.0
 40
0.0
 40
0.0
 40
0.0458199880862464
 40
0.0910141421028695
 40
0.1352738684148639
 40
0.1785550522283622
 40
0.2209694279954608
 40
0.2626919037013738
 40
0.3038906720901569
 40
0.3446844886837226
 40
0.3851266927118667
 40
0.4252111863573447
 40
0.4648934874779174
 40
0.5041200381230947
 40
0.5428600588897138
 40
0.5811353802644136
 40
0.6190444639275415
 40
0.6567774393210722
 40
0.6946199599222497
 40
0.7329455081023246
 40
0.772198281844669
 40
0.8128708285494851
 40
0.855480634974091
 40
0.9005475165689498
 40
0.948570354498192
 40
1.0
 40
1.0
 40
1.0
 40
1.0
 10
8069.835441400647
 20
5461.974623698642
 30
0.0
 10
8065.175190422902
 20
5461.974623698642
 30
0.0
 10
8055.918340684641
 20
5461.974623698642
 30
0.0
 10
8042.224903618137
 20
5461.974623698642
 30
0.0
 10
8028.943301522632
 20
5461.974623698642
 30
0.0
 10
8016.197799510456
 20
5461.974623698642
 30
0.0
 10
8004.064856530331
 20
5461.974623698642
 30
0.0
 10
7992.588731122145
 20
5461.974623698642
 30
0.0
 10
7981.793709411617
 20
5461.974623698642
 30
0.0
 10
7971.693583095048
 20
5461.974623698642
 30
0.0
 10
7962.298659313045
 20
5461.974623698642
 30
0.0
 10
7953.619983221441
 20
5461.974623698642
 30
0.0
 10
7945.670787263908
 20
5461.974623698642
 30
0.0
 10
7938.465619365564
 20
5461.974623698642
 30
0.0
 10
7932.017835220337
 20
5461.974623698642
 30
0.0
 10
7926.33612710265
 20
5461.974623698642
 30
0.0
 10
7921.420630824337
 20
5461.974623698642
 30
0.0
 10
7917.259049777447
 20
5461.974623698642
 30
0.0
 10
7913.823260786524
 20
5461.974623698642
 30
0.0
 10
7911.067220562071
 20
5461.974623698642
 30
0.0
 10
7908.926989832469
 20
5461.974623698642
 30
0.0
 10
7907.324915796477
 20
5461.974623698642
 30
0.0
 10
7906.174764688162
 20
5461.974623698642
 30
0.0
 10
7905.403276001962
 20
5461.974623698642
 30
0.0
 10
7904.926219145227
 20
5461.974623698642
 30
0.0
 10
7904.866383880423
 20
5461.974623698642
 30
0.0
 10
7904.835441400646
 20
5461.974623698642
 30
0.0
  0
LINE
  5
9C
330
1F
100
AcDbEntity
  8
0
  6
Continuous
 62
     7
370
    25
100
AcDbLine
 10
8069.8354414006
 20
5461.9746236986
 30
0.0
 11
8069.8354414006
 21
5455.9746236986
 31
0.0
  0
SPLINE
  5
9D
330
1F
100
AcDbEntity
  8
0
  6
Continuous
 62
     7
370
    25
100
AcDbSpline
210
0.0
220
0.0
230
1.0
 70
    24
 71
     3
 72
    31
 73
    27
 74
     0
 42
0.00000001
 43
0.00000001
 40
0.0
 40
0.0
 40
0.0
 40
0.0
 40
0.0431211809910967
 40
0.0857110803986737
 40
0.1274898988302975
 40
0.1683955287461888
 40
0.2085020712068301
 40
0.2479485622626848
 40
0.2868824710873
 40
0.3254215311917831
 40
0.3654458312440719
 40
0.4051318106282625
 40
0.4444518386735813
 40
0.4833551944323056
 40
0.5217971036101264
 40
0.5597679678012107
 40
0.6047850059000718
 40
0.6494441597919816
 40
0.6941731202549772
 40
0.739574745754118
 40
0.7863899945340366
 40
0.8247041024539217
 40
0.8648186863389636
 40
0.907148907939362
 40
0.9520904287263046
 40
1.0
 40
1.0
 40
1.0
 40
1.0
 10
8069.835441400647
 20
5455.974623698641
 30
0.0
 10
8074.221066768933
 20
5455.974623698641
 30
0.0
 10
8082.938283688788
 20
5455.974623698641
 30
0.0
 10
8095.850777477986
 20
5455.974623698641
 30
0.0
 10
8108.411609505447
 20
5455.974623698641
 30
0.0
 10
8120.511554943507
 20
5455.974623698641
 30
0.0
 10
8132.081310377124
 20
5455.974623698641
 30
0.0
 10
8143.079100927196
 20
5455.974623698641
 30
0.0
 10
8153.480975020622
 20
5455.974623698641
 30
0.0
 10
8163.42634412953
 20
5455.974623698641
 30
0.0
 10
8172.874062284711
 20
5455.974623698641
 30
0.0
 10
8181.778763450195
 20
5455.974623698641
 30
0.0
 10
8189.981645344069
 20
5455.974623698641
 30
0.0
 10
8197.469050739764
 20
5455.974623698641
 30
0.0
 10
8204.227223907345
 20
5455.974623698641
 30
0.0
 10
8210.638991803806
 20
5455.974623698641
 30
0.0
 10
8216.529927348109
 20
5455.974623698641
 30
0.0
 10
8221.710478375144
 20
5455.974623698641
 30
0.0
 10
8225.864627206072
 20
5455.974623698641
 30
0.0
 10
8229.063573892177
 20
5455.974623698641
 30
0.0
 10
8231.236104348538
 20
5455.974623698641
 30
0.0
 10
8232.699394808795
 20
5455.974623698641
 30
0.0
 10
8233.677804418114
 20
5455.974623698641
 30
0.0
 10
8234.341843092785
 20
5455.974623698641
 30
0.0
 10
8234.75632146145
 20
5455.974623698641
 30
0.0
 10
8234.808511985308
 20
5455.974623698641
 30
0.0
 10
8234.835441400646
 20
5455.974623698641
 30
0.0
  0
SPLINE
  5
9E
330
1F
100
AcDbEntity
  8
0
  6
Continuous
 62
     7
370
    25
100
AcDbSpline
210
0.0
220
0.0
230
1.0
 70
    24
 71
     3
 72
    31
 73
    27
 74
     0
 42
0.00000001
 43
0.00000001
 40
0.0
 40
0.0
 40
0.0
 40
0.0
 40
0.0514296455018076
 40
0.0994524834310499
 40
0.1445193650259088
 40
0.1871291714505146
 40
0.2278017181553303
 40
0.2670544918976751
 40
0.30538004007775
 40
0.3432225606789274
 40
0.3809555360724581
 40
0.4188646197355861
 40
0.457139941110286
 40
0.4958799618769051
 40
0.5351065125220825
 40
0.574788813642655
 40
0.6148733072881332
 40
0.6553155113162773
 40
0.6961093279098429
 40
0.737308096298626
 40
0.779030572004539
 40
0.8214449477716377
 40
0.864726131585136
 40
0.9089858578971305
 40
0.9541800119137533
 40
1.0
 40
1.0
 40
1.0
 40
1.0
 10
8234.835441400646
 20
5461.974623698642
 30
0.0
 10
8234.80449892087
 20
5461.974623698642
 30
0.0
 10
8234.744663656065
 20
5461.974623698642
 30
0.0
 10
8234.267606799332
 20
5461.974623698642
 30
0.0
 10
8233.496118113131
 20
5461.974623698642
 30
0.0
 10
8232.345967004814
 20
5461.974623698642
 30
0.0
 10
8230.743892968823
 20
5461.974623698642
 30
0.0
 10
8228.603662239222
 20
5461.974623698642
 30
0.0
 10
8225.847622014768
 20
5461.974623698642
 30
0.0
 10
8222.411833023845
 20
5461.974623698642
 30
0.0
 10
8218.250251976955
 20
5461.974623698642
 30
0.0
 10
8213.334755698643
 20
5461.974623698642
 30
0.0
 10
8207.653047580954
 20
5461.974623698642
 30
0.0
 10
8201.205263435728
 20
5461.974623698642
 30
0.0
 10
8194.000095537385
 20
5461.974623698642
 30
0.0
 10
8186.050899579852
 20
5461.974623698642
 30
0.0
 10
8177.372223488247
 20
5461.974623698642
 30
0.0
 10
8167.977299706245
 20
5461.974623698642
 30
0.0
 10
8157.877173389675
 20
5461.974623698642
 30
0.0
 10
8147.082151679148
 20
5461.974623698642
 30
0.0
 10
8135.606026270963
 20
5461.974623698642
 30
0.0
 10
8123.473083290836
 20
5461.974623698642
 30
0.0
 10
8110.727581278659
 20
5461.974623698642
 30
0.0
 10
8097.445979183154
 20
5461.974623698642
 30
0.0
 10
8083.752542116653
 20
5461.974623698642
 30
0.0
 10
8074.49569237839
 20
5461.974623698642
 30
0.0
 10
8069.835441400647
 20
5461.974623698642
 30
0.0
  0
LINE
  5
9F
330
1F
100
AcDbEntity
  8
0
  6
Continuous
 62
     7
370
    25
100
AcDbLine
 10
8234.8354414006
 20
5461.9746236986
 30
0.0
 11
8234.8354414006
 21
5455.9746236986
 31
0.0
  0
SPLINE
  5
A0
330
1F
100
AcDbEntity
  8
0
  6
Continuous
 62
     7
370
    25
100
AcDbSpline
210
0.0
220
0.0
230
1.0
 70
    24
 71
     3
 72
    35
 73
    31
 74
     0
 42
0.00000001
 43
0.00000001
 40
0.0
 40
0.0
 40
0.0
 40
0.0
 40
0.0358704008673254
 40
0.071732430926103
 40
0.1076102912260201
 40
0.1433705140144989
 40
0.1785491877497589
 40
0.2145160041876404
 40
0.249125383152857
 40
0.2810783006024709
 40
0.3117584506584118
 40
0.3433507375118018
 40
0.3744413092066053
 40
0.4159928862839384
 40
0.4575664331568842
 40
0.4994058561627346
 40
0.5307881582399083
 40
0.5621165066063458
 40
0.5935385119979789
 40
0.6246651678719024
 40
0.6670518914764094
 40
0.7086268825871258
 40
0.7497041040813663
 40
0.7808647591939225
 40
0.8120835253482968
 40
0.8432574816779482
 40
0.8749406977183016
 40
0.9161819972584939
 40
0.9577417652822783
 40
1.0
 40
1.0
 40
1.0
 40
1.0
 10
7918.835441400646
 20
5468.974623698641
 30
0.0
 10
7918.848695227503
 20
5468.974623698641
 30
0.0
 10
7918.875199788272
 20
5468.974623698641
 30
0.0
 10
7919.094390405398
 20
5468.974623698641
 30
0.0
 10
7919.459035182658
 20
5468.974623698641
 30
0.0
 10
7920.012657793249
 20
5468.974623698641
 30
0.0
 10
7920.800265541825
 20
5468.974623698641
 30
0.0
 10
7921.879626285491
 20
5468.974623698641
 30
0.0
 10
7923.285832452526
 20
5468.974623698641
 30
0.0
 10
7925.016356022098
 20
5468.974623698641
 30
0.0
 10
7927.100525779028
 20
5468.974623698641
 30
0.0
 10
7929.612175074265
 20
5468.974623698641
 30
0.0
 10
7932.936457079413
 20
5468.974623698641
 30
0.0
 10
7937.252853616428
 20
5468.974623698641
 30
0.0
 10
7942.792545339245
 20
5468.974623698641
 30
0.0
 10
7948.597989289719
 20
5468.974623698641
 30
0.0
 10
7954.415796778775
 20
5468.974623698641
 30
0.0
 10
7960.052238328822
 20
5468.974623698641
 30
0.0
 10
7966.052817655275
 20
5468.974623698641
 30
0.0
 10
7973.174787854541
 20
5468.974623698641
 30
0.0
 10
7981.501894411621
 20
5468.974623698641
 30
0.0
 10
7991.165792834604
 20
5468.974623698641
 30
0.0
 10
8000.475206324961
 20
5468.974623698641
 30
0.0
 10
8009.293728978268
 20
5468.974623698641
 30
0.0
 10
8017.511886136617
 20
5468.974623698641
 30
0.0
 10
8025.97833998002
 20
5468.974623698641
 30
0.0
 10
8035.521824840551
 20
5468.974623698641
 30
0.0
 10
8046.180440580107
 20
5468.974623698641
 30
0.0
 10
8057.936619668921
 20
5468.974623698641
 30
0.0
 10
8065.847194196122
 20
5468.974623698641
 30
0.0
 10
8069.835441400647
 20
5468.974623698641
 30
0.0
  0
SPLINE
  5
A1
330
1F
100
AcDbEntity
  8
0
  6
Continuous
 62
     7
370
    25
100
AcDbSpline
210
0.0
220
0.0
230
1.0
 70
    24
 71
     3
 72
    14
 73
    10
 74
     0
 42
0.00000001
 43
0.00000001
 40
0.0
 40
0.0
 40
0.0
 40
0.0
 40
0.3059160159623603
 40
0.4589932114190473
 40
0.6017753912066827
 40
0.727960433447837
 40
0.8346535250992863
 40
0.9234719432309327
 40
1.0
 40
1.0
 40
1.0
 40
1.0
 10
8069.835441400647
 20
5468.974623698641
 30
0.0
 10
8069.835441400647
 20
5468.888982330201
 30
0.0
 10
8069.835441400647
 20
5468.760486910936
 30
0.0
 10
8069.835441400647
 20
5467.899732637896
 30
0.0
 10
8069.835441400647
 20
5467.022083175805
 30
0.0
 10
8069.835441400647
 20
5465.927670263744
 30
0.0
 10
8069.835441400647
 20
5464.680917630677
 30
0.0
 10
8069.835441400647
 20
5463.344608114353
 30
0.0
 10
8069.835441400647
 20
5462.408080848572
 30
0.0
 10
8069.835441400647
 20
5461.974623698642
 30
0.0
  0
SPLINE
  5
A2
330
1F
100
AcDbEntity
  8
0
  6
Continuous
 62
     7
370
    25
100
AcDbSpline
210
0.0
220
0.0
230
1.0
 70
     8
 71
     3
 72
    14
 73
    10
 74
     0
 42
0.00000001
 43
0.00000001
 40
0.0
 40
0.0
 40
0.0
 40
0.0
 40
0.3059160159623575
 40
0.4589932114190462
 40
0.6017753912066832
 40
0.7279604334478379
 40
0.8346535250992837
 40
0.9234719432309326
 40
1.0
 40
1.0
 40
1.0
 40
1.0
 10
7918.835441400646
 20
5468.974623698641
 30
0.0
 10
7917.105796207554
 20
5468.888982330201
 30
0.0
 10
7914.51065453347
 20
5468.760486910936
 30
0.0
 10
7911.213324551656
 20
5467.899732637896
 30
0.0
 10
7908.994534033472
 20
5467.022083175805
 30
0.0
 10
7907.161677889098
 20
5465.927670263744
 30
0.0
 10
7905.831728736436
 20
5464.680917630677
 30
0.0
 10
7904.9900881321
 20
5463.344608114353
 30
0.0
 10
7904.884370958306
 20
5462.408080848572
 30
0.0
 10
7904.835441400646
 20
5461.974623698642
 30
0.0
  0
SPLINE
  5
A3
330
1F
100
AcDbEntity
  8
0
  6
Continuous
 62
     7
370
    25
100
AcDbSpline
210
0.0
220
0.0
230
1.0
 70
    24
 71
     3
 72
    36
 73
    32
 74
     0
 42
0.00000001
 43
0.00000001
 40
0.0
 40
0.0
 40
0.0
 40
0.0
 40
0.0328061466895064
 40
0.0645962378375309
 40
0.0954537181134244
 40
0.1254698111627497
 40
0.1675713546421604
 40
0.209015709198439
 40
0.2503616820712408
 40
0.2811473066768325
 40
0.3121689100506656
 40
0.3435612993225149
 40
0.3754545802338944
 40
0.4168036989937688
 40
0.4584690419564562
 40
0.500103220256076
 40
0.5419547511605531
 40
0.5835403760227788
 40
0.625104174968667
 40
0.6498423514726444
 40
0.674885046673617
 40
0.6996921816040335
 40
0.7246010809777867
 40
0.7503349336925752
 40
0.7846832949162287
 40
0.8216497823569562
 40
0.855799381670873
 40
0.8929072453179553
 40
0.9280037970223894
 40
0.9641339974396514
 40
1.0
 40
1.0
 40
1.0
 40
1.0
 10
8069.835441400647
 20
5468.974623698641
 30
0.0
 10
8072.931351369924
 20
5468.974623698641
 30
0.0
 10
8079.027286335764
 20
5468.974623698641
 30
0.0
 10
8088.014479090065
 20
5468.974623698641
 30
0.0
 10
8096.693969818047
 20
5468.974623698641
 30
0.0
 10
8106.256143298808
 20
5468.974623698641
 30
0.0
 10
8116.644525626304
 20
5468.974623698641
 30
0.0
 10
8127.761221867337
 20
5468.974623698641
 30
0.0
 10
8137.499820046637
 20
5468.974623698641
 30
0.0
 10
8145.98530910512
 20
5468.974623698641
 30
0.0
 10
8153.347926004242
 20
5468.974623698641
 30
0.0
 10
8160.463038446581
 20
5468.974623698641
 30
0.0
 10
8167.964127030426
 20
5468.974623698641
 30
0.0
 10
8175.690508404325
 20
5468.974623698641
 30
0.0
 10
8183.41393027609
 20
5468.974623698641
 30
0.0
 10
8190.477410787499
 20
5468.974623698641
 30
0.0
 10
8196.810711508066
 20
5468.974623698641
 30
0.0
 10
8202.361089754384
 20
5468.974623698641
 30
0.0
 10
8206.446225577454
 20
5468.974623698641
 30
0.0
 10
8209.413173545758
 20
5468.974623698641
 30
0.0
 10
8211.538740185459
 20
5468.974623698641
 30
0.0
 10
8213.37744345909
 20
5468.974623698641
 30
0.0
 10
8214.954698447129
 20
5468.974623698641
 30
0.0
 10
8216.441014768874
 20
5468.974623698641
 30
0.0
 10
8217.778189767942
 20
5468.974623698641
 30
0.0
 10
8218.85844037481
 20
5468.974623698641
 30
0.0
 10
8219.657942334448
 20
5468.974623698641
 30
0.0
 10
8220.210077370963
 20
5468.974623698641
 30
0.0
 10
8220.576999075893
 20
5468.974623698641
 30
0.0
 10
8220.795560825172
 20
5468.974623698641
 30
0.0
 10
8220.82218043667
 20
5468.974623698641
 30
0.0
 10
8220.835441400646
 20
5468.974623698641
 30
0.0
  0
SPLINE
  5
A4
330
1F
100
AcDbEntity
  8
0
  6
Continuous
 62
     7
370
    25
100
AcDbSpline
210
0.0
220
0.0
230
1.0
 70
     8
 71
     3
 72
    14
 73
    10
 74
     0
 42
0.00000001
 43
0.00000001
 40
0.0
 40
0.0
 40
0.0
 40
0.0
 40
0.3059160159623561
 40
0.4589932114190449
 40
0.6017753912066837
 40
0.7279604334478397
 40
0.8346535250992821
 40
0.9234719432309321
 40
1.0
 40
1.0
 40
1.0
 40
1.0
 10
8220.835441400646
 20
5468.974623698641
 30
0.0
 10
8222.56508659374
 20
5468.888982330201
 30
0.0
 10
8225.160228267823
 20
5468.760486910936
 30
0.0
 10
8228.457558249638
 20
5467.899732637896
 30
0.0
 10
8230.67634876782
 20
5467.022083175805
 30
0.0
 10
8232.509204912194
 20
5465.927670263744
 30
0.0
 10
8233.839154064857
 20
5464.680917630677
 30
0.0
 10
8234.680794669193
 20
5463.344608114353
 30
0.0
 10
8234.786511842987
 20
5462.408080848572
 30
0.0
 10
8234.835441400646
 20
5461.974623698642
 30
0.0
  0
LINE
  5
A5
330
1F
100
AcDbEntity
  8
0
  6
Continuous
 62
     7
370
    25
100
AcDbLine
 10
8035.8354414006
 20
5453.9746236986
 30
0.0
 11
8035.8354414006
 21
5455.9746236986
 31
0.0
  0
LINE
  5
A6
330
1F
100
AcDbEntity
  8
0
  6
Continuous
 62
     7
370
    25
100
AcDbLine
 10
8020.8354414006
 20
5453.9746236986
 30
0.0
 11
8020.8354414006
 21
5455.9746236986
 31
0.0
  0
LINE
  5
A7
330
1F
100
AcDbEntity
  8
0
  6
Continuous
 62
     7
370
    25
100
AcDbLine
 10
8020.8354414006
 20
5453.9746236986
 30
0.0
 11
8035.8354414006
 21
5453.9746236986
 31
0.0
  0
LINE
  5
A8
330
1F
100
AcDbEntity
  8
0
  6
Continuous
 62
     7
370
    25
100
AcDbLine
 10
8118.8354414006
 20
5453.9746236986
 30
0.0
 11
8118.8354414006
 21
5455.9746236986
 31
0.0
  0
LINE
  5
A9
330
1F
100
AcDbEntity
  8
0
  6
Continuous
 62
     7
370
    25
100
AcDbLine
 10
8103.8354414006
 20
5453.9746236986
 30
0.0
 11
8103.8354414006
 21
5455.9746236986
 31
0.0
  0
LINE
  5
AA
330
1F
100
AcDbEntity
  8
0
  6
Continuous
 62
     7
370
    25
100
AcDbLine
 10
8118.8354414006
 20
5453.9746236986
 30
0.0
 11
8103.8354414006
 21
5453.9746236986
 31
0.0
  0
LINE
  5
AB
330
1F
100
AcDbEntity
  8
0
  6
Continuous
 62
     7
370
    25
100
AcDbLine
 10
8020.8354414006
 20
5453.7714805598
 30
0.0
 11
8035.8354414006
 21
5453.7714805598
 31
0.0
  0
LINE
  5
AC
330
1F
100
AcDbEntity
  8
0
  6
Continuous
 62
     7
370
    25
100
AcDbLine
 10
8035.8354414006
 20
5448.9789331728
 30
0.0
 11
8035.8354414006
 21
5453.7714805598
 31
0.0
  0
LINE
  5
AD
330
1F
100
AcDbEntity
  8
0
  6
Continuous
 62
     7
370
    25
100
AcDbLine
 10
8020.8354414006
 20
5448.9789331728
 30
0.0
 11
8020.8354414006
 21
5453.7714805598
 31
0.0
  0
LINE
  5
AE
330
1F
100
AcDbEntity
  8
0
  6
Continuous
 62
     7
370
    25
100
AcDbLine
 10
8118.8354414006
 20
5453.7714805598
 30
0.0
 11
8103.8354414006
 21
5453.7714805598
 31
0.0
  0
LINE
  5
AF
330
1F
100
AcDbEntity
  8
0
  6
Continuous
 62
     7
370
    25
100
AcDbLine
 10
8118.8354414006
 20
5448.9789331728
 30
0.0
 11
8118.8354414006
 21
5453.7714805598
 31
0.0
  0
LINE
  5
B0
330
1F
100
AcDbEntity
  8
0
  6
Continuous
 62
     7
370
    25
100
AcDbLine
 10
8103.8354414006
 20
5448.9789331728
 30
0.0
 11
8103.8354414006
 21
5453.7714805598
 31
0.0
  0
LINE
  5
B1
330
1F
100
AcDbEntity
  8
0
  6
Continuous
 62
     7
370
    25
100
AcDbLine
 10
8035.8354414006
 20
5453.7714805598
 30
0.0
 11
8035.8354414006
 21
5453.9746236986
 31
0.0
  0
LINE
  5
B2
330
1F
100
AcDbEntity
  8
0
  6
Continuous
 62
     7
370
    25
100
AcDbLine
 10
8020.8354414006
 20
5453.7714805598
 30
0.0
 11
8020.8354414006
 21
5453.9746236986
 31
0.0
  0
LINE
  5
B3
330
1F
100
AcDbEntity
  8
0
  6
Continuous
 62
     7
370
    25
100
AcDbLine
 10
8118.8354414006
 20
5453.7714805598
 30
0.0
 11
8118.8354414006
 21
5453.9746236986
 31
0.0
  0
LINE
  5
B4
330
1F
100
AcDbEntity
  8
0
  6
Continuous
 62
     7
370
    25
100
AcDbLine
 10
8103.8354414006
 20
5453.7714805598
 30
0.0
 11
8103.8354414006
 21
5453.9746236986
 31
0.0
  0
SPLINE
  5
B5
330
1F
100
AcDbEntity
  8
0
  6
Continuous
 62
     7
370
    25
100
AcDbSpline
210
0.0
220
0.0
230
1.0
 70
    24
 71
     3
 72
    30
 73
    26
 74
     0
 42
0.00000001
 43
0.00000001
 40
0.0
 40
0.0
 40
0.0
 40
0.0
 40
0.0581152231242536
 40
0.1162633485042799
 40
0.1743666849821731
 40
0.2194571789530809
 40
0.26462461317083
 40
0.309754887347609
 40
0.354794614371037
 40
0.3989595034970231
 40
0.4432794495577065
 40
0.4875742949249933
 40
0.5317048320289973
 40
0.575812329485409
 40
0.6200752049855813
 40
0.664361422900577
 40
0.7085008599110348
 40
0.7531869888603893
 40
0.7979983305051199
 40
0.8428084976990164
 40
0.8874930206291441
 40
0.9127697290389322
 40
0.9380459733149251
 40
0.9690236896799048
 40
1.0
 40
1.0
 40
1.0
 40
1.0
 10
8247.335441400648
 20
5440.974623698642
 30
0.0
 10
8247.254277881484
 20
5440.974623698642
 30
0.0
 10
8247.091904891986
 20
5440.974623698642
 30
0.0
 10
8245.72309226371
 20
5440.974623698642
 30
0.0
 10
8243.63361638714
 20
5440.974623698642
 30
0.0
 10
8240.915497252256
 20
5440.974623698642
 30
0.0
 10
8237.711383439784
 20
5440.974623698642
 30
0.0
 10
8233.694880834373
 20
5440.974623698642
 30
0.0
 10
8228.822868923726
 20
5440.974623698642
 30
0.0
 10
8222.986297304642
 20
5440.974623698642
 30
0.0
 10
8216.18689240381
 20
5440.974623698642
 30
0.0
 10
8208.416362578439
 20
5440.974623698642
 30
0.0
 10
8199.68435174667
 20
5440.974623698642
 30
0.0
 10
8190.008631396782
 20
5440.974623698642
 30
0.0
 10
8179.526247160398
 20
5440.974623698642
 30
0.0
 10
8168.352055936469
 20
5440.974623698642
 30
0.0
 10
8156.54322530078
 20
5440.974623698642
 30
0.0
 10
8144.173501945829
 20
5440.974623698642
 30
0.0
 10
8131.311925592467
 20
5440.974623698642
 30
0.0
 10
8118.090275585902
 20
5440.974623698642
 30
0.0
 10
8106.542584031422
 20
5440.974623698642
 30
0.0
 10
8096.840601659737
 20
5440.974623698642
 30
0.0
 10
8088.473211612584
 20
5440.974623698642
 30
0.0
 10
8079.465732825214
 20
5440.974623698642
 30
0.0
 10
8073.045489973092
 20
5440.974623698642
 30
0.0
 10
8069.835441400647
 20
5440.974623698642
 30
0.0
  0
LINE
  5
B6
330
1F
100
AcDbEntity
  8
0
  6
Continuous
 62
     7
370
    25
100
AcDbLine
 10
8069.8354414006
 20
5440.9746236986
 30
0.0
 11
8069.8354414006
 21
5448.9746236986
 31
0.0
  0
SPLINE
  5
B7
330
1F
100
AcDbEntity
  8
0
  6
Continuous
 62
     7
370
    25
100
AcDbSpline
210
0.0
220
0.0
230
1.0
 70
    24
 71
     3
 72
    29
 73
    25
 74
     0
 42
0.00000001
 43
0.00000001
 40
0.0
 40
0.0
 40
0.0
 40
0.0
 40
0.0372087362063129
 40
0.0744668986893331
 40
0.1116854142192909
 40
0.156249916851893
 40
0.2009397361464948
 40
0.2456307793686329
 40
0.2901969556780737
 40
0.3339885896464244
 40
0.3779256675355774
 40
0.421838419665838
 40
0.4655967685367997
 40
0.5093184259307343
 40
0.5532031521416412
 40
0.5971140364589878
 40
0.6408714930514725
 40
0.6847520860060426
 40
0.7287166329580386
 40
0.7727157370678361
 40
0.8166435367406565
 40
0.8777401585915443
 40
0.9388883683161533
 40
1.0
 40
1.0
 40
1.0
 40
1.0
 10
8069.835441400647
 20
5448.974623698642
 30
0.0
 10
8073.535700654439
 20
5448.974623698642
 30
0.0
 10
8080.94113440657
 20
5448.974623698642
 30
0.0
 10
8091.990072137197
 20
5448.974623698642
 30
0.0
 10
8103.653814172295
 20
5448.974623698642
 30
0.0
 10
8115.863673942016
 20
5448.974623698642
 30
0.0
 10
8128.516917552642
 20
5448.974623698642
 30
0.0
 10
8140.825276034257
 20
5448.974623698642
 30
0.0
 10
8152.642732842988
 20
5448.974623698642
 30
0.0
 10
8163.905802878829
 20
5448.974623698642
 30
0.0
 10
8174.546367962888
 20
5448.974623698642
 30
0.0
 10
8184.528512233902
 20
5448.974623698642
 30
0.0
 10
8193.737325243657
 20
5448.974623698642
 30
0.0
 10
8202.040821741017
 20
5448.974623698642
 30
0.0
 10
8209.424070317229
 20
5448.974623698642
 30
0.0
 10
8215.884033691778
 20
5448.974623698642
 30
0.0
 10
8221.39929298268
 20
5448.974623698642
 30
0.0
 10
8225.990222544904
 20
5448.974623698642
 30
0.0
 10
8229.776983336076
 20
5448.974623698642
 30
0.0
 10
8232.823293832424
 20
5448.974623698642
 30
0.0
 10
8235.5204195599
 20
5448.974623698642
 30
0.0
 10
8237.659085054069
 20
5448.974623698642
 30
0.0
 10
8239.083357371654
 20
5448.974623698642
 30
0.0
 10
8239.251430152477
 20
5448.974623698642
 30
0.0
 10
8239.335441400646
 20
5448.974623698642
 30
0.0
  0
ARC
  5
B8
330
1F
100
AcDbEntity
  8
0
  6
Continuous
 62
     7
370
    25
100
AcDbCircle
 10
8239.3354414006
 20
5440.9746236986
 30
0.0
 40
8.000000000001819
100
AcDbArc
 50
0.0
 51
90.0
  0
SPLINE
  5
B9
330
1F
100
AcDbEntity
  8
0
  6
Continuous
 62
     7
370
    25
100
AcDbSpline
210
0.0
220
0.0
230
1.0
 70
    24
 71
     3
 72
    29
 73
    25
 74
     0
 42
0.00000001
 43
0.00000001
 40
0.0
 40
0.0
 40
0.0
 40
0.0
 40
0.0417186488761107
 40
0.0824140654256087
 40
0.1221631708906721
 40
0.1610081884995341
 40
0.1989733864323218
 40
0.2473864875679287
 40
0.294382874315771
 40
0.3400591385436877
 40
0.3877024478860881
 40
0.4342610478314704
 40
0.4800625909896444
 40
0.5254843351938864
 40
0.5709211461603197
 40
0.6167450796671216
 40
0.6632617130450299
 40
0.7106684148804243
 40
0.7590180077590708
 40
0.8081888303508946
 40
0.8569718683996248
 40
0.9057285560759445
 40
0.953727567732806
 40
1.0
 40
1.0
 40
1.0
 40
1.0
 10
8069.835441400647
 20
5432.474623698642
 30
0.0
 10
8074.159235116827
 20
5432.474623698642
 30
0.0
 10
8082.700772961701
 20
5432.474623698642
 30
0.0
 10
8095.281985078009
 20
5432.474623698642
 30
0.0
 10
8107.430283273758
 20
5432.474623698642
 30
0.0
 10
8119.11997014003
 20
5432.474623698642
 30
0.0
 10
8131.44093816665
 20
5432.474623698642
 30
0.0
 10
8144.227477713805
 20
5432.474623698642
 30
0.0
 10
8157.26824752455
 20
5432.474623698642
 30
0.0
 10
8169.674691442236
 20
5432.474623698642
 30
0.0
 10
8181.369717948149
 20
5432.474623698642
 30
0.0
 10
8192.26679180569
 20
5432.474623698642
 30
0.0
 10
8202.087880587287
 20
5432.474623698642
 30
0.0
 10
8210.840599255002
 20
5432.474623698642
 30
0.0
 10
8218.54243934665
 20
5432.474623698642
 30
0.0
 10
8225.220950382341
 20
5432.474623698642
 30
0.0
 10
8230.913187573446
 20
5432.474623698642
 30
0.0
 10
8235.663992450201
 20
5432.474623698642
 30
0.0
 10
8239.524339295356
 20
5432.474623698642
 30
0.0
 10
8242.529373426869
 20
5432.474623698642
 30
0.0
 10
8244.75675747335
 20
5432.474623698642
 30
0.0
 10
8246.261594248997
 20
5432.474623698642
 30
0.0
 10
8247.167279750123
 20
5432.474623698642
 30
0.0
 10
8247.280076138248
 20
5432.474623698642
 30
0.0
 10
8247.335441400648
 20
5432.474623698642
 30
0.0
  0
LINE
  5
BA
330
1F
100
AcDbEntity
  8
0
  6
Continuous
 62
     7
370
    25
100
AcDbLine
 10
8069.8354414006
 20
5440.9746236986
 30
0.0
 11
8069.8354414006
 21
5432.4746236986
 31
0.0
  0
LINE
  5
BB
330
1F
100
AcDbEntity
  8
0
  6
Continuous
 62
     7
370
    25
100
AcDbLine
 10
8247.3354414006
 20
5440.9746236986
 30
0.0
 11
8247.3354414006
 21
5432.4746236986
 31
0.0
  0
SPLINE
  5
BC
330
1F
100
AcDbEntity
  8
0
  6
Continuous
 62
     7
370
    25
100
AcDbSpline
210
0.0
220
0.0
230
1.0
 70
    24
 71
     3
 72
    32
 73
    28
 74
     0
 42
0.00000001
 43
0.00000001
 40
0.0
 40
0.0
 40
0.0
 40
0.0
 40
0.0476791593709932
 40
0.0953656604998443
 40
0.1445128122860328
 40
0.1936635188643799
 40
0.2412291110169807
 40
0.2887930342149306
 40
0.3213760945098189
 40
0.3539847443659072
 40
0.3865634680079054
 40
0.4189222484485184
 40
0.4513120105470723
 40
0.4836672899576162
 40
0.5172999725226275
 40
0.5509718597630648
 40
0.584608284187482
 40
0.6194902136907343
 40
0.6544087664239889
 40
0.6893015087114829
 40
0.7430909988798097
 40
0.7968938889272698
 40
0.8439996894771167
 40
0.8829081984088601
 40
0.9218179033167597
 40
0.9609090314999892
 40
1.0
 40
1.0
 40
1.0
 40
1.0
 10
8069.835441400647
 20
5440.974623698642
 30
0.0
 10
8064.893400749801
 20
5440.974623698642
 30
0.0
 10
8055.008558460163
 20
5440.974623698642
 30
0.0
 10
8040.153168840897
 20
5440.974623698642
 30
0.0
 10
8025.374396670251
 20
5440.974623698642
 30
0.0
 10
8010.931955641469
 20
5440.974623698642
 30
0.0
 10
7997.047754329673
 20
5440.974623698642
 30
0.0
 10
7985.183238785569
 20
5440.974623698642
 30
0.0
 10
7975.094233162275
 20
5440.974623698642
 30
0.0
 10
7966.652178125782
 20
5440.974623698642
 30
0.0
 10
7958.573814686132
 20
5440.974623698642
 30
0.0
 10
7950.90299038564
 20
5440.974623698642
 30
0.0
 10
7943.674125299032
 20
5440.974623698642
 30
0.0
 10
7936.818578937965
 20
5440.974623698642
 30
0.0
 10
7930.406962952034
 20
5440.974623698642
 30
0.0
 10
7924.477441635537
 20
5440.974623698642
 30
0.0
 10
7919.059767854773
 20
5440.974623698642
 30
0.0
 10
7914.194272582188
 20
5440.974623698642
 30
0.0
 10
7909.874293778551
 20
5440.974623698642
 30
0.0
 10
7905.456288878226
 20
5440.974623698642
 30
0.0
 10
7901.302753949104
 20
5440.974623698642
 30
0.0
 10
7897.876298725511
 20
5440.974623698642
 30
0.0
 10
7895.578267692852
 20
5440.974623698642
 30
0.0
 10
7894.061847139765
 20
5440.974623698642
 30
0.0
 10
7893.074932300369
 20
5440.974623698642
 30
0.0
 10
7892.452242386096
 20
5440.974623698642
 30
0.0
 10
7892.374375009449
 20
5440.974623698642
 30
0.0
 10
7892.335441400646
 20
5440.974623698642
 30
0.0
  0
ARC
  5
BD
330
1F
100
AcDbEntity
  8
0
  6
Continuous
 62
     7
370
    25
100
AcDbCircle
 10
7900.3354414006
 20
5440.9746236986
 30
0.0
 40
8.0
100
AcDbArc
 50
90.0
 51
180.0
  0
SPLINE
  5
BE
330
1F
100
AcDbEntity
  8
0
  6
Continuous
 62
     7
370
    25
100
AcDbSpline
210
0.0
220
0.0
230
1.0
 70
    24
 71
     3
 72
    29
 73
    25
 74
     0
 42
0.00000001
 43
0.00000001
 40
0.0
 40
0.0
 40
0.0
 40
0.0
 40
0.0516590462793932
 40
0.1033713276043049
 40
0.1550685813539187
 40
0.2067071132752007
 40
0.2491976650772558
 40
0.2918280534562201
 40
0.3344549736202415
 40
0.3769868613142862
 40
0.4193945427016249
 40
0.4584515995407445
 40
0.4976868574907327
 40
0.5369844047704226
 40
0.5762224563991492
 40
0.615281867027059
 40
0.6632049252395675
 40
0.711299481033133
 40
0.7594165110348662
 40
0.8073703228853845
 40
0.8554601889675504
 40
0.903722673851718
 40
0.9519534853074704
 40
1.0
 40
1.0
 40
1.0
 40
1.0
 10
7900.335441400646
 20
5448.974623698642
 30
0.0
 10
7900.394579267395
 20
5448.974623698642
 30
0.0
 10
7900.51291594292
 20
5448.974623698642
 30
0.0
 10
7901.514763726023
 20
5448.974623698642
 30
0.0
 10
7903.183526680995
 20
5448.974623698642
 30
0.0
 10
7905.471723193597
 20
5448.974623698642
 30
0.0
 10
7908.290897016554
 20
5448.974623698642
 30
0.0
 10
7911.58777960794
 20
5448.974623698642
 30
0.0
 10
7915.608097959975
 20
5448.974623698642
 30
0.0
 10
7920.417442051777
 20
5448.974623698642
 30
0.0
 10
7925.922424192994
 20
5448.974623698642
 30
0.0
 10
7932.142596110381
 20
5448.974623698642
 30
0.0
 10
7938.972337558755
 20
5448.974623698642
 30
0.0
 10
7946.521915103573
 20
5448.974623698642
 30
0.0
 10
7954.722867105892
 20
5448.974623698642
 30
0.0
 10
7964.200986659585
 20
5448.974623698642
 30
0.0
 10
7975.067135571426
 20
5448.974623698642
 30
0.0
 10
7987.335881623719
 20
5448.974623698642
 30
0.0
 10
8000.177200965865
 20
5448.974623698642
 30
0.0
 10
8013.48605084102
 20
5448.974623698642
 30
0.0
 10
8027.192403106697
 20
5448.974623698642
 30
0.0
 10
8041.229481292103
 20
5448.974623698642
 30
0.0
 10
8055.481631261316
 20
5448.974623698642
 30
0.0
 10
8065.056947800869
 20
5448.974623698642
 30
0.0
 10
8069.835441400647
 20
5448.974623698642
 30
0.0
  0
SPLINE
  5
BF
330
1F
100
AcDbEntity
  8
0
  6
Continuous
 62
     7
370
    25
100
AcDbSpline
210
0.0
220
0.0
230
1.0
 70
    24
 71
     3
 72
    29
 73
    25
 74
     0
 42
0.00000001
 43
0.00000001
 40
0.0
 40
0.0
 40
0.0
 40
0.0
 40
0.0500571486723935
 40
0.1020308728862185
 40
0.1547374320152545
 40
0.2073127240032666
 40
0.259188407302696
 40
0.3100661955554108
 40
0.3570696131717861
 40
0.4032530608930144
 40
0.4488658166809322
 40
0.4942477259776393
 40
0.5397860700509688
 40
0.5781416502197213
 40
0.6170890935617227
 40
0.6568115789017401
 40
0.6974577801336448
 40
0.7391393165449404
 40
0.7819328494666516
 40
0.8233444722377719
 40
0.8658156125677179
 40
0.9093749650878776
 40
0.9540714807162349
 40
0.9999999999999999
 40
0.9999999999999999
 40
0.9999999999999999
 40
0.9999999999999999
 10
7892.335441400646
 20
5432.474623698642
 30
0.0
 10
7892.400138588005
 20
5432.474623698642
 30
0.0
 10
7892.532010072387
 20
5432.474623698642
 30
0.0
 10
7893.591458247599
 20
5432.474623698642
 30
0.0
 10
7895.358377909416
 20
5432.474623698642
 30
0.0
 10
7897.967063694617
 20
5432.474623698642
 30
0.0
 10
7901.469068537076
 20
5432.474623698642
 30
0.0
 10
7905.854119496862
 20
5432.474623698642
 30
0.0
 10
7911.115693321983
 20
5432.474623698642
 30
0.0
 10
7917.231927391855
 20
5432.474623698642
 30
0.0
 10
7924.351661366928
 20
5432.474623698642
 30
0.0
 10
7932.507782813113
 20
5432.474623698642
 30
0.0
 10
7941.204158198027
 20
5432.474623698642
 30
0.0
 10
7950.248409841449
 20
5432.474623698642
 30
0.0
 10
7959.483608030091
 20
5432.474623698642
 30
0.0
 10
7969.465331404372
 20
5432.474623698642
 30
0.0
 10
7980.188054961352
 20
5432.474623698642
 30
0.0
 10
7991.641221813122
 20
5432.474623698642
 30
0.0
 10
8003.568455850017
 20
5432.474623698642
 30
0.0
 10
8015.91056532175
 20
5432.474623698642
 30
0.0
 10
8028.611848011552
 20
5432.474623698642
 30
0.0
 10
8041.879896943628
 20
5432.474623698642
 30
0.0
 10
8055.682009199677
 20
5432.474623698642
 30
0.0
 10
8065.075065974305
 20
5432.474623698642
 30
0.0
 10
8069.835441400647
 20
5432.474623698642
 30
0.0
  0
LINE
  5
C0
330
1F
100
AcDbEntity
  8
0
  6
Continuous
 62
     7
370
    25
100
AcDbLine
 10
7892.3354414006
 20
5440.9746236986
 30
0.0
 11
7892.3354414006
 21
5432.4746236986
 31
0.0
  0
LINE
  5
C1
330
1F
100
AcDbEntity
  8
0
  6
Continuous
 62
     7
370
    25
100
AcDbLine
 10
7946.3028697444
 20
5424.4746236986
 30
0.0
 11
7933.3680130569
 21
5424.4746236986
 31
0.0
  0
LINE
  5
C2
330
1F
100
AcDbEntity
  8
0
  6
Continuous
 62
     7
370
    25
100
AcDbLine
 10
8206.3028697444
 20
5424.4746236986
 30
0.0
 11
8193.3680130569
 21
5424.4746236986
 31
0.0
  0
LINE
  5
C3
330
1F
100
AcDbEntity
  8
0
  6
Continuous
 62
     7
370
    25
100
AcDbLine
 10
8010.8354414006
 20
5432.4746236986
 30
0.0
 11
8010.8354414006
 21
5430.4746236986
 31
0.0
  0
LINE
  5
C4
330
1F
100
AcDbEntity
  8
0
  6
Continuous
 62
     7
370
    25
100
AcDbLine
 10
8015.8354414006
 20
5430.4746236986
 30
0.0
 11
8015.8354414006
 21
5432.4746236986
 31
0.0
  0
LINE
  5
C5
330
1F
100
AcDbEntity
  8
0
  6
Continuous
 62
     7
370
    25
100
AcDbLine
 10
8010.8354414006
 20
5430.4746236986
 30
0.0
 11
8015.8354414006
 21
5430.4746236986
 31
0.0
  0
LINE
  5
C6
330
1F
100
AcDbEntity
  8
0
  6
Continuous
 62
     7
370
    25
100
AcDbLine
 10
8005.8354414006
 20
5430.4746236986
 30
0.0
 11
8005.8354414006
 21
5432.4746236986
 31
0.0
  0
LINE
  5
C7
330
1F
100
AcDbEntity
  8
0
  6
Continuous
 62
     7
370
    25
100
AcDbLine
 10
8010.8354414006
 20
5430.4746236986
 30
0.0
 11
8005.8354414006
 21
5430.4746236986
 31
0.0
  0
LINE
  5
C8
330
1F
100
AcDbEntity
  8
0
  6
Continuous
 62
     7
370
    25
100
AcDbLine
 10
8020.8354414006
 20
5432.4746236986
 30
0.0
 11
8020.8354414006
 21
5430.4746236986
 31
0.0
  0
LINE
  5
C9
330
1F
100
AcDbEntity
  8
0
  6
Continuous
 62
     7
370
    25
100
AcDbLine
 10
8020.8354414006
 20
5430.4746236986
 30
0.0
 11
8015.8354414006
 21
5430.4746236986
 31
0.0
  0
LINE
  5
CA
330
1F
100
AcDbEntity
  8
0
  6
Continuous
 62
     7
370
    25
100
AcDbLine
 10
8128.8354414006
 20
5430.4746236986
 30
0.0
 11
8128.8354414006
 21
5432.4746236986
 31
0.0
  0
LINE
  5
CB
330
1F
100
AcDbEntity
  8
0
  6
Continuous
 62
     7
370
    25
100
AcDbLine
 10
8133.8354414006
 20
5432.4746236986
 30
0.0
 11
8133.8354414006
 21
5430.4746236986
 31
0.0
  0
LINE
  5
CC
330
1F
100
AcDbEntity
  8
0
  6
Continuous
 62
     7
370
    25
100
AcDbLine
 10
8133.8354414006
 20
5430.4746236986
 30
0.0
 11
8128.8354414006
 21
5430.4746236986
 31
0.0
  0
LINE
  5
CD
330
1F
100
AcDbEntity
  8
0
  6
Continuous
 62
     7
370
    25
100
AcDbLine
 10
8123.8354414006
 20
5432.4746236986
 30
0.0
 11
8123.8354414006
 21
5430.4746236986
 31
0.0
  0
LINE
  5
CE
330
1F
100
AcDbEntity
  8
0
  6
Continuous
 62
     7
370
    25
100
AcDbLine
 10
8128.8354414006
 20
5430.4746236986
 30
0.0
 11
8123.8354414006
 21
5430.4746236986
 31
0.0
  0
LINE
  5
CF
330
1F
100
AcDbEntity
  8
0
  6
Continuous
 62
     7
370
    25
100
AcDbLine
 10
8118.8354414006
 20
5430.4746236986
 30
0.0
 11
8118.8354414006
 21
5432.4746236986
 31
0.0
  0
LINE
  5
D0
330
1F
100
AcDbEntity
  8
0
  6
Continuous
 62
     7
370
    25
100
AcDbLine
 10
8123.8354414006
 20
5430.4746236986
 30
0.0
 11
8118.8354414006
 21
5430.4746236986
 31
0.0
  0
LINE
  5
D1
330
1F
100
AcDbEntity
  8
0
  6
Continuous
 62
     7
370
    25
100
AcDbLine
 10
8020.8354414006
 20
5448.9793937275
 30
0.0
 11
8020.8354414006
 21
5453.7714805598
 31
0.0
  0
LINE
  5
D2
330
1F
100
AcDbEntity
  8
0
  6
Continuous
 62
     7
370
    25
100
AcDbLine
 10
8005.8354414006
 20
5448.9793937275
 30
0.0
 11
8005.8354414006
 21
5454.4746236986
 31
0.0
  0
LINE
  5
D3
330
1F
100
AcDbEntity
  8
0
  6
Continuous
 62
     7
370
    25
100
AcDbLine
 10
8133.8354414006
 20
5448.9793937275
 30
0.0
 11
8133.8354414006
 21
5454.4746236986
 31
0.0
  0
LINE
  5
D4
330
1F
100
AcDbEntity
  8
0
  6
Continuous
 62
     7
370
    25
100
AcDbLine
 10
8118.8354414006
 20
5448.9793937275
 30
0.0
 11
8118.8354414006
 21
5453.7714805598
 31
0.0
  0
LINE
  5
D5
330
1F
100
AcDbEntity
  8
0
  6
Continuous
 62
     8
370
    25
100
AcDbLine
 10
7946.2881349972
 20
5450.8003122131
 30
0.0
 11
7963.3827478041
 21
5450.8003122131
 31
0.0
  0
LINE
  5
D6
330
1F
100
AcDbEntity
  8
0
  6
Continuous
 62
     8
370
    25
100
AcDbLine
 10
8176.2881349972
 20
5450.8003122131
 30
0.0
 11
8193.3827478041
 21
5450.8003122131
 31
0.0
  0
LINE
  5
D7
330
1F
100
AcDbEntity
  8
0
  6
Continuous
 62
     8
370
    25
100
AcDbLine
 10
7931.3756236607
 20
5426.3003122131
 30
0.0
 11
7948.2952591406
 21
5426.3003122131
 31
0.0
  0
LINE
  5
D8
330
1F
100
AcDbEntity
  8
0
  6
Continuous
 62
     8
370
    25
100
AcDbLine
 10
8191.3756236607
 20
5426.3003122131
 30
0.0
 11
8208.2952591406
 21
5426.3003122131
 31
0.0
  0
LINE
  5
D9
330
1F
100
AcDbEntity
  8
0
  6
Continuous
 62
     7
370
    25
100
AcDbLine
 10
8005.8354414006
 20
5187.7509969753
 30
0.0
 11
7982.3354414006
 21
5187.7509969753
 31
0.0
  0
LINE
  5
DA
330
1F
100
AcDbEntity
  8
0
  6
Continuous
 62
     7
370
    25
100
AcDbLine
 10
8157.3354414006
 20
5187.7509969753
 30
0.0
 11
8133.8354414006
 21
5187.7509969753
 31
0.0
  0
LINE
  5
DB
330
1F
100
AcDbEntity
  8
0
  6
Continuous
 62
     7
370
    25
100
AcDbLine
 10
8118.8354414006
 20
5187.7509969753
 30
0.0
 11
8103.8354414006
 21
5187.7509969753
 31
0.0
  0
LINE
  5
DC
330
1F
100
AcDbEntity
  8
0
  6
Continuous
 62
     7
370
    25
100
AcDbLine
 10
8035.8354414006
 20
5187.7509969753
 30
0.0
 11
8020.8354414006
 21
5187.7509969753
 31
0.0
  0
LINE
  5
DD
330
1F
100
AcDbEntity
  8
0
  6
Continuous
 62
     7
370
    25
100
AcDbLine
 10
8133.8354414006
 20
5187.7509969753
 30
0.0
 11
8118.8354414006
 21
5187.7509969753
 31
0.0
  0
LINE
  5
DE
330
1F
100
AcDbEntity
  8
0
  6
Continuous
 62
     7
370
    25
100
AcDbLine
 10
8020.8354414006
 20
5187.7509969753
 30
0.0
 11
8005.8354414006
 21
5187.7509969753
 31
0.0
  0
LINE
  5
DF
330
1F
100
AcDbEntity
  8
0
  6
Continuous
 62
     7
370
    25
100
AcDbLine
 10
7982.3354414006
 20
5187.7509969753
 30
0.0
 11
7982.3354414006
 21
5176.7509969753
 31
0.0
  0
LINE
  5
E0
330
1F
100
AcDbEntity
  8
0
  6
Continuous
 62
     7
370
    25
100
AcDbLine
 10
8005.8354414006
 20
5187.7509969753
 30
0.0
 11
8005.8354414006
 21
5176.7509969753
 31
0.0
  0
LINE
  5
E1
330
1F
100
AcDbEntity
  8
0
  6
Continuous
 62
     7
370
    25
100
AcDbLine
 10
8133.8354414006
 20
5176.7509969753
 30
0.0
 11
8133.8354414006
 21
5187.7509969753
 31
0.0
  0
LINE
  5
E2
330
1F
100
AcDbEntity
  8
0
  6
Continuous
 62
     7
370
    25
100
AcDbLine
 10
8157.3354414006
 20
5176.7509969753
 30
0.0
 11
8157.3354414006
 21
5187.7509969753
 31
0.0
  0
SPLINE
  5
E3
330
1F
100
AcDbEntity
  8
0
  6
Continuous
 62
     7
370
    25
100
AcDbSpline
210
0.0
220
0.0
230
1.0
 70
    24
 71
     3
 72
    11
 73
     7
 74
     0
 42
0.00000001
 43
0.00000001
 40
0.0
 40
0.0
 40
0.0
 40
0.0
 40
0.0734800452324185
 40
0.3491036671036885
 40
0.6235098070819279
 40
1.0
 40
1.0
 40
1.0
 40
1.0
 10
7909.835441400647
 20
5176.750996975251
 30
0.0
 10
7910.012989679828
 20
5176.750996975251
 30
0.0
 10
7910.856521487052
 20
5176.750996975251
 30
0.0
 10
7912.738852281351
 20
5176.750996975251
 30
0.0
 10
7915.579791163717
 20
5176.750996975251
 30
0.0
 10
7917.642394426623
 20
5176.750996975251
 30
0.0
 10
7918.835441400648
 20
5176.750996975251
 30
0.0
  0
LINE
  5
E4
330
1F
100
AcDbEntity
  8
0
  6
Continuous
 62
     7
370
    25
100
AcDbLine
 10
7918.8354414006
 20
5176.7509969753
 30
0.0
 11
7918.8354414006
 21
5171.7509969753
 31
0.0
  0
SPLINE
  5
E5
330
1F
100
AcDbEntity
  8
0
  6
Continuous
 62
     7
370
    25
100
AcDbSpline
210
0.0
220
0.0
230
1.0
 70
     8
 71
     3
 72
    13
 73
     9
 74
     0
 42
0.00000001
 43
0.00000001
 40
0.0
 40
0.0
 40
0.0
 40
0.0
 40
0.0000044102040638
 40
0.2603335113481298
 40
0.5203965785828331
 40
0.6721239183290258
 40
0.8236017899054277
 40
1.0
 40
1.0
 40
1.0
 40
1.0
 10
7918.835441400646
 20
5171.75099697525
 30
0.0
 10
7918.835421400647
 20
5171.75099697525
 30
0.0
 10
7917.654825192001
 20
5171.75099697657
 30
0.0
 10
7915.292721984013
 20
5171.750996974625
 30
0.0
 10
7912.28959471865
 20
5171.750996975338
 30
0.0
 10
7909.875196403218
 20
5171.750996975225
 30
0.0
 10
7907.891869229998
 20
5171.750996975247
 30
0.0
 10
7906.766037122203
 20
5171.750996975244
 30
0.0
 10
7906.160336432875
 20
5171.750996975241
 30
0.0
  0
SPLINE
  5
E6
330
1F
100
AcDbEntity
  8
0
  6
Continuous
 62
     7
370
    25
100
AcDbSpline
210
0.0
220
0.0
230
1.0
 70
     8
 71
     3
 72
    11
 73
     7
 74
     0
 42
0.00000001
 43
0.00000001
 40
0.0
 40
0.0
 40
0.0
 40
0.0
 40
0.2499971788514091
 40
0.4997754509018367
 40
0.7494434224578864
 40
1.0
 40
1.0
 40
1.0
 40
1.0
 10
7909.835441400647
 20
5176.750996975251
 30
0.0
 10
7909.353893964902
 20
5176.675884762166
 30
0.0
 10
7908.391220754204
 20
5176.525726107036
 30
0.0
 10
7907.177231214666
 20
5175.370789727092
 30
0.0
 10
7906.326608214494
 20
5173.718821259215
 30
0.0
 10
7906.215825958472
 20
5172.407714759295
 30
0.0
 10
7906.160336432876
 20
5171.750996975241
 30
0.0
  0
SPLINE
  5
E7
330
1F
100
AcDbEntity
  8
0
  6
Continuous
 62
     7
370
    25
100
AcDbSpline
210
0.0
220
0.0
230
1.0
 70
    24
 71
     3
 72
    12
 73
     8
 74
     0
 42
0.00000001
 43
0.00000001
 40
0.0
 40
0.0
 40
0.0
 40
0.0
 40
0.1358471020420691
 40
0.4999015415586492
 40
0.6924633983459499
 40
0.8843516060618505
 40
1.0
 40
1.0
 40
1.0
 40
1.0
 10
8220.835441400646
 20
5176.750996975251
 30
0.0
 10
8221.26472908026
 20
5176.750996975251
 30
0.0
 10
8222.844457831074
 20
5176.750996975251
 30
0.0
 10
8225.029440935234
 20
5176.75099697525
 30
0.0
 10
8227.304382765013
 20
5176.750996975251
 30
0.0
 10
8228.784278006999
 20
5176.750996975251
 30
0.0
 10
8229.548178478974
 20
5176.750996975251
 30
0.0
 10
8229.835441400646
 20
5176.750996975251
 30
0.0
  0
SPLINE
  5
E8
330
1F
100
AcDbEntity
  8
0
  6
Continuous
 62
     7
370
    25
100
AcDbSpline
210
0.0
220
0.0
230
1.0
 70
     8
 71
     3
 72
    11
 73
     7
 74
     0
 42
0.00000001
 43
0.00000001
 40
0.0
 40
0.0
 40
0.0
 40
0.0
 40
0.2505565657706924
 40
0.5002245422608926
 40
0.7500027742105734
 40
0.9999999999999999
 40
0.9999999999999999
 40
0.9999999999999999
 40
0.9999999999999999
 10
8233.514999508387
 20
5171.75099697525
 30
0.0
 10
8233.459442465668
 20
5172.407718913936
 30
0.0
 10
8233.348525411157
 20
5173.71883375206
 30
0.0
 10
8232.496868615592
 20
5175.370807798583
 30
0.0
 10
8231.281406144903
 20
5176.525736396698
 30
0.0
 10
8230.31757042801
 20
5176.67588818434
 30
0.0
 10
8229.835441400646
 20
5176.750996975251
 30
0.0
  0
SPLINE
  5
E9
330
1F
100
AcDbEntity
  8
0
  6
Continuous
 62
     7
370
    25
100
AcDbSpline
210
0.0
220
0.0
230
1.0
 70
    24
 71
     3
 72
    11
 73
     7
 74
     0
 42
0.00000001
 43
0.00000001
 40
0.0
 40
0.0
 40
0.0
 40
0.0
 40
0.2030689939157571
 40
0.3922033365599845
 40
0.5860088270904229
 40
1.0
 40
1.0
 40
1.0
 40
1.0
 10
8233.514999508387
 20
5171.750996975251
 30
0.0
 10
8232.80895111129
 20
5171.750996975251
 30
0.0
 10
8231.44530355597
 20
5171.750996975251
 30
0.0
 10
8228.963905597035
 20
5171.75099697525
 30
0.0
 10
8225.486552692812
 20
5171.750996975251
 30
0.0
 10
8222.719902098528
 20
5171.750996975251
 30
0.0
 10
8220.835441400646
 20
5171.75099697525
 30
0.0
  0
LINE
  5
EA
330
1F
100
AcDbEntity
  8
0
  6
Continuous
 62
     7
370
    25
100
AcDbLine
 10
8220.8354414006
 20
5176.7509969753
 30
0.0
 11
8220.8354414006
 21
5171.7509969753
 31
0.0
  0
SPLINE
  5
EB
330
1F
100
AcDbEntity
  8
0
  6
Continuous
 62
     7
370
    25
100
AcDbSpline
210
0.0
220
0.0
230
1.0
 70
    24
 71
     3
 72
    14
 73
    10
 74
     0
 42
0.00000001
 43
0.00000001
 40
0.0
 40
0.0
 40
0.0
 40
0.0
 40
0.3059160159623561
 40
0.4589932114190449
 40
0.6017753912066837
 40
0.7279604334478397
 40
0.8346535250992821
 40
0.9234719432309321
 40
1.0
 40
1.0
 40
1.0
 40
1.0
 10
8220.835441400646
 20
4976.750996975251
 30
0.0
 10
8222.56508659374
 20
4976.750996975251
 30
0.0
 10
8225.160228267823
 20
4976.750996975251
 30
0.0
 10
8228.457558249638
 20
4976.750996975251
 30
0.0
 10
8230.67634876782
 20
4976.750996975251
 30
0.0
 10
8232.509204912194
 20
4976.750996975251
 30
0.0
 10
8233.839154064857
 20
4976.750996975251
 30
0.0
 10
8234.680794669193
 20
4976.750996975251
 30
0.0
 10
8234.786511842987
 20
4976.750996975251
 30
0.0
 10
8234.835441400646
 20
4976.750996975251
 30
0.0
  0
LINE
  5
EC
330
1F
100
AcDbEntity
  8
0
  6
Continuous
 62
     7
370
    25
100
AcDbLine
 10
8220.8354414006
 20
4976.7509969753
 30
0.0
 11
8220.8354414006
 21
5171.7509969753
 31
0.0
  0
SPLINE
  5
ED
330
1F
100
AcDbEntity
  8
0
  6
Continuous
 62
     7
370
    25
100
AcDbSpline
210
0.0
220
0.0
230
1.0
 70
    24
 71
     3
 72
    10
 73
     6
 74
     0
 42
0.00000001
 43
0.00000001
 40
0.0
 40
0.0
 40
0.0
 40
0.0
 40
0.2202147983896678
 40
0.4562156819348038
 40
1.0
 40
1.0
 40
1.0
 40
1.0
 10
8234.835441400646
 20
5171.750996975251
 30
0.0
 10
8234.820116720728
 20
5171.750996975251
 30
0.0
 10
8234.788368812095
 20
5171.750996975251
 30
0.0
 10
8234.440338765255
 20
5171.75099697525
 30
0.0
 10
8233.8951721924
 20
5171.75099697525
 30
0.0
 10
8233.514999508387
 20
5171.75099697525
 30
0.0
  0
LINE
  5
EE
330
1F
100
AcDbEntity
  8
0
  6
Continuous
 62
     7
370
    25
100
AcDbLine
 10
8234.8354414006
 20
5171.7509969753
 30
0.0
 11
8234.8354414006
 21
4976.7509969753
 31
0.0
  0
LINE
  5
EF
330
1F
100
AcDbEntity
  8
0
  6
Continuous
 62
     7
370
    25
100
AcDbLine
 10
7918.8354414006
 20
5176.7509969753
 30
0.0
 11
8220.8354414006
 21
5176.7509969753
 31
0.0
  0
LINE
  5
F0
330
1F
100
AcDbEntity
  8
0
  6
Continuous
 62
     7
370
    25
100
AcDbLine
 10
8220.8354414006
 20
5171.7509969753
 30
0.0
 11
7918.8354414006
 21
5171.7509969753
 31
0.0
  0
SPLINE
  5
F1
330
1F
100
AcDbEntity
  8
0
  6
Continuous
 62
     7
370
    25
100
AcDbSpline
210
0.0
220
0.0
230
1.0
 70
     8
 71
     3
 72
    36
 73
    32
 74
     0
 42
0.00000001
 43
0.00000001
 40
0.0
 40
0.0
 40
0.0
 40
0.0
 40
0.0328061466895064
 40
0.0645962378375309
 40
0.0954537181134244
 40
0.1254698111627497
 40
0.1675713546421604
 40
0.209015709198439
 40
0.2503616820712408
 40
0.2811473066768325
 40
0.3121689100506656
 40
0.3435612993225149
 40
0.3754545802338944
 40
0.4168036989937688
 40
0.4584690419564562
 40
0.500103220256076
 40
0.5419547511605531
 40
0.5835403760227788
 40
0.625104174968667
 40
0.6498423514726444
 40
0.674885046673617
 40
0.6996921816040335
 40
0.7246010809777867
 40
0.7503349336925752
 40
0.7846832949162287
 40
0.8216497823569562
 40
0.855799381670873
 40
0.8929072453179553
 40
0.9280037970223894
 40
0.9641339974396514
 40
1.0
 40
1.0
 40
1.0
 40
1.0
 10
8069.835441400647
 20
4778.75099697525
 30
0.0
 10
8072.931351369924
 20
4778.791823246576
 30
0.0
 10
8079.027286335764
 20
4778.872211338406
 30
0.0
 10
8088.014479090065
 20
4779.548330227421
 30
0.0
 10
8096.693969818047
 20
4780.636048662069
 30
0.0
 10
8106.256143298808
 20
4782.390550578384
 30
0.0
 10
8116.644525626304
 20
4785.075332308005
 30
0.0
 10
8127.761221867337
 20
4789.034181494974
 30
0.0
 10
8137.499820046637
 20
4793.545394866001
 30
0.0
 10
8145.98530910512
 20
4798.327651368953
 30
0.0
 10
8153.347926004242
 20
4803.148966649434
 30
0.0
 10
8160.463038446581
 20
4808.50377497798
 30
0.0
 10
8167.964127030426
 20
4814.933097916215
 30
0.0
 10
8175.690508404325
 20
4822.556178249805
 30
0.0
 10
8183.41393027609
 20
4831.441608639343
 30
0.0
 10
8190.477410787499
 20
4840.919018785464
 30
0.0
 10
8196.810711508066
 20
4850.890773511363
 30
0.0
 10
8202.361089754384
 20
4861.311147101276
 30
0.0
 10
8206.446225577454
 20
4870.64754205727
 30
0.0
 10
8209.413173545758
 20
4878.742741116871
 30
0.0
 10
8211.538740185459
 20
4885.454672731036
 30
0.0
 10
8213.37744345909
 20
4892.267114097127
 30
0.0
 10
8214.954698447129
 20
4899.211407267723
 30
0.0
 10
8216.441014768874
 20
4907.093907180923
 30
0.0
 10
8217.778189767942
 20
4916.155949853703
 30
0.0
 10
8218.85844037481
 20
4926.050749044797
 30
0.0
 10
8219.657942334448
 20
4936.232421290774
 30
0.0
 10
8220.210077370963
 20
4946.253554025326
 30
0.0
 10
8220.576999075893
 20
4956.469726018317
 30
0.0
 10
8220.795560825172
 20
4966.573100063779
 30
0.0
 10
8220.82218043667
 20
4973.36667459036
 30
0.0
 10
8220.835441400646
 20
4976.750996975251
 30
0.0
  0
SPLINE
  5
F2
330
1F
100
AcDbEntity
  8
0
  6
Continuous
 62
     7
370
    25
100
AcDbSpline
210
0.0
220
0.0
230
1.0
 70
     8
 71
     3
 72
    35
 73
    31
 74
     0
 42
0.00000001
 43
0.00000001
 40
0.0
 40
0.0
 40
0.0
 40
0.0
 40
0.0358704008673254
 40
0.071732430926103
 40
0.1076102912260201
 40
0.1433705140144989
 40
0.1785491877497589
 40
0.2145160041876404
 40
0.249125383152857
 40
0.2810783006024709
 40
0.3117584506584118
 40
0.3433507375118018
 40
0.3744413092066053
 40
0.4159928862839384
 40
0.4575664331568842
 40
0.4994058561627346
 40
0.5307881582399083
 40
0.5621165066063458
 40
0.5935385119979789
 40
0.6246651678719024
 40
0.6670518914764094
 40
0.7086268825871258
 40
0.7497041040813663
 40
0.7808647591939225
 40
0.8120835253482968
 40
0.8432574816779482
 40
0.8749406977183016
 40
0.9161819972584939
 40
0.9577417652822783
 40
1.0
 40
1.0
 40
1.0
 40
1.0
 10
7918.835441400646
 20
4976.750996975251
 30
0.0
 10
7918.848695227503
 20
4973.366261648463
 30
0.0
 10
7918.875199788272
 20
4966.597580865384
 30
0.0
 10
7919.094390405398
 20
4956.445393699534
 30
0.0
 10
7919.459035182658
 20
4946.307912042632
 30
0.0
 10
7920.012657793249
 20
4936.243215173435
 30
0.0
 10
7920.800265541825
 20
4926.185325766096
 30
0.0
 10
7921.879626285491
 20
4916.262970568785
 30
0.0
 10
7923.285832452526
 20
4906.688333180937
 30
0.0
 10
7925.016356022098
 20
4897.67409192967
 30
0.0
 10
7927.100525779028
 20
4889.027183859183
 30
0.0
 10
7929.612175074265
 20
4880.578382029582
 30
0.0
 10
7932.936457079413
 20
4871.316525940472
 30
0.0
 10
7937.252853616428
 20
4861.429131551397
 30
0.0
 10
7942.792545339245
 20
4851.007033143889
 30
0.0
 10
7948.597989289719
 20
4841.849331880584
 30
0.0
 10
7954.415796778775
 20
4833.876067919186
 30
0.0
 10
7960.052238328822
 20
4827.005077693145
 30
0.0
 10
7966.052817655275
 20
4820.482104588626
 30
0.0
 10
7973.174787854541
 20
4813.595646290871
 30
0.0
 10
7981.501894411621
 20
4806.60424220232
 30
0.0
 10
7991.165792834604
 20
4799.81007681162
 30
0.0
 10
8000.475206324961
 20
4794.425876328158
 30
0.0
 10
8009.293728978268
 20
4790.221702197759
 30
0.0
 10
8017.511886136617
 20
4786.979013178988
 30
0.0
 10
8025.97833998002
 20
4784.289207130211
 30
0.0
 10
8035.521824840551
 20
4781.934277378532
 30
0.0
 10
8046.180440580107
 20
4780.117057713663
 30
0.0
 10
8057.936619668921
 20
4778.950389573401
 30
0.0
 10
8065.847194196122
 20
4778.817829388586
 30
0.0
 10
8069.835441400647
 20
4778.75099697525
 30
0.0
  0
LINE
  5
F3
330
1F
100
AcDbEntity
  8
0
  6
Continuous
 62
     7
370
    25
100
AcDbLine
 10
7918.8354414006
 20
5171.7509969753
 30
0.0
 11
7918.8354414006
 21
4976.7509969753
 31
0.0
  0
SPLINE
  5
F4
330
1F
100
AcDbEntity
  8
0
  6
Continuous
 62
     7
370
    25
100
AcDbSpline
210
0.0
220
0.0
230
1.0
 70
    24
 71
     3
 72
    14
 73
    10
 74
     0
 42
0.00000001
 43
0.00000001
 40
0.0
 40
0.0
 40
0.0
 40
0.0
 40
0.3059160159623603
 40
0.4589932114190473
 40
0.6017753912066827
 40
0.727960433447837
 40
0.8346535250992863
 40
0.9234719432309327
 40
1.0
 40
1.0
 40
1.0
 40
1.0
 10
8069.835441400647
 20
4778.75099697525
 30
0.0
 10
8069.835441400647
 20
4777.021351782158
 30
0.0
 10
8069.835441400647
 20
4774.426210108074
 30
0.0
 10
8069.835441400647
 20
4771.128880126261
 30
0.0
 10
8069.835441400647
 20
4768.910089608076
 30
0.0
 10
8069.835441400647
 20
4767.077233463703
 30
0.0
 10
8069.835441400647
 20
4765.747284311041
 30
0.0
 10
8069.835441400647
 20
4764.905643706704
 30
0.0
 10
8069.835441400647
 20
4764.799926532911
 30
0.0
 10
8069.835441400647
 20
4764.750996975251
 30
0.0
  0
SPLINE
  5
F5
330
1F
100
AcDbEntity
  8
0
  6
Continuous
 62
     7
370
    25
100
AcDbSpline
210
0.0
220
0.0
230
1.0
 70
     8
 71
     3
 72
    31
 73
    27
 74
     0
 42
0.00000001
 43
0.00000001
 40
0.0
 40
0.0
 40
0.0
 40
0.0
 40
0.0458199880862464
 40
0.0910141421028695
 40
0.1352738684148639
 40
0.1785550522283622
 40
0.2209694279954608
 40
0.2626919037013738
 40
0.3038906720901569
 40
0.3446844886837226
 40
0.3851266927118667
 40
0.4252111863573447
 40
0.4648934874779174
 40
0.5041200381230947
 40
0.5428600588897138
 40
0.5811353802644136
 40
0.6190444639275415
 40
0.6567774393210722
 40
0.6946199599222497
 40
0.7329455081023246
 40
0.772198281844669
 40
0.8128708285494851
 40
0.855480634974091
 40
0.9005475165689498
 40
0.948570354498192
 40
1.0
 40
1.0
 40
1.0
 40
1.0
 10
8069.835441400647
 20
4764.750996975251
 30
0.0
 10
8065.175190422902
 20
4764.837400759886
 30
0.0
 10
8055.918340684641
 20
4765.00902817974
 30
0.0
 10
8042.224903618137
 20
4766.498799045853
 30
0.0
 10
8028.943301522632
 20
4768.975586395552
 30
0.0
 10
8016.197799510456
 20
4772.533436637704
 30
0.0
 10
8004.064856530331
 20
4777.128607312301
 30
0.0
 10
7992.588731122145
 20
4782.711355847645
 30
0.0
 10
7981.793709411617
 20
4789.201286144028
 30
0.0
 10
7971.693583095048
 20
4796.504409198641
 30
0.0
 10
7962.298659313045
 20
4804.518875408605
 30
0.0
 10
7953.619983221441
 20
4813.142433004792
 30
0.0
 10
7945.670787263908
 20
4822.278247696809
 30
0.0
 10
7938.465619365564
 20
4831.840275438186
 30
0.0
 10
7932.017835220337
 20
4841.758013724839
 30
0.0
 10
7926.33612710265
 20
4851.980569693478
 30
0.0
 10
7921.420630824337
 20
4862.479836338075
 30
0.0
 10
7917.259049777447
 20
4873.252675810228
 30
0.0
 10
7913.823260786524
 20
4884.322171934452
 30
0.0
 10
7911.067220562071
 20
4895.738078816183
 30
0.0
 10
7908.926989832469
 20
4907.576343090879
 30
0.0
 10
7907.324915796477
 20
4919.937108573929
 30
0.0
 10
7906.174764688162
 20
4932.940386700172
 30
0.0
 10
7905.403276001962
 20
4946.718918389712
 30
0.0
 10
7904.926219145227
 20
4961.408313680711
 30
0.0
 10
7904.866383880423
 20
4971.521293706444
 30
0.0
 10
7904.835441400646
 20
4976.750996975251
 30
0.0
  0
SPLINE
  5
F6
330
1F
100
AcDbEntity
  8
0
  6
Continuous
 62
     7
370
    25
100
AcDbSpline
210
0.0
220
0.0
230
1.0
 70
    24
 71
     3
 72
    14
 73
    10
 74
     0
 42
0.00000001
 43
0.00000001
 40
0.0
 40
0.0
 40
0.0
 40
0.0
 40
0.3059160159623575
 40
0.4589932114190462
 40
0.6017753912066832
 40
0.7279604334478379
 40
0.8346535250992837
 40
0.9234719432309326
 40
1.0
 40
1.0
 40
1.0
 40
1.0
 10
7918.835441400646
 20
4976.750996975251
 30
0.0
 10
7917.105796207554
 20
4976.750996975251
 30
0.0
 10
7914.51065453347
 20
4976.750996975251
 30
0.0
 10
7911.213324551656
 20
4976.750996975251
 30
0.0
 10
7908.994534033472
 20
4976.750996975251
 30
0.0
 10
7907.161677889098
 20
4976.750996975251
 30
0.0
 10
7905.831728736436
 20
4976.750996975251
 30
0.0
 10
7904.9900881321
 20
4976.750996975251
 30
0.0
 10
7904.884370958306
 20
4976.750996975251
 30
0.0
 10
7904.835441400646
 20
4976.750996975251
 30
0.0
  0
SPLINE
  5
F7
330
1F
100
AcDbEntity
  8
0
  6
Continuous
 62
     7
370
    25
100
AcDbSpline
210
0.0
220
0.0
230
1.0
 70
     8
 71
     3
 72
    31
 73
    27
 74
     0
 42
0.00000001
 43
0.00000001
 40
0.0
 40
0.0
 40
0.0
 40
0.0
 40
0.0514296455018076
 40
0.0994524834310499
 40
0.1445193650259088
 40
0.1871291714505146
 40
0.2278017181553303
 40
0.2670544918976751
 40
0.30538004007775
 40
0.3432225606789274
 40
0.3809555360724581
 40
0.4188646197355861
 40
0.457139941110286
 40
0.4958799618769051
 40
0.5351065125220825
 40
0.574788813642655
 40
0.6148733072881332
 40
0.6553155113162773
 40
0.6961093279098429
 40
0.737308096298626
 40
0.779030572004539
 40
0.8214449477716377
 40
0.864726131585136
 40
0.9089858578971305
 40
0.9541800119137533
 40
1.0
 40
1.0
 40
1.0
 40
1.0
 10
8234.835441400646
 20
4976.750996975251
 30
0.0
 10
8234.80449892087
 20
4971.521293706444
 30
0.0
 10
8234.744663656065
 20
4961.408313680711
 30
0.0
 10
8234.267606799332
 20
4946.718918389713
 30
0.0
 10
8233.496118113131
 20
4932.940386700173
 30
0.0
 10
8232.345967004814
 20
4919.937108573929
 30
0.0
 10
8230.743892968823
 20
4907.57634309088
 30
0.0
 10
8228.603662239222
 20
4895.738078816183
 30
0.0
 10
8225.847622014768
 20
4884.322171934452
 30
0.0
 10
8222.411833023845
 20
4873.252675810229
 30
0.0
 10
8218.250251976955
 20
4862.479836338075
 30
0.0
 10
8213.334755698643
 20
4851.980569693479
 30
0.0
 10
8207.653047580954
 20
4841.758013724839
 30
0.0
 10
8201.205263435728
 20
4831.840275438187
 30
0.0
 10
8194.000095537385
 20
4822.278247696809
 30
0.0
 10
8186.050899579852
 20
4813.142433004792
 30
0.0
 10
8177.372223488247
 20
4804.518875408605
 30
0.0
 10
8167.977299706245
 20
4796.504409198641
 30
0.0
 10
8157.877173389675
 20
4789.201286144028
 30
0.0
 10
8147.082151679148
 20
4782.711355847645
 30
0.0
 10
8135.606026270963
 20
4777.128607312301
 30
0.0
 10
8123.473083290836
 20
4772.533436637704
 30
0.0
 10
8110.727581278659
 20
4768.975586395552
 30
0.0
 10
8097.445979183154
 20
4766.498799045853
 30
0.0
 10
8083.752542116653
 20
4765.00902817974
 30
0.0
 10
8074.49569237839
 20
4764.837400759886
 30
0.0
 10
8069.835441400647
 20
4764.750996975251
 30
0.0
  0
LINE
  5
F8
330
1F
100
AcDbEntity
  8
0
  6
Continuous
 62
     7
370
    25
100
AcDbLine
 10
7904.8354414006
 20
4976.7509969753
 30
0.0
 11
7904.8354414006
 21
5171.7509969753
 31
0.0
  0
SPLINE
  5
F9
330
1F
100
AcDbEntity
  8
0
  6
Continuous
 62
     7
370
    25
100
AcDbSpline
210
0.0
220
0.0
230
1.0
 70
    24
 71
     3
 72
    10
 73
     6
 74
     0
 42
0.00000001
 43
0.00000001
 40
0.0
 40
0.0
 40
0.0
 40
0.0
 40
0.5438783920502379
 40
0.7798480959736812
 40
1.0
 40
1.0
 40
1.0
 40
1.0
 10
7906.160336432875
 20
5171.750996975241
 30
0.0
 10
7905.778896978319
 20
5171.750996975243
 30
0.0
 10
7905.231964361188
 20
5171.750996975245
 30
0.0
 10
7904.882673218047
 20
5171.750996975248
 30
0.0
 10
7904.850817094574
 20
5171.75099697525
 30
0.0
 10
7904.835441400646
 20
5171.750996975251
 30
0.0
  0
SPLINE
  5
FA
330
1F
100
AcDbEntity
  8
0
  6
Continuous
 62
     7
370
    25
100
AcDbSpline
210
0.0
220
0.0
230
1.0
 70
     8
 71
     3
 72
    11
 73
     7
 74
     0
 42
0.00000001
 43
0.00000001
 40
0.0
 40
0.0
 40
0.0
 40
0.0
 40
0.2504034027650698
 40
0.5005706882631872
 40
0.7504036725717362
 40
1.0
 40
1.0
 40
1.0
 40
1.0
 10
7909.835441400647
 20
5176.750996975251
 30
0.0
 10
7909.1803582836
 20
5176.675900026967
 30
0.0
 10
7907.870809758507
 20
5176.525776942881
 30
0.0
 10
7906.218183165296
 20
5175.370298405425
 30
0.0
 10
7905.061170440608
 20
5173.717481896639
 30
0.0
 10
7904.910660640713
 20
5172.406284843459
 30
0.0
 10
7904.835441400646
 20
5171.75099697525
 30
0.0
  0
SPLINE
  5
FB
330
1F
100
AcDbEntity
  8
0
  6
Continuous
 62
     7
370
    25
100
AcDbSpline
210
0.0
220
0.0
230
1.0
 70
     8
 71
     3
 72
    11
 73
     7
 74
     0
 42
0.00000001
 43
0.00000001
 40
0.0
 40
0.0
 40
0.0
 40
0.0
 40
0.2495963274283161
 40
0.4994293117368669
 40
0.7495965972349701
 40
1.0
 40
1.0
 40
1.0
 40
1.0
 10
8234.835441400646
 20
5171.75099697525
 30
0.0
 10
8234.76022216058
 20
5172.406284843459
 30
0.0
 10
8234.609712360685
 20
5173.717481896638
 30
0.0
 10
8233.452699635996
 20
5175.370298405425
 30
0.0
 10
8231.800073042787
 20
5176.525776942881
 30
0.0
 10
8230.490524517692
 20
5176.675900026967
 30
0.0
 10
8229.835441400646
 20
5176.750996975251
 30
0.0
  0
LINE
  5
FC
330
1F
100
AcDbEntity
  8
0
  6
Continuous
 62
     7
370
    25
100
AcDbLine
 10
8020.8354414006
 20
5177.1412349645
 30
0.0
 11
8035.8354414006
 21
5177.1412349645
 31
0.0
  0
LINE
  5
FD
330
1F
100
AcDbEntity
  8
0
  6
Continuous
 62
     7
370
    25
100
AcDbLine
 10
8020.8354414006
 20
5180.7634911142
 30
0.0
 11
8035.8354414006
 21
5180.7634911142
 31
0.0
  0
LINE
  5
FE
330
1F
100
AcDbEntity
  8
0
  6
Continuous
 62
     7
370
    25
100
AcDbLine
 10
8035.8354414006
 20
5177.1412349645
 30
0.0
 11
8035.8354414006
 21
5180.7634911142
 31
0.0
  0
LINE
  5
FF
330
1F
100
AcDbEntity
  8
0
  6
Continuous
 62
     7
370
    25
100
AcDbLine
 10
8020.8354414006
 20
5177.1412349645
 30
0.0
 11
8020.8354414006
 21
5180.7634911142
 31
0.0
  0
LINE
  5
100
330
1F
100
AcDbEntity
  8
0
  6
Continuous
 62
     7
370
    25
100
AcDbLine
 10
8118.8354414006
 20
5180.7634911142
 30
0.0
 11
8103.8354414006
 21
5180.7634911142
 31
0.0
  0
LINE
  5
101
330
1F
100
AcDbEntity
  8
0
  6
Continuous
 62
     7
370
    25
100
AcDbLine
 10
8118.8354414006
 20
5177.1412349645
 30
0.0
 11
8103.8354414006
 21
5177.1412349645
 31
0.0
  0
LINE
  5
102
330
1F
100
AcDbEntity
  8
0
  6
Continuous
 62
     7
370
    25
100
AcDbLine
 10
8103.8354414006
 20
5177.1412349645
 30
0.0
 11
8103.8354414006
 21
5180.7634911142
 31
0.0
  0
LINE
  5
103
330
1F
100
AcDbEntity
  8
0
  6
Continuous
 62
     7
370
    25
100
AcDbLine
 10
8118.8354414006
 20
5177.1412349645
 30
0.0
 11
8118.8354414006
 21
5180.7634911142
 31
0.0
  0
LINE
  5
104
330
1F
100
AcDbEntity
  8
0
  6
Continuous
 62
     7
370
    25
100
AcDbLine
 10
8035.8354414006
 20
5176.7509969753
 30
0.0
 11
8035.8354414006
 21
5177.1412349645
 31
0.0
  0
LINE
  5
105
330
1F
100
AcDbEntity
  8
0
  6
Continuous
 62
     7
370
    25
100
AcDbLine
 10
8020.8354414006
 20
5176.7509969753
 30
0.0
 11
8020.8354414006
 21
5177.1412349645
 31
0.0
  0
LINE
  5
106
330
1F
100
AcDbEntity
  8
0
  6
Continuous
 62
     7
370
    25
100
AcDbLine
 10
8103.8354414006
 20
5176.7509969753
 30
0.0
 11
8103.8354414006
 21
5177.1412349645
 31
0.0
  0
LINE
  5
107
330
1F
100
AcDbEntity
  8
0
  6
Continuous
 62
     7
370
    25
100
AcDbLine
 10
8118.8354414006
 20
5176.7509969753
 30
0.0
 11
8118.8354414006
 21
5177.1412349645
 31
0.0
  0
LINE
  5
108
330
1F
100
AcDbEntity
  8
0
  6
Continuous
 62
     7
370
    25
100
AcDbLine
 10
8020.8354414006
 20
5183.924350665
 30
0.0
 11
8035.8354414006
 21
5183.924350665
 31
0.0
  0
LINE
  5
109
330
1F
100
AcDbEntity
  8
0
  6
Continuous
 62
     7
370
    25
100
AcDbLine
 10
8035.8354414006
 20
5180.7634911142
 30
0.0
 11
8035.8354414006
 21
5183.924350665
 31
0.0
  0
LINE
  5
10A
330
1F
100
AcDbEntity
  8
0
  6
Continuous
 62
     7
370
    25
100
AcDbLine
 10
8020.8354414006
 20
5180.7634911142
 30
0.0
 11
8020.8354414006
 21
5183.924350665
 31
0.0
  0
LINE
  5
10B
330
1F
100
AcDbEntity
  8
0
  6
Continuous
 62
     7
370
    25
100
AcDbLine
 10
8118.8354414006
 20
5183.924350665
 30
0.0
 11
8103.8354414006
 21
5183.924350665
 31
0.0
  0
LINE
  5
10C
330
1F
100
AcDbEntity
  8
0
  6
Continuous
 62
     7
370
    25
100
AcDbLine
 10
8103.8354414006
 20
5180.7634911142
 30
0.0
 11
8103.8354414006
 21
5183.924350665
 31
0.0
  0
LINE
  5
10D
330
1F
100
AcDbEntity
  8
0
  6
Continuous
 62
     7
370
    25
100
AcDbLine
 10
8118.8354414006
 20
5180.7634911142
 30
0.0
 11
8118.8354414006
 21
5183.924350665
 31
0.0
  0
LINE
  5
10E
330
1F
100
AcDbEntity
  8
0
  6
Continuous
 62
     7
370
    25
100
AcDbLine
 10
8103.8354414006
 20
5183.924350665
 30
0.0
 11
8103.8354414006
 21
5187.7509969753
 31
0.0
  0
LINE
  5
10F
330
1F
100
AcDbEntity
  8
0
  6
Continuous
 62
     7
370
    25
100
AcDbLine
 10
8118.8354414006
 20
5183.924350665
 30
0.0
 11
8118.8354414006
 21
5187.7509969753
 31
0.0
  0
LINE
  5
110
330
1F
100
AcDbEntity
  8
0
  6
Continuous
 62
     7
370
    25
100
AcDbLine
 10
8035.8354414006
 20
5183.924350665
 30
0.0
 11
8035.8354414006
 21
5187.7509969753
 31
0.0
  0
LINE
  5
111
330
1F
100
AcDbEntity
  8
0
  6
Continuous
 62
     7
370
    25
100
AcDbLine
 10
8020.8354414006
 20
5183.924350665
 30
0.0
 11
8020.8354414006
 21
5187.7509969753
 31
0.0
  0
LINE
  5
112
330
1F
100
AcDbEntity
  8
0
  6
Continuous
 62
     7
370
    25
100
AcDbLine
 10
8069.8354414006
 20
4753.7509969753
 30
0.0
 11
8069.8354414006
 21
4761.7509969753
 31
0.0
  0
SPLINE
  5
113
330
1F
100
AcDbEntity
  8
0
  6
Continuous
 62
     7
370
    25
100
AcDbSpline
210
0.0
220
0.0
230
1.0
 70
     8
 71
     3
 72
    29
 73
    25
 74
     0
 42
0.00000001
 43
0.00000001
 40
0.0
 40
0.0
 40
0.0
 40
0.0
 40
0.0372087362063129
 40
0.0744668986893331
 40
0.1116854142192909
 40
0.156249916851893
 40
0.2009397361464948
 40
0.2456307793686329
 40
0.2901969556780737
 40
0.3339885896464244
 40
0.3779256675355774
 40
0.421838419665838
 40
0.4655967685367997
 40
0.5093184259307343
 40
0.5532031521416412
 40
0.5971140364589878
 40
0.6408714930514725
 40
0.6847520860060426
 40
0.7287166329580386
 40
0.7727157370678361
 40
0.8166435367406565
 40
0.8777401585915443
 40
0.9388883683161533
 40
1.0
 40
1.0
 40
1.0
 40
1.0
 10
8069.835441400647
 20
4761.750996975251
 30
0.0
 10
8073.535700654439
 20
4761.830672151681
 30
0.0
 10
8080.94113440657
 20
4761.990128341173
 30
0.0
 10
8091.990072137197
 20
4763.23025708961
 30
0.0
 10
8103.653814172295
 20
4765.276176260444
 30
0.0
 10
8115.863673942016
 20
4768.338592250508
 30
0.0
 10
8128.516917552642
 20
4772.530219472678
 30
0.0
 10
8140.825276034257
 20
4777.648300751372
 30
0.0
 10
8152.642732842988
 20
4783.620927087461
 30
0.0
 10
8163.905802878829
 20
4790.440333053954
 30
0.0
 10
8174.546367962888
 20
4798.086082389993
 30
0.0
 10
8184.528512233902
 20
4806.569669297258
 30
0.0
 10
8193.737325243657
 20
4815.860869442433
 30
0.0
 10
8202.040821741017
 20
4825.96682434507
 30
0.0
 10
8209.424070317229
 20
4836.778493255148
 30
0.0
 10
8215.884033691778
 20
4848.168627119247
 30
0.0
 10
8221.39929298268
 20
4860.043692021515
 30
0.0
 10
8225.990222544904
 20
4872.308413729949
 30
0.0
 10
8229.776983336076
 20
4884.866886082628
 30
0.0
 10
8232.823293832424
 20
4897.628449272138
 30
0.0
 10
8235.5204195599
 20
4912.203514827654
 30
0.0
 10
8237.659085054069
 20
4928.594493911054
 30
0.0
 10
8239.083357371654
 20
4946.781551385488
 30
0.0
 10
8239.251430152477
 20
4958.93879158553
 30
0.0
 10
8239.335441400646
 20
4965.015593067014
 30
0.0
  0
LINE
  5
114
330
1F
100
AcDbEntity
  8
0
  6
Continuous
 62
     7
370
    25
100
AcDbLine
 10
8247.3354414006
 20
4965.015593067
 30
0.0
 11
8239.3354414006
 21
4965.015593067
 31
0.0
  0
SPLINE
  5
115
330
1F
100
AcDbEntity
  8
0
  6
Continuous
 62
     7
370
    25
100
AcDbSpline
210
0.0
220
0.0
230
1.0
 70
     8
 71
     3
 72
    30
 73
    26
 74
     0
 42
0.00000001
 43
0.00000001
 40
0.0
 40
0.0
 40
0.0
 40
0.0
 40
0.0581152231242536
 40
0.1162633485042799
 40
0.1743666849821731
 40
0.2194571789530809
 40
0.26462461317083
 40
0.309754887347609
 40
0.354794614371037
 40
0.3989595034970231
 40
0.4432794495577065
 40
0.4875742949249933
 40
0.5317048320289973
 40
0.575812329485409
 40
0.6200752049855813
 40
0.664361422900577
 40
0.7085008599110348
 40
0.7531869888603893
 40
0.7979983305051199
 40
0.8428084976990164
 40
0.8874930206291441
 40
0.9127697290389322
 40
0.9380459733149251
 40
0.9690236896799048
 40
1.0
 40
1.0
 40
1.0
 40
1.0
 10
8247.335441400648
 20
4965.015593067014
 30
0.0
 10
8247.254277881484
 20
4958.993346991238
 30
0.0
 10
8247.091904891986
 20
4946.945445311683
 30
0.0
 10
8245.72309226371
 20
4928.918958015573
 30
0.0
 10
8243.63361638714
 20
4912.325327321723
 30
0.0
 10
8240.915497252256
 20
4897.188769776722
 30
0.0
 10
8237.711383439784
 20
4883.523707639927
 30
0.0
 10
8233.694880834373
 20
4870.078660825005
 30
0.0
 10
8228.822868923726
 20
4857.026861575691
 30
0.0
 10
8222.986297304642
 20
4844.466809869256
 30
0.0
 10
8216.18689240381
 20
4832.488685860619
 30
0.0
 10
8208.416362578439
 20
4821.119390752656
 30
0.0
 10
8199.68435174667
 20
4810.495657169527
 30
0.0
 10
8190.008631396782
 20
4800.729612795984
 30
0.0
 10
8179.526247160398
 20
4791.814527540537
 30
0.0
 10
8168.352055936469
 20
4783.779319598669
 30
0.0
 10
8156.54322530078
 20
4776.626559702999
 30
0.0
 10
8144.173501945829
 20
4770.374720917298
 30
0.0
 10
8131.311925592467
 20
4765.027355807179
 30
0.0
 10
8118.090275585902
 20
4760.645951673121
 30
0.0
 10
8106.542584031422
 20
4757.755173173909
 30
0.0
 10
8096.840601659737
 20
4755.935100304279
 30
0.0
 10
8088.473211612584
 20
4754.758690772989
 30
0.0
 10
8079.465732825214
 20
4753.9209951633
 30
0.0
 10
8073.045489973092
 20
4753.807662180571
 30
0.0
 10
8069.835441400647
 20
4753.750996975251
 30
0.0
  0
LINE
  5
116
330
1F
100
AcDbEntity
  8
0
  6
Continuous
 62
     7
370
    25
100
AcDbLine
 10
7892.3354414006
 20
4965.015593067
 30
0.0
 11
7900.3354414006
 21
4965.015593067
 31
0.0
  0
SPLINE
  5
117
330
1F
100
AcDbEntity
  8
0
  6
Continuous
 62
     7
370
    25
100
AcDbSpline
210
0.0
220
0.0
230
1.0
 70
     8
 71
     3
 72
    29
 73
    25
 74
     0
 42
0.00000001
 43
0.00000001
 40
0.0
 40
0.0
 40
0.0
 40
0.0
 40
0.0516590462793932
 40
0.1033713276043049
 40
0.1550685813539187
 40
0.2067071132752007
 40
0.2491976650772558
 40
0.2918280534562201
 40
0.3344549736202415
 40
0.3769868613142862
 40
0.4193945427016249
 40
0.4584515995407445
 40
0.4976868574907327
 40
0.5369844047704226
 40
0.5762224563991492
 40
0.615281867027059
 40
0.6632049252395675
 40
0.711299481033133
 40
0.7594165110348662
 40
0.8073703228853845
 40
0.8554601889675504
 40
0.903722673851718
 40
0.9519534853074704
 40
1.0
 40
1.0
 40
1.0
 40
1.0
 10
7900.335441400646
 20
4965.015593067014
 30
0.0
 10
7900.394579267395
 20
4959.879061522764
 30
0.0
 10
7900.51291594292
 20
4949.600705198902
 30
0.0
 10
7901.514763726023
 20
4934.208369242133
 30
0.0
 10
7903.183526680995
 20
4918.87874717677
 30
0.0
 10
7905.471723193597
 20
4904.55467818862
 30
0.0
 10
7908.290897016554
 20
4891.247561947392
 30
0.0
 10
7911.58777960794
 20
4878.974679523609
 30
0.0
 10
7915.608097959975
 20
4866.913344459644
 30
0.0
 10
7920.417442051777
 20
4855.166416643521
 30
0.0
 10
7925.922424192994
 20
4844.120589329435
 30
0.0
 10
7932.142596110381
 20
4833.843183753911
 30
0.0
 10
7938.972337558755
 20
4824.339711631378
 30
0.0
 10
7946.521915103573
 20
4815.374525810626
 30
0.0
 10
7954.722867105892
 20
4807.024791027783
 30
0.0
 10
7964.200986659585
 20
4798.780558022594
 30
0.0
 10
7975.067135571426
 20
4790.856438400757
 30
0.0
 10
7987.335881623719
 20
4783.419846836452
 30
0.0
 10
8000.177200965865
 20
4777.016196585989
 30
0.0
 10
8013.48605084102
 20
4771.657070725309
 30
0.0
 10
8027.192403106697
 20
4767.358972294082
 30
0.0
 10
8041.229481292103
 20
4764.206225677894
 30
0.0
 10
8055.481631261316
 20
4762.150838837082
 30
0.0
 10
8065.056947800869
 20
4761.884107400924
 30
0.0
 10
8069.835441400647
 20
4761.750996975251
 30
0.0
  0
SPLINE
  5
118
330
1F
100
AcDbEntity
  8
0
  6
Continuous
 62
     7
370
    25
100
AcDbSpline
210
0.0
220
0.0
230
1.0
 70
     8
 71
     3
 72
    30
 73
    26
 74
     0
 42
0.00000001
 43
0.00000001
 40
0.0
 40
0.0
 40
0.0
 40
0.0
 40
0.038632684101377
 40
0.0773996007113784
 40
0.11623071570145
 40
0.155032735551478
 40
0.1936949654543985
 40
0.2418492111836096
 40
0.2901675177947768
 40
0.3384642588190327
 40
0.3865889942810123
 40
0.4260703005499157
 40
0.4657321662504721
 40
0.5054542417803418
 40
0.5451134267502215
 40
0.5845924743937125
 40
0.6269229652170877
 40
0.6693775432119244
 40
0.7119249324499166
 40
0.7544740289844797
 40
0.7968840396167355
 40
0.8439929232990795
 40
0.8959833150431527
 40
0.9480036044216141
 40
0.9999999999999999
 40
0.9999999999999999
 40
0.9999999999999999
 40
0.9999999999999999
 10
8069.835441400647
 20
4753.750996975251
 30
0.0
 10
8065.831751147903
 20
4753.839842775177
 30
0.0
 10
8057.810459484056
 20
4754.01784307723
 30
0.0
 10
8045.83156508515
 20
4755.404468427772
 30
0.0
 10
8033.956876349959
 20
4757.551543786702
 30
0.0
 10
8022.26306132721
 20
4760.498101611766
 30
0.0
 10
8009.864814874051
 20
4764.4863367114
 30
0.0
 10
7996.863717120566
 20
4769.725411674662
 30
0.0
 10
7983.427280981846
 20
4776.429971119685
 30
0.0
 10
7970.589978221279
 20
4784.216012785635
 30
0.0
 10
7959.198271886394
 20
4792.526267881502
 30
0.0
 10
7949.239177388266
 20
4801.189586430983
 30
0.0
 10
7940.600539355392
 20
4809.985257032435
 30
0.0
 10
7932.648141889347
 20
4819.429345565585
 30
0.0
 10
7925.454110589796
 20
4829.44046807512
 30
0.0
 10
7918.930243234519
 20
4840.21893297752
 30
0.0
 10
7913.176632908098
 20
4851.752579422921
 30
0.0
 10
7908.164876324292
 20
4863.96822583858
 30
0.0
 10
7903.97147367636
 20
4876.510529334319
 30
0.0
 10
7900.533716730146
 20
4889.274010021562
 30
0.0
 10
7897.687590116951
 20
4902.664569166484
 30
0.0
 10
7895.363486932845
 20
4917.147704982921
 30
0.0
 10
7893.628810681821
 20
4932.714018320593
 30
0.0
 10
7892.532814954498
 20
4948.849286592408
 30
0.0
 10
7892.401222509176
 20
4959.627649545796
 30
0.0
 10
7892.335441400646
 20
4965.015593067014
 30
0.0
  0
LINE
  5
119
330
1F
100
AcDbEntity
  8
0
  6
Continuous
 62
     7
370
    25
100
AcDbLine
 10
7900.3354414006
 20
5173.7509969753
 30
0.0
 11
7905.273896541
 21
5173.7509969753
 31
0.0
  0
LINE
  5
11A
330
1F
100
AcDbEntity
  8
0
  6
Continuous
 62
     7
370
    25
100
AcDbLine
 10
8234.3969862603
 20
5173.7509969753
 30
0.0
 11
8239.3354414006
 21
5173.7509969753
 31
0.0
  0
LINE
  5
11B
330
1F
100
AcDbEntity
  8
0
  6
Continuous
 62
     7
370
    25
100
AcDbLine
 10
8239.3354414006
 20
5173.7509969753
 30
0.0
 11
8239.3354414006
 21
5171.2509969753
 31
0.0
  0
LINE
  5
11C
330
1F
100
AcDbEntity
  8
0
  6
Continuous
 62
     7
370
    25
100
AcDbLine
 10
7900.3354414006
 20
5173.7509969753
 30
0.0
 11
7900.3354414006
 21
5171.2509969753
 31
0.0
  0
LINE
  5
11D
330
1F
100
AcDbEntity
  8
0
  6
Continuous
 62
     7
370
    25
100
AcDbLine
 10
8239.3354414006
 20
5173.7509969753
 30
0.0
 11
8244.8354414006
 21
5173.7509969753
 31
0.0
  0
ARC
  5
11E
330
1F
100
AcDbEntity
  8
0
  6
Continuous
 62
     7
370
    25
100
AcDbCircle
 10
8244.8354414006
 20
5171.2509969753
 30
0.0
 40
2.500000000001819
100
AcDbArc
 50
0.0
 51
90.0
  0
LINE
  5
11F
330
1F
100
AcDbEntity
  8
0
  6
Continuous
 62
     7
370
    25
100
AcDbLine
 10
8247.3354414006
 20
5171.2509969753
 30
0.0
 11
8239.3354414006
 21
5171.2509969753
 31
0.0
  0
LINE
  5
120
330
1F
100
AcDbEntity
  8
0
  6
Continuous
 62
     7
370
    25
100
AcDbLine
 10
7894.8354414006
 20
5173.7509969753
 30
0.0
 11
7900.3354414006
 21
5173.7509969753
 31
0.0
  0
LINE
  5
121
330
1F
100
AcDbEntity
  8
0
  6
Continuous
 62
     7
370
    25
100
AcDbLine
 10
7900.3354414006
 20
5171.2509969753
 30
0.0
 11
7892.3354414006
 21
5171.2509969753
 31
0.0
  0
ARC
  5
122
330
1F
100
AcDbEntity
  8
0
  6
Continuous
 62
     7
370
    25
100
AcDbCircle
 10
7894.8354414006
 20
5171.2509969753
 30
0.0
 40
2.5
100
AcDbArc
 50
90.0
 51
180.0
  0
LINE
  5
123
330
1F
100
AcDbEntity
  8
0
  6
Continuous
 62
     7
370
    25
100
AcDbLine
 10
7900.3354414006
 20
5171.2509969753
 30
0.0
 11
7900.3354414006
 21
4965.015593067
 31
0.0
  0
LINE
  5
124
330
1F
100
AcDbEntity
  8
0
  6
Continuous
 62
     7
370
    25
100
AcDbLine
 10
8239.3354414006
 20
4965.015593067
 30
0.0
 11
8239.3354414006
 21
5171.2509969753
 31
0.0
  0
LINE
  5
125
330
1F
100
AcDbEntity
  8
0
  6
Continuous
 62
     7
370
    25
100
AcDbLine
 10
8247.3354414006
 20
5171.2509969753
 30
0.0
 11
8247.3354414006
 21
4965.015593067
 31
0.0
  0
LINE
  5
126
330
1F
100
AcDbEntity
  8
0
  6
Continuous
 62
     7
370
    25
100
AcDbLine
 10
7892.3354414006
 20
4965.015593067
 30
0.0
 11
7892.3354414006
 21
5171.2509969753
 31
0.0
  0
LINE
  5
127
330
1F
100
AcDbEntity
  8
0
  6
Continuous
 62
     8
370
    25
100
AcDbLine
 10
8239.3354414006
 20
5171.2509969753
 30
0.0
 11
8234.8354414006
 21
5171.2509969753
 31
0.0
  0
LINE
  5
128
330
1F
100
AcDbEntity
  8
0
  6
Continuous
 62
     8
370
    25
100
AcDbLine
 10
7904.8354414006
 20
5171.2509969753
 30
0.0
 11
7900.3354414006
 21
5171.2509969753
 31
0.0
  0
LINE
  5
129
330
1F
100
AcDbEntity
  8
0
  6
Continuous
 62
     7
370
    25
100
AcDbLine
 10
8494.1950259647
 20
4891.8758261625
 30
0.0
 11
8489.0207144792
 21
4891.423132566
 31
0.0
  0
LINE
  5
12A
330
1F
100
AcDbEntity
  8
0
  6
Continuous
 62
     7
370
    25
100
AcDbLine
 10
8489.0207144792
 20
4874.328519759
 30
0.0
 11
8494.1950259647
 21
4873.8758261625
 31
0.0
  0
ARC
  5
12B
330
1F
100
AcDbEntity
  8
0
  6
Continuous
 62
     7
370
    25
100
AcDbCircle
 10
8489.1950259647
 20
4876.3209091552
 30
0.0
 40
2.0
100
AcDbArc
 50
180.0
 51
265.0
  0
ARC
  5
12C
330
1F
100
AcDbEntity
  8
0
  6
Continuous
 62
     7
370
    25
100
AcDbCircle
 10
8489.1950259647
 20
4889.4307431698
 30
0.0
 40
2.0
100
AcDbArc
 50
95.0
 51
180.0
  0
LINE
  5
12D
330
1F
100
AcDbEntity
  8
0
  6
Continuous
 62
     7
370
    25
100
AcDbLine
 10
8470.6950259647
 20
4868.8758261625
 30
0.0
 11
8464.5207144792
 21
4868.3356439024
 31
0.0
  0
LINE
  5
12E
330
1F
100
AcDbEntity
  8
0
  6
Continuous
 62
     7
370
    25
100
AcDbLine
 10
8464.5207144792
 20
4851.4160084225
 30
0.0
 11
8470.6950259647
 21
4850.8758261625
 31
0.0
  0
ARC
  5
12F
330
1F
100
AcDbEntity
  8
0
  6
Continuous
 62
     7
370
    25
100
AcDbCircle
 10
8464.6950259647
 20
4866.3432545062
 30
0.0
 40
2.0
100
AcDbArc
 50
95.0
 51
180.0
  0
ARC
  5
130
330
1F
100
AcDbEntity
  8
0
  6
Continuous
 62
     7
370
    25
100
AcDbCircle
 10
8464.6950259647
 20
4853.4083978187
 30
0.0
 40
2.0
100
AcDbArc
 50
180.0
 51
265.0
  0
CIRCLE
  5
131
330
1F
100
AcDbEntity
  8
0
  6
Continuous
 62
     7
370
    25
100
AcDbCircle
 10
8486.6950259647
 20
5187.8758261625
 30
0.0
 40
2.000000000001333
  0
LINE
  5
132
330
1F
100
AcDbEntity
  8
0
  6
Continuous
 62
     7
370
    25
100
AcDbLine
 10
8488.1258827143
 20
5187.6861361641
 30
0.0
 11
8487.574730697
 21
5189.0201394576
 31
0.0
  0
LINE
  5
133
330
1F
100
AcDbEntity
  8
0
  6
Continuous
 62
     7
370
    25
100
AcDbLine
 10
8486.1438739474
 20
5189.209829456
 30
0.0
 11
8485.2641692151
 21
5188.0655161609
 31
0.0
  0
LINE
  5
134
330
1F
100
AcDbEntity
  8
0
  6
Continuous
 62
     7
370
    25
100
AcDbLine
 10
8485.2641692151
 20
5188.0655161609
 30
0.0
 11
8485.8153212325
 21
5186.7315128674
 31
0.0
  0
LINE
  5
135
330
1F
100
AcDbEntity
  8
0
  6
Continuous
 62
     7
370
    25
100
AcDbLine
 10
8485.8153212325
 20
5186.7315128674
 30
0.0
 11
8487.2461779821
 21
5186.541822869
 31
0.0
  0
LINE
  5
136
330
1F
100
AcDbEntity
  8
0
  6
Continuous
 62
     7
370
    25
100
AcDbLine
 10
8487.2461779821
 20
5186.541822869
 30
0.0
 11
8488.1258827143
 21
5187.6861361641
 31
0.0
  0
LINE
  5
137
330
1F
100
AcDbEntity
  8
0
  6
Continuous
 62
     7
370
    25
100
AcDbLine
 10
8487.574730697
 20
5189.0201394576
 30
0.0
 11
8486.1438739474
 21
5189.209829456
 31
0.0
  0
CIRCLE
  5
138
330
1F
100
AcDbEntity
  8
0
  6
Continuous
 62
     7
370
    25
100
AcDbCircle
 10
8486.6950259647
 20
5187.8758261625
 30
0.0
 40
6.000000000000909
  0
LINE
  5
139
330
1F
100
AcDbEntity
  8
0
  6
Continuous
 62
     7
370
    25
100
AcDbLine
 10
8494.1950259647
 20
5182.8758261625
 30
0.0
 11
8499.7763056646
 21
5182.8758261625
 31
0.0
  0
SPLINE
  5
13A
330
1F
100
AcDbEntity
  8
0
  6
Continuous
 62
     7
370
    25
100
AcDbSpline
210
0.0
220
0.0
230
1.0
 70
     8
 71
     3
 72
    11
 73
     7
 74
     0
 42
0.00000001
 43
0.00000001
 40
0.0
 40
0.0
 40
0.0
 40
0.0
 40
0.2504034027650698
 40
0.5005706882631872
 40
0.7504036725717362
 40
1.0
 40
1.0
 40
1.0
 40
1.0
 10
8499.776305664645
 20
5182.875826162489
 30
0.0
 10
8499.831164984515
 20
5182.800729214205
 30
0.0
 10
8499.940831894795
 20
5182.650606130119
 30
0.0
 10
8500.079229555402
 20
5181.495127592662
 30
0.0
 10
8500.176122498457
 20
5179.842311083877
 30
0.0
 10
8500.188726800174
 20
5178.531114030697
 30
0.0
 10
8500.195025964727
 20
5177.875826162489
 30
0.0
  0
LINE
  5
13B
330
1F
100
AcDbEntity
  8
0
  6
Continuous
 62
     7
370
    25
100
AcDbLine
 10
8500.1950259647
 20
5177.8758261625
 30
0.0
 11
8494.1950259647
 21
5177.8758261625
 31
0.0
  0
LINE
  5
13C
330
1F
100
AcDbEntity
  8
0
  6
Continuous
 62
     7
370
    25
100
AcDbLine
 10
8494.1950259647
 20
5177.8758261625
 30
0.0
 11
8494.1950259647
 21
5182.8758261625
 31
0.0
  0
LINE
  5
13D
330
1F
100
AcDbEntity
  8
0
  6
Continuous
 62
     7
370
    25
100
AcDbLine
 10
8500.1950259628
 20
4982.8758261625
 30
0.0
 11
8494.1950259647
 21
4982.8758261625
 31
0.0
  0
LINE
  5
13E
330
1F
100
AcDbEntity
  8
0
  6
Continuous
 62
     7
370
    25
100
AcDbLine
 10
8494.1950259647
 20
5177.8758261625
 30
0.0
 11
8494.1950259647
 21
4982.8758261625
 31
0.0
  0
LINE
  5
13F
330
1F
100
AcDbEntity
  8
0
  6
Continuous
 62
     7
370
    25
100
AcDbLine
 10
8500.1950259647
 20
4982.8758261625
 30
0.0
 11
8500.1950259647
 21
5177.8758261625
 31
0.0
  0
SPLINE
  5
140
330
1F
100
AcDbEntity
  8
0
  6
Continuous
 62
     7
370
    25
100
AcDbSpline
210
0.0
220
0.0
230
1.0
 70
    24
 71
     3
 72
    30
 73
    26
 74
     0
 42
0.00000001
 43
0.00000001
 40
0.0
 40
0.0
 40
0.0
 40
0.0
 40
0.0551547103424814
 40
0.1064085193214885
 40
0.1543296257337603
 40
0.1995447098160891
 40
0.2427012495378824
 40
0.2844346241989909
 40
0.3253352288767997
 40
0.3699698934073187
 40
0.4147436673986089
 40
0.4600030035069254
 40
0.5059144284624304
 40
0.5524985323258784
 40
0.5917884288333624
 40
0.6314477614727457
 40
0.6714461349941594
 40
0.7117988808076966
 40
0.7525818118086005
 40
0.7939295679456561
 40
0.8335857899320995
 40
0.8740273118119596
 40
0.9153216124755541
 40
0.9574038504625935
 40
1.0
 40
1.0
 40
1.0
 40
1.0
 10
8494.195025964727
 20
4982.875826162489
 30
0.0
 10
8494.195025964727
 20
4977.267384807375
 30
0.0
 10
8494.195025964727
 20
4966.447167701831
 30
0.0
 10
8494.195025964727
 20
4950.761792373875
 30
0.0
 10
8494.195025964727
 20
4936.104997188794
 30
0.0
 10
8494.195025964727
 20
4922.308507655904
 30
0.0
 10
8494.195025964727
 20
4909.211104688476
 30
0.0
 10
8494.195025964727
 20
4896.67179624516
 30
0.0
 10
8494.195025964727
 20
4884.18115927391
 30
0.0
 10
8494.195025964727
 20
4871.686189986093
 30
0.0
 10
8494.195025964727
 20
4859.191491109583
 30
0.0
 10
8494.195025964727
 20
4847.088231718474
 30
0.0
 10
8494.195025964727
 20
4835.420583806743
 30
0.0
 10
8494.195025964727
 20
4824.905475265759
 30
0.0
 10
8494.195025964727
 20
4815.532892612826
 30
0.0
 10
8494.195025964727
 20
4807.272757083097
 30
0.0
 10
8494.195025964727
 20
4799.645039006408
 30
0.0
 10
8494.195025964727
 20
4792.748041871443
 30
0.0
 10
8494.195025964727
 20
4786.677315106565
 30
0.0
 10
8494.195025964727
 20
4781.618902116657
 30
0.0
 10
8494.195025964727
 20
4777.574758865745
 30
0.0
 10
8494.195025964727
 20
4774.511895533708
 30
0.0
 10
8494.195025964727
 20
4772.381916875309
 30
0.0
 10
8494.195025964727
 20
4771.099006743614
 30
0.0
 10
8494.195025964727
 20
4770.950520077132
 30
0.0
 10
8494.195025964727
 20
4770.875826162489
 30
0.0
  0
SPLINE
  5
141
330
1F
100
AcDbEntity
  8
0
  6
Continuous
 62
     7
370
    25
100
AcDbSpline
210
0.0
220
0.0
230
1.0
 70
    24
 71
     3
 72
    31
 73
    27
 74
     0
 42
0.00000001
 43
0.00000001
 40
0.0
 40
0.0
 40
0.0
 40
0.0
 40
0.0458199880862464
 40
0.0910141421028695
 40
0.1352738684148639
 40
0.1785550522283622
 40
0.2209694279954608
 40
0.2626919037013738
 40
0.3038906720901569
 40
0.3446844886837226
 40
0.3851266927118667
 40
0.4252111863573447
 40
0.4648934874779174
 40
0.5041200381230947
 40
0.5428600588897138
 40
0.5811353802644136
 40
0.6190444639275415
 40
0.6567774393210722
 40
0.6946199599222497
 40
0.7329455081023246
 40
0.772198281844669
 40
0.8128708285494851
 40
0.855480634974091
 40
0.9005475165689498
 40
0.948570354498192
 40
1.0
 40
1.0
 40
1.0
 40
1.0
 10
8500.195025964727
 20
4770.875826162489
 30
0.0
 10
8500.195025964727
 20
4770.962229947125
 30
0.0
 10
8500.195025964727
 20
4771.133857366979
 30
0.0
 10
8500.195025964727
 20
4772.623628233092
 30
0.0
 10
8500.195025964727
 20
4775.10041558279
 30
0.0
 10
8500.195025964727
 20
4778.658265824943
 30
0.0
 10
8500.195025964727
 20
4783.253436499539
 30
0.0
 10
8500.195025964727
 20
4788.836185034882
 30
0.0
 10
8500.195025964727
 20
4795.326115331267
 30
0.0
 10
8500.195025964727
 20
4802.62923838588
 30
0.0
 10
8500.195025964727
 20
4810.643704595844
 30
0.0
 10
8500.195025964727
 20
4819.267262192031
 30
0.0
 10
8500.195025964727
 20
4828.403076884047
 30
0.0
 10
8500.195025964727
 20
4837.965104625425
 30
0.0
 10
8500.195025964727
 20
4847.882842912078
 30
0.0
 10
8500.195025964727
 20
4858.105398880717
 30
0.0
 10
8500.195025964727
 20
4868.604665525313
 30
0.0
 10
8500.195025964727
 20
4879.377504997466
 30
0.0
 10
8500.195025964727
 20
4890.447001121689
 30
0.0
 10
8500.195025964727
 20
4901.862908003421
 30
0.0
 10
8500.195025964727
 20
4913.701172278118
 30
0.0
 10
8500.195025964727
 20
4926.061937761167
 30
0.0
 10
8500.195025964727
 20
4939.065215887411
 30
0.0
 10
8500.195025964727
 20
4952.843747576951
 30
0.0
 10
8500.195025964727
 20
4967.53314286795
 30
0.0
 10
8500.195025964727
 20
4977.646122893683
 30
0.0
 10
8500.195025964727
 20
4982.875826162489
 30
0.0
  0
LINE
  5
142
330
1F
100
AcDbEntity
  8
0
  6
Continuous
 62
     7
370
    25
100
AcDbLine
 10
8500.1950259647
 20
4770.8758261625
 30
0.0
 11
8494.1950259647
 21
4770.8758261625
 31
0.0
  0
SPLINE
  5
143
330
1F
100
AcDbEntity
  8
0
  6
Continuous
 62
     7
370
    25
100
AcDbSpline
210
0.0
220
0.0
230
1.0
 70
     8
 71
     3
 72
    11
 73
     7
 74
     0
 42
0.00000001
 43
0.00000001
 40
0.0
 40
0.0
 40
0.0
 40
0.0
 40
0.2499971788514091
 40
0.4997754509018367
 40
0.7494434224578864
 40
1.0
 40
1.0
 40
1.0
 40
1.0
 10
8499.776305664645
 20
5182.875826162489
 30
0.0
 10
8500.22064859005
 20
5182.800713949405
 30
0.0
 10
8501.108945357713
 20
5182.650555294274
 30
0.0
 10
8502.229141673519
 20
5181.49561891433
 30
0.0
 10
8503.014045266094
 20
5179.843650446453
 30
0.0
 10
8503.116268449252
 20
5178.532543946534
 30
0.0
 10
8503.16747083619
 20
5177.87582616248
 30
0.0
  0
SPLINE
  5
144
330
1F
100
AcDbEntity
  8
0
  6
Continuous
 62
     7
370
    25
100
AcDbSpline
210
0.0
220
0.0
230
1.0
 70
    24
 71
     3
 72
    10
 73
     6
 74
     0
 42
0.00000001
 43
0.00000001
 40
0.0
 40
0.0
 40
0.0
 40
0.0
 40
0.5438783920502379
 40
0.7798480959736812
 40
1.0
 40
1.0
 40
1.0
 40
1.0
 10
8503.16747083619
 20
5177.87582616248
 30
0.0
 10
8502.692834129426
 20
5177.875826162482
 30
0.0
 10
8502.012269250481
 20
5177.875826162483
 30
0.0
 10
8500.944350500855
 20
5177.875826162487
 30
0.0
 10
8500.438958664206
 20
5177.875826162489
 30
0.0
 10
8500.195025964727
 20
5177.875826162489
 30
0.0
  0
SPLINE
  5
145
330
1F
100
AcDbEntity
  8
0
  6
Continuous
 62
     7
370
    25
100
AcDbSpline
210
0.0
220
0.0
230
1.0
 70
    24
 71
     3
 72
    14
 73
    10
 74
     0
 42
0.00000001
 43
0.00000001
 40
0.0
 40
0.0
 40
0.0
 40
0.0
 40
0.3059160159623575
 40
0.4589932114190462
 40
0.6017753912066832
 40
0.7279604334478379
 40
0.8346535250992837
 40
0.9234719432309326
 40
1.0
 40
1.0
 40
1.0
 40
1.0
 10
8507.195025964727
 20
4982.875826162489
 30
0.0
 10
8507.109384596288
 20
4982.875826162489
 30
0.0
 10
8506.980889177023
 20
4982.875826162489
 30
0.0
 10
8506.120134903982
 20
4982.87582616249
 30
0.0
 10
8505.24248544189
 20
4982.87582616249
 30
0.0
 10
8504.14807252983
 20
4982.87582616249
 30
0.0
 10
8502.901319896762
 20
4982.875826162489
 30
0.0
 10
8501.565010380438
 20
4982.875826162489
 30
0.0
 10
8500.628483114659
 20
4982.875826162489
 30
0.0
 10
8500.195025964727
 20
4982.875826162489
 30
0.0
  0
SPLINE
  5
146
330
1F
100
AcDbEntity
  8
0
  6
Continuous
 62
     7
370
    25
100
AcDbSpline
210
0.0
220
0.0
230
1.0
 70
     8
 71
     3
 72
    13
 73
     9
 74
     0
 42
0.00000001
 43
0.00000001
 40
0.0
 40
0.0
 40
0.0
 40
0.0
 40
0.000004410396745
 40
0.2577958636111516
 40
0.5203904980168211
 40
0.6708233422185533
 40
0.8235940830940173
 40
1.0
 40
1.0
 40
1.0
 40
1.0
 10
8507.195025964727
 20
5177.875826162489
 30
0.0
 10
8507.195025964713
 20
5177.875826162489
 30
0.0
 10
8507.195025128714
 20
5177.875826163066
 30
0.0
 10
8507.047491742755
 20
5177.875826162208
 30
0.0
 10
8506.45749490349
 20
5177.875826162526
 30
0.0
 10
8505.615343316053
 20
5177.875826162473
 30
0.0
 10
8504.68329114642
 20
5177.875826162483
 30
0.0
 10
8503.696364997259
 20
5177.875826162481
 30
0.0
 10
8503.16747083619
 20
5177.87582616248
 30
0.0
  0
LINE
  5
147
330
1F
100
AcDbEntity
  8
0
  6
Continuous
 62
     7
370
    25
100
AcDbLine
 10
8507.1950259647
 20
5177.8758261625
 30
0.0
 11
8507.1950259647
 21
4982.8758261625
 31
0.0
  0
SPLINE
  5
148
330
1F
100
AcDbEntity
  8
0
  6
Continuous
 62
     7
370
    25
100
AcDbSpline
210
0.0
220
0.0
230
1.0
 70
    24
 71
     3
 72
    35
 73
    31
 74
     0
 42
0.00000001
 43
0.00000001
 40
0.0
 40
0.0
 40
0.0
 40
0.0
 40
0.0358704008673254
 40
0.071732430926103
 40
0.1076102912260201
 40
0.1433705140144989
 40
0.1785491877497589
 40
0.2145160041876404
 40
0.249125383152857
 40
0.2810783006024709
 40
0.3117584506584118
 40
0.3433507375118018
 40
0.3744413092066053
 40
0.4159928862839384
 40
0.4575664331568842
 40
0.4994058561627346
 40
0.5307881582399083
 40
0.5621165066063458
 40
0.5935385119979789
 40
0.6246651678719024
 40
0.6670518914764094
 40
0.7086268825871258
 40
0.7497041040813663
 40
0.7808647591939225
 40
0.8120835253482968
 40
0.8432574816779482
 40
0.8749406977183016
 40
0.9161819972584939
 40
0.9577417652822783
 40
1.0
 40
1.0
 40
1.0
 40
1.0
 10
8507.195025964727
 20
4982.875826162489
 30
0.0
 10
8507.195025964727
 20
4979.491090835701
 30
0.0
 10
8507.195025964727
 20
4972.722410052621
 30
0.0
 10
8507.195025964727
 20
4962.570222886771
 30
0.0
 10
8507.195025964727
 20
4952.43274122987
 30
0.0
 10
8507.195025964727
 20
4942.368044360673
 30
0.0
 10
8507.195025964727
 20
4932.310154953334
 30
0.0
 10
8507.195025964727
 20
4922.387799756024
 30
0.0
 10
8507.195025964727
 20
4912.813162368176
 30
0.0
 10
8507.195025964727
 20
4903.798921116908
 30
0.0
 10
8507.195025964727
 20
4895.152013046421
 30
0.0
 10
8507.195025964727
 20
4886.703211216821
 30
0.0
 10
8507.195025964727
 20
4877.44135512771
 30
0.0
 10
8507.195025964727
 20
4867.553960738636
 30
0.0
 10
8507.195025964727
 20
4857.131862331128
 30
0.0
 10
8507.195025964727
 20
4847.974161067823
 30
0.0
 10
8507.195025964727
 20
4840.000897106424
 30
0.0
 10
8507.195025964727
 20
4833.129906880384
 30
0.0
 10
8507.195025964727
 20
4826.606933775865
 30
0.0
 10
8507.195025964727
 20
4819.72047547811
 30
0.0
 10
8507.195025964727
 20
4812.729071389558
 30
0.0
 10
8507.195025964727
 20
4805.934905998859
 30
0.0
 10
8507.195025964727
 20
4800.550705515396
 30
0.0
 10
8507.195025964727
 20
4796.346531384997
 30
0.0
 10
8507.195025964727
 20
4793.103842366227
 30
0.0
 10
8507.195025964727
 20
4790.414036317449
 30
0.0
 10
8507.195025964727
 20
4788.05910656577
 30
0.0
 10
8507.195025964727
 20
4786.241886900901
 30
0.0
 10
8507.195025964727
 20
4785.075218760639
 30
0.0
 10
8507.195025964727
 20
4784.942658575824
 30
0.0
 10
8507.195025964727
 20
4784.875826162489
 30
0.0
  0
SPLINE
  5
149
330
1F
100
AcDbEntity
  8
0
  6
Continuous
 62
     7
370
    25
100
AcDbSpline
210
0.0
220
0.0
230
1.0
 70
     8
 71
     3
 72
    14
 73
    10
 74
     0
 42
0.00000001
 43
0.00000001
 40
0.0
 40
0.0
 40
0.0
 40
0.0
 40
0.3059160159623603
 40
0.4589932114190473
 40
0.6017753912066827
 40
0.727960433447837
 40
0.8346535250992863
 40
0.9234719432309327
 40
1.0
 40
1.0
 40
1.0
 40
1.0
 10
8507.195025964727
 20
4784.875826162489
 30
0.0
 10
8507.109384596288
 20
4783.146180969396
 30
0.0
 10
8506.980889177023
 20
4780.551039295313
 30
0.0
 10
8506.120134903982
 20
4777.253709313499
 30
0.0
 10
8505.24248544189
 20
4775.034918795314
 30
0.0
 10
8504.14807252983
 20
4773.202062650941
 30
0.0
 10
8502.901319896762
 20
4771.87211349828
 30
0.0
 10
8501.565010380438
 20
4771.030472893943
 30
0.0
 10
8500.628483114659
 20
4770.924755720149
 30
0.0
 10
8500.195025964727
 20
4770.875826162489
 30
0.0
  0
SPLINE
  5
14A
330
1F
100
AcDbEntity
  8
0
  6
Continuous
 62
     7
370
    25
100
AcDbSpline
210
0.0
220
0.0
230
1.0
 70
    24
 71
     3
 72
    11
 73
     7
 74
     0
 42
0.00000001
 43
0.00000001
 40
0.0
 40
0.0
 40
0.0
 40
0.0
 40
0.0734800452324185
 40
0.3491036671036885
 40
0.6235098070819279
 40
1.0
 40
1.0
 40
1.0
 40
1.0
 10
8499.776305664645
 20
5182.875826162489
 30
0.0
 10
8499.926647416829
 20
5182.875826162489
 30
0.0
 10
8500.64092102459
 20
5182.875826162489
 30
0.0
 10
8501.362746300614
 20
5182.875826162489
 30
0.0
 10
8502.060801698404
 20
5182.875826162489
 30
0.0
 10
8502.14583890742
 20
5182.875826162489
 30
0.0
 10
8502.195025964727
 20
5182.875826162489
 30
0.0
  0
ARC
  5
14B
330
1F
100
AcDbEntity
  8
0
  6
Continuous
 62
     7
370
    25
100
AcDbCircle
 10
8502.1950259647
 20
5177.8758261625
 30
0.0
 40
5.0
100
AcDbArc
 50
0.0
 51
90.0
  0
LINE
  5
14C
330
1F
100
AcDbEntity
  8
0
  6
Continuous
 62
     7
370
    25
100
AcDbLine
 10
8492.1950259647
 20
5183.2660641518
 30
0.0
 11
8492.1950259647
 21
5137.8758261625
 31
0.0
  0
ARC
  5
14D
330
1F
100
AcDbEntity
  8
0
  6
Continuous
 62
     7
370
    25
100
AcDbCircle
 10
8484.1950259647
 20
5183.2660641518
 30
0.0
 40
8.000000000000796
100
AcDbArc
 50
0.0
 51
12.9394859688
  0
LINE
  5
14E
330
1F
100
AcDbEntity
  8
0
  6
Continuous
 62
     7
370
    25
100
AcDbLine
 10
8493.515930448
 20
5186.8883203014
 30
0.0
 11
8492.2875686547
 21
5190.0491798523
 31
0.0
  0
ARC
  5
14F
330
1F
100
AcDbEntity
  8
0
  6
Continuous
 62
     7
370
    25
100
AcDbCircle
 10
8484.1950259647
 20
5183.2660641518
 30
0.0
 40
10.0
100
AcDbArc
 50
0.0
 51
21.2369417192
  0
LINE
  5
150
330
1F
100
AcDbEntity
  8
0
  6
Continuous
 62
     7
370
    25
100
AcDbLine
 10
8494.1950259647
 20
5182.8758261625
 30
0.0
 11
8494.1950259647
 21
5183.2660641518
 31
0.0
  0
LINE
  5
151
330
1F
100
AcDbEntity
  8
0
  6
Continuous
 62
     7
370
    25
100
AcDbLine
 10
8492.1950259647
 20
5137.8758261625
 30
0.0
 11
8494.1950259647
 21
5137.8758261625
 31
0.0
  0
SPLINE
  5
152
330
1F
100
AcDbEntity
  8
0
  6
Continuous
 62
     7
370
    25
100
AcDbSpline
210
0.0
220
0.0
230
1.0
 70
    24
 71
     3
 72
    29
 73
    25
 74
     0
 42
0.00000001
 43
0.00000001
 40
0.0
 40
0.0
 40
0.0
 40
0.0
 40
0.0500571486723935
 40
0.1020308728862185
 40
0.1547374320152545
 40
0.2073127240032666
 40
0.259188407302696
 40
0.3100661955554108
 40
0.3570696131717861
 40
0.4032530608930144
 40
0.4488658166809322
 40
0.4942477259776393
 40
0.5397860700509688
 40
0.5781416502197213
 40
0.6170890935617227
 40
0.6568115789017401
 40
0.6974577801336448
 40
0.7391393165449404
 40
0.7819328494666516
 40
0.8233444722377719
 40
0.8658156125677179
 40
0.9093749650878776
 40
0.9540714807162349
 40
0.9999999999999999
 40
0.9999999999999999
 40
0.9999999999999999
 40
0.9999999999999999
 10
8470.695025964727
 20
4971.140422254252
 30
0.0
 10
8470.695025964727
 20
4965.953338088184
 30
0.0
 10
8470.695025964727
 20
4955.380567979722
 30
0.0
 10
8470.695025964727
 20
4939.374632301233
 30
0.0
 10
8470.695025964727
 20
4923.171264118474
 30
0.0
 10
8470.695025964727
 20
4907.08872466829
 30
0.0
 10
8470.695025964727
 20
4891.369158930207
 30
0.0
 10
8470.695025964727
 20
4876.470370625065
 30
0.0
 10
8470.695025964727
 20
4862.486003172576
 30
0.0
 10
8470.695025964727
 20
4849.451492606529
 30
0.0
 10
8470.695025964727
 20
4837.128194336485
 30
0.0
 10
8470.695025964727
 20
4825.545165815532
 30
0.0
 10
8470.695025964727
 20
4815.331273741654
 30
0.0
 10
8470.695025964727
 20
4806.358318265415
 30
0.0
 10
8470.695025964727
 20
4798.482959995946
 30
0.0
 10
8470.695025964727
 20
4791.169813089767
 30
0.0
 10
8470.695025964727
 20
4784.444643434028
 30
0.0
 10
8470.695025964727
 20
4778.346786413363
 30
0.0
 10
8470.695025964727
 20
4773.038662107842
 30
0.0
 10
8470.695025964727
 20
4768.5430494642
 30
0.0
 10
8470.695025964727
 20
4764.885327641845
 30
0.0
 10
8470.695025964727
 20
4762.113557237409
 30
0.0
 10
8470.695025964727
 20
4760.245396719476
 30
0.0
 10
8470.695025964727
 20
4760.000127785785
 30
0.0
 10
8470.695025964727
 20
4759.875826162489
 30
0.0
  0
LINE
  5
153
330
1F
100
AcDbEntity
  8
0
  6
Continuous
 62
     7
370
    25
100
AcDbLine
 10
8479.1950259647
 20
4971.1404222543
 30
0.0
 11
8470.6950259647
 21
4971.1404222543
 31
0.0
  0
SPLINE
  5
154
330
1F
100
AcDbEntity
  8
0
  6
Continuous
 62
     7
370
    25
100
AcDbSpline
210
0.0
220
0.0
230
1.0
 70
    24
 71
     3
 72
    32
 73
    28
 74
     0
 42
0.00000001
 43
0.00000001
 40
0.0
 40
0.0
 40
0.0
 40
0.0
 40
0.0476791593709932
 40
0.0953656604998443
 40
0.1445128122860328
 40
0.1936635188643799
 40
0.2412291110169807
 40
0.2887930342149306
 40
0.3213760945098189
 40
0.3539847443659072
 40
0.3865634680079054
 40
0.4189222484485184
 40
0.4513120105470723
 40
0.4836672899576162
 40
0.5172999725226275
 40
0.5509718597630648
 40
0.584608284187482
 40
0.6194902136907343
 40
0.6544087664239889
 40
0.6893015087114829
 40
0.7430909988798097
 40
0.7968938889272698
 40
0.8439996894771167
 40
0.8829081984088601
 40
0.9218179033167597
 40
0.9609090314999892
 40
1.0
 40
1.0
 40
1.0
 40
1.0
 10
8479.195025964727
 20
4759.875826162489
 30
0.0
 10
8479.195025964727
 20
4760.01052605656
 30
0.0
 10
8479.195025964727
 20
4760.27994658613
 30
0.0
 10
8479.195025964727
 20
4762.382367313215
 30
0.0
 10
8479.195025964727
 20
4765.670051929627
 30
0.0
 10
8479.195025964727
 20
4770.188892707802
 30
0.0
 10
8479.195025964727
 20
4775.771665628515
 30
0.0
 10
8479.195025964727
 20
4781.667331271538
 30
0.0
 10
8479.195025964727
 20
4787.57101242009
 30
0.0
 10
8479.195025964727
 20
4793.182146277848
 30
0.0
 10
8479.195025964727
 20
4799.267362132777
 30
0.0
 10
8479.195025964727
 20
4805.824626852169
 30
0.0
 10
8479.195025964727
 20
4812.833107066551
 30
0.0
 10
8479.195025964727
 20
4820.387192778052
 30
0.0
 10
8479.195025964727
 20
4828.492760141202
 30
0.0
 10
8479.195025964727
 20
4837.118298017407
 30
0.0
 10
8479.195025964727
 20
4846.22511560431
 30
0.0
 10
8479.195025964727
 20
4855.783620474218
 30
0.0
 10
8479.195025964727
 20
4865.741618719084
 30
0.0
 10
8479.195025964727
 20
4877.769488428528
 30
0.0
 10
8479.195025964727
 20
4891.953274621204
 30
0.0
 10
8479.195025964727
 20
4907.623602411008
 30
0.0
 10
8479.195025964727
 20
4921.933703136437
 30
0.0
 10
8479.195025964727
 20
4934.792127291175
 30
0.0
 10
8479.195025964727
 20
4946.867785729334
 30
0.0
 10
8479.195025964727
 20
4958.988078723315
 30
0.0
 10
8479.195025964727
 20
4967.089646592962
 30
0.0
 10
8479.195025964727
 20
4971.140422254252
 30
0.0
  0
LINE
  5
155
330
1F
100
AcDbEntity
  8
0
  6
Continuous
 62
     7
370
    25
100
AcDbLine
 10
8479.1950259647
 20
4759.8758261625
 30
0.0
 11
8470.6950259647
 21
4759.8758261625
 31
0.0
  0
LINE
  5
156
330
1F
100
AcDbEntity
  8
0
  6
Continuous
 62
     7
370
    25
100
AcDbLine
 10
8479.1950259647
 20
4971.1404222543
 30
0.0
 11
8487.1950259647
 21
4971.1404222543
 31
0.0
  0
SPLINE
  5
157
330
1F
100
AcDbEntity
  8
0
  6
Continuous
 62
     7
370
    25
100
AcDbSpline
210
0.0
220
0.0
230
1.0
 70
    24
 71
     3
 72
    29
 73
    25
 74
     0
 42
0.00000001
 43
0.00000001
 40
0.0
 40
0.0
 40
0.0
 40
0.0
 40
0.0516590462793932
 40
0.1033713276043049
 40
0.1550685813539187
 40
0.2067071132752007
 40
0.2491976650772558
 40
0.2918280534562201
 40
0.3344549736202415
 40
0.3769868613142862
 40
0.4193945427016249
 40
0.4584515995407445
 40
0.4976868574907327
 40
0.5369844047704226
 40
0.5762224563991492
 40
0.615281867027059
 40
0.6632049252395675
 40
0.711299481033133
 40
0.7594165110348662
 40
0.8073703228853845
 40
0.8554601889675504
 40
0.903722673851718
 40
0.9519534853074704
 40
1.0
 40
1.0
 40
1.0
 40
1.0
 10
8487.195025964727
 20
4971.140422254252
 30
0.0
 10
8487.195025964727
 20
4966.003890710002
 30
0.0
 10
8487.195025964727
 20
4955.725534386141
 30
0.0
 10
8487.195025964727
 20
4940.333198429372
 30
0.0
 10
8487.195025964727
 20
4925.003576364008
 30
0.0
 10
8487.195025964727
 20
4910.679507375858
 30
0.0
 10
8487.195025964727
 20
4897.372391134631
 30
0.0
 10
8487.195025964727
 20
4885.099508710847
 30
0.0
 10
8487.195025964727
 20
4873.038173646882
 30
0.0
 10
8487.195025964727
 20
4861.29124583076
 30
0.0
 10
8487.195025964727
 20
4850.245418516673
 30
0.0
 10
8487.195025964727
 20
4839.968012941149
 30
0.0
 10
8487.195025964727
 20
4830.464540818617
 30
0.0
 10
8487.195025964727
 20
4821.499354997865
 30
0.0
 10
8487.195025964727
 20
4813.149620215021
 30
0.0
 10
8487.195025964727
 20
4804.905387209832
 30
0.0
 10
8487.195025964727
 20
4796.981267587996
 30
0.0
 10
8487.195025964727
 20
4789.54467602369
 30
0.0
 10
8487.195025964727
 20
4783.141025773228
 30
0.0
 10
8487.195025964727
 20
4777.781899912547
 30
0.0
 10
8487.195025964727
 20
4773.483801481321
 30
0.0
 10
8487.195025964727
 20
4770.331054865132
 30
0.0
 10
8487.195025964727
 20
4768.27566802432
 30
0.0
 10
8487.195025964727
 20
4768.008936588162
 30
0.0
 10
8487.195025964727
 20
4767.87582616249
 30
0.0
  0
ARC
  5
158
330
1F
100
AcDbEntity
  8
0
  6
Continuous
 62
     7
370
    25
100
AcDbCircle
 10
8479.1950259647
 20
4767.8758261625
 30
0.0
 40
8.00000000000091
100
AcDbArc
 50
270.0
 51
0.0
  0
LINE
  5
159
330
1F
100
AcDbEntity
  8
0
  6
Continuous
 62
     7
370
    25
100
AcDbLine
 10
8470.6950259647
 20
5177.3758261625
 30
0.0
 11
8470.6950259647
 21
4971.1404222543
 31
0.0
  0
LINE
  5
15A
330
1F
100
AcDbEntity
  8
0
  6
Continuous
 62
     7
370
    25
100
AcDbLine
 10
8479.1950259647
 20
5177.3758261625
 30
0.0
 11
8470.6950259647
 21
5177.3758261625
 31
0.0
  0
LINE
  5
15B
330
1F
100
AcDbEntity
  8
0
  6
Continuous
 62
     7
370
    25
100
AcDbLine
 10
8479.1950259647
 20
4971.1404222543
 30
0.0
 11
8479.1950259647
 21
5177.3758261625
 31
0.0
  0
LINE
  5
15C
330
1F
100
AcDbEntity
  8
0
  6
Continuous
 62
     7
370
    25
100
AcDbLine
 10
8470.6950259647
 20
5179.8758261625
 30
0.0
 11
8479.1950259647
 21
5179.8758261625
 31
0.0
  0
LINE
  5
15D
330
1F
100
AcDbEntity
  8
0
  6
Continuous
 62
     7
370
    25
100
AcDbLine
 10
8479.1950259647
 20
5179.8758261625
 30
0.0
 11
8479.1950259647
 21
5177.3758261625
 31
0.0
  0
LINE
  5
15E
330
1F
100
AcDbEntity
  8
0
  6
Continuous
 62
     7
370
    25
100
AcDbLine
 10
8470.6950259647
 20
5177.3758261625
 30
0.0
 11
8470.6950259647
 21
5179.8758261625
 31
0.0
  0
LINE
  5
15F
330
1F
100
AcDbEntity
  8
0
  6
Continuous
 62
     7
370
    25
100
AcDbLine
 10
8487.1950259647
 20
5177.3758261625
 30
0.0
 11
8479.1950259647
 21
5177.3758261625
 31
0.0
  0
LINE
  5
160
330
1F
100
AcDbEntity
  8
0
  6
Continuous
 62
     7
370
    25
100
AcDbLine
 10
8487.1950259647
 20
5177.3758261625
 30
0.0
 11
8487.1950259647
 21
4971.1404222543
 31
0.0
  0
LINE
  5
161
330
1F
100
AcDbEntity
  8
0
  6
Continuous
 62
     7
370
    25
100
AcDbLine
 10
8479.1950259647
 20
5179.8758261625
 30
0.0
 11
8484.6950259647
 21
5179.8758261625
 31
0.0
  0
ARC
  5
162
330
1F
100
AcDbEntity
  8
0
  6
Continuous
 62
     7
370
    25
100
AcDbCircle
 10
8484.6950259647
 20
5177.3758261625
 30
0.0
 40
2.5
100
AcDbArc
 50
0.0
 51
90.0
  0
LINE
  5
163
330
1F
100
AcDbEntity
  8
0
  6
Continuous
 62
     7
370
    25
100
AcDbLine
 10
8462.6950259647
 20
4853.4083985978
 30
0.0
 11
8462.6950259647
 21
4866.3432545062
 31
0.0
  0
ARC
  5
164
330
1F
100
AcDbEntity
  8
0
  6
Continuous
 62
     7
370
    25
100
AcDbCircle
 10
8473.6950259647
 20
5181.5676134312
 30
0.0
 40
5.0
100
AcDbArc
 50
119.8532102126
 51
180.0
  0
LINE
  5
165
330
1F
100
AcDbEntity
  8
0
  6
Continuous
 62
     7
370
    25
100
AcDbLine
 10
8483.7083481568
 20
5193.0796474192
 30
0.0
 11
8471.2061277915
 21
5185.9041311451
 31
0.0
  0
LINE
  5
166
330
1F
100
AcDbEntity
  8
0
  6
Continuous
 62
     7
370
    25
100
AcDbLine
 10
8473.2061277915
 20
5184.7460121232
 30
0.0
 11
8480.8252080685
 21
5189.1189021318
 31
0.0
  0
ARC
  5
167
330
1F
100
AcDbEntity
  8
0
  6
Continuous
 62
     7
370
    25
100
AcDbCircle
 10
8475.6950259647
 20
5180.4094944092
 30
0.0
 40
5.000000000000055
100
AcDbArc
 50
119.8532102127
 51
180.0
  0
LINE
  5
168
330
1F
100
AcDbEntity
  8
0
  6
Continuous
 62
     7
370
    25
100
AcDbLine
 10
8470.6950259647
 20
5179.8758261625
 30
0.0
 11
8470.6950259647
 21
5180.4094944092
 31
0.0
  0
LINE
  5
169
330
1F
100
AcDbEntity
  8
0
  6
Continuous
 62
     7
370
    25
100
AcDbLine
 10
8468.6950259647
 20
5138.8758261625
 30
0.0
 11
8470.6950259647
 21
5138.8758261625
 31
0.0
  0
LINE
  5
16A
330
1F
100
AcDbEntity
  8
0
  6
Continuous
 62
     7
370
    25
100
AcDbLine
 10
8468.6950259647
 20
5181.5676134312
 30
0.0
 11
8468.6950259647
 21
5138.8758261625
 31
0.0
  0
LINE
  5
16B
330
1F
100
AcDbEntity
  8
0
  6
Continuous
 62
     7
370
    25
100
AcDbLine
 10
8470.6950259647
 20
5133.8758261625
 30
0.0
 11
8468.6950259647
 21
5133.8758261625
 31
0.0
  0
LINE
  5
16C
330
1F
100
AcDbEntity
  8
0
  6
Continuous
 62
     7
370
    25
100
AcDbLine
 10
8468.6950259647
 20
5133.8758261625
 30
0.0
 11
8468.6950259647
 21
5138.8758261625
 31
0.0
  0
LINE
  5
16D
330
1F
100
AcDbEntity
  8
0
  6
Continuous
 62
     8
370
    25
100
AcDbLine
 10
8489.0207144792
 20
4891.423132566
 30
0.0
 11
8489.0207144792
 21
4874.328519759
 31
0.0
  0
LINE
  5
16E
330
1F
100
AcDbEntity
  8
0
  6
Continuous
 62
     8
370
    25
100
AcDbLine
 10
8464.5207144792
 20
4868.3356439024
 30
0.0
 11
8464.5207144792
 21
4851.4160084225
 31
0.0
  0
LINE
  5
16F
330
1F
100
AcDbEntity
  8
0
  6
Continuous
 62
     7
370
    25
100
AcDbLine
 10
8974.5143862314
 20
5193.8758261625
 30
0.0
 11
8951.0143862314
 21
5193.8758261625
 31
0.0
  0
LINE
  5
170
330
1F
100
AcDbEntity
  8
0
  6
Continuous
 62
     7
370
    25
100
AcDbLine
 10
8951.0143862314
 20
5181.8758261625
 30
0.0
 11
8974.5143862314
 21
5181.8758261625
 31
0.0
  0
LINE
  5
171
330
1F
100
AcDbEntity
  8
0
  6
Continuous
 62
     7
370
    25
100
AcDbLine
 10
8799.5143862314
 20
5181.8758261625
 30
0.0
 11
8823.0143862314
 21
5181.8758261625
 31
0.0
  0
LINE
  5
172
330
1F
100
AcDbEntity
  8
0
  6
Continuous
 62
     7
370
    25
100
AcDbLine
 10
8823.0143862314
 20
5193.8758261625
 30
0.0
 11
8799.5143862314
 21
5193.8758261625
 31
0.0
  0
LINE
  5
173
330
1F
100
AcDbEntity
  8
0
  6
Continuous
 62
     7
370
    25
100
AcDbLine
 10
8853.0143862314
 20
5193.8758261625
 30
0.0
 11
8838.0143862314
 21
5193.8758261625
 31
0.0
  0
LINE
  5
174
330
1F
100
AcDbEntity
  8
0
  6
Continuous
 62
     7
370
    25
100
AcDbLine
 10
8838.0143862314
 20
5181.8758261625
 30
0.0
 11
8853.0143862314
 21
5181.8758261625
 31
0.0
  0
LINE
  5
175
330
1F
100
AcDbEntity
  8
0
  6
Continuous
 62
     7
370
    25
100
AcDbLine
 10
8921.0143862314
 20
5181.8758261625
 30
0.0
 11
8936.0143862314
 21
5181.8758261625
 31
0.0
  0
LINE
  5
176
330
1F
100
AcDbEntity
  8
0
  6
Continuous
 62
     7
370
    25
100
AcDbLine
 10
8936.0143862314
 20
5193.8758261625
 30
0.0
 11
8921.0143862314
 21
5193.8758261625
 31
0.0
  0
LINE
  5
177
330
1F
100
AcDbEntity
  8
0
  6
Continuous
 62
     7
370
    25
100
AcDbLine
 10
8838.0143862314
 20
5193.8758261625
 30
0.0
 11
8823.0143862314
 21
5193.8758261625
 31
0.0
  0
LINE
  5
178
330
1F
100
AcDbEntity
  8
0
  6
Continuous
 62
     7
370
    25
100
AcDbLine
 10
8951.0143862314
 20
5193.8758261625
 30
0.0
 11
8936.0143862314
 21
5193.8758261625
 31
0.0
  0
LINE
  5
179
330
1F
100
AcDbEntity
  8
0
  6
Continuous
 62
     7
370
    25
100
AcDbLine
 10
8974.5143862314
 20
5181.8758261625
 30
0.0
 11
8974.5143862314
 21
5193.8758261625
 31
0.0
  0
SPLINE
  5
17A
330
1F
100
AcDbEntity
  8
0
  6
Continuous
 62
     7
370
    25
100
AcDbSpline
210
0.0
220
0.0
230
1.0
 70
    11
 71
     3
 72
    28
 73
    24
 74
     0
 42
0.00000001
 43
0.00000001
 40
0.0
 40
0.0
 40
0.0
 40
0.0
 40
0.0463088022518609
 40
0.092459732149384
 40
0.1425842350916689
 40
0.2005293418068796
 40
0.2416952728610084
 40
0.2829913031977813
 40
0.3225472289991433
 40
0.3701880040543754
 40
0.4280229636351194
 40
0.4744966627090014
 40
0.5211177748931193
 40
0.5645091312853063
 40
0.610570751506013
 40
0.663936571596265
 40
0.7127395910737893
 40
0.7526977040494496
 40
0.7926894439982374
 40
0.8434102941741425
 40
0.8951316173632601
 40
0.9541221282005263
 40
0.9999999999999999
 40
0.9999999999999999
 40
0.9999999999999999
 40
0.9999999999999999
 10
8961.514386231436
 20
5187.875826162489
 30
0.0
 10
8961.550153640672
 20
5188.277625118018
 30
0.0
 10
8961.621566523687
 20
5189.079853247435
 30
0.0
 10
8962.1676307516
 20
5190.164928151018
 30
0.0
 10
8963.014637760683
 20
5191.090664026012
 30
0.0
 10
8964.099292359615
 20
5191.687816062363
 30
0.0
 10
8965.294266740357
 20
5191.918898461458
 30
0.0
 10
8966.36524863825
 20
5191.830674225464
 30
0.0
 10
8967.383572823792
 20
5191.466395404746
 30
0.0
 10
8968.352669469412
 20
5190.790426172536
 30
0.0
 10
8969.111331234068
 20
5189.784627550038
 30
0.0
 10
8969.519664643229
 20
5188.550363748222
 30
0.0
 10
8969.537252036042
 20
5187.344123596687
 30
0.0
 10
8969.211617666042
 20
5186.214653913547
 30
0.0
 10
8968.578132811317
 20
5185.209850382105
 30
0.0
 10
8967.661241304222
 20
5184.424295118201
 30
0.0
 10
8966.565142007808
 20
5183.960001987891
 30
0.0
 10
8965.444476623199
 20
5183.830281123805
 30
0.0
 10
8964.317981255052
 20
5184.00019111274
 30
0.0
 10
8963.24227818629
 20
5184.50507214458
 30
0.0
 10
8962.28469244004
 20
5185.395341834661
 30
0.0
 10
8961.63132807154
 20
5186.568341751215
 30
0.0
 10
8961.549976122331
 20
5187.477908466791
 30
0.0
 10
8961.514386231436
 20
5187.875826162489
 30
0.0
  0
LINE
  5
17B
330
1F
100
AcDbEntity
  8
0
  6
Continuous
 62
     7
370
    25
100
AcDbLine
 10
8951.0143862314
 20
5193.0796474192
 30
0.0
 11
8951.0143862314
 21
5193.8758261625
 31
0.0
  0
LINE
  5
17C
330
1F
100
AcDbEntity
  8
0
  6
Continuous
 62
     7
370
    25
100
AcDbLine
 10
8823.0143862314
 20
5193.8758261625
 30
0.0
 11
8823.0143862314
 21
5193.0796474192
 31
0.0
  0
SPLINE
  5
17D
330
1F
100
AcDbEntity
  8
0
  6
Continuous
 62
     7
370
    25
100
AcDbSpline
210
0.0
220
0.0
230
1.0
 70
    11
 71
     3
 72
    28
 73
    24
 74
     0
 42
0.00000001
 43
0.00000001
 40
0.0
 40
0.0
 40
0.0
 40
0.0
 40
0.0463088022518609
 40
0.092459732149384
 40
0.1425842350916691
 40
0.2005293418068796
 40
0.2416952728610084
 40
0.2829913031977813
 40
0.3225472289991436
 40
0.3701880040543757
 40
0.4280229636351196
 40
0.4744966627090015
 40
0.5211177748931195
 40
0.5645091312853064
 40
0.6105707515060134
 40
0.6639365715962651
 40
0.7127395910737894
 40
0.75269770404945
 40
0.7926894439982372
 40
0.8434102941741426
 40
0.89513161736326
 40
0.9541221282005262
 40
0.9999999999999999
 40
0.9999999999999999
 40
0.9999999999999999
 40
0.9999999999999999
 10
8812.514386231436
 20
5187.875826162489
 30
0.0
 10
8812.478618822199
 20
5187.474027206959
 30
0.0
 10
8812.407205939184
 20
5186.671799077542
 30
0.0
 10
8811.861141711272
 20
5185.586724173958
 30
0.0
 10
8811.014134702189
 20
5184.660988298965
 30
0.0
 10
8809.929480103257
 20
5184.063836262615
 30
0.0
 10
8808.734505722516
 20
5183.832753863519
 30
0.0
 10
8807.66352382462
 20
5183.920978099514
 30
0.0
 10
8806.64519963908
 20
5184.28525692023
 30
0.0
 10
8805.676102993459
 20
5184.961226152441
 30
0.0
 10
8804.917441228805
 20
5185.967024774938
 30
0.0
 10
8804.509107819642
 20
5187.201288576755
 30
0.0
 10
8804.49152042683
 20
5188.407528728289
 30
0.0
 10
8804.817154796829
 20
5189.536998411429
 30
0.0
 10
8805.450639651555
 20
5190.541801942872
 30
0.0
 10
8806.367531158648
 20
5191.327357206775
 30
0.0
 10
8807.46363045506
 20
5191.791650337087
 30
0.0
 10
8808.584295839673
 20
5191.921371201171
 30
0.0
 10
8809.71079120782
 20
5191.751461212238
 30
0.0
 10
8810.786494276583
 20
5191.246580180396
 30
0.0
 10
8811.74408002283
 20
5190.356310490317
 30
0.0
 10
8812.397444391332
 20
5189.183310573763
 30
0.0
 10
8812.478796340542
 20
5188.273743858185
 30
0.0
 10
8812.514386231436
 20
5187.875826162489
 30
0.0
  0
LINE
  5
17E
330
1F
100
AcDbEntity
  8
0
  6
Continuous
 62
     7
370
    25
100
AcDbLine
 10
8799.5143862314
 20
5193.8758261625
 30
0.0
 11
8799.5143862314
 21
5181.8758261625
 31
0.0
  0
LINE
  5
17F
330
1F
100
AcDbEntity
  8
0
  6
Continuous
 62
     7
370
    25
100
AcDbLine
 10
8853.0143862314
 20
5193.8758261625
 30
0.0
 11
8853.0143862314
 21
5181.8758261625
 31
0.0
  0
LINE
  5
180
330
1F
100
AcDbEntity
  8
0
  6
Continuous
 62
     7
370
    25
100
AcDbLine
 10
8838.0143862314
 20
5193.8758261625
 30
0.0
 11
8838.0143862314
 21
5193.0796474192
 31
0.0
  0
LINE
  5
181
330
1F
100
AcDbEntity
  8
0
  6
Continuous
 62
     7
370
    25
100
AcDbLine
 10
8936.0143862314
 20
5193.8758261625
 30
0.0
 11
8936.0143862314
 21
5193.0796474192
 31
0.0
  0
LINE
  5
182
330
1F
100
AcDbEntity
  8
0
  6
Continuous
 62
     7
370
    25
100
AcDbLine
 10
8921.0143862314
 20
5193.8758261625
 30
0.0
 11
8921.0143862314
 21
5181.8758261625
 31
0.0
  0
LINE
  5
183
330
1F
100
AcDbEntity
  8
0
  6
Continuous
 62
     7
370
    25
100
AcDbLine
 10
8853.0143862314
 20
5181.8758261625
 30
0.0
 11
8853.0143862314
 21
5179.8758261625
 31
0.0
  0
LINE
  5
184
330
1F
100
AcDbEntity
  8
0
  6
Continuous
 62
     7
370
    25
100
AcDbLine
 10
8921.0143862314
 20
5181.8758261625
 30
0.0
 11
8921.0143862314
 21
5179.8758261625
 31
0.0
  0
ARC
  5
185
330
1F
100
AcDbEntity
  8
0
  6
Continuous
 62
     7
370
    25
100
AcDbCircle
 10
9047.0143862314
 20
5177.8758261625
 30
0.0
 40
5.000000000000672
100
AcDbArc
 50
23.5781784782
 51
90.0
  0
LINE
  5
186
330
1F
100
AcDbEntity
  8
0
  6
Continuous
 62
     7
370
    25
100
AcDbLine
 10
8974.5143862314
 20
5182.8758261625
 30
0.0
 11
9047.0143862314
 21
5182.8758261625
 31
0.0
  0
LINE
  5
187
330
1F
100
AcDbEntity
  8
0
  6
Continuous
 62
     7
370
    25
100
AcDbLine
 10
8853.0143862314
 20
5182.8758261625
 30
0.0
 11
8921.0143862314
 21
5182.8758261625
 31
0.0
  0
LINE
  5
188
330
1F
100
AcDbEntity
  8
0
  6
Continuous
 62
     7
370
    25
100
AcDbLine
 10
8727.0143862314
 20
5182.8758261625
 30
0.0
 11
8799.5143862314
 21
5182.8758261625
 31
0.0
  0
ARC
  5
189
330
1F
100
AcDbEntity
  8
0
  6
Continuous
 62
     7
370
    25
100
AcDbCircle
 10
8727.0143862314
 20
5177.8758261625
 30
0.0
 40
5.000000000000672
100
AcDbArc
 50
90.0
 51
156.4218215218
  0
CIRCLE
  5
18A
330
1F
100
AcDbEntity
  8
0
  6
Continuous
 62
     7
370
    25
100
AcDbCircle
 10
8757.0143862314
 20
4859.8758261625
 30
0.0
 40
8.459817739941172
  0
CIRCLE
  5
18B
330
1F
100
AcDbEntity
  8
0
  6
Continuous
 62
     7
370
    25
100
AcDbCircle
 10
8757.0143862314
 20
4859.8758261625
 30
0.0
 40
6.467428343758002
  0
CIRCLE
  5
18C
330
1F
100
AcDbEntity
  8
0
  6
Continuous
 62
     7
370
    25
100
AcDbCircle
 10
9017.0143862314
 20
4859.8758261625
 30
0.0
 40
8.459817739941172
  0
CIRCLE
  5
18D
330
1F
100
AcDbEntity
  8
0
  6
Continuous
 62
     7
370
    25
100
AcDbCircle
 10
9017.0143862314
 20
4859.8758261625
 30
0.0
 40
6.467428343758002
  0
CIRCLE
  5
18E
330
1F
100
AcDbEntity
  8
0
  6
Continuous
 62
     7
370
    25
100
AcDbCircle
 10
8757.0143862314
 20
4859.8758261625
 30
0.0
 40
9.00000000000091
  0
CIRCLE
  5
18F
330
1F
100
AcDbEntity
  8
0
  6
Continuous
 62
     7
370
    25
100
AcDbCircle
 10
9017.0143862314
 20
4859.8758261625
 30
0.0
 40
9.00000000000091
  0
ARC
  5
190
330
1F
100
AcDbEntity
  8
0
  6
Continuous
 62
     7
370
    25
100
AcDbCircle
 10
8828.0143862314
 20
5138.8758261625
 30
0.0
 40
5.0
100
AcDbArc
 50
180.0
 51
270.0
  0
LINE
  5
191
330
1F
100
AcDbEntity
  8
0
  6
Continuous
 62
     7
370
    25
100
AcDbLine
 10
8823.0143862314
 20
5181.5676134312
 30
0.0
 11
8823.0143862314
 21
5138.8758261625
 31
0.0
  0
LINE
  5
192
330
1F
100
AcDbEntity
  8
0
  6
Continuous
 62
     7
370
    25
100
AcDbLine
 10
8823.0143862314
 20
5181.5676134312
 30
0.0
 11
8838.0143862314
 21
5181.5676134312
 31
0.0
  0
LINE
  5
193
330
1F
100
AcDbEntity
  8
0
  6
Continuous
 62
     7
370
    25
100
AcDbLine
 10
8838.0143862314
 20
5181.5676134312
 30
0.0
 11
8838.0143862314
 21
5138.8758261625
 31
0.0
  0
ARC
  5
194
330
1F
100
AcDbEntity
  8
0
  6
Continuous
 62
     7
370
    25
100
AcDbCircle
 10
8833.0143862314
 20
5138.8758261625
 30
0.0
 40
5.0
100
AcDbArc
 50
270.0
 51
0.0
  0
LINE
  5
195
330
1F
100
AcDbEntity
  8
0
  6
Continuous
 62
     7
370
    25
100
AcDbLine
 10
8828.0143862314
 20
5133.8758261625
 30
0.0
 11
8833.0143862314
 21
5133.8758261625
 31
0.0
  0
LINE
  5
196
330
1F
100
AcDbEntity
  8
0
  6
Continuous
 62
     7
370
    25
100
AcDbLine
 10
8823.0143862314
 20
5185.9041311451
 30
0.0
 11
8838.0143862314
 21
5185.9041311451
 31
0.0
  0
LINE
  5
197
330
1F
100
AcDbEntity
  8
0
  6
Continuous
 62
     7
370
    25
100
AcDbLine
 10
8838.0143862314
 20
5185.9041311451
 30
0.0
 11
8838.0143862314
 21
5181.5676134312
 31
0.0
  0
LINE
  5
198
330
1F
100
AcDbEntity
  8
0
  6
Continuous
 62
     7
370
    25
100
AcDbLine
 10
8823.0143862314
 20
5185.9041311451
 30
0.0
 11
8823.0143862314
 21
5181.5676134312
 31
0.0
  0
LINE
  5
199
330
1F
100
AcDbEntity
  8
0
  6
Continuous
 62
     7
370
    25
100
AcDbLine
 10
8951.0143862314
 20
5181.5676134312
 30
0.0
 11
8936.0143862314
 21
5181.5676134312
 31
0.0
  0
LINE
  5
19A
330
1F
100
AcDbEntity
  8
0
  6
Continuous
 62
     7
370
    25
100
AcDbLine
 10
8951.0143862314
 20
5181.5676134312
 30
0.0
 11
8951.0143862314
 21
5138.8758261625
 31
0.0
  0
ARC
  5
19B
330
1F
100
AcDbEntity
  8
0
  6
Continuous
 62
     7
370
    25
100
AcDbCircle
 10
8946.0143862314
 20
5138.8758261625
 30
0.0
 40
5.0
100
AcDbArc
 50
270.0
 51
0.0
  0
LINE
  5
19C
330
1F
100
AcDbEntity
  8
0
  6
Continuous
 62
     7
370
    25
100
AcDbLine
 10
8946.0143862314
 20
5133.8758261625
 30
0.0
 11
8941.0143862314
 21
5133.8758261625
 31
0.0
  0
ARC
  5
19D
330
1F
100
AcDbEntity
  8
0
  6
Continuous
 62
     7
370
    25
100
AcDbCircle
 10
8941.0143862314
 20
5138.8758261625
 30
0.0
 40
5.0
100
AcDbArc
 50
180.0
 51
270.0
  0
LINE
  5
19E
330
1F
100
AcDbEntity
  8
0
  6
Continuous
 62
     7
370
    25
100
AcDbLine
 10
8936.0143862314
 20
5181.5676134312
 30
0.0
 11
8936.0143862314
 21
5138.8758261625
 31
0.0
  0
LINE
  5
19F
330
1F
100
AcDbEntity
  8
0
  6
Continuous
 62
     7
370
    25
100
AcDbLine
 10
8951.0143862314
 20
5185.9041311451
 30
0.0
 11
8936.0143862314
 21
5185.9041311451
 31
0.0
  0
LINE
  5
1A0
330
1F
100
AcDbEntity
  8
0
  6
Continuous
 62
     7
370
    25
100
AcDbLine
 10
8951.0143862314
 20
5185.9041311451
 30
0.0
 11
8951.0143862314
 21
5181.5676134312
 31
0.0
  0
LINE
  5
1A1
330
1F
100
AcDbEntity
  8
0
  6
Continuous
 62
     7
370
    25
100
AcDbLine
 10
8936.0143862314
 20
5185.9041311451
 30
0.0
 11
8936.0143862314
 21
5181.5676134312
 31
0.0
  0
LINE
  5
1A2
330
1F
100
AcDbEntity
  8
0
  6
Continuous
 62
     7
370
    25
100
AcDbLine
 10
8838.0143862314
 20
5179.8758261625
 30
0.0
 11
8936.0143862314
 21
5179.8758261625
 31
0.0
  0
LINE
  5
1A3
330
1F
100
AcDbEntity
  8
0
  6
Continuous
 62
     7
370
    25
100
AcDbLine
 10
8951.0143862314
 20
5179.8758261625
 30
0.0
 11
9062.0143862314
 21
5179.8758261625
 31
0.0
  0
ARC
  5
1A4
330
1F
100
AcDbEntity
  8
0
  6
Continuous
 62
     7
370
    25
100
AcDbCircle
 10
9062.0143862314
 20
5177.3758261625
 30
0.0
 40
2.5
100
AcDbArc
 50
0.0
 51
90.0
  0
LINE
  5
1A5
330
1F
100
AcDbEntity
  8
0
  6
Continuous
 62
     7
370
    25
100
AcDbLine
 10
9064.5143862314
 20
5177.3758261625
 30
0.0
 11
9064.5143862314
 21
4971.1404222543
 31
0.0
  0
LINE
  5
1A6
330
1F
100
AcDbEntity
  8
0
  6
Continuous
 62
     7
370
    25
100
AcDbLine
 10
8709.5143862314
 20
4971.1404222543
 30
0.0
 11
8709.5143862314
 21
5177.3758261625
 31
0.0
  0
ARC
  5
1A7
330
1F
100
AcDbEntity
  8
0
  6
Continuous
 62
     7
370
    25
100
AcDbCircle
 10
8712.0143862314
 20
5177.3758261625
 30
0.0
 40
2.500000000000909
100
AcDbArc
 50
90.0
 51
180.0
  0
LINE
  5
1A8
330
1F
100
AcDbEntity
  8
0
  6
Continuous
 62
     7
370
    25
100
AcDbLine
 10
8712.0143862314
 20
5179.8758261625
 30
0.0
 11
8823.0143862314
 21
5179.8758261625
 31
0.0
  0
SPLINE
  5
1A9
330
1F
100
AcDbEntity
  8
0
  6
Continuous
 62
     7
370
    25
100
AcDbSpline
210
0.0
220
0.0
230
1.0
 70
     8
 71
     3
 72
    47
 73
    43
 74
     0
 42
0.00000001
 43
0.00000001
 40
0.0
 40
0.0
 40
0.0
 40
0.0
 40
0.0074938227495619
 40
0.0180343218326359
 40
0.0313860619276263
 40
0.047382618465411
 40
0.0658950192825603
 40
0.0864279539706585
 40
0.1092150479571918
 40
0.1341890277563173
 40
0.161268937103805
 40
0.1858129237583722
 40
0.2116850660490636
 40
0.2387496440323004
 40
0.2668407384521679
 40
0.2957685480344693
 40
0.3253287238963145
 40
0.3606941191803251
 40
0.3963229859132978
 40
0.4319249188736213
 40
0.4672625606322949
 40
0.4969104084737143
 40
0.5261755282287038
 40
0.5550266438336194
 40
0.583465385197376
 40
0.6115216045231072
 40
0.6392466730977096
 40
0.671580855368699
 40
0.7036515575474852
 40
0.7355421306724291
 40
0.7672803153550709
 40
0.7940513925765583
 40
0.8205676652597845
 40
0.8466534893783376
 40
0.872055443894522
 40
0.8964457898923046
 40
0.9194396204382991
 40
0.9394770769819158
 40
0.957609955618048
 40
0.9736499612261633
 40
0.9876375467211761
 40
1.0
 40
1.0
 40
1.0
 40
1.0
 10
8887.014386231434
 20
4829.875826162489
 30
0.0
 10
8886.00505386047
 20
4829.900595448509
 30
0.0
 10
8883.576036598868
 20
4829.960204181005
 30
0.0
 10
8879.367599397054
 20
4830.402074337336
 30
0.0
 10
8874.054561833642
 20
4831.209813868502
 30
0.0
 10
8867.746665953182
 20
4832.562267176751
 30
0.0
 10
8860.61361522915
 20
4834.606510391311
 30
0.0
 10
8852.804947932538
 20
4837.529925256941
 30
0.0
 10
8844.49240210144
 20
4841.498159892813
 30
0.0
 10
8835.823819533938
 20
4846.672138933261
 30
0.0
 10
8827.491453839393
 20
4852.78260624312
 30
0.0
 10
8819.628487601705
 20
4859.663124401862
 30
0.0
 10
8812.323260851781
 20
4867.130135577762
 30
0.0
 10
8805.290105097736
 20
4875.488245279511
 30
0.0
 10
8798.63701269454
 20
4884.665022765837
 30
0.0
 10
8792.46224927711
 20
4894.568379820633
 30
0.0
 10
8786.512329161362
 20
4905.732191112873
 30
0.0
 10
8781.02007393344
 20
4918.127809408064
 30
0.0
 10
8776.237094658583
 20
4931.680582167104
 30
0.0
 10
8772.533091625946
 20
4945.563716625283
 30
0.0
 10
8770.102408676505
 20
4958.907998966619
 30
0.0
 10
8768.79933666441
 20
4971.546462573666
 30
0.0
 10
8768.458226585344
 20
4983.373848080685
 30
0.0
 10
8769.021974437897
 20
4995.030442060834
 30
0.0
 10
8770.501310294507
 20
5006.443222956697
 30
0.0
 10
8772.90037510402
 20
5017.544558639683
 30
0.0
 10
8776.409137964805
 20
5028.897912639807
 30
0.0
 10
8781.215968787223
 20
5040.364216522255
 30
0.0
 10
8787.495036221082
 20
5051.741640037424
 30
0.0
 10
8794.913600305828
 20
5062.312682263117
 30
0.0
 10
8802.940407433547
 20
5071.498785313006
 30
0.0
 10
8811.273590983747
 20
5079.374318494344
 30
0.0
 10
8819.646723641745
 20
5086.041474881831
 30
0.0
 10
8828.380524803726
 20
5091.901498038249
 30
0.0
 10
8837.294962288246
 20
5096.920314831783
 30
0.0
 10
8846.183413231402
 20
5101.077452248795
 30
0.0
 10
8854.675969052949
 20
5104.316289955996
 30
0.0
 10
8862.566871722496
 20
5106.704812524127
 30
0.0
 10
8869.689817562823
 20
5108.338269409505
 30
0.0
 10
8876.104379684151
 20
5109.335554779908
 30
0.0
 10
8881.79917473888
 20
5109.82233839485
 30
0.0
 10
8885.348959776114
 20
5109.858745370389
 30
0.0
 10
8887.014386231434
 20
5109.875826162489
 30
0.0
  0
SPLINE
  5
1AA
330
1F
100
AcDbEntity
  8
0
  6
Continuous
 62
     7
370
    25
100
AcDbSpline
210
0.0
220
0.0
230
1.0
 70
     8
 71
     3
 72
    46
 73
    42
 74
     0
 42
0.00000001
 43
0.00000001
 40
0.0
 40
0.0
 40
0.0
 40
0.0
 40
0.0131572278134085
 40
0.0281811872346627
 40
0.0455342509048486
 40
0.0652154740664446
 40
0.0869633333372889
 40
0.1103979365624942
 40
0.139631753647162
 40
0.1700502566789051
 40
0.2011830872059077
 40
0.2327087019674788
 40
0.2596318263330351
 40
0.2866651882700696
 40
0.3138158414739378
 40
0.3411248030074863
 40
0.368652754405362
 40
0.396466721432655
 40
0.4296936887778039
 40
0.4634747566245718
 40
0.4978339205918589
 40
0.532734688522053
 40
0.5687181268502066
 40
0.6049714690094843
 40
0.6412425022671523
 40
0.6772226034805081
 40
0.7125658332516742
 40
0.7463111512101734
 40
0.7787692086023247
 40
0.809649942846046
 40
0.8387176082278693
 40
0.8618302633305304
 40
0.8834367193461917
 40
0.9034839411904121
 40
0.9219298527000616
 40
0.9387328248024844
 40
0.9538437825066923
 40
0.9693968914463751
 40
0.9823912887622347
 40
0.9926674017295605
 40
1.0
 40
1.0
 40
1.0
 40
1.0
 10
8887.014386231434
 20
5109.875826162489
 30
0.0
 10
8888.786912128533
 20
5109.856161809743
 30
0.0
 10
8892.583447758436
 20
5109.81404314961
 30
0.0
 10
8898.697794692349
 20
5109.248917598073
 30
0.0
 10
8905.619603361818
 20
5108.094193062359
 30
0.0
 10
8913.31649566696
 20
5106.207507358999
 30
0.0
 10
8921.636454445135
 20
5103.517788726428
 30
0.0
 10
8930.933442946583
 20
5099.749443177469
 30
0.0
 10
8940.946426734055
 20
5094.718483337248
 30
0.0
 10
8951.348928226304
 20
5088.258689650025
 30
0.0
 10
8961.342618472652
 20
5080.657545239853
 30
0.0
 10
8970.19124148527
 20
5072.423769881109
 30
0.0
 10
8977.844662562822
 20
5063.802650529062
 30
0.0
 10
8984.344371171259
 20
5055.003729443042
 30
0.0
 10
8990.043905883378
 20
5045.60551233668
 30
0.0
 10
8994.891921091345
 20
5035.666868899129
 30
0.0
 10
8998.853581795705
 20
5025.247447728575
 30
0.0
 10
9002.09290688312
 20
5013.751086644094
 30
0.0
 10
9004.39238338372
 20
5001.166313742321
 30
0.0
 10
9005.533959748022
 20
4987.540820245491
 30
0.0
 10
9005.412200162544
 20
4973.644126349924
 30
0.0
 10
9004.044849514963
 20
4959.517828304754
 30
0.0
 10
9001.44498523444
 20
4945.306680217822
 30
0.0
 10
8997.642752098705
 20
4931.178752570743
 30
0.0
 10
8992.725154581425
 20
4917.400340388526
 30
0.0
 10
8986.78289829565
 20
4904.166259552395
 30
0.0
 10
8979.966817937562
 20
4891.746721618234
 30
0.0
 10
8972.427210383892
 20
4880.317118983041
 30
0.0
 10
8964.332540352136
 20
4870.027449948411
 30
0.0
 10
8955.804625982031
 20
4860.939783815293
 30
0.0
 10
8947.428868446872
 20
4853.498467208387
 30
0.0
 10
8939.445384734092
 20
4847.562233234687
 30
0.0
 10
8932.042189807371
 20
4842.930519986229
 30
0.0
 10
8924.853420619278
 20
4839.191491642669
 30
0.0
 10
8917.99646146181
 20
4836.267019044327
 30
0.0
 10
8911.578688360483
 20
4834.055173538855
 30
0.0
 10
8905.4092586583
 20
4832.36470364755
 30
0.0
 10
8899.650559670923
 20
4831.153757824509
 30
0.0
 10
8894.47765134463
 20
4830.380403004543
 30
0.0
 10
8890.373654297831
 20
4829.956582386523
 30
0.0
 10
8888.001991281022
 20
4829.899568017281
 30
0.0
 10
8887.014386231434
 20
4829.875826162489
 30
0.0
  0
SPLINE
  5
1AB
330
1F
100
AcDbEntity
  8
0
  6
Continuous
 62
     7
370
    25
100
AcDbSpline
210
0.0
220
0.0
230
1.0
 70
     8
 71
     3
 72
    29
 73
    25
 74
     0
 42
0.00000001
 43
0.00000001
 40
0.0
 40
0.0
 40
0.0
 40
0.0
 40
0.0500571486723935
 40
0.1020308728862185
 40
0.1547374320152545
 40
0.2073127240032666
 40
0.259188407302696
 40
0.3100661955554108
 40
0.3570696131717861
 40
0.4032530608930144
 40
0.4488658166809322
 40
0.4942477259776393
 40
0.5397860700509688
 40
0.5781416502197213
 40
0.6170890935617227
 40
0.6568115789017401
 40
0.6974577801336448
 40
0.7391393165449404
 40
0.7819328494666516
 40
0.8233444722377719
 40
0.8658156125677179
 40
0.9093749650878776
 40
0.9540714807162349
 40
0.9999999999999999
 40
0.9999999999999999
 40
0.9999999999999999
 40
0.9999999999999999
 10
9064.514386231434
 20
4971.140422254252
 30
0.0
 10
9064.449689044079
 20
4965.953338088184
 30
0.0
 10
9064.317817559695
 20
4955.380567979722
 30
0.0
 10
9063.258369384483
 20
4939.374632301233
 30
0.0
 10
9061.491449722667
 20
4923.171264118474
 30
0.0
 10
9058.882763937467
 20
4907.08872466829
 30
0.0
 10
9055.380759095007
 20
4891.369158930207
 30
0.0
 10
9050.99570813522
 20
4876.470370625065
 30
0.0
 10
9045.7341343101
 20
4862.486003172576
 30
0.0
 10
9039.617900240228
 20
4849.451492606529
 30
0.0
 10
9032.498166265153
 20
4837.128194336485
 30
0.0
 10
9024.342044818968
 20
4825.545165815532
 30
0.0
 10
9015.645669434054
 20
4815.331273741654
 30
0.0
 10
9006.601417790635
 20
4806.358318265415
 30
0.0
 10
8997.36621960199
 20
4798.482959995946
 30
0.0
 10
8987.38449622771
 20
4791.169813089767
 30
0.0
 10
8976.66177267073
 20
4784.444643434028
 30
0.0
 10
8965.20860581896
 20
4778.346786413363
 30
0.0
 10
8953.281371782065
 20
4773.038662107842
 30
0.0
 10
8940.939262310332
 20
4768.5430494642
 30
0.0
 10
8928.23797962053
 20
4764.885327641845
 30
0.0
 10
8914.969930688454
 20
4762.113557237409
 30
0.0
 10
8901.167818432405
 20
4760.245396719476
 30
0.0
 10
8891.774761657776
 20
4760.000127785785
 30
0.0
 10
8887.014386231434
 20
4759.875826162489
 30
0.0
  0
SPLINE
  5
1AC
330
1F
100
AcDbEntity
  8
0
  6
Continuous
 62
     7
370
    25
100
AcDbSpline
210
0.0
220
0.0
230
1.0
 70
     8
 71
     3
 72
    29
 73
    25
 74
     0
 42
0.00000001
 43
0.00000001
 40
0.0
 40
0.0
 40
0.0
 40
0.0
 40
0.0417186488761107
 40
0.0824140654256087
 40
0.1221631708906721
 40
0.1610081884995341
 40
0.1989733864323218
 40
0.2473864875679287
 40
0.294382874315771
 40
0.3400591385436877
 40
0.3877024478860881
 40
0.4342610478314704
 40
0.4800625909896444
 40
0.5254843351938864
 40
0.5709211461603197
 40
0.6167450796671216
 40
0.6632617130450299
 40
0.7106684148804243
 40
0.7590180077590708
 40
0.8081888303508946
 40
0.8569718683996248
 40
0.9057285560759445
 40
0.953727567732806
 40
1.0
 40
1.0
 40
1.0
 40
1.0
 10
8887.014386231434
 20
4759.875826162489
 30
0.0
 10
8882.690592515255
 20
4759.978383014552
 30
0.0
 10
8874.14905467038
 20
4760.180981309165
 30
0.0
 10
8861.567842554074
 20
4761.732736513196
 30
0.0
 10
8849.419544358325
 20
4764.049796952345
 30
0.0
 10
8837.729857492051
 20
4767.123745809077
 30
0.0
 10
8825.408889465432
 20
4771.216086970751
 30
0.0
 10
8812.622349918276
 20
4776.499610887316
 30
0.0
 10
8799.581580107531
 20
4783.139219288379
 30
0.0
 10
8787.175136189846
 20
4790.748778622029
 30
0.0
 10
8775.480109683933
 20
4799.341390936947
 30
0.0
 10
8764.58303582639
 20
4808.946688582416
 30
0.0
 10
8754.761947044795
 20
4819.335823604423
 30
0.0
 10
8746.00922837708
 20
4830.492192882635
 30
0.0
 10
8738.307388285433
 20
4842.400067498538
 30
0.0
 10
8731.628877249741
 20
4855.037179257811
 30
0.0
 10
8725.936640058637
 20
4868.36796202422
 30
0.0
 10
8721.185835181881
 20
4882.33659791205
 30
0.0
 10
8717.325488336726
 20
4896.859358618744
 30
0.0
 10
8714.320454205214
 20
4911.726020760279
 30
0.0
 10
8712.093070158733
 20
4926.769998531635
 30
0.0
 10
8710.588233383085
 20
4941.778771667989
 30
0.0
 10
8709.68254788196
 20
4956.577032335425
 30
0.0
 10
8709.569751493835
 20
4966.345595956145
 30
0.0
 10
8709.514386231436
 20
4971.140422254252
 30
0.0
  0
LINE
  5
1AD
330
1F
100
AcDbEntity
  8
0
  6
Continuous
 62
     7
370
    25
100
AcDbLine
 10
8823.0143862314
 20
5193.0796474192
 30
0.0
 11
8838.0143862314
 21
5193.0796474192
 31
0.0
  0
LINE
  5
1AE
330
1F
100
AcDbEntity
  8
0
  6
Continuous
 62
     7
370
    25
100
AcDbLine
 10
8838.0143862314
 20
5193.0796474192
 30
0.0
 11
8838.0143862314
 21
5185.9041311451
 31
0.0
  0
LINE
  5
1AF
330
1F
100
AcDbEntity
  8
0
  6
Continuous
 62
     7
370
    25
100
AcDbLine
 10
8823.0143862314
 20
5193.0796474192
 30
0.0
 11
8823.0143862314
 21
5185.9041311451
 31
0.0
  0
LINE
  5
1B0
330
1F
100
AcDbEntity
  8
0
  6
Continuous
 62
     7
370
    25
100
AcDbLine
 10
8951.0143862314
 20
5193.0796474192
 30
0.0
 11
8936.0143862314
 21
5193.0796474192
 31
0.0
  0
LINE
  5
1B1
330
1F
100
AcDbEntity
  8
0
  6
Continuous
 62
     7
370
    25
100
AcDbLine
 10
8951.0143862314
 20
5193.0796474192
 30
0.0
 11
8951.0143862314
 21
5185.9041311451
 31
0.0
  0
LINE
  5
1B2
330
1F
100
AcDbEntity
  8
0
  6
Continuous
 62
     7
370
    25
100
AcDbLine
 10
8936.0143862314
 20
5193.0796474192
 30
0.0
 11
8936.0143862314
 21
5185.9041311451
 31
0.0
  0
ENDSEC
  0
SECTION
  2
OBJECTS
  0
DICTIONARY
  5
C
330
0
100
AcDbDictionary
281
     1
  3
ACAD_GROUP
350
D
  3
ACAD_LAYOUT
350
1A
  3
ACAD_MLINESTYLE
350
17
  3
ACAD_PLOTSETTINGS
350
19
  3
ACAD_PLOTSTYLENAME
350
E
  3
ACAD_SCALELIST
350
47
  3
DWGPROPS
350
1B3
  0
DICTIONARY
  5
D
102
{ACAD_REACTORS
330
C
102
}
330
C
100
AcDbDictionary
281
     1
  0
DICTIONARY
  5
1A
102
{ACAD_REACTORS
330
C
102
}
330
C
100
AcDbDictionary
281
     1
  3
Layout1
350
1E
  3
Layout2
350
26
  3
Model
350
22
  0
DICTIONARY
  5
17
102
{ACAD_REACTORS
330
C
102
}
330
C
100
AcDbDictionary
281
     1
  3
Standard
350
18
  0
DICTIONARY
  5
19
102
{ACAD_REACTORS
330
C
102
}
330
C
100
AcDbDictionary
281
     1
  0
ACDBDICTIONARYWDFLT
  5
E
102
{ACAD_REACTORS
330
C
102
}
330
C
100
AcDbDictionary
281
     1
  3
Normal
350
F
100
AcDbDictionaryWithDefault
340
F
  0
DICTIONARY
  5
47
102
{ACAD_REACTORS
330
C
102
}
330
C
100
AcDbDictionary
281
     1
  3
A0
350
48
  3
A1
350
49
  3
A2
350
4A
  3
A3
350
4B
  3
A4
350
4C
  3
A5
350
4D
  3
A6
350
4E
  3
A7
350
4F
  3
A8
350
50
  3
A9
350
51
  3
B0
350
52
  3
B1
350
53
  3
B2
350
54
  3
B3
350
55
  3
B4
350
56
  3
B5
350
57
  3
B6
350
58
  3
B7
350
59
  3
B8
350
5A
  3
B9
350
5B
  3
C0
350
5C
  3
C1
350
5D
  3
C2
350
5E
  3
C3
350
5F
  3
C4
350
60
  3
C5
350
61
  3
C6
350
62
  3
C7
350
63
  3
C8
350
64
  3
C9
350
65
  3
D0
350
66
  3
D1
350
67
  3
D2
350
68
  0
XRECORD
  5
1B3
102
{ACAD_REACTORS
330
C
102
}
330
C
100
AcDbXrecord
280
     1
  1
DWGPROPS COOKIE
  2

  3

  4

  6

  7

  8
radek.stransky
  9

300
=
301
=
302
=
303
=
304
=
305
=
306
=
307
=
308
=
309
=
 40
0.0
 41
2460290.50669103
 42
2460290.506692558
  1

 90
        0
  0
LAYOUT
  5
1E
102
{ACAD_REACTORS
330
1A
102
}
330
1A
100
AcDbPlotSettings
  1

  2
none_device
  4

  6

 40
0.0
 41
0.0
 42
0.0
 43
0.0
 44
0.0
 45
0.0
 46
0.0
 47
0.0
 48
0.0
 49
0.0
140
0.0
141
0.0
142
1.0
143
1.0
 70
   688
 72
     1
 73
     0
 74
     5
  7

 75
    16
147
1.0
148
0.0
149
0.0
100
AcDbLayout
  1
Layout1
 70
     1
 71
     1
 10
0.0
 20
0.0
 11
420.0
 21
297.0
 12
0.0
 22
0.0
 32
0.0
 14
1.0000000000E+20
 24
1.0000000000E+20
 34
1.0000000000E+20
 15
-1.0000000000E+20
 25
-1.0000000000E+20
 35
-1.0000000000E+20
146
0.0
 13
0.0
 23
0.0
 33
0.0
 16
1.0
 26
0.0
 36
0.0
 17
0.0
 27
1.0
 37
0.0
 76
     0
330
1B
  0
LAYOUT
  5
26
102
{ACAD_REACTORS
330
1A
102
}
330
1A
100
AcDbPlotSettings
  1

  2
none_device
  4

  6

 40
0.0
 41
0.0
 42
0.0
 43
0.0
 44
0.0
 45
0.0
 46
0.0
 47
0.0
 48
0.0
 49
0.0
140
0.0
141
0.0
142
1.0
143
1.0
 70
   688
 72
     1
 73
     0
 74
     5
  7

 75
    16
147
1.0
148
0.0
149
0.0
100
AcDbLayout
  1
Layout2
 70
     1
 71
     2
 10
0.0
 20
0.0
 11
0.0
 21
0.0
 12
0.0
 22
0.0
 32
0.0
 14
0.0
 24
0.0
 34
0.0
 15
0.0
 25
0.0
 35
0.0
146
0.0
 13
0.0
 23
0.0
 33
0.0
 16
1.0
 26
0.0
 36
0.0
 17
0.0
 27
1.0
 37
0.0
 76
     0
330
23
  0
LAYOUT
  5
22
102
{ACAD_REACTORS
330
1A
102
}
330
1A
100
AcDbPlotSettings
  1

  2
none_device
  4
Letter_(8.50_x_11.00_Inches)
  6

 40
6.35
 41
6.35
 42
6.35000508
 43
6.35000508
 44
215.9
 45
279.4
 46
0.0
 47
0.0
 48
0.0
 49
0.0
140
0.0
141
0.0
142
1.0
143
1.0
 70
  1712
 72
     1
 73
     0
 74
     0
  7

 75
     0
147
1.0
148
0.0
149
0.0
100
AcDbLayout
  1
Model
 70
     1
 71
     0
 10
0.0
 20
0.0
 11
20000.0
 21
10000.0
 12
0.0
 22
0.0
 32
0.0
 14
0.0
 24
0.0
 34
0.0
 15
20000.0
 25
10000.0
 35
0.0
146
0.0
 13
0.0
 23
0.0
 33
0.0
 16
1.0
 26
0.0
 36
0.0
 17
0.0
 27
1.0
 37
0.0
 76
     0
330
1F
331
29
  0
MLINESTYLE
  5
18
102
{ACAD_REACTORS
330
17
102
}
330
17
100
AcDbMlineStyle
  2
Standard
 70
     0
  3

 62
   256
 51
90.0
 52
90.0
 71
     2
 49
0.5
 62
   256
  6
BYLAYER
 49
-0.5
 62
   256
  6
BYLAYER
  0
ACDBPLACEHOLDER
  5
F
102
{ACAD_REACTORS
330
E
102
}
330
E
  0
SCALE
  5
48
102
{ACAD_REACTORS
330
47
102
}
330
47
100
AcDbScale
 70
     0
300
1:1
140
1.0
141
1.0
290
     1
  0
SCALE
  5
49
102
{ACAD_REACTORS
330
47
102
}
330
47
100
AcDbScale
 70
     0
300
1:2
140
1.0
141
2.0
290
     0
  0
SCALE
  5
4A
102
{ACAD_REACTORS
330
47
102
}
330
47
100
AcDbScale
 70
     0
300
1:4
140
1.0
141
4.0
290
     0
  0
SCALE
  5
4B
102
{ACAD_REACTORS
330
47
102
}
330
47
100
AcDbScale
 70
     0
300
1:5
140
1.0
141
5.0
290
     0
  0
SCALE
  5
4C
102
{ACAD_REACTORS
330
47
102
}
330
47
100
AcDbScale
 70
     0
300
1:8
140
1.0
141
8.0
290
     0
  0
SCALE
  5
4D
102
{ACAD_REACTORS
330
47
102
}
330
47
100
AcDbScale
 70
     0
300
1:10
140
1.0
141
10.0
290
     0
  0
SCALE
  5
4E
102
{ACAD_REACTORS
330
47
102
}
330
47
100
AcDbScale
 70
     0
300
1:16
140
1.0
141
16.0
290
     0
  0
SCALE
  5
4F
102
{ACAD_REACTORS
330
47
102
}
330
47
100
AcDbScale
 70
     0
300
1:20
140
1.0
141
20.0
290
     0
  0
SCALE
  5
50
102
{ACAD_REACTORS
330
47
102
}
330
47
100
AcDbScale
 70
     0
300
1:30
140
1.0
141
30.0
290
     0
  0
SCALE
  5
51
102
{ACAD_REACTORS
330
47
102
}
330
47
100
AcDbScale
 70
     0
300
1:40
140
1.0
141
40.0
290
     0
  0
SCALE
  5
52
102
{ACAD_REACTORS
330
47
102
}
330
47
100
AcDbScale
 70
     0
300
1:50
140
1.0
141
50.0
290
     0
  0
SCALE
  5
53
102
{ACAD_REACTORS
330
47
102
}
330
47
100
AcDbScale
 70
     0
300
1:100
140
1.0
141
100.0
290
     0
  0
SCALE
  5
54
102
{ACAD_REACTORS
330
47
102
}
330
47
100
AcDbScale
 70
     0
300
2:1
140
2.0
141
1.0
290
     0
  0
SCALE
  5
55
102
{ACAD_REACTORS
330
47
102
}
330
47
100
AcDbScale
 70
     0
300
4:1
140
4.0
141
1.0
290
     0
  0
SCALE
  5
56
102
{ACAD_REACTORS
330
47
102
}
330
47
100
AcDbScale
 70
     0
300
8:1
140
8.0
141
1.0
290
     0
  0
SCALE
  5
57
102
{ACAD_REACTORS
330
47
102
}
330
47
100
AcDbScale
 70
     0
300
10:1
140
10.0
141
1.0
290
     0
  0
SCALE
  5
58
102
{ACAD_REACTORS
330
47
102
}
330
47
100
AcDbScale
 70
     0
300
100:1
140
100.0
141
1.0
290
     0
  0
SCALE
  5
59
102
{ACAD_REACTORS
330
47
102
}
330
47
100
AcDbScale
 70
     0
300
1/128" = 1'-0"
140
0.0078125
141
12.0
290
     0
  0
SCALE
  5
5A
102
{ACAD_REACTORS
330
47
102
}
330
47
100
AcDbScale
 70
     0
300
1/64" = 1'-0"
140
0.015625
141
12.0
290
     0
  0
SCALE
  5
5B
102
{ACAD_REACTORS
330
47
102
}
330
47
100
AcDbScale
 70
     0
300
1/32" = 1'-0"
140
0.03125
141
12.0
290
     0
  0
SCALE
  5
5C
102
{ACAD_REACTORS
330
47
102
}
330
47
100
AcDbScale
 70
     0
300
1/16" = 1'-0"
140
0.0625
141
12.0
290
     0
  0
SCALE
  5
5D
102
{ACAD_REACTORS
330
47
102
}
330
47
100
AcDbScale
 70
     0
300
3/32" = 1'-0"
140
0.09375
141
12.0
290
     0
  0
SCALE
  5
5E
102
{ACAD_REACTORS
330
47
102
}
330
47
100
AcDbScale
 70
     0
300
1/8" = 1'-0"
140
0.125
141
12.0
290
     0
  0
SCALE
  5
5F
102
{ACAD_REACTORS
330
47
102
}
330
47
100
AcDbScale
 70
     0
300
3/16" = 1'-0"
140
0.1875
141
12.0
290
     0
  0
SCALE
  5
60
102
{ACAD_REACTORS
330
47
102
}
330
47
100
AcDbScale
 70
     0
300
1/4" = 1'-0"
140
0.25
141
12.0
290
     0
  0
SCALE
  5
61
102
{ACAD_REACTORS
330
47
102
}
330
47
100
AcDbScale
 70
     0
300
3/8" = 1'-0"
140
0.375
141
12.0
290
     0
  0
SCALE
  5
62
102
{ACAD_REACTORS
330
47
102
}
330
47
100
AcDbScale
 70
     0
300
1/2" = 1'-0"
140
0.5
141
12.0
290
     0
  0
SCALE
  5
63
102
{ACAD_REACTORS
330
47
102
}
330
47
100
AcDbScale
 70
     0
300
3/4" = 1'-0"
140
0.75
141
12.0
290
     0
  0
SCALE
  5
64
102
{ACAD_REACTORS
330
47
102
}
330
47
100
AcDbScale
 70
     0
300
1" = 1'-0"
140
1.0
141
12.0
290
     0
  0
SCALE
  5
65
102
{ACAD_REACTORS
330
47
102
}
330
47
100
AcDbScale
 70
     0
300
1-1/2" = 1'-0"
140
1.5
141
12.0
290
     0
  0
SCALE
  5
66
102
{ACAD_REACTORS
330
47
102
}
330
47
100
AcDbScale
 70
     0
300
3" = 1'-0"
140
3.0
141
12.0
290
     0
  0
SCALE
  5
67
102
{ACAD_REACTORS
330
47
102
}
330
47
100
AcDbScale
 70
     0
300
6" = 1'-0"
140
6.0
141
12.0
290
     0
  0
SCALE
  5
68
102
{ACAD_REACTORS
330
47
102
}
330
47
100
AcDbScale
 70
     0
300
1'-0" = 1'-0"
140
12.0
141
12.0
290
     0
  0
ENDSEC
  0
EOF
