  0
SECTION
  2
HEADER
  9
$ACADVER
  1
AC1015
  9
$ACADMAINTVER
 70
     6
  9
$DWGCODEPAGE
  3
ANSI_1250
  9
$INSBASE
 10
0.0
 20
0.0
 30
0.0
  9
$EXTMIN
 10
6094.4884647158
 20
3995.6081931285
 30
0.0
  9
$EXTMAX
 10
7524.5768454047
 20
5437.0194696196
 30
0.0
  9
$LIMMIN
 10
0.0
 20
0.0
  9
$LIMMAX
 10
420.0
 20
297.0
  9
$ORTHOMODE
 70
     0
  9
$REGENMODE
 70
     1
  9
$FILLMODE
 70
     1
  9
$QTEXTMODE
 70
     0
  9
$MIRRTEXT
 70
     1
  9
$LTSCALE
 40
1.0
  9
$ATTMODE
 70
     1
  9
$TEXTSIZE
 40
3.5
  9
$TRACEWID
 40
1.0
  9
$TEXTSTYLE
  7
Standard
  9
$CLAYER
  8
0
  9
$CELTYPE
  6
ByLayer
  9
$CECOLOR
 62
   256
  9
$CELTSCALE
 40
1.0
  9
$DISPSILH
 70
     0
  9
$DIMSCALE
 40
1.0
  9
$DIMASZ
 40
3.302
  9
$DIMEXO
 40
0.0
  9
$DIMDLI
 40
3.75
  9
$DIMRND
 40
0.0
  9
$DIMDLE
 40
0.0
  9
$DIMEXE
 40
1.0
  9
$DIMTP
 40
0.0
  9
$DIMTM
 40
0.0
  9
$DIMTXT
 40
3.5
  9
$DIMCEN
 40
2.5
  9
$DIMTSZ
 40
0.0
  9
$DIMTOL
 70
     0
  9
$DIMLIM
 70
     0
  9
$DIMTIH
 70
     1
  9
$DIMTOH
 70
     1
  9
$DIMSE1
 70
     0
  9
$DIMSE2
 70
     0
  9
$DIMTAD
 70
     1
  9
$DIMZIN
 70
     0
  9
$DIMBLK
  1

  9
$DIMASO
 70
     1
  9
$DIMSHO
 70
     1
  9
$DIMPOST
  1

  9
$DIMAPOST
  1

  9
$DIMALT
 70
     0
  9
$DIMALTD
 70
     3
  9
$DIMALTF
 40
0.0393700787
  9
$DIMLFAC
 40
1.0
  9
$DIMTOFL
 70
     1
  9
$DIMTVP
 40
0.0
  9
$DIMTIX
 70
     0
  9
$DIMSOXD
 70
     0
  9
$DIMSAH
 70
     0
  9
$DIMBLK1
  1

  9
$DIMBLK2
  1

  9
$DIMSTYLE
  2
ISO-25
  9
$DIMCLRD
 70
     0
  9
$DIMCLRE
 70
     0
  9
$DIMCLRT
 70
     0
  9
$DIMTFAC
 40
1.0
  9
$DIMGAP
 40
1.524
  9
$DIMJUST
 70
     0
  9
$DIMSD1
 70
     0
  9
$DIMSD2
 70
     0
  9
$DIMTOLJ
 70
     0
  9
$DIMTZIN
 70
     0
  9
$DIMALTZ
 70
     0
  9
$DIMALTTZ
 70
     0
  9
$DIMUPT
 70
     0
  9
$DIMDEC
 70
     2
  9
$DIMTDEC
 70
     2
  9
$DIMALTU
 70
     2
  9
$DIMALTTD
 70
     3
  9
$DIMTXSTY
  7
Standard
  9
$DIMAUNIT
 70
     0
  9
$DIMADEC
 70
     2
  9
$DIMALTRND
 40
0.0
  9
$DIMAZIN
 70
     0
  9
$DIMDSEP
 70
    44
  9
$DIMATFIT
 70
     3
  9
$DIMFRAC
 70
     0
  9
$DIMLDRBLK
  1

  9
$DIMLUNIT
 70
     2
  9
$DIMLWD
 70
    -2
  9
$DIMLWE
 70
    -2
  9
$DIMTMOVE
 70
     0
  9
$LUNITS
 70
     2
  9
$LUPREC
 70
     2
  9
$SKETCHINC
 40
1.0
  9
$FILLETRAD
 40
10.0
  9
$AUNITS
 70
     0
  9
$AUPREC
 70
     2
  9
$MENU
  1
.
  9
$ELEVATION
 40
0.0
  9
$PELEVATION
 40
0.0
  9
$THICKNESS
 40
0.0
  9
$LIMCHECK
 70
     0
  9
$CHAMFERA
 40
0.0
  9
$CHAMFERB
 40
0.0
  9
$CHAMFERC
 40
0.0
  9
$CHAMFERD
 40
0.0
  9
$SKPOLY
 70
     0
  9
$TDCREATE
 40
2459100.39510022
  9
$TDUCREATE
 40
2459100.311766887
  9
$TDUPDATE
 40
2459100.39513037
  9
$TDUUPDATE
 40
2459100.311797037
  9
$TDINDWG
 40
0.0000000116
  9
$TDUSRTIMER
 40
0.0000000116
  9
$USRTIMER
 70
     1
  9
$ANGBASE
 50
0.0
  9
$ANGDIR
 70
     0
  9
$PDMODE
 70
     0
  9
$PDSIZE
 40
-1.0
  9
$PLINEWID
 40
0.0
  9
$SPLFRAME
 70
     0
  9
$SPLINETYPE
 70
     6
  9
$SPLINESEGS
 70
     8
  9
$HANDSEED
  5
2C3
  9
$SURFTAB1
 70
     6
  9
$SURFTAB2
 70
     6
  9
$SURFTYPE
 70
     6
  9
$SURFU
 70
     6
  9
$SURFV
 70
     6
  9
$UCSBASE
  2

  9
$UCSNAME
  2

  9
$UCSORG
 10
0.0
 20
0.0
 30
0.0
  9
$UCSXDIR
 10
1.0
 20
0.0
 30
0.0
  9
$UCSYDIR
 10
0.0
 20
1.0
 30
0.0
  9
$UCSORTHOREF
  2

  9
$UCSORTHOVIEW
 70
     0
  9
$UCSORGTOP
 10
0.0
 20
0.0
 30
0.0
  9
$UCSORGBOTTOM
 10
0.0
 20
0.0
 30
0.0
  9
$UCSORGLEFT
 10
0.0
 20
0.0
 30
0.0
  9
$UCSORGRIGHT
 10
0.0
 20
0.0
 30
0.0
  9
$UCSORGFRONT
 10
0.0
 20
0.0
 30
0.0
  9
$UCSORGBACK
 10
0.0
 20
0.0
 30
0.0
  9
$PUCSBASE
  2

  9
$PUCSNAME
  2

  9
$PUCSORG
 10
0.0
 20
0.0
 30
0.0
  9
$PUCSXDIR
 10
1.0
 20
0.0
 30
0.0
  9
$PUCSYDIR
 10
0.0
 20
1.0
 30
0.0
  9
$PUCSORTHOREF
  2

  9
$PUCSORTHOVIEW
 70
     0
  9
$PUCSORGTOP
 10
0.0
 20
0.0
 30
0.0
  9
$PUCSORGBOTTOM
 10
0.0
 20
0.0
 30
0.0
  9
$PUCSORGLEFT
 10
0.0
 20
0.0
 30
0.0
  9
$PUCSORGRIGHT
 10
0.0
 20
0.0
 30
0.0
  9
$PUCSORGFRONT
 10
0.0
 20
0.0
 30
0.0
  9
$PUCSORGBACK
 10
0.0
 20
0.0
 30
0.0
  9
$USERI1
 70
     0
  9
$USERI2
 70
     0
  9
$USERI3
 70
     0
  9
$USERI4
 70
     0
  9
$USERI5
 70
     0
  9
$USERR1
 40
0.0
  9
$USERR2
 40
0.0
  9
$USERR3
 40
0.0
  9
$USERR4
 40
0.0
  9
$USERR5
 40
0.0
  9
$WORLDVIEW
 70
     1
  9
$SHADEDGE
 70
     3
  9
$SHADEDIF
 70
    70
  9
$TILEMODE
 70
     1
  9
$MAXACTVP
 70
    64
  9
$PINSBASE
 10
0.0
 20
0.0
 30
0.0
  9
$PLIMCHECK
 70
     0
  9
$PEXTMIN
 10
1.0000000000E+20
 20
1.0000000000E+20
 30
1.0000000000E+20
  9
$PEXTMAX
 10
-1.0000000000E+20
 20
-1.0000000000E+20
 30
-1.0000000000E+20
  9
$PLIMMIN
 10
0.0
 20
0.0
  9
$PLIMMAX
 10
420.0
 20
297.0
  9
$UNITMODE
 70
     0
  9
$VISRETAIN
 70
     1
  9
$PLINEGEN
 70
     0
  9
$PSLTSCALE
 70
     1
  9
$TREEDEPTH
 70
  3020
  9
$CMLSTYLE
  2
Standard
  9
$CMLJUST
 70
     0
  9
$CMLSCALE
 40
20.0
  9
$PROXYGRAPHICS
 70
     1
  9
$MEASUREMENT
 70
     1
  9
$CELWEIGHT
370
    -1
  9
$ENDCAPS
280
     0
  9
$JOINSTYLE
280
     0
  9
$LWDISPLAY
290
     1
  9
$INSUNITS
 70
     4
  9
$HYPERLINKBASE
  1

  9
$STYLESHEET
  1

  9
$XEDIT
290
     1
  9
$CEPSNTYPE
380
     0
  9
$PSTYLEMODE
290
     1
  9
$FINGERPRINTGUID
  2
{4632e905-aef1-4e28-983e-79ab7e34f8c9}
  9
$VERSIONGUID
  2
{FAEB1C32-E019-11D5-929B-00C0DF256EC4}
  9
$EXTNAMES
290
     1
  9
$PSVPSCALE
 40
0.0
  9
$OLESTARTUP
290
     0
  0
ENDSEC
  0
SECTION
  2
CLASSES
  0
CLASS
  1
ACDBDICTIONARYWDFLT
  2
AcDbDictionaryWithDefault
  3
ObjectDBX Classes
 90
        0
280
     0
281
     0
  0
CLASS
  1
VISUALSTYLE
  2
AcDbVisualStyle
  3
ObjectDBX Classes
 90
     4095
280
     0
281
     0
  0
CLASS
  1
MATERIAL
  2
AcDbMaterial
  3
ObjectDBX Classes
 90
     1153
280
     0
281
     0
  0
CLASS
  1
SCALE
  2
AcDbScale
  3
ObjectDBX Classes
 90
     1153
280
     0
281
     0
  0
CLASS
  1
TABLESTYLE
  2
AcDbTableStyle
  3
ObjectDBX Classes
 90
     4095
280
     0
281
     0
  0
CLASS
  1
MLEADERSTYLE
  2
AcDbMLeaderStyle
  3
ACDB_MLEADERSTYLE_CLASS
 90
     4095
280
     0
281
     0
  0
CLASS
  1
SUN
  2
AcDbSun
  3
SCENEOE
 90
     1153
280
     0
281
     0
  0
CLASS
  1
ACDBPLACEHOLDER
  2
AcDbPlaceHolder
  3
ObjectDBX Classes
 90
        0
280
     0
281
     0
  0
CLASS
  1
LAYOUT
  2
AcDbLayout
  3
ObjectDBX Classes
 90
        0
280
     0
281
     0
  0
ENDSEC
  0
SECTION
  2
TABLES
  0
TABLE
  2
VPORT
  5
8
330
0
100
AcDbSymbolTable
 70
     1
  0
VPORT
  5
29
330
8
100
AcDbSymbolTableRecord
100
AcDbViewportTableRecord
  2
*Active
 70
     0
 10
0.0
 20
0.0
 11
1.0
 21
1.0
 12
6809.5326550602
 22
4716.3138313741
 13
0.0
 23
0.0
 14
10.0
 24
10.0
 15
10.0
 25
10.0
 16
0.0
 26
0.0
 36
1.0
 17
0.0
 27
0.0
 37
0.0
 40
1470.2395020209
 41
0.9921445766
 42
50.0
 43
0.0
 44
0.0
 50
0.0
 51
0.0
 71
     0
 72
   100
 73
     1
 74
     3
 75
     0
 76
     0
 77
     0
 78
     0
281
     0
 65
     1
110
0.0
120
0.0
130
0.0
111
1.0
121
0.0
131
0.0
112
0.0
122
1.0
132
0.0
 79
     0
146
0.0
  0
ENDTAB
  0
TABLE
  2
LTYPE
  5
5
330
0
100
AcDbSymbolTable
 70
     6
  0
LTYPE
  5
14
330
5
100
AcDbSymbolTableRecord
100
AcDbLinetypeTableRecord
  2
ByBlock
 70
     0
  3

 72
    65
 73
     0
 40
0.0
  0
LTYPE
  5
15
330
5
100
AcDbSymbolTableRecord
100
AcDbLinetypeTableRecord
  2
ByLayer
 70
     0
  3

 72
    65
 73
     0
 40
0.0
  0
LTYPE
  5
16
330
5
100
AcDbSymbolTableRecord
100
AcDbLinetypeTableRecord
  2
Continuous
 70
     0
  3
Solid line
 72
    65
 73
     0
 40
0.0
  0
LTYPE
  5
6E
330
5
100
AcDbSymbolTableRecord
100
AcDbLinetypeTableRecord
  2
HIDDEN
 70
     0
  3
Hidden __ __ __ __ __ __ __ __ __ __ __ __ __ __
 72
    65
 73
     2
 40
1.905
 49
1.27
 74
     0
 49
-0.635
 74
     0
  0
LTYPE
  5
6F
330
5
100
AcDbSymbolTableRecord
100
AcDbLinetypeTableRecord
  2
PHANTOM
 70
     0
  3
Phantom ______  __  __  ______  __  __  ______
 72
    65
 73
     6
 40
12.7
 49
6.35
 74
     0
 49
-1.27
 74
     0
 49
1.27
 74
     0
 49
-1.27
 74
     0
 49
1.27
 74
     0
 49
-1.27
 74
     0
  0
LTYPE
  5
70
330
5
100
AcDbSymbolTableRecord
100
AcDbLinetypeTableRecord
  2
CENTER
 70
     0
  3
Center ____ _ ____ _ ____ _ ____ _ ____ _ ____
 72
    65
 73
     4
 40
10.16
 49
6.35
 74
     0
 49
-1.27
 74
     0
 49
1.27
 74
     0
 49
-1.27
 74
     0
  0
LTYPE
  5
71
330
5
100
AcDbSymbolTableRecord
100
AcDbLinetypeTableRecord
  2
CENTERX2
 70
     0
  3
Center (2x) ________  __  ________  __  _____
 72
    65
 73
     4
 40
20.32
 49
12.7
 74
     0
 49
-2.54
 74
     0
 49
2.54
 74
     0
 49
-2.54
 74
     0
  0
LTYPE
  5
72
330
5
100
AcDbSymbolTableRecord
100
AcDbLinetypeTableRecord
  2
DOT2
 70
     0
  3
Dot (.5x) ........................................
 72
    65
 73
     2
 40
0.635
 49
0.0
 74
     0
 49
-0.635
 74
     0
  0
ENDTAB
  0
TABLE
  2
LAYER
  5
2
330
0
100
AcDbSymbolTable
 70
     1
  0
LAYER
  5
10
330
2
100
AcDbSymbolTableRecord
100
AcDbLayerTableRecord
  2
0
 70
     0
 62
     7
  6
Continuous
370
    -3
390
F
  0
ENDTAB
  0
TABLE
  2
STYLE
  5
3
330
0
100
AcDbSymbolTable
 70
     1
  0
STYLE
  5
11
330
3
100
AcDbSymbolTableRecord
100
AcDbTextStyleTableRecord
  2
Standard
 70
     0
 40
0.0
 41
1.0
 50
0.0
 71
     0
 42
3.5
  3
txt
  4

  0
ENDTAB
  0
TABLE
  2
VIEW
  5
6
330
0
100
AcDbSymbolTable
 70
     0
  0
ENDTAB
  0
TABLE
  2
UCS
  5
7
330
0
100
AcDbSymbolTable
 70
     0
  0
ENDTAB
  0
TABLE
  2
APPID
  5
9
330
0
100
AcDbSymbolTable
 70
     1
  0
APPID
  5
12
330
9
100
AcDbSymbolTableRecord
100
AcDbRegAppTableRecord
  2
ACAD
 70
     0
  0
ENDTAB
  0
TABLE
  2
DIMSTYLE
  5
A
330
0
100
AcDbSymbolTable
 70
     1
100
AcDbDimStyleTable
  0
DIMSTYLE
105
27
330
A
100
AcDbSymbolTableRecord
100
AcDbDimStyleTableRecord
  2
ISO-25
 70
     0
 41
2.5
 42
0.625
 43
3.75
 44
1.25
 73
     0
 74
     0
 77
     1
 78
     8
140
2.5
141
2.5
143
0.0393700787
147
0.625
171
     3
172
     1
178
     0
271
     2
272
     2
274
     3
278
    44
283
     0
284
     8
340
11
  0
ENDTAB
  0
TABLE
  2
BLOCK_RECORD
  5
1
330
0
100
AcDbSymbolTable
 70
     1
  0
BLOCK_RECORD
  5
1F
330
1
100
AcDbSymbolTableRecord
100
AcDbBlockTableRecord
  2
*Model_Space
340
22
  0
BLOCK_RECORD
  5
1B
330
1
100
AcDbSymbolTableRecord
100
AcDbBlockTableRecord
  2
*Paper_Space
340
1E
  0
BLOCK_RECORD
  5
23
330
1
100
AcDbSymbolTableRecord
100
AcDbBlockTableRecord
  2
*Paper_Space0
340
26
  0
ENDTAB
  0
ENDSEC
  0
SECTION
  2
BLOCKS
  0
BLOCK
  5
20
330
1F
100
AcDbEntity
  8
0
100
AcDbBlockBegin
  2
*Model_Space
 70
     0
 10
0.0
 20
0.0
 30
0.0
  3
*Model_Space
  1

  0
ENDBLK
  5
21
330
1F
100
AcDbEntity
  8
0
100
AcDbBlockEnd
  0
BLOCK
  5
1C
330
1B
100
AcDbEntity
 67
     1
  8
0
100
AcDbBlockBegin
  2
*Paper_Space
 70
     0
 10
0.0
 20
0.0
 30
0.0
  3
*Paper_Space
  1

  0
ENDBLK
  5
1D
330
1B
100
AcDbEntity
 67
     1
  8
0
100
AcDbBlockEnd
  0
BLOCK
  5
24
330
23
100
AcDbEntity
  8
0
100
AcDbBlockBegin
  2
*Paper_Space0
 70
     0
 10
0.0
 20
0.0
 30
0.0
  3
*Paper_Space0
  1

  0
ENDBLK
  5
25
330
23
100
AcDbEntity
  8
0
100
AcDbBlockEnd
  0
ENDSEC
  0
SECTION
  2
ENTITIES
  0
ARC
  5
73
330
1F
100
AcDbEntity
  8
0
  6
Continuous
 62
     7
100
AcDbCircle
 10
6153.6521205191
 20
5163.0068651845
 30
0.0
 40
4.875000000001177
100
AcDbArc
 50
224.3159588644
 51
259.3776314834
  0
ARC
  5
74
330
1F
100
AcDbEntity
  8
0
  6
Continuous
 62
     7
100
AcDbCircle
 10
6153.6521752408
 20
5163.006954562
 30
0.0
 40
4.874999999999419
100
AcDbArc
 50
124.6188575317
 51
159.6387528276
  0
ARC
  5
75
330
1F
100
AcDbEntity
  8
0
  6
Continuous
 62
     7
100
AcDbCircle
 10
6153.652169856
 20
5163.0070547546
 30
0.0
 40
4.874999999999701
100
AcDbArc
 50
183.1494477214
 51
200.8492502942
  0
ARC
  5
76
330
1F
100
AcDbEntity
  8
0
  6
Continuous
 62
     7
100
AcDbCircle
 10
6102.6867263031
 20
5402.843931577
 30
0.0
 40
4.874999999999334
100
AcDbArc
 50
224.3163374811
 51
259.3786487749
  0
ARC
  5
77
330
1F
100
AcDbEntity
  8
0
  6
Continuous
 62
     7
100
AcDbCircle
 10
6102.6867855191
 20
5402.8439493744
 30
0.0
 40
4.875000000001055
100
AcDbArc
 50
124.6177067534
 51
159.6381444331
  0
ARC
  5
78
330
1F
100
AcDbEntity
  8
0
  6
Continuous
 62
     7
100
AcDbCircle
 10
6102.6869009227
 20
5402.8433734163
 30
0.0
 40
4.87499999999991
100
AcDbArc
 50
183.1408341959
 51
200.8400474012
  0
ARC
  5
79
330
1F
100
AcDbEntity
  8
0
  6
Continuous
 62
     7
100
AcDbCircle
 10
6394.3677353917
 20
5162.9237043855
 30
0.0
 40
4.875000000000433
100
AcDbArc
 50
18.3696424904
 51
55.3844795674
  0
ARC
  5
7A
330
1F
100
AcDbEntity
  8
0
  6
Continuous
 62
     7
100
AcDbCircle
 10
6394.3677219992
 20
5162.9237626438
 30
0.0
 40
4.874999999999983
100
AcDbArc
 50
280.6232398035
 51
317.5540774028
  0
ARC
  5
7B
330
1F
100
AcDbEntity
  8
0
  6
Continuous
 62
     7
100
AcDbCircle
 10
6394.3677455251
 20
5162.9239658798
 30
0.0
 40
4.875000000001366
100
AcDbArc
 50
339.1507497058
 51
356.8505522786
  0
ARC
  5
7C
330
1F
100
AcDbEntity
  8
0
  6
Continuous
 62
     7
100
AcDbCircle
 10
6445.3613785863
 20
5402.8938184544
 30
0.0
 40
4.874999999999811
100
AcDbArc
 50
18.3602692842
 51
55.3839403249
  0
ARC
  5
7D
330
1F
100
AcDbEntity
  8
0
  6
Continuous
 62
     7
100
AcDbCircle
 10
6445.3613453012
 20
5402.893839835
 30
0.0
 40
4.875000000000922
100
AcDbArc
 50
280.6239292021
 51
317.5639734428
  0
ARC
  5
7E
330
1F
100
AcDbEntity
  8
0
  6
Continuous
 62
     7
100
AcDbCircle
 10
6445.3614264791
 20
5402.894053885
 30
0.0
 40
4.875000000000954
100
AcDbArc
 50
339.1507497056
 51
356.8505522772
  0
ARC
  5
7F
330
1F
100
AcDbEntity
  8
0
  6
Continuous
 62
     7
100
AcDbCircle
 10
6419.8636625895
 20
5282.9046900705
 30
0.0
 40
4.874999999999857
100
AcDbArc
 50
9.4404615504
 51
55.3833540174
  0
ARC
  5
80
330
1F
100
AcDbEntity
  8
0
  6
Continuous
 62
     7
100
AcDbCircle
 10
6419.8636625895
 20
5282.9046900705
 30
0.0
 40
4.875008271645612
100
AcDbArc
 50
280.6240038754
 51
326.6190691133
  0
ARC
  5
81
330
1F
100
AcDbEntity
  8
0
  6
Continuous
 62
     7
100
AcDbCircle
 10
6419.863751537
 20
5282.9048971615
 30
0.0
 40
4.875000000000783
100
AcDbArc
 50
339.1507497096
 51
356.8505522822
  0
ARC
  5
82
330
1F
100
AcDbEntity
  8
0
  6
Continuous
 62
     7
100
AcDbCircle
 10
6128.1359087773
 20
5283.0832718824
 30
0.0
 40
4.87500000000031
100
AcDbArc
 50
224.3154281322
 51
259.3769158101
  0
ARC
  5
83
330
1F
100
AcDbEntity
  8
0
  6
Continuous
 62
     7
100
AcDbCircle
 10
6128.1358490549
 20
5283.083170222
 30
0.0
 40
4.874999999999999
100
AcDbArc
 50
124.6146729583
 51
159.6359528499
  0
ARC
  5
84
330
1F
100
AcDbEntity
  8
0
  6
Continuous
 62
     7
100
AcDbCircle
 10
6128.1358982648
 20
5283.0834726776
 30
0.0
 40
4.874999999998851
100
AcDbArc
 50
183.1494477215
 51
200.8492502942
  0
ARC
  5
85
330
1F
100
AcDbEntity
  8
0
  6
Continuous
 62
     7
100
AcDbCircle
 10
6451.5490936402
 20
5435.0194696218
 30
0.0
 40
2.000000000001542
100
AcDbArc
 50
348.0031259192
 51
89.9973230473
  0
ARC
  5
86
330
1F
100
AcDbEntity
  8
0
  6
Continuous
 62
     7
100
AcDbCircle
 10
6096.4884647158
 20
5435.0194696218
 30
0.0
 40
2.000000000000842
100
AcDbArc
 50
90.0026769555
 51
191.9968740809
  0
ARC
  5
87
330
1F
100
AcDbEntity
  8
0
  6
Continuous
 62
     7
100
AcDbCircle
 10
6153.654807864
 20
5162.8818663145
 30
0.0
 40
4.764266234028112
100
AcDbArc
 50
213.5982850563
 51
216.653404644
  0
ARC
  5
88
330
1F
100
AcDbEntity
  8
0
  6
Continuous
 62
     7
100
AcDbCircle
 10
6150.4244722842
 20
5162.1070594901
 30
0.0
 40
1.698611669425582
100
AcDbArc
 50
241.2444708729
 51
245.5536800063
  0
ARC
  5
89
330
1F
100
AcDbEntity
  8
0
  6
Continuous
 62
     7
100
AcDbCircle
 10
6151.3308272857
 20
5163.5287929885
 30
0.0
 40
2.6711928955445
100
AcDbArc
 50
222.947517388
 51
226.8812736522
  0
ARC
  5
8A
330
1F
100
AcDbEntity
  8
0
  6
Continuous
 62
     7
100
AcDbCircle
 10
6151.8617695605
 20
5161.5397192272
 30
0.0
 40
2.797989905469687
100
AcDbArc
 50
157.1777113052
 51
160.9344114809
  0
ARC
  5
8B
330
1F
100
AcDbEntity
  8
0
  6
Continuous
 62
     7
100
AcDbCircle
 10
6150.3988851186
 20
5162.4686860607
 30
0.0
 40
1.77630265824547
100
AcDbArc
 50
138.6057141999
 51
142.719361975
  0
ARC
  5
8C
330
1F
100
AcDbEntity
  8
0
  6
Continuous
 62
     7
100
AcDbCircle
 10
6153.6521079618
 20
5163.1157987204
 30
0.0
 40
4.812905668799631
100
AcDbArc
 50
167.3930176834
 51
170.4169490685
  0
ARC
  5
8D
330
1F
100
AcDbEntity
  8
0
  6
Continuous
 62
     7
100
AcDbCircle
 10
6102.5346347183
 20
5402.6095798015
 30
0.0
 40
4.574773889806084
100
AcDbArc
 50
213.5309756377
 51
216.7129790447
  0
ARC
  5
8E
330
1F
100
AcDbEntity
  8
0
  6
Continuous
 62
     7
100
AcDbCircle
 10
6099.4559618282
 20
5401.9384903872
 30
0.0
 40
1.692171193248742
100
AcDbArc
 50
241.2484477747
 51
245.5736136537
  0
ARC
  5
8F
330
1F
100
AcDbEntity
  8
0
  6
Continuous
 62
     7
100
AcDbCircle
 10
6100.3695624185
 20
5403.3694272979
 30
0.0
 40
2.676595012769505
100
AcDbArc
 50
222.944688265
 51
226.8709540652
  0
ARC
  5
90
330
1F
100
AcDbEntity
  8
0
  6
Continuous
 62
     7
100
AcDbCircle
 10
6100.6348956552
 20
5401.4771943102
 30
0.0
 40
2.517977667759251
100
AcDbArc
 50
156.9747607223
 51
161.1506687291
  0
ARC
  5
91
330
1F
100
AcDbEntity
  8
0
  6
Continuous
 62
     7
100
AcDbCircle
 10
6099.340823239
 20
5402.3820571472
 30
0.0
 40
1.656260665475892
100
AcDbArc
 50
138.4646575359
 51
142.8773935467
  0
ARC
  5
92
330
1F
100
AcDbEntity
  8
0
  6
Continuous
 62
     7
100
AcDbCircle
 10
6102.3960319537
 20
5403.0099580634
 30
0.0
 40
4.516691046799876
100
AcDbArc
 50
167.2949423247
 51
170.5176116522
  0
ARC
  5
93
330
1F
100
AcDbEntity
  8
0
  6
Continuous
 62
     7
100
AcDbCircle
 10
6395.7911703074
 20
5161.8789008729
 30
0.0
 40
3.184691277857458
100
AcDbArc
 50
14.7719633345
 51
18.5164921277
  0
ARC
  5
94
330
1F
100
AcDbEntity
  8
0
  6
Continuous
 62
     7
100
AcDbCircle
 10
6394.5448127949
 20
5163.0546094286
 30
0.0
 40
4.665848071007375
100
AcDbArc
 50
10.6215469416
 51
13.6197496235
  0
ARC
  5
95
330
1F
100
AcDbEntity
  8
0
  6
Continuous
 62
     7
100
AcDbCircle
 10
6394.4152672639
 20
5162.9414137452
 30
0.0
 40
4.730751988180816
100
AcDbArc
 50
9.2169362768
 51
12.3367737324
  0
ARC
  5
96
330
1F
100
AcDbEntity
  8
0
  6
Continuous
 62
     7
100
AcDbCircle
 10
6397.9033368209
 20
5161.7143877211
 30
0.0
 40
1.854448062733578
100
AcDbArc
 50
54.3802238834
 51
57.7021942058
  0
ARC
  5
97
330
1F
100
AcDbEntity
  8
0
  6
Continuous
 62
     7
100
AcDbCircle
 10
6396.753845333
 20
5161.0982566222
 30
0.0
 40
2.190649413339969
100
AcDbArc
 50
25.4399358625
 51
29.5344804548
  0
ARC
  5
98
330
1F
100
AcDbEntity
  8
0
  6
Continuous
 62
     7
100
AcDbCircle
 10
6396.1089168734
 20
5163.2841119333
 30
0.0
 40
3.162664590834438
100
AcDbArc
 50
317.5014891604
 51
321.2709936972
  0
ARC
  5
99
330
1F
100
AcDbEntity
  8
0
  6
Continuous
 62
     7
100
AcDbCircle
 10
6397.0929229778
 20
5161.8772489347
 30
0.0
 40
2.000218761159811
100
AcDbArc
 50
305.3014649119
 51
309.7014862497
  0
ARC
  5
9A
330
1F
100
AcDbEntity
  8
0
  6
Continuous
 62
     7
100
AcDbCircle
 10
6394.7086177105
 20
5162.5645910873
 30
0.0
 40
4.379484469769698
100
AcDbArc
 50
322.268030828
 51
325.4633672095
  0
ARC
  5
9B
330
1F
100
AcDbEntity
  8
0
  6
Continuous
 62
     7
100
AcDbCircle
 10
6446.5764296282
 20
5401.7876751689
 30
0.0
 40
3.402284846457827
100
AcDbArc
 50
14.8865624754
 51
18.3924943506
  0
ARC
  5
9C
330
1F
100
AcDbEntity
  8
0
  6
Continuous
 62
     7
100
AcDbCircle
 10
6445.5583671885
 20
5403.0289479655
 30
0.0
 40
4.645553668436269
100
AcDbArc
 50
10.6166450678
 51
13.6275891069
  0
ARC
  5
9D
330
1F
100
AcDbEntity
  8
0
  6
Continuous
 62
     7
100
AcDbCircle
 10
6445.4027836128
 20
5402.9100161227
 30
0.0
 40
4.736782339328829
100
AcDbArc
 50
9.2189226839
 51
12.3347873253
  0
ARC
  5
9E
330
1F
100
AcDbEntity
  8
0
  6
Continuous
 62
     7
100
AcDbCircle
 10
6448.5399385375
 20
5401.1505677659
 30
0.0
 40
2.49604861929819
100
AcDbArc
 50
54.8473662819
 51
57.3141347754
  0
ARC
  5
9F
330
1F
100
AcDbEntity
  8
0
  6
Continuous
 62
     7
100
AcDbCircle
 10
6447.8632454003
 20
5401.1272436431
 30
0.0
 40
2.060305820018796
100
AcDbArc
 50
25.3265735565
 51
29.6780701034
  0
ARC
  5
A0
330
1F
100
AcDbEntity
  8
0
  6
Continuous
 62
     7
100
AcDbCircle
 10
6447.0968747907
 20
5403.2577838308
 30
0.0
 40
3.169632927003593
100
AcDbArc
 50
317.5107720812
 51
321.2723956907
  0
ARC
  5
A1
330
1F
100
AcDbEntity
  8
0
  6
Continuous
 62
     7
100
AcDbCircle
 10
6448.0427446629
 20
5401.902490683
 30
0.0
 40
2.070968686010275
100
AcDbArc
 50
305.4023589104
 51
309.65350072
  0
ARC
  5
A2
330
1F
100
AcDbEntity
  8
0
  6
Continuous
 62
     7
100
AcDbCircle
 10
6445.7856376936
 20
5402.4694812219
 30
0.0
 40
4.273728819937829
100
AcDbArc
 50
322.2746304579
 51
325.5471737929
  0
ARC
  5
A3
330
1F
100
AcDbEntity
  8
0
  6
Continuous
 62
     7
100
AcDbCircle
 10
6421.292246374
 20
5283.0207468172
 30
0.0
 40
3.445477256706776
100
AcDbArc
 50
14.6459291789
 51
18.1313121634
  0
ARC
  5
A4
330
1F
100
AcDbEntity
  8
0
  6
Continuous
 62
     7
100
AcDbCircle
 10
6420.2038461942
 20
5282.5140625678
 30
0.0
 40
4.362487076388499
100
AcDbArc
 50
10.2092955536
 51
13.4481832755
  0
ARC
  5
A5
330
1F
100
AcDbEntity
  8
0
  6
Continuous
 62
     7
100
AcDbCircle
 10
6424.0179097997
 20
5284.5659057126
 30
0.0
 40
1.945579487507759
100
AcDbArc
 50
277.049872143
 51
280.1891041099
  0
ARC
  5
A6
330
1F
100
AcDbEntity
  8
0
  6
Continuous
 62
     7
100
AcDbCircle
 10
6422.8638125325
 20
5279.897061733
 30
0.0
 40
1.93609995805169
100
AcDbArc
 50
50.5288004192
 51
53.8077491057
  0
ARC
  5
A7
330
1F
100
AcDbEntity
  8
0
  6
Continuous
 62
     7
100
AcDbCircle
 10
6420.3993652496
 20
5283.1880320512
 30
0.0
 40
4.318380772497632
100
AcDbArc
 50
322.2106294352
 51
325.4372361641
  0
ARC
  5
A8
330
1F
100
AcDbEntity
  8
0
  6
Continuous
 62
     7
100
AcDbCircle
 10
6421.3499305012
 20
5282.1198976431
 30
0.0
 40
3.198684486249306
100
AcDbArc
 50
316.8114402662
 51
320.4567172714
  0
ARC
  5
A9
330
1F
100
AcDbEntity
  8
0
  6
Continuous
 62
     7
100
AcDbCircle
 10
6128.1012519293
 20
5282.9317106561
 30
0.0
 40
4.718473033967652
100
AcDbArc
 50
213.5794408304
 51
216.664513852
  0
ARC
  5
AA
330
1F
100
AcDbEntity
  8
0
  6
Continuous
 62
     7
100
AcDbCircle
 10
6124.9425317003
 20
5282.2512207962
 30
0.0
 40
1.774492297661137
100
AcDbArc
 50
241.3244780981
 51
245.4497671834
  0
ARC
  5
AB
330
1F
100
AcDbEntity
  8
0
  6
Continuous
 62
     7
100
AcDbCircle
 10
6125.8796363476
 20
5283.6705598898
 30
0.0
 40
2.763356814805952
100
AcDbArc
 50
223.0199362993
 51
226.8220064781
  0
ARC
  5
AC
330
1F
100
AcDbEntity
  8
0
  6
Continuous
 62
     7
100
AcDbCircle
 10
6126.3306850926
 20
5281.6218364599
 30
0.0
 40
2.782137687371932
100
AcDbArc
 50
157.1670048694
 51
160.9451179167
  0
ARC
  5
AD
330
1F
100
AcDbEntity
  8
0
  6
Continuous
 62
     7
100
AcDbCircle
 10
6124.8513524546
 20
5282.5672608108
 30
0.0
 40
1.738026640629518
100
AcDbArc
 50
138.4670232066
 51
142.6755352822
  0
ARC
  5
AE
330
1F
100
AcDbEntity
  8
0
  6
Continuous
 62
     7
100
AcDbCircle
 10
6128.338384186
 20
5283.1523960657
 30
0.0
 40
5.019264265826975
100
AcDbArc
 50
167.4540662241
 51
170.3533127069
  0
ARC
  5
AF
330
1F
100
AcDbEntity
  8
0
  6
Continuous
 62
     7
100
AcDbCircle
 10
7522.5768454047
 20
5428.661486647
 30
0.0
 40
2.000000000001599
100
AcDbArc
 50
348.0031259747
 51
89.9990305818
  0
ARC
  5
B0
330
1F
100
AcDbEntity
  8
0
  6
Continuous
 62
     7
100
AcDbCircle
 10
7013.4476714579
 20
5171.1938917822
 30
0.0
 40
17.50823317796935
100
AcDbArc
 50
283.9596112353
 51
284.7153984928
  0
ARC
  5
B1
330
1F
100
AcDbEntity
  8
0
  6
Continuous
 62
     7
100
AcDbCircle
 10
7090.3371051542
 20
5168.6021744908
 30
0.0
 40
73.27522909835434
100
AcDbArc
 50
191.5845517426
 51
191.7504257389
  0
ARC
  5
B2
330
1F
100
AcDbEntity
  8
0
  6
Continuous
 62
     7
100
AcDbCircle
 10
6950.3478093931
 20
5168.1247189942
 30
0.0
 40
70.93793036577101
100
AcDbArc
 50
348.2507844062
 51
348.4221212731
  0
ARC
  5
B3
330
1F
100
AcDbEntity
  8
0
  6
Continuous
 62
     7
100
AcDbCircle
 10
7024.933273505
 20
5171.1314919167
 30
0.0
 40
17.44382872254569
100
AcDbArc
 50
255.2832062746
 51
256.0417840191
  0
ARC
  5
B4
330
1F
100
AcDbEntity
  8
0
  6
Continuous
 62
     7
100
AcDbCircle
 10
7032.7530694568
 20
5171.3268716609
 30
0.0
 40
19.7474968556844
100
AcDbArc
 50
233.9998026927
 51
234.6457834013
  0
ARC
  5
B5
330
1F
100
AcDbEntity
  8
0
  6
Continuous
 62
     7
100
AcDbCircle
 10
7002.4996967322
 20
5175.9625276344
 30
0.0
 40
27.24638076752138
100
AcDbArc
 50
313.1844221045
 51
313.7082624951
  0
ARC
  5
B6
330
1F
100
AcDbEntity
  8
0
  6
Continuous
 62
     7
100
AcDbCircle
 10
7012.1663535248
 20
5176.4026633712
 30
0.0
 40
20.946010509075
100
AcDbArc
 50
293.4500843917
 51
294.1189586399
  0
ARC
  5
B7
330
1F
100
AcDbEntity
  8
0
  6
Continuous
 62
     7
100
AcDbCircle
 10
7140.2358798539
 20
5178.4031682433
 30
0.0
 40
122.1846086071482
100
AcDbArc
 50
189.7038383803
 51
189.8224300542
  0
ARC
  5
B8
330
1F
100
AcDbEntity
  8
0
  6
Continuous
 62
     7
100
AcDbCircle
 10
6902.7432471378
 20
5177.6216404578
 30
0.0
 40
117.5362140046206
100
AcDbArc
 50
350.1718972446
 51
350.2951802889
  0
ARC
  5
B9
330
1F
100
AcDbEntity
  8
0
  6
Continuous
 62
     7
100
AcDbCircle
 10
7026.1762461966
 20
5176.2794716396
 30
0.0
 40
20.81138714599526
100
AcDbArc
 50
245.8788779499
 51
246.5520790185
  0
ARC
  5
BA
330
1F
100
AcDbEntity
  8
0
  6
Continuous
 62
     7
100
AcDbCircle
 10
7036.0410817772
 20
5176.1144349322
 30
0.0
 40
27.45561191093137
100
AcDbArc
 50
226.2937335354
 51
226.813581865
  0
ARC
  5
BB
330
1F
100
AcDbEntity
  8
0
  6
Continuous
 62
     7
100
AcDbCircle
 10
7005.7174035703
 20
5171.2243896024
 30
0.0
 40
19.62133847674322
100
AcDbArc
 50
305.3521398609
 51
306.0022740451
  0
CIRCLE
  5
BC
330
1F
100
AcDbEntity
  8
0
  6
Continuous
 62
     7
100
AcDbCircle
 10
7019.1880578265
 20
5155.6518437664
 30
0.0
 40
0.7396169416624616
  0
ARC
  5
BD
330
1F
100
AcDbEntity
  8
0
  6
Continuous
 62
     7
100
AcDbCircle
 10
7019.198450725
 20
5156.2591364594
 30
0.0
 40
0.7499977946499712
100
AcDbArc
 50
0.0
 51
180.0
  0
ARC
  5
BE
330
1F
100
AcDbEntity
  8
0
  6
Continuous
 62
     7
100
AcDbCircle
 10
7016.9423022335
 20
5156.2579132267
 30
0.0
 40
0.484767047432434
100
AcDbArc
 50
0.1445769602
 51
50.4210729762
  0
ARC
  5
BF
330
1F
100
AcDbEntity
  8
0
  6
Continuous
 62
     7
100
AcDbCircle
 10
7021.4546316963
 20
5156.2578846671
 30
0.0
 40
0.4848145010071537
100
AcDbArc
 50
129.580413697
 51
179.8520619828
  0
ARC
  5
C0
330
1F
100
AcDbEntity
  8
0
  6
Continuous
 62
     7
100
AcDbCircle
 10
7020.9312773177
 20
5155.2974096587
 30
0.0
 40
0.6149545074721473
100
AcDbArc
 50
250.4577495697
 51
334.5509216256
  0
ARC
  5
C1
330
1F
100
AcDbEntity
  8
0
  6
Continuous
 62
     7
100
AcDbCircle
 10
7017.4651259602
 20
5155.2961374377
 30
0.0
 40
0.6139203622714273
100
AcDbArc
 50
204.7433518862
 51
289.6251267729
  0
ARC
  5
C2
330
1F
100
AcDbEntity
  8
0
  6
Continuous
 62
     7
100
AcDbCircle
 10
7020.3331631667
 20
5154.3243398852
 30
0.0
 40
0.5007024194220391
100
AcDbArc
 50
70.3157436932
 51
168.5923408482
  0
ARC
  5
C3
330
1F
100
AcDbEntity
  8
0
  6
Continuous
 62
     7
100
AcDbCircle
 10
7018.0637305281
 20
5154.3243491648
 30
0.0
 40
0.5006935794761984
100
AcDbArc
 50
11.4067799785
 51
109.684581146
  0
ARC
  5
C4
330
1F
100
AcDbEntity
  8
0
  6
Continuous
 62
     7
100
AcDbCircle
 10
7019.1984507251
 20
5154.3166627708
 30
0.0
 40
0.6132363806241861
100
AcDbArc
 50
191.4575078635
 51
348.5424921379
  0
ARC
  5
C5
330
1F
100
AcDbEntity
  8
0
  6
Continuous
 62
     7
100
AcDbCircle
 10
7019.1984469998
 20
5156.2873295553
 30
0.0
 40
4.500635084363795
100
AcDbArc
 50
0.9641032165
 51
179.0358967835
  0
ARC
  5
C6
330
1F
100
AcDbEntity
  8
0
  6
Continuous
 62
     7
100
AcDbCircle
 10
7013.5934135675
 20
5410.8774906383
 30
0.0
 40
17.34931309263963
100
AcDbArc
 50
283.9489982774
 51
284.7116842973
  0
ARC
  5
C7
330
1F
100
AcDbEntity
  8
0
  6
Continuous
 62
     7
100
AcDbCircle
 10
7094.9365372189
 20
5409.3651932779
 30
0.0
 40
77.8647613357244
100
AcDbArc
 50
191.587801899
 51
191.7439203622
  0
ARC
  5
C8
330
1F
100
AcDbEntity
  8
0
  6
Continuous
 62
     7
100
AcDbCircle
 10
6943.6689208833
 20
5409.3651932779
 30
0.0
 40
77.86476133572171
100
AcDbArc
 50
348.2560796378
 51
348.412198101
  0
ARC
  5
C9
330
1F
100
AcDbEntity
  8
0
  6
Continuous
 62
     7
100
AcDbCircle
 10
7025.0170381855
 20
5410.8970382413
 30
0.0
 40
17.36948801082831
100
AcDbArc
 50
255.2887586332
 51
256.0505587688
  0
ARC
  5
CA
330
1F
100
AcDbEntity
  8
0
  6
Continuous
 62
     7
100
AcDbCircle
 10
7033.0277866572
 20
5411.3975619398
 30
0.0
 40
20.03669692398704
100
AcDbArc
 50
233.998210222
 51
234.6349167654
  0
ARC
  5
CB
330
1F
100
AcDbEntity
  8
0
  6
Continuous
 62
     7
100
AcDbCircle
 10
7003.1772200206
 20
5415.1876999093
 30
0.0
 40
26.40794910755277
100
AcDbArc
 50
313.1860134796
 51
313.7265744528
  0
ARC
  5
CC
330
1F
100
AcDbEntity
  8
0
  6
Continuous
 62
     7
100
AcDbCircle
 10
7012.2533825219
 20
5416.2730346333
 30
0.0
 40
20.98347113654519
100
AcDbArc
 50
293.4570547963
 51
294.1247677503
  0
ARC
  5
CD
330
1F
100
AcDbEntity
  8
0
  6
Continuous
 62
     7
100
AcDbCircle
 10
7128.8186794574
 20
5416.2620006081
 30
0.0
 40
110.4945380524112
100
AcDbArc
 50
189.6997385634
 51
189.830893512
  0
ARC
  5
CE
330
1F
100
AcDbEntity
  8
0
  6
Continuous
 62
     7
100
AcDbCircle
 10
6909.786778645
 20
5416.2620006093
 30
0.0
 40
110.4945380524116
100
AcDbArc
 50
350.1691064874
 51
350.300261436
  0
ARC
  5
CF
330
1F
100
AcDbEntity
  8
0
  6
Continuous
 62
     7
100
AcDbCircle
 10
7026.3728962598
 20
5416.3202617213
 30
0.0
 40
21.03508323106525
100
AcDbArc
 50
245.8760514158
 51
246.5421260376
  0
ARC
  5
D0
330
1F
100
AcDbEntity
  8
0
  6
Continuous
 62
     7
100
AcDbCircle
 10
7035.6165404389
 20
5415.3872344116
 30
0.0
 40
26.68230517075036
100
AcDbArc
 50
226.2773773335
 51
226.8123916576
  0
ARC
  5
D1
330
1F
100
AcDbEntity
  8
0
  6
Continuous
 62
     7
100
AcDbCircle
 10
7005.6738393072
 20
5411.2643082717
 30
0.0
 40
19.8723664142336
100
AcDbArc
 50
305.3613236288
 51
306.0033127915
  0
CIRCLE
  5
D2
330
1F
100
AcDbEntity
  8
0
  6
Continuous
 62
     7
100
AcDbCircle
 10
7019.2923361525
 20
5395.4888942043
 30
0.0
 40
0.7396169416624616
  0
ARC
  5
D3
330
1F
100
AcDbEntity
  8
0
  6
Continuous
 62
     7
100
AcDbCircle
 10
7019.3027290511
 20
5396.096157095
 30
0.0
 40
0.749997794599949
100
AcDbArc
 50
0.0
 51
180.0
  0
ARC
  5
D4
330
1F
100
AcDbEntity
  8
0
  6
Continuous
 62
     7
100
AcDbCircle
 10
7017.0463960447
 20
5396.0949030013
 30
0.0
 40
0.4849590910071804
100
AcDbArc
 50
0.1481658144
 51
50.4104023662
  0
ARC
  5
D5
330
1F
100
AcDbEntity
  8
0
  6
Continuous
 62
     7
100
AcDbCircle
 10
7021.5590553428
 20
5396.0948964716
 30
0.0
 40
0.4849598438561822
100
AcDbArc
 50
129.5884946579
 51
179.851062968
  0
ARC
  5
D6
330
1F
100
AcDbEntity
  8
0
  6
Continuous
 62
     7
100
AcDbCircle
 10
7021.0354691975
 20
5395.134640201
 30
0.0
 40
0.6151234248732951
100
AcDbArc
 50
250.4718778908
 51
334.539830019
  0
ARC
  5
D7
330
1F
100
AcDbEntity
  8
0
  6
Continuous
 62
     7
100
AcDbCircle
 10
7017.5694921976
 20
5395.133338416
 30
0.0
 40
0.6140632200939881
100
AcDbArc
 50
204.752675377
 51
289.6124037918
  0
ARC
  5
D8
330
1F
100
AcDbEntity
  8
0
  6
Continuous
 62
     7
100
AcDbCircle
 10
7018.1680394111
 20
5394.1614205357
 30
0.0
 40
0.5006535938100339
100
AcDbArc
 50
11.4017800326
 51
109.6890267485
  0
ARC
  5
D9
330
1F
100
AcDbEntity
  8
0
  6
Continuous
 62
     7
100
AcDbCircle
 10
7020.4374178077
 20
5394.1614220999
 30
0.0
 40
0.5006524186836119
100
AcDbArc
 50
70.3108177594
 51
168.5983754594
  0
ARC
  5
DA
330
1F
100
AcDbEntity
  8
0
  6
Continuous
 62
     7
100
AcDbCircle
 10
7019.3027290511
 20
5394.1537093969
 30
0.0
 40
0.6132297043257844
100
AcDbArc
 50
191.4544297881
 51
348.5455702119
  0
ARC
  5
DB
330
1F
100
AcDbEntity
  8
0
  6
Continuous
 62
     7
100
AcDbCircle
 10
7019.3027253259
 20
5396.124365884
 30
0.0
 40
4.50063532178783
100
AcDbArc
 50
0.9642828103
 51
179.0357171897
  0
ARC
  5
DC
330
1F
100
AcDbEntity
  8
0
  6
Continuous
 62
     7
100
AcDbCircle
 10
7013.5768275879
 20
5291.5473368653
 30
0.0
 40
17.79467696137493
100
AcDbArc
 50
283.9723760022
 51
284.716044069
  0
ARC
  5
DD
330
1F
100
AcDbEntity
  8
0
  6
Continuous
 62
     7
100
AcDbCircle
 10
7085.3333212139
 20
5287.6016584732
 30
0.0
 40
67.95911314630189
100
AcDbArc
 50
191.5764240387
 51
191.7552981805
  0
ARC
  5
DE
330
1F
100
AcDbEntity
  8
0
  6
Continuous
 62
     7
100
AcDbCircle
 10
6954.9235501699
 20
5287.2964191807
 30
0.0
 40
66.47169725529938
100
AcDbArc
 50
348.2466428433
 51
348.4295170012
  0
ARC
  5
DF
330
1F
100
AcDbEntity
  8
0
  6
Continuous
 62
     7
100
AcDbCircle
 10
7025.1939978545
 20
5291.4283508138
 30
0.0
 40
17.67190083664178
100
AcDbArc
 50
255.2809263491
 51
256.0297377446
  0
ARC
  5
E0
330
1F
100
AcDbEntity
  8
0
  6
Continuous
 62
     7
100
AcDbCircle
 10
7032.8063905801
 20
5291.1997115937
 30
0.0
 40
19.4953461675381
100
AcDbArc
 50
234.0018812055
 51
234.6561659692
  0
ARC
  5
E1
330
1F
100
AcDbEntity
  8
0
  6
Continuous
 62
     7
100
AcDbCircle
 10
7001.5413799608
 20
5297.2640999554
 30
0.0
 40
28.93382014406408
100
AcDbArc
 50
313.1996975596
 51
313.6929870404
  0
ARC
  5
E2
330
1F
100
AcDbEntity
  8
0
  6
Continuous
 62
     7
100
AcDbCircle
 10
7012.4786238965
 20
5296.234852231
 30
0.0
 40
20.67808552257418
100
AcDbArc
 50
293.4393773196
 51
294.1168849407
  0
ARC
  5
E3
330
1F
100
AcDbEntity
  8
0
  6
Continuous
 62
     7
100
AcDbCircle
 10
7145.9198337168
 20
5299.4254394837
 30
0.0
 40
127.7474536711791
100
AcDbArc
 50
189.7075721309
 51
189.8209864794
  0
ARC
  5
E4
330
1F
100
AcDbEntity
  8
0
  6
Continuous
 62
     7
100
AcDbCircle
 10
6896.8230543495
 20
5298.7543977069
 30
0.0
 40
123.7489667216401
100
AcDbArc
 50
350.1738532646
 51
350.2909333469
  0
ARC
  5
E5
330
1F
100
AcDbEntity
  8
0
  6
Continuous
 62
     7
100
AcDbCircle
 10
7026.2271905167
 20
5296.0191952046
 30
0.0
 40
20.44231758713104
100
AcDbArc
 50
245.87990241
 51
246.5652431511
  0
ARC
  5
E6
330
1F
100
AcDbEntity
  8
0
  6
Continuous
 62
     7
100
AcDbCircle
 10
7037.2597229384
 20
5297.2640999543
 30
0.0
 40
28.93382014406483
100
AcDbArc
 50
226.3070129565
 51
226.8003024373
  0
ARC
  5
E7
330
1F
100
AcDbEntity
  8
0
  6
Continuous
 62
     7
100
AcDbCircle
 10
7005.9947123143
 20
5291.199711591
 30
0.0
 40
19.49534616753792
100
AcDbArc
 50
305.3438340444
 51
305.9981188079
  0
CIRCLE
  5
E8
330
1F
100
AcDbEntity
  8
0
  6
Continuous
 62
     7
100
AcDbCircle
 10
7019.3901622757
 20
5275.7282616894
 30
0.0
 40
0.7396169416624616
  0
ARC
  5
E9
330
1F
100
AcDbEntity
  8
0
  6
Continuous
 62
     7
100
AcDbCircle
 10
7019.4005551744
 20
5276.3355841847
 30
0.0
 40
0.7499977946499712
100
AcDbArc
 50
0.0
 51
180.0
  0
ARC
  5
EA
330
1F
100
AcDbEntity
  8
0
  6
Continuous
 62
     7
100
AcDbCircle
 10
7017.1443160083
 20
5276.3343181236
 30
0.0
 40
0.4848578315212148
100
AcDbArc
 50
0.1496109453
 51
50.4160389912
  0
ARC
  5
EB
330
1F
100
AcDbEntity
  8
0
  6
Continuous
 62
     7
100
AcDbCircle
 10
7021.6568268209
 20
5276.3342895618
 30
0.0
 40
0.4849052883901077
100
AcDbArc
 50
129.5854468182
 51
179.8470288613
  0
ARC
  5
EC
330
1F
100
AcDbEntity
  8
0
  6
Continuous
 62
     7
100
AcDbCircle
 10
7021.1333814401
 20
5275.3738831556
 30
0.0
 40
0.6149786852816128
100
AcDbArc
 50
250.4585814318
 51
334.5462594409
  0
ARC
  5
ED
330
1F
100
AcDbEntity
  8
0
  6
Continuous
 62
     7
100
AcDbCircle
 10
7017.667216656
 20
5275.372576305
 30
0.0
 40
0.6139166383303332
100
AcDbArc
 50
204.7456643745
 51
289.6266134595
  0
ARC
  5
EE
330
1F
100
AcDbEntity
  8
0
  6
Continuous
 62
     7
100
AcDbCircle
 10
7018.2658194286
 20
5274.4007659827
 30
0.0
 40
0.5007149345288574
100
AcDbArc
 50
11.4098948923
 51
109.680911883
  0
ARC
  5
EF
330
1F
100
AcDbEntity
  8
0
  6
Continuous
 62
     7
100
AcDbCircle
 10
7020.5352867918
 20
5274.400753654
 30
0.0
 40
0.5007279334169356
100
AcDbArc
 50
70.319118428
 51
168.5889661267
  0
ARC
  5
F0
330
1F
100
AcDbEntity
  8
0
  6
Continuous
 62
     7
100
AcDbCircle
 10
7019.4005551744
 20
5274.393124749
 30
0.0
 40
0.6132392120060577
100
AcDbArc
 50
191.4588129927
 51
348.5411870073
  0
ARC
  5
F1
330
1F
100
AcDbEntity
  8
0
  6
Continuous
 62
     7
100
AcDbCircle
 10
7019.400551449
 20
5276.3637576365
 30
0.0
 40
4.500634913451774
100
AcDbArc
 50
0.9639739142
 51
179.0360260858
  0
ARC
  5
F2
330
1F
100
AcDbEntity
  8
0
  6
Continuous
 62
     7
100
AcDbCircle
 10
6274.018779178
 20
4175.1384560756
 30
0.0
 40
179.5302629470507
100
AcDbArc
 50
180.0
 51
0.0
  0
ARC
  5
F3
330
1F
100
AcDbEntity
  8
0
  6
Continuous
 62
     7
100
AcDbCircle
 10
6274.018779178
 20
4175.1384560756
 30
0.0
 40
177.5304079055504
100
AcDbArc
 50
180.0
 51
0.0
  0
CIRCLE
  5
F4
330
1F
100
AcDbEntity
  8
0
  6
Continuous
 62
     7
100
AcDbCircle
 10
6194.0187553361
 20
4417.1384482078
 30
0.0
 40
2.499999999999091
  0
CIRCLE
  5
F5
330
1F
100
AcDbEntity
  8
0
  6
Continuous
 62
     7
100
AcDbCircle
 10
6354.0187553361
 20
4417.1384482078
 30
0.0
 40
2.5
  0
ARC
  5
F6
330
1F
100
AcDbEntity
  8
0
  6
Continuous
 62
     7
100
AcDbCircle
 10
6274.018779178
 20
4240.1384536914
 30
0.0
 40
129.9999952316512
100
AcDbArc
 50
0.0
 51
180.0
  0
ARC
  5
F7
330
1F
100
AcDbEntity
  8
0
  6
Continuous
 62
     7
100
AcDbCircle
 10
6274.018779178
 20
4175.1384560756
 30
0.0
 40
129.9999952316512
100
AcDbArc
 50
180.0
 51
0.0
  0
ARC
  5
F8
330
1F
100
AcDbEntity
  8
0
  6
Continuous
 62
     7
100
AcDbCircle
 10
6274.018779178
 20
4240.1384536914
 30
0.0
 40
120.0000047683507
100
AcDbArc
 50
0.0
 51
180.0
  0
ARC
  5
F9
330
1F
100
AcDbEntity
  8
0
  6
Continuous
 62
     7
100
AcDbCircle
 10
6274.018779178
 20
4175.1384560756
 30
0.0
 40
120.0000047683507
100
AcDbArc
 50
180.0
 51
0.0
  0
CIRCLE
  5
FA
330
1F
100
AcDbEntity
  8
0
  6
Continuous
 62
     7
100
AcDbCircle
 10
6274.0214825882
 20
4250.138502597
 30
0.0
 40
39.99993331267251
  0
LINE
  5
FB
330
1F
100
AcDbEntity
  8
0
  6
Continuous
 62
     7
100
AcDbLine
 10
6152.7534870103
 20
5158.2154058226
 30
0.0
 11
6153.242483516
 21
5158.3193265207
 31
0.0
  0
LINE
  5
FC
330
1F
100
AcDbEntity
  8
0
  6
Continuous
 62
     7
100
AcDbLine
 10
6151.3718513444
 20
5167.1227537401
 30
0.0
 11
6150.8826164201
 21
5167.018833042
 31
0.0
  0
LINE
  5
FD
330
1F
100
AcDbEntity
  8
0
  6
Continuous
 62
     7
100
AcDbLine
 10
6148.939743419
 20
5163.5052882441
 30
0.0
 11
6149.2997554734
 21
5163.5817908056
 31
0.0
  0
LINE
  5
FE
330
1F
100
AcDbEntity
  8
0
  6
Continuous
 62
     7
100
AcDbLine
 10
6149.9120143846
 20
5160.7122741945
 30
0.0
 11
6149.5481876329
 21
5160.6349073656
 31
0.0
  0
LINE
  5
FF
330
1F
100
AcDbEntity
  8
0
  6
Continuous
 62
     7
100
AcDbLine
 10
6149.3507770494
 20
5162.8595315226
 30
0.0
 11
6148.784532924
 21
5162.7392195471
 31
0.0
  0
LINE
  5
100
330
1F
100
AcDbEntity
  8
0
  6
Continuous
 62
     7
100
AcDbLine
 10
6149.0963844255
 20
5161.2719916113
 30
0.0
 11
6149.6595291093
 21
5161.391677738
 31
0.0
  0
LINE
  5
101
330
1F
100
AcDbEntity
  8
0
  6
Continuous
 62
     7
100
AcDbLine
 10
6101.7881778672
 20
5398.0524562605
 30
0.0
 11
6102.277174373
 21
5398.1563471564
 31
0.0
  0
LINE
  5
102
330
1F
100
AcDbEntity
  8
0
  6
Continuous
 62
     7
100
AcDbLine
 10
6100.4065422013
 20
5406.9597743757
 30
0.0
 11
6099.917307277
 21
5406.8558834799
 31
0.0
  0
LINE
  5
103
330
1F
100
AcDbEntity
  8
0
  6
Continuous
 62
     7
100
AcDbLine
 10
6097.9744342759
 20
5403.3423088797
 30
0.0
 11
6098.3344463304
 21
5403.4188412436
 31
0.0
  0
LINE
  5
104
330
1F
100
AcDbEntity
  8
0
  6
Continuous
 62
     7
100
AcDbLine
 10
6098.9467052415
 20
5400.5492948301
 30
0.0
 11
6098.5826400712
 21
5400.4719280012
 31
0.0
  0
LINE
  5
105
330
1F
100
AcDbEntity
  8
0
  6
Continuous
 62
     7
100
AcDbLine
 10
6098.3852294877
 20
5402.6965521582
 30
0.0
 11
6097.8192237809
 21
5402.576269985
 31
0.0
  0
LINE
  5
106
330
1F
100
AcDbEntity
  8
0
  6
Continuous
 62
     7
100
AcDbLine
 10
6098.1308368638
 20
5401.1090420492
 30
0.0
 11
6098.6942199662
 21
5401.2287281759
 31
0.0
  0
LINE
  5
107
330
1F
100
AcDbEntity
  8
0
  6
Continuous
 62
     7
100
AcDbLine
 10
6397.1370605424
 20
5166.9357441672
 30
0.0
 11
6396.6480640367
 21
5167.0396648653
 31
0.0
  0
LINE
  5
108
330
1F
100
AcDbEntity
  8
0
  6
Continuous
 62
     7
100
AcDbLine
 10
6394.777431865
 20
5158.2362376459
 30
0.0
 11
6395.2664283708
 21
5158.1323169478
 31
0.0
  0
LINE
  5
109
330
1F
100
AcDbEntity
  8
0
  6
Continuous
 62
     7
100
AcDbLine
 10
6398.7451938584
 20
5163.2651411303
 30
0.0
 11
6399.0091232255
 21
5163.2090531595
 31
0.0
  0
LINE
  5
10A
330
1F
100
AcDbEntity
  8
0
  6
Continuous
 62
     7
100
AcDbLine
 10
6398.4543231919
 20
5160.3865646132
 30
0.0
 11
6398.0580715135
 21
5160.4707561739
 31
0.0
  0
LINE
  5
10B
330
1F
100
AcDbEntity
  8
0
  6
Continuous
 62
     7
100
AcDbLine
 10
6398.574962993
 20
5161.2629913099
 30
0.0
 11
6398.9235309556
 21
5161.1889027365
 31
0.0
  0
LINE
  5
10C
330
1F
100
AcDbEntity
  8
0
  6
Continuous
 62
     7
100
AcDbLine
 10
6399.2353824571
 20
5162.6561306723
 30
0.0
 11
6398.5616115525
 21
5162.7993308314
 31
0.0
  0
LINE
  5
10D
330
1F
100
AcDbEntity
  8
0
  6
Continuous
 62
     7
100
AcDbLine
 10
6398.4919933274
 20
5160.7757531412
 30
0.0
 11
6398.2170967057
 21
5160.8341954954
 31
0.0
  0
LINE
  5
10E
330
1F
100
AcDbEntity
  8
0
  6
Continuous
 62
     7
100
AcDbLine
 10
6448.1307414964
 20
5406.9058321722
 30
0.0
 11
6447.6417449906
 21
5407.0097826727
 31
0.0
  0
LINE
  5
10F
330
1F
100
AcDbEntity
  8
0
  6
Continuous
 62
     7
100
AcDbLine
 10
6445.7708744004
 20
5398.2063554533
 30
0.0
 11
6446.2601093247
 21
5398.1024049528
 31
0.0
  0
LINE
  5
110
330
1F
100
AcDbEntity
  8
0
  6
Continuous
 62
     7
100
AcDbLine
 10
6449.7388748124
 20
5403.2346628912
 30
0.0
 11
6450.0025657609
 21
5403.1785749205
 31
0.0
  0
LINE
  5
111
330
1F
100
AcDbEntity
  8
0
  6
Continuous
 62
     7
100
AcDbLine
 10
6449.4480041459
 20
5400.356354595
 30
0.0
 11
6449.0517524674
 21
5400.4405163534
 31
0.0
  0
LINE
  5
112
330
1F
100
AcDbEntity
  8
0
  6
Continuous
 62
     7
100
AcDbLine
 10
6449.5684055284
 20
5401.2331389197
 30
0.0
 11
6449.9172119096
 21
5401.1589907416
 31
0.0
  0
LINE
  5
113
330
1F
100
AcDbEntity
  8
0
  6
Continuous
 62
     7
100
AcDbLine
 10
6450.2290634111
 20
5402.6262186773
 30
0.0
 11
6449.5550540879
 21
5402.7694486387
 31
0.0
  0
LINE
  5
114
330
1F
100
AcDbEntity
  8
0
  6
Continuous
 62
     7
100
AcDbLine
 10
6449.4856742814
 20
5400.7464669951
 30
0.0
 11
6449.2112544969
 21
5400.8047603377
 31
0.0
  0
LINE
  5
115
330
1F
100
AcDbEntity
  8
0
  6
Continuous
 62
     7
100
AcDbLine
 10
6422.6330665544
 20
5286.9166754492
 30
0.0
 11
6422.1440700486
 21
5287.020566345
 31
0.0
  0
LINE
  5
116
330
1F
100
AcDbEntity
  8
0
  6
Continuous
 62
     7
100
AcDbLine
 10
6420.2731994584
 20
5278.2171391257
 30
0.0
 11
6420.7624343827
 21
5278.1132482298
 31
0.0
  0
LINE
  5
117
330
1F
100
AcDbEntity
  8
0
  6
Continuous
 62
     7
100
AcDbLine
 10
6424.1396335557
 20
5281.229319454
 30
0.0
 11
6424.4195369676
 21
5281.1698340185
 31
0.0
  0
LINE
  5
118
330
1F
100
AcDbEntity
  8
0
  6
Continuous
 62
     7
100
AcDbLine
 10
6424.731388469
 20
5282.6370619543
 30
0.0
 11
6424.4305042222
 21
5282.7009581335
 31
0.0
  0
LINE
  5
119
330
1F
100
AcDbEntity
  8
0
  6
Continuous
 62
     7
100
AcDbLine
 10
6423.9357856706
 20
5280.22909391
 30
0.0
 11
6423.6363319352
 21
5280.292692066
 31
0.0
  0
LINE
  5
11A
330
1F
100
AcDbEntity
  8
0
  6
Continuous
 62
     7
100
AcDbLine
 10
6424.4007018998
 20
5283.7508939512
 30
0.0
 11
6424.6717838243
 21
5283.6932562597
 31
0.0
  0
LINE
  5
11B
330
1F
100
AcDbEntity
  8
0
  6
Continuous
 62
     7
100
AcDbLine
 10
6127.2372154191
 20
5278.2918237456
 30
0.0
 11
6127.7262119248
 21
5278.395774246
 31
0.0
  0
LINE
  5
11C
330
1F
100
AcDbEntity
  8
0
  6
Continuous
 62
     7
100
AcDbLine
 10
6125.8555797532
 20
5287.1992014654
 30
0.0
 11
6125.3665832475
 21
5287.0952509649
 31
0.0
  0
LINE
  5
11D
330
1F
100
AcDbEntity
  8
0
  6
Continuous
 62
     7
100
AcDbLine
 10
6123.4234718278
 20
5283.5817359694
 30
0.0
 11
6123.7834838822
 21
5283.6582683333
 31
0.0
  0
LINE
  5
11E
330
1F
100
AcDbEntity
  8
0
  6
Continuous
 62
     7
100
AcDbLine
 10
6124.3957427934
 20
5280.7887219198
 30
0.0
 11
6124.0319160417
 21
5280.7113550909
 31
0.0
  0
LINE
  5
11F
330
1F
100
AcDbEntity
  8
0
  6
Continuous
 62
     7
100
AcDbLine
 10
6123.8345054582
 20
5282.9359792479
 30
0.0
 11
6123.2682613328
 21
5282.8156374701
 31
0.0
  0
LINE
  5
120
330
1F
100
AcDbEntity
  8
0
  6
Continuous
 62
     7
100
AcDbLine
 10
6123.5801128343
 20
5281.3484095343
 30
0.0
 11
6124.1432575181
 21
5281.4681552656
 31
0.0
  0
LINE
  5
121
330
1F
100
AcDbEntity
  8
0
  6
Continuous
 62
     7
100
AcDbLine
 10
6096.4883712724
 20
5437.0194696196
 30
0.0
 11
6451.5491870835
 21
5437.0194696196
 31
0.0
  0
LINE
  5
122
330
1F
100
AcDbEntity
  8
0
  6
Continuous
 62
     7
100
AcDbLine
 10
6453.5054115251
 20
5434.6037529715
 30
0.0
 11
6094.5321468309
 21
5434.6037529715
 31
0.0
  0
LINE
  5
123
330
1F
100
AcDbEntity
  8
0
  6
Continuous
 62
     7
100
AcDbLine
 10
6179.018869777
 20
5037.0194636591
 30
0.0
 11
6369.0186885789
 21
5037.0194636591
 31
0.0
  0
LINE
  5
124
330
1F
100
AcDbEntity
  8
0
  6
Continuous
 62
     7
100
AcDbLine
 10
6179.018869777
 20
5037.0194636591
 30
0.0
 11
6094.5321468309
 21
5434.6037529715
 31
0.0
  0
LINE
  5
125
330
1F
100
AcDbEntity
  8
0
  6
Continuous
 62
     7
100
AcDbLine
 10
6453.5054115251
 20
5434.6037529715
 30
0.0
 11
6369.0186885789
 21
5037.0194636591
 31
0.0
  0
LINE
  5
126
330
1F
100
AcDbEntity
  8
0
  6
Continuous
 62
     7
100
AcDbLine
 10
6151.8181709245
 20
5162.6171194323
 30
0.0
 11
6151.554479976
 21
5163.8572238692
 31
0.0
  0
LINE
  5
127
330
1F
100
AcDbEntity
  8
0
  6
Continuous
 62
     7
100
AcDbLine
 10
6151.554479976
 20
5163.8572238692
 30
0.0
 11
6151.3124851182
 21
5164.9968646773
 31
0.0
  0
LINE
  5
128
330
1F
100
AcDbEntity
  8
0
  6
Continuous
 62
     7
100
AcDbLine
 10
6151.3124851182
 20
5164.9968646773
 30
0.0
 11
6151.1112598374
 21
5165.9437142618
 31
0.0
  0
LINE
  5
129
330
1F
100
AcDbEntity
  8
0
  6
Continuous
 62
     7
100
AcDbLine
 10
6151.1112598374
 20
5165.9437142618
 30
0.0
 11
6150.9672550157
 21
5166.6210614451
 31
0.0
  0
LINE
  5
12A
330
1F
100
AcDbEntity
  8
0
  6
Continuous
 62
     7
100
AcDbLine
 10
6150.9672550157
 20
5166.6210614451
 30
0.0
 11
6150.8921531632
 21
5166.9740401514
 31
0.0
  0
LINE
  5
12B
330
1F
100
AcDbEntity
  8
0
  6
Continuous
 62
     7
100
AcDbLine
 10
6150.8921531632
 20
5166.9740401514
 30
0.0
 11
6150.8826164201
 21
5167.018833042
 31
0.0
  0
LINE
  5
12C
330
1F
100
AcDbEntity
  8
0
  6
Continuous
 62
     7
100
AcDbLine
 10
6152.7534870103
 20
5158.2154058226
 30
0.0
 11
6152.7439502671
 21
5158.2601987131
 31
0.0
  0
LINE
  5
12D
330
1F
100
AcDbEntity
  8
0
  6
Continuous
 62
     7
100
AcDbLine
 10
6152.7439502671
 20
5158.2601987131
 30
0.0
 11
6152.6688484147
 21
5158.6131774195
 31
0.0
  0
LINE
  5
12E
330
1F
100
AcDbEntity
  8
0
  6
Continuous
 62
     7
100
AcDbLine
 10
6152.6688484147
 20
5158.6131774195
 30
0.0
 11
6152.5250820115
 21
5159.2905246027
 31
0.0
  0
LINE
  5
12F
330
1F
100
AcDbEntity
  8
0
  6
Continuous
 62
     7
100
AcDbLine
 10
6152.5250820115
 20
5159.2905246027
 30
0.0
 11
6152.3238567308
 21
5160.2373741873
 31
0.0
  0
LINE
  5
130
330
1F
100
AcDbEntity
  8
0
  6
Continuous
 62
     7
100
AcDbLine
 10
6152.3238567308
 20
5160.2373741873
 30
0.0
 11
6152.0816234544
 21
5161.3770149954
 31
0.0
  0
LINE
  5
131
330
1F
100
AcDbEntity
  8
0
  6
Continuous
 62
     7
100
AcDbLine
 10
6152.0816234544
 20
5161.3770149954
 30
0.0
 11
6151.8181709245
 21
5162.6171194323
 31
0.0
  0
LINE
  5
132
330
1F
100
AcDbEntity
  8
0
  6
Continuous
 62
     7
100
AcDbLine
 10
6148.784532924
 20
5162.7392195471
 30
0.0
 11
6148.7964538529
 21
5162.6833699949
 31
0.0
  0
LINE
  5
133
330
1F
100
AcDbEntity
  8
0
  6
Continuous
 62
     7
100
AcDbLine
 10
6148.7964538529
 20
5162.6833699949
 30
0.0
 11
6148.8300708726
 21
5162.5243448027
 31
0.0
  0
LINE
  5
134
330
1F
100
AcDbEntity
  8
0
  6
Continuous
 62
     7
100
AcDbLine
 10
6148.8300708726
 20
5162.5243448027
 30
0.0
 11
6148.8806156114
 21
5162.2863434561
 31
0.0
  0
LINE
  5
135
330
1F
100
AcDbEntity
  8
0
  6
Continuous
 62
     7
100
AcDbLine
 10
6148.8806156114
 20
5162.2863434561
 30
0.0
 11
6148.9404586747
 21
5162.0056055792
 31
0.0
  0
LINE
  5
136
330
1F
100
AcDbEntity
  8
0
  6
Continuous
 62
     7
100
AcDbLine
 10
6148.9404586747
 20
5162.0056055792
 30
0.0
 11
6149.0000633195
 21
5161.7248677023
 31
0.0
  0
LINE
  5
137
330
1F
100
AcDbEntity
  8
0
  6
Continuous
 62
     7
100
AcDbLine
 10
6149.0000633195
 20
5161.7248677023
 30
0.0
 11
6149.0506080583
 21
5161.4868663557
 31
0.0
  0
LINE
  5
138
330
1F
100
AcDbEntity
  8
0
  6
Continuous
 62
     7
100
AcDbLine
 10
6149.0506080583
 20
5161.4868663557
 30
0.0
 11
6149.0844634965
 21
5161.3278113611
 31
0.0
  0
LINE
  5
139
330
1F
100
AcDbEntity
  8
0
  6
Continuous
 62
     7
100
AcDbLine
 10
6149.0844634965
 20
5161.3278113611
 30
0.0
 11
6149.0963844255
 21
5161.2719916113
 31
0.0
  0
LINE
  5
13A
330
1F
100
AcDbEntity
  8
0
  6
Continuous
 62
     7
100
AcDbLine
 10
6100.8526233628
 20
5402.4541400679
 30
0.0
 11
6100.5891708329
 21
5403.6942743071
 31
0.0
  0
LINE
  5
13B
330
1F
100
AcDbEntity
  8
0
  6
Continuous
 62
     7
100
AcDbLine
 10
6100.5891708329
 20
5403.6942743071
 30
0.0
 11
6100.3469375566
 21
5404.8339151152
 31
0.0
  0
LINE
  5
13C
330
1F
100
AcDbEntity
  8
0
  6
Continuous
 62
     7
100
AcDbLine
 10
6100.3469375566
 20
5404.8339151152
 30
0.0
 11
6100.1457122758
 21
5405.7807348974
 31
0.0
  0
LINE
  5
13D
330
1F
100
AcDbEntity
  8
0
  6
Continuous
 62
     7
100
AcDbLine
 10
6100.1457122758
 20
5405.7807348974
 30
0.0
 11
6100.0019458726
 21
5406.4580820807
 31
0.0
  0
LINE
  5
13E
330
1F
100
AcDbEntity
  8
0
  6
Continuous
 62
     7
100
AcDbLine
 10
6100.0019458726
 20
5406.4580820807
 30
0.0
 11
6099.9268440202
 21
5406.811060787
 31
0.0
  0
LINE
  5
13F
330
1F
100
AcDbEntity
  8
0
  6
Continuous
 62
     7
100
AcDbLine
 10
6099.9268440202
 20
5406.811060787
 30
0.0
 11
6099.917307277
 21
5406.8558834799
 31
0.0
  0
LINE
  5
140
330
1F
100
AcDbEntity
  8
0
  6
Continuous
 62
     7
100
AcDbLine
 10
6101.7881778672
 20
5398.0524562605
 30
0.0
 11
6101.7786411241
 21
5398.0972193487
 31
0.0
  0
LINE
  5
141
330
1F
100
AcDbEntity
  8
0
  6
Continuous
 62
     7
100
AcDbLine
 10
6101.7786411241
 20
5398.0972193487
 30
0.0
 11
6101.7035392716
 21
5398.4501980551
 31
0.0
  0
LINE
  5
142
330
1F
100
AcDbEntity
  8
0
  6
Continuous
 62
     7
100
AcDbLine
 10
6101.7035392716
 20
5398.4501980551
 30
0.0
 11
6101.5595344499
 21
5399.1275452383
 31
0.0
  0
LINE
  5
143
330
1F
100
AcDbEntity
  8
0
  6
Continuous
 62
     7
100
AcDbLine
 10
6101.5595344499
 20
5399.1275452383
 30
0.0
 11
6101.3583091691
 21
5400.0744246252
 31
0.0
  0
LINE
  5
144
330
1F
100
AcDbEntity
  8
0
  6
Continuous
 62
     7
100
AcDbLine
 10
6101.3583091691
 20
5400.0744246252
 30
0.0
 11
6101.1163143113
 21
5401.2140654333
 31
0.0
  0
LINE
  5
145
330
1F
100
AcDbEntity
  8
0
  6
Continuous
 62
     7
100
AcDbLine
 10
6101.1163143113
 20
5401.2140654333
 30
0.0
 11
6100.8526233628
 21
5402.4541400679
 31
0.0
  0
LINE
  5
146
330
1F
100
AcDbEntity
  8
0
  6
Continuous
 62
     7
100
AcDbLine
 10
6097.8192237809
 20
5402.576269985
 30
0.0
 11
6097.8309062913
 21
5402.5204204329
 31
0.0
  0
LINE
  5
147
330
1F
100
AcDbEntity
  8
0
  6
Continuous
 62
     7
100
AcDbLine
 10
6097.8309062913
 20
5402.5204204329
 30
0.0
 11
6097.8647617295
 21
5402.3613952406
 31
0.0
  0
LINE
  5
148
330
1F
100
AcDbEntity
  8
0
  6
Continuous
 62
     7
100
AcDbLine
 10
6097.8647617295
 20
5402.3613952406
 30
0.0
 11
6097.9153064683
 21
5402.123393894
 31
0.0
  0
LINE
  5
149
330
1F
100
AcDbEntity
  8
0
  6
Continuous
 62
     7
100
AcDbLine
 10
6097.9153064683
 20
5402.123393894
 30
0.0
 11
6097.9749111131
 21
5401.8426560171
 31
0.0
  0
LINE
  5
14A
330
1F
100
AcDbEntity
  8
0
  6
Continuous
 62
     7
100
AcDbLine
 10
6097.9749111131
 20
5401.8426560171
 30
0.0
 11
6098.0347541764
 21
5401.5619181402
 31
0.0
  0
LINE
  5
14B
330
1F
100
AcDbEntity
  8
0
  6
Continuous
 62
     7
100
AcDbLine
 10
6098.0347541764
 20
5401.5619181402
 30
0.0
 11
6098.0852989152
 21
5401.3239167936
 31
0.0
  0
LINE
  5
14C
330
1F
100
AcDbEntity
  8
0
  6
Continuous
 62
     7
100
AcDbLine
 10
6098.0852989152
 20
5401.3239167936
 30
0.0
 11
6098.1191543534
 21
5401.1648916014
 31
0.0
  0
LINE
  5
14D
330
1F
100
AcDbEntity
  8
0
  6
Continuous
 62
     7
100
AcDbLine
 10
6098.1191543534
 20
5401.1648916014
 30
0.0
 11
6098.1308368638
 21
5401.1090420492
 31
0.0
  0
LINE
  5
14E
330
1F
100
AcDbEntity
  8
0
  6
Continuous
 62
     7
100
AcDbLine
 10
6396.9198612168
 20
5165.9133754976
 30
0.0
 11
6396.7219737962
 21
5164.9818741091
 31
0.0
  0
LINE
  5
14F
330
1F
100
AcDbEntity
  8
0
  6
Continuous
 62
     7
100
AcDbLine
 10
6396.7219737962
 20
5164.9818741091
 30
0.0
 11
6396.481886287
 21
5163.8520382651
 31
0.0
  0
LINE
  5
150
330
1F
100
AcDbEntity
  8
0
  6
Continuous
 62
     7
100
AcDbLine
 10
6396.481886287
 20
5163.8520382651
 30
0.0
 11
6396.2191490129
 21
5162.6154505022
 31
0.0
  0
LINE
  5
151
330
1F
100
AcDbEntity
  8
0
  6
Continuous
 62
     7
100
AcDbLine
 10
6396.2191490129
 20
5162.6154505022
 30
0.0
 11
6395.9549812272
 21
5161.3722466238
 31
0.0
  0
LINE
  5
152
330
1F
100
AcDbEntity
  8
0
  6
Continuous
 62
     7
100
AcDbLine
 10
6395.9549812272
 20
5161.3722466238
 30
0.0
 11
6395.7106021836
 21
5160.2231882818
 31
0.0
  0
LINE
  5
153
330
1F
100
AcDbEntity
  8
0
  6
Continuous
 62
     7
100
AcDbLine
 10
6395.7106021836
 20
5160.2231882818
 30
0.0
 11
6395.5062774613
 21
5159.2613183268
 31
0.0
  0
LINE
  5
154
330
1F
100
AcDbEntity
  8
0
  6
Continuous
 62
     7
100
AcDbLine
 10
6395.5062774613
 20
5159.2613183268
 30
0.0
 11
6395.3582195237
 21
5158.564599634
 31
0.0
  0
LINE
  5
155
330
1F
100
AcDbEntity
  8
0
  6
Continuous
 62
     7
100
AcDbLine
 10
6395.3582195237
 20
5158.564599634
 30
0.0
 11
6395.2785877183
 21
5158.1894479998
 31
0.0
  0
LINE
  5
156
330
1F
100
AcDbEntity
  8
0
  6
Continuous
 62
     7
100
AcDbLine
 10
6395.2785877183
 20
5158.1894479998
 30
0.0
 11
6395.2664283708
 21
5158.1323169478
 31
0.0
  0
LINE
  5
157
330
1F
100
AcDbEntity
  8
0
  6
Continuous
 62
     7
100
AcDbLine
 10
6397.1370605424
 20
5166.9357441672
 30
0.0
 11
6397.129907985
 21
5166.9017695196
 31
0.0
  0
LINE
  5
158
330
1F
100
AcDbEntity
  8
0
  6
Continuous
 62
     7
100
AcDbLine
 10
6397.129907985
 20
5166.9017695196
 30
0.0
 11
6397.0595745042
 21
5166.5711127527
 31
0.0
  0
LINE
  5
159
330
1F
100
AcDbEntity
  8
0
  6
Continuous
 62
     7
100
AcDbLine
 10
6397.0595745042
 20
5166.5711127527
 30
0.0
 11
6396.9198612168
 21
5165.9133754976
 31
0.0
  0
LINE
  5
15A
330
1F
100
AcDbEntity
  8
0
  6
Continuous
 62
     7
100
AcDbLine
 10
6398.9235309556
 20
5161.1889027365
 30
0.0
 11
6398.9242462113
 21
5161.1918531664
 31
0.0
  0
LINE
  5
15B
330
1F
100
AcDbEntity
  8
0
  6
Continuous
 62
     7
100
AcDbLine
 10
6398.9242462113
 20
5161.1918531664
 30
0.0
 11
6398.941412349
 21
5161.2726770647
 31
0.0
  0
LINE
  5
15C
330
1F
100
AcDbEntity
  8
0
  6
Continuous
 62
     7
100
AcDbLine
 10
6398.941412349
 20
5161.2726770647
 30
0.0
 11
6398.9795593217
 21
5161.4524446734
 31
0.0
  0
LINE
  5
15D
330
1F
100
AcDbEntity
  8
0
  6
Continuous
 62
     7
100
AcDbLine
 10
6398.9795593217
 20
5161.4524446734
 30
0.0
 11
6399.0329650834
 21
5161.7037378557
 31
0.0
  0
LINE
  5
15E
330
1F
100
AcDbEntity
  8
0
  6
Continuous
 62
     7
100
AcDbLine
 10
6399.0329650834
 20
5161.7037378557
 30
0.0
 11
6399.0935234025
 21
5161.9883798369
 31
0.0
  0
LINE
  5
15F
330
1F
100
AcDbEntity
  8
0
  6
Continuous
 62
     7
100
AcDbLine
 10
6399.0935234025
 20
5161.9883798369
 30
0.0
 11
6399.1519359544
 21
5162.2629784353
 31
0.0
  0
LINE
  5
160
330
1F
100
AcDbEntity
  8
0
  6
Continuous
 62
     7
100
AcDbLine
 10
6399.1519359544
 20
5162.2629784353
 30
0.0
 11
6399.199142833
 21
5162.4857209929
 31
0.0
  0
LINE
  5
161
330
1F
100
AcDbEntity
  8
0
  6
Continuous
 62
     7
100
AcDbLine
 10
6399.199142833
 20
5162.4857209929
 30
0.0
 11
6399.2282298997
 21
5162.6227520712
 31
0.0
  0
LINE
  5
162
330
1F
100
AcDbEntity
  8
0
  6
Continuous
 62
     7
100
AcDbLine
 10
6399.2282298997
 20
5162.6227520712
 30
0.0
 11
6399.2353824571
 21
5162.6561306723
 31
0.0
  0
LINE
  5
163
330
1F
100
AcDbEntity
  8
0
  6
Continuous
 62
     7
100
AcDbLine
 10
6447.9133037522
 20
5405.8823608168
 30
0.0
 11
6447.715177913
 21
5404.9505018004
 31
0.0
  0
LINE
  5
164
330
1F
100
AcDbEntity
  8
0
  6
Continuous
 62
     7
100
AcDbLine
 10
6447.715177913
 20
5404.9505018004
 30
0.0
 11
6447.4750904038
 21
5403.8204573401
 31
0.0
  0
LINE
  5
165
330
1F
100
AcDbEntity
  8
0
  6
Continuous
 62
     7
100
AcDbLine
 10
6447.4750904038
 20
5403.8204573401
 30
0.0
 11
6447.2123531297
 21
5402.5837801703
 31
0.0
  0
LINE
  5
166
330
1F
100
AcDbEntity
  8
0
  6
Continuous
 62
     7
100
AcDbLine
 10
6447.2123531297
 20
5402.5837801703
 30
0.0
 11
6446.948185344
 21
5401.3406656988
 31
0.0
  0
LINE
  5
167
330
1F
100
AcDbEntity
  8
0
  6
Continuous
 62
     7
100
AcDbLine
 10
6446.948185344
 20
5401.3406656988
 30
0.0
 11
6446.704044719
 21
5400.1917861708
 31
0.0
  0
LINE
  5
168
330
1F
100
AcDbEntity
  8
0
  6
Continuous
 62
     7
100
AcDbLine
 10
6446.704044719
 20
5400.1917861708
 30
0.0
 11
6446.4997199967
 21
5399.2302440413
 31
0.0
  0
LINE
  5
169
330
1F
100
AcDbEntity
  8
0
  6
Continuous
 62
     7
100
AcDbLine
 10
6446.4997199967
 20
5399.2302440413
 30
0.0
 11
6446.3516620591
 21
5398.533942581
 31
0.0
  0
LINE
  5
16A
330
1F
100
AcDbEntity
  8
0
  6
Continuous
 62
     7
100
AcDbLine
 10
6446.3516620591
 20
5398.533942581
 30
0.0
 11
6446.2720302537
 21
5398.1592677839
 31
0.0
  0
LINE
  5
16B
330
1F
100
AcDbEntity
  8
0
  6
Continuous
 62
     7
100
AcDbLine
 10
6446.2720302537
 20
5398.1592677839
 30
0.0
 11
6446.2601093247
 21
5398.1024049528
 31
0.0
  0
LINE
  5
16C
330
1F
100
AcDbEntity
  8
0
  6
Continuous
 62
     7
100
AcDbLine
 10
6448.1307414964
 20
5406.9058321722
 30
0.0
 11
6448.123588939
 21
5406.8716787108
 31
0.0
  0
LINE
  5
16D
330
1F
100
AcDbEntity
  8
0
  6
Continuous
 62
     7
100
AcDbLine
 10
6448.123588939
 20
5406.8716787108
 30
0.0
 11
6448.0532554582
 21
5406.5405153044
 31
0.0
  0
LINE
  5
16E
330
1F
100
AcDbEntity
  8
0
  6
Continuous
 62
     7
100
AcDbLine
 10
6448.0532554582
 20
5406.5405153044
 30
0.0
 11
6447.9133037522
 21
5405.8823608168
 31
0.0
  0
LINE
  5
16F
330
1F
100
AcDbEntity
  8
0
  6
Continuous
 62
     7
100
AcDbLine
 10
6449.9172119096
 20
5401.1589907416
 30
0.0
 11
6449.9179271653
 21
5401.1619113692
 31
0.0
  0
LINE
  5
170
330
1F
100
AcDbEntity
  8
0
  6
Continuous
 62
     7
100
AcDbLine
 10
6449.9179271653
 20
5401.1619113692
 30
0.0
 11
6449.935093303
 21
5401.2426160582
 31
0.0
  0
LINE
  5
171
330
1F
100
AcDbEntity
  8
0
  6
Continuous
 62
     7
100
AcDbLine
 10
6449.935093303
 20
5401.2426160582
 30
0.0
 11
6449.9732402757
 21
5401.4223240622
 31
0.0
  0
LINE
  5
172
330
1F
100
AcDbEntity
  8
0
  6
Continuous
 62
     7
100
AcDbLine
 10
6449.9732402757
 20
5401.4223240622
 30
0.0
 11
6450.0266460374
 21
5401.6735576399
 31
0.0
  0
LINE
  5
173
330
1F
100
AcDbEntity
  8
0
  6
Continuous
 62
     7
100
AcDbLine
 10
6450.0266460374
 20
5401.6735576399
 30
0.0
 11
6450.0869659379
 21
5401.9581698187
 31
0.0
  0
LINE
  5
174
330
1F
100
AcDbEntity
  8
0
  6
Continuous
 62
     7
100
AcDbLine
 10
6450.0869659379
 20
5401.9581698187
 30
0.0
 11
6450.1453784898
 21
5402.2328280218
 31
0.0
  0
LINE
  5
175
330
1F
100
AcDbEntity
  8
0
  6
Continuous
 62
     7
100
AcDbLine
 10
6450.1453784898
 20
5402.2328280218
 30
0.0
 11
6450.192823787
 21
5402.455630184
 31
0.0
  0
LINE
  5
176
330
1F
100
AcDbEntity
  8
0
  6
Continuous
 62
     7
100
AcDbLine
 10
6450.192823787
 20
5402.455630184
 30
0.0
 11
6450.2219108537
 21
5402.5927804716
 31
0.0
  0
LINE
  5
177
330
1F
100
AcDbEntity
  8
0
  6
Continuous
 62
     7
100
AcDbLine
 10
6450.2219108537
 20
5402.5927804716
 30
0.0
 11
6450.2290634111
 21
5402.6262186773
 31
0.0
  0
LINE
  5
178
330
1F
100
AcDbEntity
  8
0
  6
Continuous
 62
     7
100
AcDbLine
 10
6421.2488082841
 20
5280.4023050078
 30
0.0
 11
6421.0356620744
 21
5279.3999336966
 31
0.0
  0
LINE
  5
179
330
1F
100
AcDbEntity
  8
0
  6
Continuous
 62
     7
100
AcDbLine
 10
6421.0356620744
 20
5279.3999336966
 30
0.0
 11
6420.8763984635
 21
5278.649988056
 31
0.0
  0
LINE
  5
17A
330
1F
100
AcDbEntity
  8
0
  6
Continuous
 62
     7
100
AcDbLine
 10
6420.8763984635
 20
5278.649988056
 30
0.0
 11
6420.7836536363
 21
5278.2130860098
 31
0.0
  0
LINE
  5
17B
330
1F
100
AcDbEntity
  8
0
  6
Continuous
 62
     7
100
AcDbLine
 10
6420.7836536363
 20
5278.2130860098
 30
0.0
 11
6420.7624343827
 21
5278.1132482298
 31
0.0
  0
LINE
  5
17C
330
1F
100
AcDbEntity
  8
0
  6
Continuous
 62
     7
100
AcDbLine
 10
6422.6330665544
 20
5286.9166754492
 30
0.0
 11
6422.6306823686
 21
5286.9051717528
 31
0.0
  0
LINE
  5
17D
330
1F
100
AcDbEntity
  8
0
  6
Continuous
 62
     7
100
AcDbLine
 10
6422.6306823686
 20
5286.9051717528
 30
0.0
 11
6422.5739387467
 21
5286.6379045256
 31
0.0
  0
LINE
  5
17E
330
1F
100
AcDbEntity
  8
0
  6
Continuous
 62
     7
100
AcDbLine
 10
6422.5739387467
 20
5286.6379045256
 30
0.0
 11
6422.4461463883
 21
5286.0365532644
 31
0.0
  0
LINE
  5
17F
330
1F
100
AcDbEntity
  8
0
  6
Continuous
 62
     7
100
AcDbLine
 10
6422.4461463883
 20
5286.0365532644
 30
0.0
 11
6422.2575572923
 21
5285.1499341734
 31
0.0
  0
LINE
  5
180
330
1F
100
AcDbEntity
  8
0
  6
Continuous
 62
     7
100
AcDbLine
 10
6422.2575572923
 20
5285.1499341734
 30
0.0
 11
6422.0239070848
 21
5284.0498708494
 31
0.0
  0
LINE
  5
181
330
1F
100
AcDbEntity
  8
0
  6
Continuous
 62
     7
100
AcDbLine
 10
6422.0239070848
 20
5284.0498708494
 30
0.0
 11
6421.763792415
 21
5282.8254126318
 31
0.0
  0
LINE
  5
182
330
1F
100
AcDbEntity
  8
0
  6
Continuous
 62
     7
100
AcDbLine
 10
6421.763792415
 20
5282.8254126318
 30
0.0
 11
6421.4981941178
 21
5281.5758608587
 31
0.0
  0
LINE
  5
183
330
1F
100
AcDbEntity
  8
0
  6
Continuous
 62
     7
100
AcDbLine
 10
6421.4981941178
 20
5281.5758608587
 30
0.0
 11
6421.2488082841
 21
5280.4023050078
 31
0.0
  0
LINE
  5
184
330
1F
100
AcDbEntity
  8
0
  6
Continuous
 62
     7
100
AcDbLine
 10
6424.4195369676
 20
5281.1698340185
 30
0.0
 11
6424.4257358506
 21
5281.1993383177
 31
0.0
  0
LINE
  5
185
330
1F
100
AcDbEntity
  8
0
  6
Continuous
 62
     7
100
AcDbLine
 10
6424.4257358506
 20
5281.1993383177
 30
0.0
 11
6424.453869243
 21
5281.331839443
 31
0.0
  0
LINE
  5
186
330
1F
100
AcDbEntity
  8
0
  6
Continuous
 62
     7
100
AcDbLine
 10
6424.453869243
 20
5281.331839443
 30
0.0
 11
6424.5005992845
 21
5281.5513037451
 31
0.0
  0
LINE
  5
187
330
1F
100
AcDbEntity
  8
0
  6
Continuous
 62
     7
100
AcDbLine
 10
6424.5005992845
 20
5281.5513037451
 30
0.0
 11
6424.5585349992
 21
5281.8244122275
 31
0.0
  0
LINE
  5
188
330
1F
100
AcDbEntity
  8
0
  6
Continuous
 62
     7
100
AcDbLine
 10
6424.5585349992
 20
5281.8244122275
 30
0.0
 11
6424.6193317369
 21
5282.1095608481
 31
0.0
  0
LINE
  5
189
330
1F
100
AcDbEntity
  8
0
  6
Continuous
 62
     7
100
AcDbLine
 10
6424.6193317369
 20
5282.1095608481
 30
0.0
 11
6424.6732143357
 21
5282.3632978209
 31
0.0
  0
LINE
  5
18A
330
1F
100
AcDbEntity
  8
0
  6
Continuous
 62
     7
100
AcDbLine
 10
6424.6732143357
 20
5282.3632978209
 30
0.0
 11
6424.7120765641
 21
5282.5470589407
 31
0.0
  0
LINE
  5
18B
330
1F
100
AcDbEntity
  8
0
  6
Continuous
 62
     7
100
AcDbLine
 10
6424.7120765641
 20
5282.5470589407
 30
0.0
 11
6424.7304347947
 21
5282.6327704199
 31
0.0
  0
LINE
  5
18C
330
1F
100
AcDbEntity
  8
0
  6
Continuous
 62
     7
100
AcDbLine
 10
6424.7304347947
 20
5282.6327704199
 30
0.0
 11
6424.731388469
 21
5282.6370619543
 31
0.0
  0
LINE
  5
18D
330
1F
100
AcDbEntity
  8
0
  6
Continuous
 62
     7
100
AcDbLine
 10
6126.3018993333
 20
5282.6935671576
 30
0.0
 11
6126.0382083848
 21
5283.9336417921
 31
0.0
  0
LINE
  5
18E
330
1F
100
AcDbEntity
  8
0
  6
Continuous
 62
     7
100
AcDbLine
 10
6126.0382083848
 20
5283.9336417921
 30
0.0
 11
6125.796213527
 21
5285.0732826002
 31
0.0
  0
LINE
  5
18F
330
1F
100
AcDbEntity
  8
0
  6
Continuous
 62
     7
100
AcDbLine
 10
6125.796213527
 20
5285.0732826002
 30
0.0
 11
6125.5949882463
 21
5286.0201619871
 31
0.0
  0
LINE
  5
190
330
1F
100
AcDbEntity
  8
0
  6
Continuous
 62
     7
100
AcDbLine
 10
6125.5949882463
 20
5286.0201619871
 30
0.0
 11
6125.4509834245
 21
5286.6975091704
 31
0.0
  0
LINE
  5
191
330
1F
100
AcDbEntity
  8
0
  6
Continuous
 62
     7
100
AcDbLine
 10
6125.4509834245
 20
5286.6975091704
 30
0.0
 11
6125.3761199906
 21
5287.0504878767
 31
0.0
  0
LINE
  5
192
330
1F
100
AcDbEntity
  8
0
  6
Continuous
 62
     7
100
AcDbLine
 10
6125.3761199906
 20
5287.0504878767
 30
0.0
 11
6125.3665832475
 21
5287.0952509649
 31
0.0
  0
LINE
  5
193
330
1F
100
AcDbEntity
  8
0
  6
Continuous
 62
     7
100
AcDbLine
 10
6127.2372154191
 20
5278.2918237456
 30
0.0
 11
6127.2276786759
 21
5278.3366464384
 31
0.0
  0
LINE
  5
194
330
1F
100
AcDbEntity
  8
0
  6
Continuous
 62
     7
100
AcDbLine
 10
6127.2276786759
 20
5278.3366464384
 30
0.0
 11
6127.1525768235
 21
5278.6896251448
 31
0.0
  0
LINE
  5
195
330
1F
100
AcDbEntity
  8
0
  6
Continuous
 62
     7
100
AcDbLine
 10
6127.1525768235
 20
5278.6896251448
 30
0.0
 11
6127.0088104203
 21
5279.366972328
 31
0.0
  0
LINE
  5
196
330
1F
100
AcDbEntity
  8
0
  6
Continuous
 62
     7
100
AcDbLine
 10
6127.0088104203
 20
5279.366972328
 30
0.0
 11
6126.8075851396
 21
5280.3137921103
 31
0.0
  0
LINE
  5
197
330
1F
100
AcDbEntity
  8
0
  6
Continuous
 62
     7
100
AcDbLine
 10
6126.8075851396
 20
5280.3137921103
 30
0.0
 11
6126.5653518632
 21
5281.4534329184
 31
0.0
  0
LINE
  5
198
330
1F
100
AcDbEntity
  8
0
  6
Continuous
 62
     7
100
AcDbLine
 10
6126.5653518632
 20
5281.4534329184
 30
0.0
 11
6126.3018993333
 21
5282.6935671576
 31
0.0
  0
LINE
  5
199
330
1F
100
AcDbEntity
  8
0
  6
Continuous
 62
     7
100
AcDbLine
 10
6123.2682613328
 20
5282.8156374701
 30
0.0
 11
6123.2801822618
 21
5282.7597879179
 31
0.0
  0
LINE
  5
19A
330
1F
100
AcDbEntity
  8
0
  6
Continuous
 62
     7
100
AcDbLine
 10
6123.2801822618
 20
5282.7597879179
 30
0.0
 11
6123.3137992814
 21
5282.6007627257
 31
0.0
  0
LINE
  5
19B
330
1F
100
AcDbEntity
  8
0
  6
Continuous
 62
     7
100
AcDbLine
 10
6123.3137992814
 20
5282.6007627257
 30
0.0
 11
6123.3645824388
 21
5282.3627613791
 31
0.0
  0
LINE
  5
19C
330
1F
100
AcDbEntity
  8
0
  6
Continuous
 62
     7
100
AcDbLine
 10
6123.3645824388
 20
5282.3627613791
 30
0.0
 11
6123.4241870835
 21
5282.0820235022
 31
0.0
  0
LINE
  5
19D
330
1F
100
AcDbEntity
  8
0
  6
Continuous
 62
     7
100
AcDbLine
 10
6123.4241870835
 20
5282.0820235022
 30
0.0
 11
6123.4837917283
 21
5281.8012856253
 31
0.0
  0
LINE
  5
19E
330
1F
100
AcDbEntity
  8
0
  6
Continuous
 62
     7
100
AcDbLine
 10
6123.4837917283
 20
5281.8012856253
 30
0.0
 11
6123.5343364671
 21
5281.5632842787
 31
0.0
  0
LINE
  5
19F
330
1F
100
AcDbEntity
  8
0
  6
Continuous
 62
     7
100
AcDbLine
 10
6123.5343364671
 20
5281.5632842787
 30
0.0
 11
6123.5681919053
 21
5281.4042590864
 31
0.0
  0
LINE
  5
1A0
330
1F
100
AcDbEntity
  8
0
  6
Continuous
 62
     7
100
AcDbLine
 10
6123.5681919053
 20
5281.4042590864
 30
0.0
 11
6123.5801128343
 21
5281.3484095343
 31
0.0
  0
LINE
  5
1A1
330
1F
100
AcDbEntity
  8
0
  6
Continuous
 62
     7
100
AcDbLine
 10
6149.7215179399
 20
5160.5607293852
 30
0.0
 11
6149.8760131791
 21
5160.5935417422
 31
0.0
  0
LINE
  5
1A2
330
1F
100
AcDbEntity
  8
0
  6
Continuous
 62
     7
100
AcDbLine
 10
6149.0663436845
 20
5163.6432431944
 30
0.0
 11
6149.2198852494
 21
5163.6758767374
 31
0.0
  0
LINE
  5
1A3
330
1F
100
AcDbEntity
  8
0
  6
Continuous
 62
     7
100
AcDbLine
 10
6148.9855197862
 20
5163.5446273096
 30
0.0
 11
6149.2821124986
 21
5163.6076294192
 31
0.0
  0
LINE
  5
1A4
330
1F
100
AcDbEntity
  8
0
  6
Continuous
 62
     7
100
AcDbLine
 10
6149.9062923387
 20
5160.6814287909
 30
0.0
 11
6149.6073154405
 21
5160.6179200419
 31
0.0
  0
LINE
  5
1A5
330
1F
100
AcDbEntity
  8
0
  6
Continuous
 62
     7
100
AcDbLine
 10
6098.7562087968
 20
5400.3977798231
 30
0.0
 11
6098.9104656175
 21
5400.4305623778
 31
0.0
  0
LINE
  5
1A6
330
1F
100
AcDbEntity
  8
0
  6
Continuous
 62
     7
100
AcDbLine
 10
6098.1010345414
 20
5403.4802936323
 30
0.0
 11
6098.2545761064
 21
5403.512897373
 31
0.0
  0
LINE
  5
1A7
330
1F
100
AcDbEntity
  8
0
  6
Continuous
 62
     7
100
AcDbLine
 10
6098.9409831956
 20
5400.5184792288
 30
0.0
 11
6098.6420062974
 21
5400.4549406775
 31
0.0
  0
LINE
  5
1A8
330
1F
100
AcDbEntity
  8
0
  6
Continuous
 62
     7
100
AcDbLine
 10
6098.0202106431
 20
5403.3816479452
 30
0.0
 11
6098.3168033555
 21
5403.4447096594
 31
0.0
  0
LINE
  5
1A9
330
1F
100
AcDbEntity
  8
0
  6
Continuous
 62
     7
100
AcDbLine
 10
6398.8942054704
 20
5163.2819198378
 30
0.0
 11
6398.8341239884
 21
5163.2947348364
 31
0.0
  0
LINE
  5
1AA
330
1F
100
AcDbEntity
  8
0
  6
Continuous
 62
     7
100
AcDbLine
 10
6398.2488063768
 20
5160.2448247679
 30
0.0
 11
6398.0413822129
 21
5160.2889024027
 31
0.0
  0
LINE
  5
1AB
330
1F
100
AcDbEntity
  8
0
  6
Continuous
 62
     7
100
AcDbLine
 10
6398.7523464158
 20
5163.2710121878
 30
0.0
 11
6398.983374019
 21
5163.2218681582
 31
0.0
  0
LINE
  5
1AC
330
1F
100
AcDbEntity
  8
0
  6
Continuous
 62
     7
100
AcDbLine
 10
6398.3706382707
 20
5160.3383146532
 30
0.0
 11
6398.0454353288
 21
5160.4074262388
 31
0.0
  0
LINE
  5
1AD
330
1F
100
AcDbEntity
  8
0
  6
Continuous
 62
     7
100
AcDbLine
 10
6399.0794567063
 20
5164.1533099421
 30
0.0
 11
6398.9905265763
 21
5164.1722046145
 31
0.0
  0
LINE
  5
1AE
330
1F
100
AcDbEntity
  8
0
  6
Continuous
 62
     7
100
AcDbLine
 10
6399.0405944779
 20
5163.933756233
 30
0.0
 11
6399.1307167008
 21
5163.9146231421
 31
0.0
  0
LINE
  5
1AF
330
1F
100
AcDbEntity
  8
0
  6
Continuous
 62
     7
100
AcDbLine
 10
6398.8109973863
 20
5162.8902875193
 30
0.0
 11
6398.5814002946
 21
5162.9390441187
 31
0.0
  0
LINE
  5
1B0
330
1F
100
AcDbEntity
  8
0
  6
Continuous
 62
     7
100
AcDbLine
 10
6449.8878864244
 20
5403.2513521918
 30
0.0
 11
6449.8278049424
 21
5403.2641075857
 31
0.0
  0
LINE
  5
1B1
330
1F
100
AcDbEntity
  8
0
  6
Continuous
 62
     7
100
AcDbLine
 10
6449.2424873307
 20
5400.2144359358
 30
0.0
 11
6449.0348247483
 21
5400.2585433729
 31
0.0
  0
LINE
  5
1B2
330
1F
100
AcDbEntity
  8
0
  6
Continuous
 62
     7
100
AcDbLine
 10
6449.7460273698
 20
5403.2404445418
 30
0.0
 11
6449.9770549729
 21
5403.1913899191
 31
0.0
  0
LINE
  5
1B3
330
1F
100
AcDbEntity
  8
0
  6
Continuous
 62
     7
100
AcDbLine
 10
6449.3643192246
 20
5400.3080152281
 30
0.0
 11
6449.0391162828
 21
5400.3770970114
 31
0.0
  0
LINE
  5
1B4
330
1F
100
AcDbEntity
  8
0
  6
Continuous
 62
     7
100
AcDbLine
 10
6450.0731376603
 20
5404.1234873541
 30
0.0
 11
6449.9839691117
 21
5404.1424416311
 31
0.0
  0
LINE
  5
1B5
330
1F
100
AcDbEntity
  8
0
  6
Continuous
 62
     7
100
AcDbLine
 10
6450.0340370133
 20
5403.904023052
 30
0.0
 11
6450.1243976548
 21
5403.8848303564
 31
0.0
  0
LINE
  5
1B6
330
1F
100
AcDbEntity
  8
0
  6
Continuous
 62
     7
100
AcDbLine
 10
6449.8049167588
 20
5402.861180187
 30
0.0
 11
6449.5750812486
 21
5402.9099963911
 31
0.0
  0
LINE
  5
1B7
330
1F
100
AcDbEntity
  8
0
  6
Continuous
 62
     7
100
AcDbLine
 10
6423.6821083024
 20
5279.9307130583
 30
0.0
 11
6423.4646705583
 21
5279.9769662626
 31
0.0
  0
LINE
  5
1B8
330
1F
100
AcDbEntity
  8
0
  6
Continuous
 62
     7
100
AcDbLine
 10
6424.5666412309
 20
5284.0929650076
 30
0.0
 11
6424.3587402299
 21
5284.1371320494
 31
0.0
  0
LINE
  5
1B9
330
1F
100
AcDbEntity
  8
0
  6
Continuous
 62
     7
100
AcDbLine
 10
6423.816576381
 20
5280.0834201582
 30
0.0
 11
6423.5447792008
 21
5280.141177059
 31
0.0
  0
LINE
  5
1BA
330
1F
100
AcDbEntity
  8
0
  6
Continuous
 62
     7
100
AcDbLine
 10
6424.3728069261
 20
5283.9456819304
 30
0.0
 11
6424.6257690385
 21
5283.8919185408
 31
0.0
  0
LINE
  5
1BB
330
1F
100
AcDbEntity
  8
0
  6
Continuous
 62
     7
100
AcDbLine
 10
6423.9412692979
 20
5280.6708835371
 30
0.0
 11
6423.9126590684
 21
5280.6769632109
 31
0.0
  0
LINE
  5
1BC
330
1F
100
AcDbEntity
  8
0
  6
Continuous
 62
     7
100
AcDbLine
 10
6124.2052463486
 20
5280.6371473082
 30
0.0
 11
6124.3597415879
 21
5280.6699894674
 31
0.0
  0
LINE
  5
1BD
330
1F
100
AcDbEntity
  8
0
  6
Continuous
 62
     7
100
AcDbLine
 10
6123.5503105119
 20
5283.7196611174
 30
0.0
 11
6123.7036136582
 21
5283.7523244627
 31
0.0
  0
LINE
  5
1BE
330
1F
100
AcDbEntity
  8
0
  6
Continuous
 62
     7
100
AcDbLine
 10
6123.469248195
 20
5283.6210750349
 30
0.0
 11
6123.7658409074
 21
5283.6840771444
 31
0.0
  0
LINE
  5
1BF
330
1F
100
AcDbEntity
  8
0
  6
Continuous
 62
     7
100
AcDbLine
 10
6124.3900207475
 20
5280.7578467138
 30
0.0
 11
6124.0910438493
 21
5280.6943677672
 31
0.0
  0
LINE
  5
1C0
330
1F
100
AcDbEntity
  8
0
  6
Continuous
 62
     7
100
AcDbLine
 10
7440.0464999485
 20
5030.6614806862
 30
0.0
 11
7524.53316329
 21
5428.2457699986
 31
0.0
  0
LINE
  5
1C1
330
1F
100
AcDbEntity
  8
0
  6
Continuous
 62
     7
100
AcDbLine
 10
7018.4484529304
 20
5156.2591364594
 30
0.0
 11
7018.4484529304
 21
5155.6476226063
 31
0.0
  0
LINE
  5
1C2
330
1F
100
AcDbEntity
  8
0
  6
Continuous
 62
     7
100
AcDbLine
 10
7019.9484485197
 20
5155.6476226063
 30
0.0
 11
7019.9484485197
 21
5156.2591364594
 31
0.0
  0
LINE
  5
1C3
330
1F
100
AcDbEntity
  8
0
  6
Continuous
 62
     7
100
AcDbLine
 10
7017.4270677376
 20
5155.7054093094
 30
0.0
 11
7017.4270677376
 21
5156.2591364594
 31
0.0
  0
LINE
  5
1C4
330
1F
100
AcDbEntity
  8
0
  6
Continuous
 62
     7
100
AcDbLine
 10
7020.9698188114
 20
5156.2591364594
 30
0.0
 11
7020.9698188114
 21
5155.7054093094
 31
0.0
  0
LINE
  5
1C5
330
1F
100
AcDbEntity
  8
0
  6
Continuous
 62
     7
100
AcDbLine
 10
7023.6984449434
 20
5156.2591364594
 30
0.0
 11
7023.6984449434
 21
5156.3630571576
 31
0.0
  0
LINE
  5
1C6
330
1F
100
AcDbEntity
  8
0
  6
Continuous
 62
     7
100
AcDbLine
 10
7014.6984490561
 20
5156.3630571576
 30
0.0
 11
7014.6984490561
 21
5156.2591364594
 31
0.0
  0
LINE
  5
1C7
330
1F
100
AcDbEntity
  8
0
  6
Continuous
 62
     7
100
AcDbLine
 10
7018.5527312565
 20
5396.096157095
 30
0.0
 11
7018.5527312565
 21
5395.4846730442
 31
0.0
  0
LINE
  5
1C8
330
1F
100
AcDbEntity
  8
0
  6
Continuous
 62
     7
100
AcDbLine
 10
7020.0527268457
 20
5395.4846730442
 30
0.0
 11
7020.0527268457
 21
5396.096157095
 31
0.0
  0
LINE
  5
1C9
330
1F
100
AcDbEntity
  8
0
  6
Continuous
 62
     7
100
AcDbLine
 10
7017.5313535142
 20
5395.542429945
 30
0.0
 11
7017.5313535142
 21
5396.096157095
 31
0.0
  0
LINE
  5
1CA
330
1F
100
AcDbEntity
  8
0
  6
Continuous
 62
     7
100
AcDbLine
 10
7021.0740971374
 20
5396.096157095
 30
0.0
 11
7021.0740971374
 21
5395.542429945
 31
0.0
  0
LINE
  5
1CB
330
1F
100
AcDbEntity
  8
0
  6
Continuous
 62
     7
100
AcDbLine
 10
7023.8027232695
 20
5396.096157095
 30
0.0
 11
7023.8027232695
 21
5396.2001075955
 31
0.0
  0
LINE
  5
1CC
330
1F
100
AcDbEntity
  8
0
  6
Continuous
 62
     7
100
AcDbLine
 10
7014.8027273822
 20
5396.2001075955
 30
0.0
 11
7014.8027273822
 21
5396.096157095
 31
0.0
  0
LINE
  5
1CD
330
1F
100
AcDbEntity
  8
0
  6
Continuous
 62
     7
100
AcDbLine
 10
7018.6505573797
 20
5276.3355841847
 30
0.0
 11
7018.6505573797
 21
5275.7240405293
 31
0.0
  0
LINE
  5
1CE
330
1F
100
AcDbEntity
  8
0
  6
Continuous
 62
     7
100
AcDbLine
 10
7020.150552969
 20
5275.7240405293
 30
0.0
 11
7020.150552969
 21
5276.3355841847
 31
0.0
  0
LINE
  5
1CF
330
1F
100
AcDbEntity
  8
0
  6
Continuous
 62
     7
100
AcDbLine
 10
7017.6291721868
 20
5275.7818570347
 30
0.0
 11
7017.6291721868
 21
5276.3355841847
 31
0.0
  0
LINE
  5
1D0
330
1F
100
AcDbEntity
  8
0
  6
Continuous
 62
     7
100
AcDbLine
 10
7021.1719232607
 20
5276.3355841847
 30
0.0
 11
7021.1719232607
 21
5275.7818570347
 31
0.0
  0
LINE
  5
1D1
330
1F
100
AcDbEntity
  8
0
  6
Continuous
 62
     7
100
AcDbLine
 10
7023.9005493927
 20
5276.3355841847
 30
0.0
 11
7023.9005493927
 21
5276.4394750805
 31
0.0
  0
LINE
  5
1D2
330
1F
100
AcDbEntity
  8
0
  6
Continuous
 62
     7
100
AcDbLine
 10
7014.9005535054
 20
5276.4394750805
 30
0.0
 11
7014.9005535054
 21
5276.3355841847
 31
0.0
  0
LINE
  5
1D3
330
1F
100
AcDbEntity
  8
0
  6
Continuous
 62
     7
100
AcDbLine
 10
6995.0465071011
 20
5430.6614866467
 30
0.0
 11
7345.0465011406
 21
5430.6614866467
 31
0.0
  0
LINE
  5
1D4
330
1F
100
AcDbEntity
  8
0
  6
Continuous
 62
     7
100
AcDbLine
 10
7345.0465011406
 20
5430.6614866467
 30
0.0
 11
7345.0465011406
 21
5428.2457699986
 31
0.0
  0
LINE
  5
1D5
330
1F
100
AcDbEntity
  8
0
  6
Continuous
 62
     7
100
AcDbLine
 10
7345.0465011406
 20
5428.2457699986
 30
0.0
 11
6995.0465071011
 21
5428.2457699986
 31
0.0
  0
LINE
  5
1D6
330
1F
100
AcDbEntity
  8
0
  6
Continuous
 62
     7
100
AcDbLine
 10
6995.0465071011
 20
5428.2457699986
 30
0.0
 11
6995.0465071011
 21
5430.6614866467
 31
0.0
  0
LINE
  5
1D7
330
1F
100
AcDbEntity
  8
0
  6
Continuous
 62
     7
100
AcDbLine
 10
7345.0465011406
 20
5430.6614866467
 30
0.0
 11
7522.5768792438
 21
5430.6614866467
 31
0.0
  0
LINE
  5
1D8
330
1F
100
AcDbEntity
  8
0
  6
Continuous
 62
     7
100
AcDbLine
 10
6995.0465071011
 20
5030.6614806862
 30
0.0
 11
7345.0465011406
 21
5030.6614806862
 31
0.0
  0
LINE
  5
1D9
330
1F
100
AcDbEntity
  8
0
  6
Continuous
 62
     7
100
AcDbLine
 10
7345.0465011406
 20
5030.6614806862
 30
0.0
 11
7345.0465011406
 21
5428.2457699986
 31
0.0
  0
LINE
  5
1DA
330
1F
100
AcDbEntity
  8
0
  6
Continuous
 62
     7
100
AcDbLine
 10
6995.0465071011
 20
5030.6614806862
 30
0.0
 11
6995.0465071011
 21
5428.2457699986
 31
0.0
  0
LINE
  5
1DB
330
1F
100
AcDbEntity
  8
0
  6
Continuous
 62
     7
100
AcDbLine
 10
7345.0465011406
 20
5030.6614806862
 30
0.0
 11
7440.0464999485
 21
5030.6614806862
 31
0.0
  0
LINE
  5
1DC
330
1F
100
AcDbEntity
  8
0
  6
Continuous
 62
     7
100
AcDbLine
 10
7023.6984449434
 20
5156.2591364594
 30
0.0
 11
7023.5161590385
 21
5157.4992408963
 31
0.0
  0
LINE
  5
1DD
330
1F
100
AcDbEntity
  8
0
  6
Continuous
 62
     7
100
AcDbLine
 10
7023.5161590385
 20
5157.4992408963
 30
0.0
 11
7022.9840832758
 21
5158.6388817044
 31
0.0
  0
LINE
  5
1DE
330
1F
100
AcDbEntity
  8
0
  6
Continuous
 62
     7
100
AcDbLine
 10
7022.9840832758
 20
5158.6388817044
 30
0.0
 11
7022.1453267145
 21
5159.5857312889
 31
0.0
  0
LINE
  5
1DF
330
1F
100
AcDbEntity
  8
0
  6
Continuous
 62
     7
100
AcDbLine
 10
7022.1453267145
 20
5159.5857312889
 30
0.0
 11
7021.0678088474
 21
5160.2630784722
 31
0.0
  0
LINE
  5
1E0
330
1F
100
AcDbEntity
  8
0
  6
Continuous
 62
     7
100
AcDbLine
 10
7021.0678088474
 20
5160.2630784722
 30
0.0
 11
7019.8388653803
 21
5160.6160571785
 31
0.0
  0
LINE
  5
1E1
330
1F
100
AcDbEntity
  8
0
  6
Continuous
 62
     7
100
AcDbLine
 10
7019.8388653803
 20
5160.6160571785
 30
0.0
 11
7018.5580360699
 21
5160.6160571785
 31
0.0
  0
LINE
  5
1E2
330
1F
100
AcDbEntity
  8
0
  6
Continuous
 62
     7
100
AcDbLine
 10
7018.5580360699
 20
5160.6160571785
 30
0.0
 11
7017.3290777016
 21
5160.2630784722
 31
0.0
  0
LINE
  5
1E3
330
1F
100
AcDbEntity
  8
0
  6
Continuous
 62
     7
100
AcDbLine
 10
7017.3290777016
 20
5160.2630784722
 30
0.0
 11
7016.2515747356
 21
5159.5857312889
 31
0.0
  0
LINE
  5
1E4
330
1F
100
AcDbEntity
  8
0
  6
Continuous
 62
     7
100
AcDbLine
 10
7016.2515747356
 20
5159.5857312889
 30
0.0
 11
7015.4128032732
 21
5158.6388817044
 31
0.0
  0
LINE
  5
1E5
330
1F
100
AcDbEntity
  8
0
  6
Continuous
 62
     7
100
AcDbLine
 10
7015.4128032732
 20
5158.6388817044
 30
0.0
 11
7014.8807275104
 21
5157.4992408963
 31
0.0
  0
LINE
  5
1E6
330
1F
100
AcDbEntity
  8
0
  6
Continuous
 62
     7
100
AcDbLine
 10
7014.8807275104
 20
5157.4992408963
 30
0.0
 11
7014.6984490561
 21
5156.2591364594
 31
0.0
  0
LINE
  5
1E7
330
1F
100
AcDbEntity
  8
0
  6
Continuous
 62
     7
100
AcDbLine
 10
7014.6984490561
 20
5156.2591364594
 30
0.0
 11
7014.8807275104
 21
5155.0190320225
 31
0.0
  0
LINE
  5
1E8
330
1F
100
AcDbEntity
  8
0
  6
Continuous
 62
     7
100
AcDbLine
 10
7014.8807275104
 20
5155.0190320225
 30
0.0
 11
7015.4128032732
 21
5153.8793912144
 31
0.0
  0
LINE
  5
1E9
330
1F
100
AcDbEntity
  8
0
  6
Continuous
 62
     7
100
AcDbLine
 10
7015.4128032732
 20
5153.8793912144
 30
0.0
 11
7016.2515747356
 21
5152.9325416298
 31
0.0
  0
LINE
  5
1EA
330
1F
100
AcDbEntity
  8
0
  6
Continuous
 62
     7
100
AcDbLine
 10
7016.2515747356
 20
5152.9325416298
 30
0.0
 11
7017.3290777016
 21
5152.2551944466
 31
0.0
  0
LINE
  5
1EB
330
1F
100
AcDbEntity
  8
0
  6
Continuous
 62
     7
100
AcDbLine
 10
7017.3290777016
 20
5152.2551944466
 30
0.0
 11
7018.5580360699
 21
5151.9022157402
 31
0.0
  0
LINE
  5
1EC
330
1F
100
AcDbEntity
  8
0
  6
Continuous
 62
     7
100
AcDbLine
 10
7018.5580360699
 20
5151.9022157402
 30
0.0
 11
7019.8388653803
 21
5151.9022157402
 31
0.0
  0
LINE
  5
1ED
330
1F
100
AcDbEntity
  8
0
  6
Continuous
 62
     7
100
AcDbLine
 10
7019.8388653803
 20
5151.9022157402
 30
0.0
 11
7021.0678088474
 21
5152.2551944466
 31
0.0
  0
LINE
  5
1EE
330
1F
100
AcDbEntity
  8
0
  6
Continuous
 62
     7
100
AcDbLine
 10
7021.0678088474
 20
5152.2551944466
 30
0.0
 11
7022.1453267145
 21
5152.9325416298
 31
0.0
  0
LINE
  5
1EF
330
1F
100
AcDbEntity
  8
0
  6
Continuous
 62
     7
100
AcDbLine
 10
7022.1453267145
 20
5152.9325416298
 30
0.0
 11
7022.9840832758
 21
5153.8793912144
 31
0.0
  0
LINE
  5
1F0
330
1F
100
AcDbEntity
  8
0
  6
Continuous
 62
     7
100
AcDbLine
 10
7022.9840832758
 20
5153.8793912144
 30
0.0
 11
7023.5161590385
 21
5155.0190320225
 31
0.0
  0
LINE
  5
1F1
330
1F
100
AcDbEntity
  8
0
  6
Continuous
 62
     7
100
AcDbLine
 10
7023.5161590385
 20
5155.0190320225
 30
0.0
 11
7023.6984449434
 21
5156.2591364594
 31
0.0
  0
LINE
  5
1F2
330
1F
100
AcDbEntity
  8
0
  6
Continuous
 62
     7
100
AcDbLine
 10
7017.0703115869
 20
5156.782137415
 30
0.0
 11
7016.9355827379
 21
5156.9411924096
 31
0.0
  0
LINE
  5
1F3
330
1F
100
AcDbEntity
  8
0
  6
Continuous
 62
     7
100
AcDbLine
 10
7016.9355827379
 20
5156.9411924096
 30
0.0
 11
7016.9060113835
 21
5156.9989493103
 31
0.0
  0
LINE
  5
1F4
330
1F
100
AcDbEntity
  8
0
  6
Continuous
 62
     7
100
AcDbLine
 10
7017.0703115869
 20
5156.2670042725
 30
0.0
 11
7017.0703115869
 21
5156.782137415
 31
0.0
  0
LINE
  5
1F5
330
1F
100
AcDbEntity
  8
0
  6
Continuous
 62
     7
100
AcDbLine
 10
7021.3265824127
 20
5156.2670042725
 30
0.0
 11
7021.3265824127
 21
5156.782137415
 31
0.0
  0
LINE
  5
1F6
330
1F
100
AcDbEntity
  8
0
  6
Continuous
 62
     7
100
AcDbLine
 10
7017.2511669803
 20
5156.0957005234
 30
0.0
 11
7017.2511669803
 21
5156.6315462799
 31
0.0
  0
LINE
  5
1F7
330
1F
100
AcDbEntity
  8
0
  6
Continuous
 62
     7
100
AcDbLine
 10
7021.1457270193
 20
5156.6315462799
 30
0.0
 11
7021.1457270193
 21
5156.0957005234
 31
0.0
  0
LINE
  5
1F8
330
1F
100
AcDbEntity
  8
0
  6
Continuous
 62
     7
100
AcDbLine
 10
7021.3265824127
 20
5156.782137415
 30
0.0
 11
7021.1457270193
 21
5156.6315462799
 31
0.0
  0
LINE
  5
1F9
330
1F
100
AcDbEntity
  8
0
  6
Continuous
 62
     7
100
AcDbLine
 10
7017.2511669803
 20
5156.6315462799
 30
0.0
 11
7017.0703115869
 21
5156.782137415
 31
0.0
  0
LINE
  5
1FA
330
1F
100
AcDbEntity
  8
0
  6
Continuous
 62
     7
100
AcDbLine
 10
7020.7255738783
 20
5154.2027464123
 30
0.0
 11
7020.7255738783
 21
5154.7178795548
 31
0.0
  0
LINE
  5
1FB
330
1F
100
AcDbEntity
  8
0
  6
Continuous
 62
     7
100
AcDbLine
 10
7017.6713201213
 20
5154.2027464123
 30
0.0
 11
7017.6713201213
 21
5154.7178795548
 31
0.0
  0
LINE
  5
1FC
330
1F
100
AcDbEntity
  8
0
  6
Continuous
 62
     7
100
AcDbLine
 10
7019.842352252
 20
5153.8874974461
 30
0.0
 11
7019.842352252
 21
5154.423373005
 31
0.0
  0
LINE
  5
1FD
330
1F
100
AcDbEntity
  8
0
  6
Continuous
 62
     7
100
AcDbLine
 10
7020.5018180418
 20
5154.7957828255
 30
0.0
 11
7020.5018180418
 21
5154.259937069
 31
0.0
  0
LINE
  5
1FE
330
1F
100
AcDbEntity
  8
0
  6
Continuous
 62
     7
100
AcDbLine
 10
7017.8950759578
 20
5154.259937069
 30
0.0
 11
7017.8950759578
 21
5154.7957828255
 31
0.0
  0
LINE
  5
1FF
330
1F
100
AcDbEntity
  8
0
  6
Continuous
 62
     7
100
AcDbLine
 10
7018.554534297
 20
5154.423373005
 30
0.0
 11
7018.554534297
 21
5153.8874974461
 31
0.0
  0
LINE
  5
200
330
1F
100
AcDbEntity
  8
0
  6
Continuous
 62
     7
100
AcDbLine
 10
7020.7255738783
 20
5154.7178795548
 30
0.0
 11
7020.5018180418
 21
5154.7957828255
 31
0.0
  0
LINE
  5
201
330
1F
100
AcDbEntity
  8
0
  6
Continuous
 62
     7
100
AcDbLine
 10
7017.8950759578
 20
5154.7957828255
 30
0.0
 11
7017.6713201213
 21
5154.7178795548
 31
0.0
  0
LINE
  5
202
330
1F
100
AcDbEntity
  8
0
  6
Continuous
 62
     7
100
AcDbLine
 10
7018.59743474
 20
5153.6797454568
 30
0.0
 11
7018.5974347401
 21
5154.1948487969
 31
0.0
  0
LINE
  5
203
330
1F
100
AcDbEntity
  8
0
  6
Continuous
 62
     7
100
AcDbLine
 10
7018.5974347401
 20
5154.1948487969
 30
0.0
 11
7018.554534297
 21
5154.423373005
 31
0.0
  0
LINE
  5
204
330
1F
100
AcDbEntity
  8
0
  6
Continuous
 62
     7
100
AcDbLine
 10
7019.7994667101
 20
5153.6797454567
 30
0.0
 11
7019.7994667101
 21
5154.1948487969
 31
0.0
  0
LINE
  5
205
330
1F
100
AcDbEntity
  8
0
  6
Continuous
 62
     7
100
AcDbLine
 10
7019.842352252
 20
5154.423373005
 30
0.0
 11
7019.7994667101
 21
5154.1948487969
 31
0.0
  0
LINE
  5
206
330
1F
100
AcDbEntity
  8
0
  6
Continuous
 62
     7
100
AcDbLine
 10
7023.8027232695
 20
5396.096157095
 30
0.0
 11
7023.6204522657
 21
5397.3362913342
 31
0.0
  0
LINE
  5
207
330
1F
100
AcDbEntity
  8
0
  6
Continuous
 62
     7
100
AcDbLine
 10
7023.6204522657
 20
5397.3362913342
 30
0.0
 11
7023.088376503
 21
5398.4759321423
 31
0.0
  0
LINE
  5
208
330
1F
100
AcDbEntity
  8
0
  6
Continuous
 62
     7
100
AcDbLine
 10
7023.088376503
 20
5398.4759321423
 30
0.0
 11
7022.2496050405
 21
5399.4227519246
 31
0.0
  0
LINE
  5
209
330
1F
100
AcDbEntity
  8
0
  6
Continuous
 62
     7
100
AcDbLine
 10
7022.2496050405
 20
5399.4227519246
 30
0.0
 11
7021.1721020746
 21
5400.1000991078
 31
0.0
  0
LINE
  5
20A
330
1F
100
AcDbEntity
  8
0
  6
Continuous
 62
     7
100
AcDbLine
 10
7021.1721020746
 20
5400.1000991078
 30
0.0
 11
7019.9431437063
 21
5400.4530778141
 31
0.0
  0
LINE
  5
20B
330
1F
100
AcDbEntity
  8
0
  6
Continuous
 62
     7
100
AcDbLine
 10
7019.9431437063
 20
5400.4530778141
 30
0.0
 11
7018.6623143959
 21
5400.4530778141
 31
0.0
  0
LINE
  5
20C
330
1F
100
AcDbEntity
  8
0
  6
Continuous
 62
     7
100
AcDbLine
 10
7018.6623143959
 20
5400.4530778141
 30
0.0
 11
7017.4333634782
 21
5400.1000991078
 31
0.0
  0
LINE
  5
20D
330
1F
100
AcDbEntity
  8
0
  6
Continuous
 62
     7
100
AcDbLine
 10
7017.4333634782
 20
5400.1000991078
 30
0.0
 11
7016.3558530617
 21
5399.4227519246
 31
0.0
  0
LINE
  5
20E
330
1F
100
AcDbEntity
  8
0
  6
Continuous
 62
     7
100
AcDbLine
 10
7016.3558530617
 20
5399.4227519246
 30
0.0
 11
7015.5170890498
 21
5398.4759321423
 31
0.0
  0
LINE
  5
20F
330
1F
100
AcDbEntity
  8
0
  6
Continuous
 62
     7
100
AcDbLine
 10
7015.5170890498
 20
5398.4759321423
 30
0.0
 11
7014.9850132871
 21
5397.3362913342
 31
0.0
  0
LINE
  5
210
330
1F
100
AcDbEntity
  8
0
  6
Continuous
 62
     7
100
AcDbLine
 10
7014.9850132871
 20
5397.3362913342
 30
0.0
 11
7014.8027273822
 21
5396.096157095
 31
0.0
  0
LINE
  5
211
330
1F
100
AcDbEntity
  8
0
  6
Continuous
 62
     7
100
AcDbLine
 10
7014.8027273822
 20
5396.096157095
 30
0.0
 11
7014.9850132871
 21
5394.8560824604
 31
0.0
  0
LINE
  5
212
330
1F
100
AcDbEntity
  8
0
  6
Continuous
 62
     7
100
AcDbLine
 10
7014.9850132871
 20
5394.8560824604
 30
0.0
 11
7015.5170890498
 21
5393.7164416523
 31
0.0
  0
LINE
  5
213
330
1F
100
AcDbEntity
  8
0
  6
Continuous
 62
     7
100
AcDbLine
 10
7015.5170890498
 20
5393.7164416523
 30
0.0
 11
7016.3558530617
 21
5392.7695622654
 31
0.0
  0
LINE
  5
214
330
1F
100
AcDbEntity
  8
0
  6
Continuous
 62
     7
100
AcDbLine
 10
7016.3558530617
 20
5392.7695622654
 30
0.0
 11
7017.4333634782
 21
5392.0922150822
 31
0.0
  0
LINE
  5
215
330
1F
100
AcDbEntity
  8
0
  6
Continuous
 62
     7
100
AcDbLine
 10
7017.4333634782
 20
5392.0922150822
 30
0.0
 11
7018.6623143959
 21
5391.7392363758
 31
0.0
  0
LINE
  5
216
330
1F
100
AcDbEntity
  8
0
  6
Continuous
 62
     7
100
AcDbLine
 10
7018.6623143959
 20
5391.7392363758
 30
0.0
 11
7019.9431437063
 21
5391.7392363758
 31
0.0
  0
LINE
  5
217
330
1F
100
AcDbEntity
  8
0
  6
Continuous
 62
     7
100
AcDbLine
 10
7019.9431437063
 20
5391.7392363758
 30
0.0
 11
7021.1721020746
 21
5392.0922150822
 31
0.0
  0
LINE
  5
218
330
1F
100
AcDbEntity
  8
0
  6
Continuous
 62
     7
100
AcDbLine
 10
7021.1721020746
 20
5392.0922150822
 30
0.0
 11
7022.2496050405
 21
5392.7695622654
 31
0.0
  0
LINE
  5
219
330
1F
100
AcDbEntity
  8
0
  6
Continuous
 62
     7
100
AcDbLine
 10
7022.2496050405
 20
5392.7695622654
 30
0.0
 11
7023.088376503
 21
5393.7164416523
 31
0.0
  0
LINE
  5
21A
330
1F
100
AcDbEntity
  8
0
  6
Continuous
 62
     7
100
AcDbLine
 10
7023.088376503
 20
5393.7164416523
 30
0.0
 11
7023.6204522657
 21
5394.8560824604
 31
0.0
  0
LINE
  5
21B
330
1F
100
AcDbEntity
  8
0
  6
Continuous
 62
     7
100
AcDbLine
 10
7023.6204522657
 20
5394.8560824604
 30
0.0
 11
7023.8027232695
 21
5396.096157095
 31
0.0
  0
LINE
  5
21C
330
1F
100
AcDbEntity
  8
0
  6
Continuous
 62
     7
100
AcDbLine
 10
7017.1745899129
 20
5396.6191878529
 30
0.0
 11
7017.0398685145
 21
5396.7782130452
 31
0.0
  0
LINE
  5
21D
330
1F
100
AcDbEntity
  8
0
  6
Continuous
 62
     7
100
AcDbLine
 10
7017.0398685145
 20
5396.7782130452
 30
0.0
 11
7017.0102897096
 21
5396.8360295506
 31
0.0
  0
LINE
  5
21E
330
1F
100
AcDbEntity
  8
0
  6
Continuous
 62
     7
100
AcDbLine
 10
7017.1745899129
 20
5396.1040845128
 30
0.0
 11
7017.1745899129
 21
5396.6191878529
 31
0.0
  0
LINE
  5
21F
330
1F
100
AcDbEntity
  8
0
  6
Continuous
 62
     7
100
AcDbLine
 10
7021.4308607387
 20
5396.1040845128
 30
0.0
 11
7021.4308607387
 21
5396.6191878529
 31
0.0
  0
LINE
  5
220
330
1F
100
AcDbEntity
  8
0
  6
Continuous
 62
     7
100
AcDbLine
 10
7017.3554527569
 20
5395.932721159
 30
0.0
 11
7017.3554527569
 21
5396.4686265202
 31
0.0
  0
LINE
  5
221
330
1F
100
AcDbEntity
  8
0
  6
Continuous
 62
     7
100
AcDbLine
 10
7021.2500053453
 20
5396.4686265202
 30
0.0
 11
7021.2500053453
 21
5395.932721159
 31
0.0
  0
LINE
  5
222
330
1F
100
AcDbEntity
  8
0
  6
Continuous
 62
     7
100
AcDbLine
 10
7017.3554527569
 20
5396.4686265202
 30
0.0
 11
7017.1745899129
 21
5396.6191878529
 31
0.0
  0
LINE
  5
223
330
1F
100
AcDbEntity
  8
0
  6
Continuous
 62
     7
100
AcDbLine
 10
7021.4308607387
 20
5396.6191878529
 30
0.0
 11
7021.2500053453
 21
5396.4686265202
 31
0.0
  0
LINE
  5
224
330
1F
100
AcDbEntity
  8
0
  6
Continuous
 62
     7
100
AcDbLine
 10
7020.8298522043
 20
5394.0397968502
 30
0.0
 11
7020.8298522043
 21
5394.5549001904
 31
0.0
  0
LINE
  5
225
330
1F
100
AcDbEntity
  8
0
  6
Continuous
 62
     7
100
AcDbLine
 10
7017.7756058979
 20
5394.0397968503
 30
0.0
 11
7017.7756058979
 21
5394.5549001904
 31
0.0
  0
LINE
  5
226
330
1F
100
AcDbEntity
  8
0
  6
Continuous
 62
     7
100
AcDbLine
 10
7017.9993617344
 20
5394.0969577046
 30
0.0
 11
7017.9993617344
 21
5394.6328034611
 31
0.0
  0
LINE
  5
227
330
1F
100
AcDbEntity
  8
0
  6
Continuous
 62
     7
100
AcDbLine
 10
7018.658812623
 20
5394.2603936406
 30
0.0
 11
7018.658812623
 21
5393.724547884
 31
0.0
  0
LINE
  5
228
330
1F
100
AcDbEntity
  8
0
  6
Continuous
 62
     7
100
AcDbLine
 10
7019.9466454792
 20
5393.724547884
 30
0.0
 11
7019.9466454792
 21
5394.2603936406
 31
0.0
  0
LINE
  5
229
330
1F
100
AcDbEntity
  8
0
  6
Continuous
 62
     7
100
AcDbLine
 10
7020.6060963678
 20
5394.6328034611
 30
0.0
 11
7020.6060963679
 21
5394.0969577046
 31
0.0
  0
LINE
  5
22A
330
1F
100
AcDbEntity
  8
0
  6
Continuous
 62
     7
100
AcDbLine
 10
7017.9993617344
 20
5394.6328034611
 30
0.0
 11
7017.7756058979
 21
5394.5549001904
 31
0.0
  0
LINE
  5
22B
330
1F
100
AcDbEntity
  8
0
  6
Continuous
 62
     7
100
AcDbLine
 10
7020.8298522043
 20
5394.5549001904
 30
0.0
 11
7020.6060963678
 21
5394.6328034611
 31
0.0
  0
LINE
  5
22C
330
1F
100
AcDbEntity
  8
0
  6
Continuous
 62
     7
100
AcDbLine
 10
7018.7017130661
 20
5393.5167660923
 30
0.0
 11
7018.7017130661
 21
5394.0319290371
 31
0.0
  0
LINE
  5
22D
330
1F
100
AcDbEntity
  8
0
  6
Continuous
 62
     7
100
AcDbLine
 10
7018.7017130661
 20
5394.0319290371
 30
0.0
 11
7018.658812623
 21
5394.2603936406
 31
0.0
  0
LINE
  5
22E
330
1F
100
AcDbEntity
  8
0
  6
Continuous
 62
     7
100
AcDbLine
 10
7019.9037450361
 20
5393.5167660923
 30
0.0
 11
7019.9037450361
 21
5394.0319290371
 31
0.0
  0
LINE
  5
22F
330
1F
100
AcDbEntity
  8
0
  6
Continuous
 62
     7
100
AcDbLine
 10
7019.9466454792
 20
5394.2603936406
 30
0.0
 11
7019.9037450361
 21
5394.0319290371
 31
0.0
  0
LINE
  5
230
330
1F
100
AcDbEntity
  8
0
  6
Continuous
 62
     7
100
AcDbLine
 10
7023.9005493927
 20
5276.3355841847
 30
0.0
 11
7023.7182634878
 21
5277.5756588192
 31
0.0
  0
LINE
  5
231
330
1F
100
AcDbEntity
  8
0
  6
Continuous
 62
     7
100
AcDbLine
 10
7023.7182634878
 20
5277.5756588192
 30
0.0
 11
7023.1861877251
 21
5278.7152996273
 31
0.0
  0
LINE
  5
232
330
1F
100
AcDbEntity
  8
0
  6
Continuous
 62
     7
100
AcDbLine
 10
7023.1861877251
 20
5278.7152996273
 30
0.0
 11
7022.3474311638
 21
5279.6621790142
 31
0.0
  0
LINE
  5
233
330
1F
100
AcDbEntity
  8
0
  6
Continuous
 62
     7
100
AcDbLine
 10
7022.3474311638
 20
5279.6621790142
 30
0.0
 11
7021.2699132967
 21
5280.3395261975
 31
0.0
  0
LINE
  5
234
330
1F
100
AcDbEntity
  8
0
  6
Continuous
 62
     7
100
AcDbLine
 10
7021.2699132967
 20
5280.3395261975
 30
0.0
 11
7020.0409698296
 21
5280.6925049038
 31
0.0
  0
LINE
  5
235
330
1F
100
AcDbEntity
  8
0
  6
Continuous
 62
     7
100
AcDbLine
 10
7020.0409698296
 20
5280.6925049038
 30
0.0
 11
7018.7601405191
 21
5280.6925049038
 31
0.0
  0
LINE
  5
236
330
1F
100
AcDbEntity
  8
0
  6
Continuous
 62
     7
100
AcDbLine
 10
7018.7601405191
 20
5280.6925049038
 30
0.0
 11
7017.5311821508
 21
5280.3395261975
 31
0.0
  0
LINE
  5
237
330
1F
100
AcDbEntity
  8
0
  6
Continuous
 62
     7
100
AcDbLine
 10
7017.5311821508
 20
5280.3395261975
 30
0.0
 11
7016.4536791849
 21
5279.6621790142
 31
0.0
  0
LINE
  5
238
330
1F
100
AcDbEntity
  8
0
  6
Continuous
 62
     7
100
AcDbLine
 10
7016.4536791849
 20
5279.6621790142
 30
0.0
 11
7015.6149077225
 21
5278.7152996273
 31
0.0
  0
LINE
  5
239
330
1F
100
AcDbEntity
  8
0
  6
Continuous
 62
     7
100
AcDbLine
 10
7015.6149077225
 20
5278.7152996273
 30
0.0
 11
7015.0828319597
 21
5277.5756588192
 31
0.0
  0
LINE
  5
23A
330
1F
100
AcDbEntity
  8
0
  6
Continuous
 62
     7
100
AcDbLine
 10
7015.0828319597
 20
5277.5756588192
 30
0.0
 11
7014.9005535054
 21
5276.3355841847
 31
0.0
  0
LINE
  5
23B
330
1F
100
AcDbEntity
  8
0
  6
Continuous
 62
     7
100
AcDbLine
 10
7014.9005535054
 20
5276.3355841847
 30
0.0
 11
7015.0828319597
 21
5275.0954499455
 31
0.0
  0
LINE
  5
23C
330
1F
100
AcDbEntity
  8
0
  6
Continuous
 62
     7
100
AcDbLine
 10
7015.0828319597
 20
5275.0954499455
 30
0.0
 11
7015.6149077225
 21
5273.9558091374
 31
0.0
  0
LINE
  5
23D
330
1F
100
AcDbEntity
  8
0
  6
Continuous
 62
     7
100
AcDbLine
 10
7015.6149077225
 20
5273.9558091374
 30
0.0
 11
7016.4536791849
 21
5273.0089893551
 31
0.0
  0
LINE
  5
23E
330
1F
100
AcDbEntity
  8
0
  6
Continuous
 62
     7
100
AcDbLine
 10
7016.4536791849
 20
5273.0089893551
 30
0.0
 11
7017.5311821508
 21
5272.3316421719
 31
0.0
  0
LINE
  5
23F
330
1F
100
AcDbEntity
  8
0
  6
Continuous
 62
     7
100
AcDbLine
 10
7017.5311821508
 20
5272.3316421719
 30
0.0
 11
7018.7601405191
 21
5271.9786634655
 31
0.0
  0
LINE
  5
240
330
1F
100
AcDbEntity
  8
0
  6
Continuous
 62
     7
100
AcDbLine
 10
7018.7601405191
 20
5271.9786634655
 30
0.0
 11
7020.0409698296
 21
5271.9786634655
 31
0.0
  0
LINE
  5
241
330
1F
100
AcDbEntity
  8
0
  6
Continuous
 62
     7
100
AcDbLine
 10
7020.0409698296
 20
5271.9786634655
 30
0.0
 11
7021.2699132967
 21
5272.3316421719
 31
0.0
  0
LINE
  5
242
330
1F
100
AcDbEntity
  8
0
  6
Continuous
 62
     7
100
AcDbLine
 10
7021.2699132967
 20
5272.3316421719
 30
0.0
 11
7022.3474311638
 21
5273.0089893551
 31
0.0
  0
LINE
  5
243
330
1F
100
AcDbEntity
  8
0
  6
Continuous
 62
     7
100
AcDbLine
 10
7022.3474311638
 20
5273.0089893551
 30
0.0
 11
7023.1861877251
 21
5273.9558091374
 31
0.0
  0
LINE
  5
244
330
1F
100
AcDbEntity
  8
0
  6
Continuous
 62
     7
100
AcDbLine
 10
7023.1861877251
 20
5273.9558091374
 30
0.0
 11
7023.7182634878
 21
5275.0954499455
 31
0.0
  0
LINE
  5
245
330
1F
100
AcDbEntity
  8
0
  6
Continuous
 62
     7
100
AcDbLine
 10
7023.7182634878
 20
5275.0954499455
 30
0.0
 11
7023.9005493927
 21
5276.3355841847
 31
0.0
  0
LINE
  5
246
330
1F
100
AcDbEntity
  8
0
  6
Continuous
 62
     7
100
AcDbLine
 10
7017.2724160361
 20
5276.8585553379
 30
0.0
 11
7017.1376871872
 21
5277.0176401349
 31
0.0
  0
LINE
  5
247
330
1F
100
AcDbEntity
  8
0
  6
Continuous
 62
     7
100
AcDbLine
 10
7017.1376871872
 20
5277.0176401349
 30
0.0
 11
7017.1081158328
 21
5277.0753970356
 31
0.0
  0
LINE
  5
248
330
1F
100
AcDbEntity
  8
0
  6
Continuous
 62
     7
100
AcDbLine
 10
7017.2724160361
 20
5276.3434519978
 30
0.0
 11
7017.2724160361
 21
5276.8585553379
 31
0.0
  0
LINE
  5
249
330
1F
100
AcDbEntity
  8
0
  6
Continuous
 62
     7
100
AcDbLine
 10
7021.528686862
 20
5276.3434519978
 30
0.0
 11
7021.528686862
 21
5276.8585553379
 31
0.0
  0
LINE
  5
24A
330
1F
100
AcDbEntity
  8
0
  6
Continuous
 62
     7
100
AcDbLine
 10
7017.4532714295
 20
5276.1721482487
 30
0.0
 11
7017.4532714295
 21
5276.7079940052
 31
0.0
  0
LINE
  5
24B
330
1F
100
AcDbEntity
  8
0
  6
Continuous
 62
     7
100
AcDbLine
 10
7021.3478314686
 20
5276.7079940052
 30
0.0
 11
7021.3478314686
 21
5276.1721482487
 31
0.0
  0
LINE
  5
24C
330
1F
100
AcDbEntity
  8
0
  6
Continuous
 62
     7
100
AcDbLine
 10
7017.4532714295
 20
5276.7079940052
 30
0.0
 11
7017.2724160361
 21
5276.8585553379
 31
0.0
  0
LINE
  5
24D
330
1F
100
AcDbEntity
  8
0
  6
Continuous
 62
     7
100
AcDbLine
 10
7021.528686862
 20
5276.8585553379
 30
0.0
 11
7021.3478314686
 21
5276.7079940052
 31
0.0
  0
LINE
  5
24E
330
1F
100
AcDbEntity
  8
0
  6
Continuous
 62
     7
100
AcDbLine
 10
7020.9276783276
 20
5274.2791643353
 30
0.0
 11
7020.9276783276
 21
5274.7943272801
 31
0.0
  0
LINE
  5
24F
330
1F
100
AcDbEntity
  8
0
  6
Continuous
 62
     7
100
AcDbLine
 10
7017.8734245706
 20
5274.2791643352
 30
0.0
 11
7017.8734245706
 21
5274.7943272801
 31
0.0
  0
LINE
  5
250
330
1F
100
AcDbEntity
  8
0
  6
Continuous
 62
     7
100
AcDbLine
 10
7018.0971878576
 20
5274.3363847943
 30
0.0
 11
7018.0971878576
 21
5274.8722305508
 31
0.0
  0
LINE
  5
251
330
1F
100
AcDbEntity
  8
0
  6
Continuous
 62
     7
100
AcDbLine
 10
7018.7566387463
 20
5274.4998207302
 30
0.0
 11
7018.7566387463
 21
5273.9639749736
 31
0.0
  0
LINE
  5
252
330
1F
100
AcDbEntity
  8
0
  6
Continuous
 62
     7
100
AcDbLine
 10
7020.0444567013
 20
5273.9639749738
 30
0.0
 11
7020.0444567013
 21
5274.4998207302
 31
0.0
  0
LINE
  5
253
330
1F
100
AcDbEntity
  8
0
  6
Continuous
 62
     7
100
AcDbLine
 10
7020.7039224911
 20
5274.8722305508
 30
0.0
 11
7020.7039224911
 21
5274.3363847943
 31
0.0
  0
LINE
  5
254
330
1F
100
AcDbEntity
  8
0
  6
Continuous
 62
     7
100
AcDbLine
 10
7018.0971878576
 20
5274.8722305508
 30
0.0
 11
7017.8734245706
 21
5274.7943272801
 31
0.0
  0
LINE
  5
255
330
1F
100
AcDbEntity
  8
0
  6
Continuous
 62
     7
100
AcDbLine
 10
7020.9276783276
 20
5274.7943272801
 30
0.0
 11
7020.7039224911
 21
5274.8722305508
 31
0.0
  0
LINE
  5
256
330
1F
100
AcDbEntity
  8
0
  6
Continuous
 62
     7
100
AcDbLine
 10
7020.0015711594
 20
5273.7561931821
 30
0.0
 11
7020.0015711594
 21
5274.2712965222
 31
0.0
  0
LINE
  5
257
330
1F
100
AcDbEntity
  8
0
  6
Continuous
 62
     7
100
AcDbLine
 10
7020.0444567013
 20
5274.4998207302
 30
0.0
 11
7020.0015711594
 21
5274.2712965222
 31
0.0
  0
LINE
  5
258
330
1F
100
AcDbEntity
  8
0
  6
Continuous
 62
     7
100
AcDbLine
 10
7018.7995391893
 20
5273.756193182
 30
0.0
 11
7018.7995391893
 21
5274.2712965222
 31
0.0
  0
LINE
  5
259
330
1F
100
AcDbEntity
  8
0
  6
Continuous
 62
     7
100
AcDbLine
 10
7018.7995391893
 20
5274.2712965222
 30
0.0
 11
7018.7566387463
 21
5274.4998207302
 31
0.0
  0
LINE
  5
25A
330
1F
100
AcDbEntity
  8
0
  6
Continuous
 62
     7
100
AcDbLine
 10
7524.53316329
 20
5428.2457699986
 30
0.0
 11
7345.0465011406
 21
5428.2457699986
 31
0.0
  0
LINE
  5
25B
330
1F
100
AcDbEntity
  8
0
  6
Continuous
 62
     7
100
AcDbLine
 10
6094.4885162309
 20
4525.1384501152
 30
0.0
 11
6094.4885162309
 21
4175.1384560756
 31
0.0
  0
LINE
  5
25C
330
1F
100
AcDbEntity
  8
0
  6
Continuous
 62
     7
100
AcDbLine
 10
6453.549042125
 20
4175.1384560756
 30
0.0
 11
6453.549042125
 21
4525.1384501152
 31
0.0
  0
LINE
  5
25D
330
1F
100
AcDbEntity
  8
0
  6
Continuous
 62
     7
100
AcDbLine
 10
6096.4883712724
 20
4525.1384501152
 30
0.0
 11
6096.4883712724
 21
4175.1384560756
 31
0.0
  0
LINE
  5
25E
330
1F
100
AcDbEntity
  8
0
  6
Continuous
 62
     7
100
AcDbLine
 10
6096.4883712724
 20
4525.1384501152
 30
0.0
 11
6451.5491870835
 21
4525.1384501152
 31
0.0
  0
LINE
  5
25F
330
1F
100
AcDbEntity
  8
0
  6
Continuous
 62
     7
100
AcDbLine
 10
6451.5491870835
 20
4175.1384560756
 30
0.0
 11
6451.5491870835
 21
4525.1384501152
 31
0.0
  0
LINE
  5
260
330
1F
100
AcDbEntity
  8
0
  6
Continuous
 62
     7
100
AcDbLine
 10
6144.0187839463
 20
4175.1384560756
 30
0.0
 11
6144.0187839463
 21
4240.1384536914
 31
0.0
  0
LINE
  5
261
330
1F
100
AcDbEntity
  8
0
  6
Continuous
 62
     7
100
AcDbLine
 10
6404.0187744096
 20
4240.1384536914
 30
0.0
 11
6404.0187744096
 21
4175.1384560756
 31
0.0
  0
LINE
  5
262
330
1F
100
AcDbEntity
  8
0
  6
Continuous
 62
     7
100
AcDbLine
 10
6096.4883712724
 20
4525.1384501152
 30
0.0
 11
6094.4885162309
 21
4525.1384501152
 31
0.0
  0
LINE
  5
263
330
1F
100
AcDbEntity
  8
0
  6
Continuous
 62
     7
100
AcDbLine
 10
6451.5491870835
 20
4525.1384501152
 30
0.0
 11
6453.549042125
 21
4525.1384501152
 31
0.0
  0
LINE
  5
264
330
1F
100
AcDbEntity
  8
0
  6
Continuous
 62
     7
100
AcDbLine
 10
6154.0187744096
 20
4240.1384536914
 30
0.0
 11
6144.0187839463
 21
4240.1384536914
 31
0.0
  0
LINE
  5
265
330
1F
100
AcDbEntity
  8
0
  6
Continuous
 62
     7
100
AcDbLine
 10
6404.0187744096
 20
4240.1384536914
 30
0.0
 11
6394.0187839463
 21
4240.1384536914
 31
0.0
  0
LINE
  5
266
330
1F
100
AcDbEntity
  8
0
  6
Continuous
 62
     7
100
AcDbLine
 10
6404.0187744096
 20
4175.1384560756
 30
0.0
 11
6394.0187839463
 21
4175.1384560756
 31
0.0
  0
LINE
  5
267
330
1F
100
AcDbEntity
  8
0
  6
Continuous
 62
     7
100
AcDbLine
 10
6394.0187839463
 20
4175.1384560756
 30
0.0
 11
6394.0187839463
 21
4240.1384536914
 31
0.0
  0
LINE
  5
268
330
1F
100
AcDbEntity
  8
0
  6
Continuous
 62
     7
100
AcDbLine
 10
6154.0187744096
 20
4240.1384536914
 30
0.0
 11
6154.0187744096
 21
4175.1384560756
 31
0.0
  0
LINE
  5
269
330
1F
100
AcDbEntity
  8
0
  6
Continuous
 62
     7
100
AcDbLine
 10
6154.0187744096
 20
4175.1384560756
 30
0.0
 11
6144.0187839463
 21
4175.1384560756
 31
0.0
  0
LINE
  5
26A
330
1F
100
AcDbEntity
  8
0
  6
Continuous
 62
     7
100
AcDbLine
 10
6096.4883712724
 20
4175.1384560756
 30
0.0
 11
6094.4885162309
 21
4175.1384560756
 31
0.0
  0
LINE
  5
26B
330
1F
100
AcDbEntity
  8
0
  6
Continuous
 62
     7
100
AcDbLine
 10
6451.5491870835
 20
4175.1384560756
 30
0.0
 11
6453.549042125
 21
4175.1384560756
 31
0.0
  0
LWPOLYLINE
  5
26C
330
1F
100
AcDbEntity
  8
0
  6
Continuous
 62
     7
100
AcDbPolyline
 90
        3
 70
   128
 43
0.0
 10
6149.829864502
 20
5160.0377284297
 10
6150.0875485703
 20
5159.7010596109
 10
6150.1659301713
 20
5159.5996342905
  0
LWPOLYLINE
  5
26D
330
1F
100
AcDbEntity
  8
0
  6
Continuous
 62
     7
100
AcDbPolyline
 90
        6
 70
   128
 43
0.0
 10
6149.6047973633
 20
5160.6179200419
 10
6149.5380373092
 20
5160.6315767025
 10
6149.5267860515
 20
5160.6151058188
 10
6149.5247743449
 20
5160.5868215272
 10
6149.5482371824
 20
5160.4991946045
 10
6149.6864704087
 20
5160.245480419
  0
LWPOLYLINE
  5
26E
330
1F
100
AcDbEntity
  8
0
  6
Continuous
 62
     7
100
AcDbPolyline
 90
        5
 70
   128
 43
0.0
 10
6149.5018005371
 20
5161.5789853342
 10
6149.8351089766
 20
5161.0721891562
 10
6149.882719537
 20
5160.5929444065
 10
6149.8152290296
 20
5160.5442286535
 10
6149.7215179399
 20
5160.5607293852
  0
LWPOLYLINE
  5
26F
330
1F
100
AcDbEntity
  8
0
  6
Continuous
 62
     7
100
AcDbPolyline
 90
        3
 70
   128
 43
0.0
 10
6149.2156982422
 20
5162.4536834963
 10
6149.2221010827
 20
5162.0107480652
 10
6149.3755725816
 20
5161.7088340529
  0
LWPOLYLINE
  5
270
330
1F
100
AcDbEntity
  8
0
  6
Continuous
 62
     7
100
AcDbPolyline
 90
        5
 70
   128
 43
0.0
 10
6149.0631103516
 20
5163.6432431944
 10
6149.1455816751
 20
5163.6957753413
 10
6149.2269862037
 20
5163.6794854812
 10
6149.3782535279
 20
5163.2210254349
 10
6149.2828277543
 20
5162.6249872454
  0
LWPOLYLINE
  5
271
330
1F
100
AcDbEntity
  8
0
  6
Continuous
 62
     7
100
AcDbPolyline
 90
        7
 70
   128
 43
0.0
 10
6148.9028930664
 20
5163.9170371302
 10
6148.8829695048
 20
5163.6286528101
 10
6148.8973950831
 20
5163.5390427772
 10
6148.9107952496
 20
5163.5146506103
 10
6148.9277463154
 20
5163.5044067116
 10
6148.9548344471
 20
5163.5127348037
 10
6148.9855197862
 20
5163.5446273096
  0
LWPOLYLINE
  5
272
330
1F
100
AcDbEntity
  8
0
  6
Continuous
 62
     7
100
AcDbPolyline
 90
       13
 70
   128
 43
0.0
 10
6149.0783691406
 20
5164.7031524262
 10
6149.0820360476
 20
5164.703389489
 10
6149.0822640567
 20
5164.7039136429
 10
6149.0826253973
 20
5164.7051830475
 10
6149.0829726253
 20
5164.706482848
 10
6149.0829842479
 20
5164.7065218989
 10
6149.0829850164
 20
5164.7065237919
 10
6149.0829852349
 20
5164.7065241001
 10
6149.0829853431
 20
5164.7065239837
 10
6149.0829846769
 20
5164.7065192857
 10
6149.0829443579
 20
5164.7063510864
 10
6149.0718514351
 20
5164.6623188762
 10
6148.9552406267
 20
5164.1662739523
  0
LWPOLYLINE
  5
273
330
1F
100
AcDbEntity
  8
0
  6
Continuous
 62
     7
100
AcDbPolyline
 90
        3
 70
   128
 43
0.0
 10
6098.8655090332
 20
5399.8747490652
 10
6099.1222367434
 20
5399.5380812786
 10
6099.2006210282
 20
5399.4366549261
  0
LWPOLYLINE
  5
274
330
1F
100
AcDbEntity
  8
0
  6
Continuous
 62
     7
100
AcDbPolyline
 90
        6
 70
   128
 43
0.0
 10
6098.6404418945
 20
5400.4549406775
 10
6098.5725689498
 20
5400.4686338478
 10
6098.5614556319
 20
5400.4521617431
 10
6098.5594268996
 20
5400.4238608853
 10
6098.5826542571
 20
5400.3361900399
 10
6098.7211612656
 20
5400.0825308569
  0
LWPOLYLINE
  5
275
330
1F
100
AcDbEntity
  8
0
  6
Continuous
 62
     7
100
AcDbPolyline
 90
        5
 70
   128
 43
0.0
 10
6098.5374450684
 20
5401.4160059698
 10
6098.8696129576
 20
5400.9091810957
 10
6098.9171983381
 20
5400.4299857518
 10
6098.8499495291
 20
5400.3812776324
 10
6098.7562087968
 20
5400.3977798231
  0
LWPOLYLINE
  5
276
330
1F
100
AcDbEntity
  8
0
  6
Continuous
 62
     7
100
AcDbPolyline
 90
        3
 70
   128
 43
0.0
 10
6098.2513427734
 20
5402.2907041319
 10
6098.2567960906
 20
5401.8477833355
 10
6098.4102634385
 20
5401.5458844908
  0
LWPOLYLINE
  5
277
330
1F
100
AcDbEntity
  8
0
  6
Continuous
 62
     7
100
AcDbPolyline
 90
        5
 70
   128
 43
0.0
 10
6098.0987548828
 20
5403.4802936323
 10
6098.1802718096
 20
5403.5327939555
 10
6098.2616691456
 20
5403.5165606757
 10
6098.4127251836
 20
5403.0580668662
 10
6098.3175186113
 20
5402.4620674856
  0
LWPOLYLINE
  5
278
330
1F
100
AcDbEntity
  8
0
  6
Continuous
 62
     7
100
AcDbPolyline
 90
        7
 70
   128
 43
0.0
 10
6097.9385375977
 20
5403.7540577658
 10
6097.9176606426
 20
5403.4656973434
 10
6097.93208768
 20
5403.376088253
 10
6097.9454880201
 20
5403.3516733715
 10
6097.9624359128
 20
5403.3414323189
 10
6097.989517415
 20
5403.3498085127
 10
6098.0202106431
 20
5403.3816479452
  0
LWPOLYLINE
  5
279
330
1F
100
AcDbEntity
  8
0
  6
Continuous
 62
     7
100
AcDbPolyline
 90
       12
 70
   128
 43
0.0
 10
6098.1140136719
 20
5404.5401957693
 10
6098.1166331922
 20
5404.5404475037
 10
6098.1168104842
 20
5404.5409741873
 10
6098.1170523128
 20
5404.5422315691
 10
6098.1172219951
 20
5404.5435071466
 10
6098.117212879
 20
5404.543542971
 10
6098.1172100222
 20
5404.5435442834
 10
6098.1172068054
 20
5404.5435439022
 10
6098.1171992965
 20
5404.5435380807
 10
6098.1171245644
 20
5404.5433637582
 10
6098.1066039283
 20
5404.499340162
 10
6097.9899314836
 20
5404.0033243902
  0
LWPOLYLINE
  5
27A
330
1F
100
AcDbEntity
  8
0
  6
Continuous
 62
     7
100
AcDbPolyline
 90
        3
 70
   128
 43
0.0
 10
6398.7312316895
 20
5163.2674955137
 10
6398.7680830023
 20
5163.0434793279
 10
6398.8109973863
 20
5162.8902875193
  0
LWPOLYLINE
  5
27B
330
1F
100
AcDbEntity
  8
0
  6
Continuous
 62
     7
100
AcDbPolyline
 90
        4
 70
   128
 43
0.0
 10
6399.1279602051
 20
5163.9146231421
 10
6399.1545653135
 20
5163.5986409602
 10
6399.1455522217
 20
5163.5853383175
 10
6399.1335777238
 20
5163.5833703287
  0
LWPOLYLINE
  5
27C
330
1F
100
AcDbEntity
  8
0
  6
Continuous
 62
     7
100
AcDbPolyline
 90
        7
 70
   128
 43
0.0
 10
6399.0364074707
 20
5163.9521740683
 10
6398.9285789123
 20
5164.5449999528
 10
6398.9315981903
 20
5164.5905515553
 10
6398.9336021236
 20
5164.592208642
 10
6398.9360159609
 20
5164.5921584072
 10
6398.9835613787
 20
5164.4921613445
 10
6399.0794567063
 20
5164.1533099421
  0
LWPOLYLINE
  5
27D
330
1F
100
AcDbEntity
  8
0
  6
Continuous
 62
     7
100
AcDbPolyline
 90
        5
 70
   128
 43
0.0
 10
6398.983001709
 20
5163.2218681582
 10
6399.017754621
 20
5163.2093153182
 10
6399.048912593
 20
5163.2164923287
 10
6399.1035808377
 20
5163.3895630065
 10
6399.0849403337
 20
5163.6991523512
  0
LWPOLYLINE
  5
27E
330
1F
100
AcDbEntity
  8
0
  6
Continuous
 62
     7
100
AcDbPolyline
 90
        5
 70
   128
 43
0.0
 10
6398.6587524414
 20
5162.1781312235
 10
6398.5553382999
 20
5162.7325478181
 10
6398.7195828103
 20
5163.250375317
 10
6398.8081459486
 20
5163.3012973624
 10
6398.8942054704
 20
5163.2819198378
  0
LWPOLYLINE
  5
27F
330
1F
100
AcDbEntity
  8
0
  6
Continuous
 62
     7
100
AcDbPolyline
 90
        3
 70
   128
 43
0.0
 10
6398.5748291016
 20
5161.305429817
 10
6398.7568822001
 20
5161.7347191067
 10
6398.7320808366
 20
5162.0392822035
  0
LWPOLYLINE
  5
280
330
1F
100
AcDbEntity
  8
0
  6
Continuous
 62
     7
100
AcDbPolyline
 90
        6
 70
   128
 43
0.0
 10
6398.2467651367
 20
5160.2448247679
 10
6398.1481047184
 20
5160.1961331182
 10
6398.0732040055
 20
5160.2093437995
 10
6398.0354606774
 20
5160.354331783
 10
6398.1055776971
 20
5160.6153088158
 10
6398.4407333329
 20
5161.1475073107
  0
LWPOLYLINE
  5
281
330
1F
100
AcDbEntity
  8
0
  6
Continuous
 62
     7
100
AcDbPolyline
 90
        5
 70
   128
 43
0.0
 10
6398.3154296875
 20
5160.0817166574
 10
6398.4664792808
 20
5160.3693284595
 10
6398.4613023525
 20
5160.3835922342
 10
6398.4471187985
 20
5160.3860905929
 10
6398.3706382707
 20
5160.3383146532
  0
LWPOLYLINE
  5
282
330
1F
100
AcDbEntity
  8
0
  6
Continuous
 62
     7
100
AcDbPolyline
 90
        3
 70
   128
 43
0.0
 10
6397.9644775391
 20
5159.6349202402
 10
6398.0711755626
 20
5159.7569030953
 10
6398.1722740128
 20
5159.8844848879
  0
LWPOLYLINE
  5
283
330
1F
100
AcDbEntity
  8
0
  6
Continuous
 62
     7
100
AcDbPolyline
 90
        4
 70
   128
 43
0.0
 10
6398.4870910645
 20
5160.7694052466
 10
6398.5164055739
 20
5160.7642499631
 10
6398.5308604294
 20
5160.7422852143
 10
6398.4228519395
 20
5160.4000948675
  0
LWPOLYLINE
  5
284
330
1F
100
AcDbEntity
  8
0
  6
Continuous
 62
     7
100
AcDbPolyline
 90
        3
 70
   128
 43
0.0
 10
6449.7261047363
 20
5403.2369278677
 10
6449.7619708799
 20
5403.0137637712
 10
6449.8049167588
 20
5402.861180187
  0
LWPOLYLINE
  5
285
330
1F
100
AcDbEntity
  8
0
  6
Continuous
 62
     7
100
AcDbPolyline
 90
        4
 70
   128
 43
0.0
 10
6450.122833252
 20
5403.8848303564
 10
6450.1482419149
 20
5403.5690288843
 10
6450.1393157883
 20
5403.5557335727
 10
6450.1274970964
 20
5403.5537861593
  0
LWPOLYLINE
  5
286
330
1F
100
AcDbEntity
  8
0
  6
Continuous
 62
     7
100
AcDbPolyline
 90
        7
 70
   128
 43
0.0
 10
6450.0274658203
 20
5403.9219044455
 10
6449.9222845404
 20
5404.5148887501
 10
6449.9252731066
 20
5404.5604777846
 10
6449.9272732536
 20
5404.5621522507
 10
6449.9296862237
 20
5404.5621216398
 10
6449.9771813239
 20
5404.4622366997
 10
6450.0731376603
 20
5404.1234873541
  0
LWPOLYLINE
  5
287
330
1F
100
AcDbEntity
  8
0
  6
Continuous
 62
     7
100
AcDbPolyline
 90
        5
 70
   128
 43
0.0
 10
6449.9740600586
 20
5403.1913899191
 10
6450.0112840956
 20
5403.1788486984
 10
6450.0423304966
 20
5403.1860825007
 10
6450.0971720439
 20
5403.359258313
 10
6450.078382869
 20
5403.6688827284
  0
LWPOLYLINE
  5
288
330
1F
100
AcDbEntity
  8
0
  6
Continuous
 62
     7
100
AcDbPolyline
 90
        5
 70
   128
 43
0.0
 10
6449.649810791
 20
5402.1473549612
 10
6449.5487807717
 20
5402.7016893544
 10
6449.7130544034
 20
5403.2196680995
 10
6449.8015741843
 20
5403.2706391131
 10
6449.8878864244
 20
5403.2513521918
  0
LWPOLYLINE
  5
289
330
1F
100
AcDbEntity
  8
0
  6
Continuous
 62
     7
100
AcDbPolyline
 90
        3
 70
   128
 43
0.0
 10
6449.5658874512
 20
5401.2748025664
 10
6449.7503260344
 20
5401.7041304447
 10
6449.725523372
 20
5402.0085953482
  0
LWPOLYLINE
  5
28A
330
1F
100
AcDbEntity
  8
0
  6
Continuous
 62
     7
100
AcDbPolyline
 90
        6
 70
   128
 43
0.0
 10
6449.2416381836
 20
5400.2144359358
 10
6449.1415873263
 20
5400.1656988899
 10
6449.0666598691
 20
5400.1787797213
 10
6449.0289019982
 20
5400.3236307282
 10
6449.099016327
 20
5400.5845433792
 10
6449.4341758683
 20
5401.1168502577
  0
LWPOLYLINE
  5
28B
330
1F
100
AcDbEntity
  8
0
  6
Continuous
 62
     7
100
AcDbPolyline
 90
        5
 70
   128
 43
0.0
 10
6449.3064880371
 20
5400.0517152556
 10
6449.4601607183
 20
5400.3391609892
 10
6449.4548932862
 20
5400.3533933447
 10
6449.4405565706
 20
5400.3558822578
 10
6449.3643192246
 20
5400.3080152281
  0
LWPOLYLINE
  5
28C
330
1F
100
AcDbEntity
  8
0
  6
Continuous
 62
     7
100
AcDbPolyline
 90
        3
 70
   128
 43
0.0
 10
6448.9555358887
 20
5399.6056340941
 10
6449.0650255202
 20
5399.7273655868
 10
6449.1659549668
 20
5399.854483486
  0
LWPOLYLINE
  5
28D
330
1F
100
AcDbEntity
  8
0
  6
Continuous
 62
     7
100
AcDbPolyline
 90
        4
 70
   128
 43
0.0
 10
6449.4819641113
 20
5400.7400892981
 10
6449.5102897637
 20
5400.7347755296
 10
6449.5246789346
 20
5400.7122171514
 10
6449.4129566148
 20
5400.3638051756
  0
ARC
  5
28E
330
1F
100
AcDbEntity
  8
0
  6
Continuous
 62
     7
100
AcDbCircle
 10
6424.1623662623
 20
5283.6761261269
 30
0.0
 40
0.5108459440556872
100
AcDbArc
 50
2.4702417429
 51
24.98757443
  0
LWPOLYLINE
  5
28F
330
1F
100
AcDbEntity
  8
0
  6
Continuous
 62
     7
100
AcDbPolyline
 90
        6
 70
   128
 43
0.0
 10
6424.446105957
 20
5283.5286282309
 10
6424.3807805609
 20
5284.3319108975
 10
6424.3946885878
 20
5284.3498972334
 10
6424.4111629287
 20
5284.3560460817
 10
6424.4498297972
 20
5284.3341924398
 10
6424.5666412309
 20
5284.0929650076
  0
LWPOLYLINE
  5
290
330
1F
100
AcDbEntity
  8
0
  6
Continuous
 62
     7
100
AcDbPolyline
 90
        3
 70
   128
 43
0.0
 10
6424.3583679199
 20
5282.6510094412
 10
6424.5061062584
 20
5282.9077334322
 10
6424.4972614244
 20
5283.2872890242
  0
LWPOLYLINE
  5
291
330
1F
100
AcDbEntity
  8
0
  6
Continuous
 62
     7
100
AcDbPolyline
 90
        4
 70
   128
 43
0.0
 10
6424.0036010742
 20
5281.4595721968
 10
6423.9032002417
 20
5282.108315591
 10
6424.0560723357
 20
5282.4811682684
 10
6424.2566970781
 20
5282.6350353964
  0
LWPOLYLINE
  5
292
330
1F
100
AcDbEntity
  8
0
  6
Continuous
 62
     7
100
AcDbPolyline
 90
        3
 70
   128
 43
0.0
 10
6423.9540100098
 20
5280.7381771811
 10
6424.1375387865
 20
5281.1738866809
 10
6424.0945724443
 20
5281.3916229017
  0
LWPOLYLINE
  5
293
330
1F
100
AcDbEntity
  8
0
  6
Continuous
 62
     7
100
AcDbPolyline
 90
        5
 70
   128
 43
0.0
 10
6423.6793518066
 20
5279.9307130583
 10
6423.4804845016
 20
5279.7732274886
 10
6423.4378110747
 20
5279.7768015927
 10
6423.421466122
 20
5279.8185910172
 10
6423.8120464281
 20
5280.5418990858
  0
LWPOLYLINE
  5
294
330
1F
100
AcDbEntity
  8
0
  6
Continuous
 62
     7
100
AcDbPolyline
 90
        8
 70
   128
 43
0.0
 10
6423.9311218262
 20
5280.2208088644
 10
6423.936453051
 20
5280.2267616037
 10
6423.9365477418
 20
5280.2271066854
 10
6423.9365342854
 20
5280.227127337
 10
6423.9365118621
 20
5280.2271366837
 10
6423.93640648
 20
5280.2271041351
 10
6423.9346499639
 20
5280.2254245925
 10
6423.816576381
 20
5280.0834201582
  0
LWPOLYLINE
  5
295
330
1F
100
AcDbEntity
  8
0
  6
Continuous
 62
     7
100
AcDbPolyline
 90
        3
 70
   128
 43
0.0
 10
6124.3133544922
 20
5280.114176155
 10
6124.5712984264
 20
5279.7774997811
 10
6124.6496585801
 20
5279.6760820158
  0
LWPOLYLINE
  5
296
330
1F
100
AcDbEntity
  8
0
  6
Continuous
 62
     7
100
AcDbPolyline
 90
        6
 70
   128
 43
0.0
 10
6124.0882873535
 20
5280.6943677672
 10
6124.0217659079
 20
5280.7079916811
 10
6124.010513438
 20
5280.6915244799
 10
6124.0085078279
 20
5280.6632554451
 10
6124.0319399222
 20
5280.5756534591
 10
6124.1701988175
 20
5280.3219579467
  0
LWPOLYLINE
  5
297
330
1F
100
AcDbEntity
  8
0
  6
Continuous
 62
     7
100
AcDbPolyline
 90
        5
 70
   128
 43
0.0
 10
6123.9852905273
 20
5281.6554330595
 10
6124.3188294352
 20
5281.1486368375
 10
6124.3664476095
 20
5280.6693843777
 10
6124.2989586658
 20
5280.6206437753
 10
6124.2052463486
 20
5280.6371473082
  0
LWPOLYLINE
  5
298
330
1F
100
AcDbEntity
  8
0
  6
Continuous
 62
     7
100
AcDbPolyline
 90
        3
 70
   128
 43
0.0
 10
6123.6991882324
 20
5282.5301312216
 10
6123.7058295265
 20
5282.0871640271
 10
6123.8593009904
 20
5281.7852519758
  0
LWPOLYLINE
  5
299
330
1F
100
AcDbEntity
  8
0
  6
Continuous
 62
     7
100
AcDbPolyline
 90
        5
 70
   128
 43
0.0
 10
6123.5466003418
 20
5283.7196611174
 10
6123.6295524223
 20
5283.7722215735
 10
6123.7107601248
 20
5283.7559154731
 10
6123.8619832552
 20
5283.297441889
 10
6123.7665561631
 20
5282.7014349707
  0
LWPOLYLINE
  5
29A
330
1F
100
AcDbEntity
  8
0
  6
Continuous
 62
     7
100
AcDbPolyline
 90
        7
 70
   128
 43
0.0
 10
6123.3863830566
 20
5283.9934848555
 10
6123.3666969107
 20
5283.70508604
 10
6123.381124513
 20
5283.6155175078
 10
6123.394524344
 20
5283.591113712
 10
6123.4114747316
 20
5283.5808523501
 10
6123.4385628597
 20
5283.5891813259
 10
6123.469248195
 20
5283.6210750349
  0
LWPOLYLINE
  5
29B
330
1F
100
AcDbEntity
  8
0
  6
Continuous
 62
     7
100
AcDbPolyline
 90
       13
 70
   128
 43
0.0
 10
6123.5618591309
 20
5284.7795914342
 10
6123.565775017
 20
5284.7798252215
 10
6123.5659949306
 20
5284.78034347
 10
6123.5663539569
 20
5284.7815983295
 10
6123.5667012059
 20
5284.7828763376
 10
6123.5667128227
 20
5284.7829128566
 10
6123.5667135899
 20
5284.7829143075
 10
6123.5667138076
 20
5284.7829143985
 10
6123.5667139151
 20
5284.7829140674
 10
6123.5667132457
 20
5284.7829085356
 10
6123.5666729011
 20
5284.782736155
 10
6123.5555786107
 20
5284.7387674858
 10
6123.4389690354
 20
5284.2426918753
  0
LWPOLYLINE
  5
29C
330
1F
100
AcDbEntity
  8
0
  6
Continuous
 62
     7
100
AcDbPolyline
 90
        5
 70
   128
 43
0.0
 10
7017.6696777344
 20
5154.2027464123
 10
7017.2666676421
 20
5154.2349327486
 10
7016.9368535688
 20
5154.516725979
 10
7016.8665616245
 20
5154.913868582
 10
7017.0703115868
 20
5155.2210023613
  0
LWPOLYLINE
  5
29D
330
1F
100
AcDbEntity
  8
0
  6
Continuous
 62
     7
100
AcDbPolyline
 90
        3
 70
   128
 43
0.0
 10
7018.5508728027
 20
5153.8874974461
 10
7018.2649708258
 20
5154.2283101314
 10
7017.8950759577
 20
5154.259937069
  0
LWPOLYLINE
  5
29E
330
1F
100
AcDbEntity
  8
0
  6
Continuous
 62
     7
100
AcDbPolyline
 90
        5
 70
   128
 43
0.0
 10
7019.7982788086
 20
5153.6797454567
 10
7019.5989918443
 20
5153.3701964252
 10
7019.1977696957
 20
5153.2391226893
 10
7018.7977658301
 20
5153.3706128827
 10
7018.59743474
 20
5153.6797454568
  0
LWPOLYLINE
  5
29F
330
1F
100
AcDbEntity
  8
0
  6
Continuous
 62
     7
100
AcDbPolyline
 90
        3
 70
   128
 43
0.0
 10
7020.5001831055
 20
5154.259937069
 10
7020.0392357967
 20
5154.1759564223
 10
7019.842352252
 20
5153.8874974461
  0
LWPOLYLINE
  5
2A0
330
1F
100
AcDbEntity
  8
0
  6
Continuous
 62
     7
100
AcDbPolyline
 90
        5
 70
   128
 43
0.0
 10
7021.3241577148
 20
5155.2210023613
 10
7021.5306758621
 20
5154.9135056204
 10
7021.4593820085
 20
5154.5156095561
 10
7021.1296521027
 20
5154.2349614336
 10
7020.7255738783
 20
5154.2027464123
  0
LWPOLYLINE
  5
2A1
330
1F
100
AcDbEntity
  8
0
  6
Continuous
 62
     7
100
AcDbPolyline
 90
        3
 70
   128
 43
0.0
 10
7021.1448669434
 20
5156.0957005234
 10
7020.9726888548
 20
5155.6527650923
 10
7021.1457270193
 20
5155.35085108
  0
LWPOLYLINE
  5
2A2
330
1F
100
AcDbEntity
  8
0
  6
Continuous
 62
     7
100
AcDbPolyline
 90
        5
 70
   128
 43
0.0
 10
7020.7252502441
 20
5157.2852602215
 10
7021.1301377805
 20
5157.3215025083
 10
7021.4600126861
 20
5157.0696351792
 10
7021.5303373604
 20
5156.6425047044
 10
7021.3265824127
 20
5156.2670042725
  0
LWPOLYLINE
  5
2A3
330
1F
100
AcDbEntity
  8
0
  6
Continuous
 62
     7
100
AcDbPolyline
 90
        3
 70
   128
 43
0.0
 10
7019.8402404785
 20
5157.5590541574
 10
7020.1319312911
 20
5157.1819065871
 10
7020.5018180418
 20
5157.1866443367
  0
LWPOLYLINE
  5
2A4
330
1F
100
AcDbEntity
  8
0
  6
Continuous
 62
     7
100
AcDbPolyline
 90
        5
 70
   128
 43
0.0
 10
7018.5966491699
 20
5157.8082909794
 10
7018.7979164622
 20
5158.1862274453
 10
7019.1991110639
 20
5158.3471892574
 10
7019.5991603923
 20
5158.1856797311
 10
7019.7994667101
 20
5157.8082909793
  0
LWPOLYLINE
  5
2A5
330
1F
100
AcDbEntity
  8
0
  6
Continuous
 62
     7
100
AcDbPolyline
 90
        3
 70
   128
 43
0.0
 10
7017.894744873
 20
5157.1866443368
 10
7018.3576817835
 20
5157.2342721362
 10
7018.554534297
 20
5157.5590541573
  0
LWPOLYLINE
  5
2A6
330
1F
100
AcDbEntity
  8
0
  6
Continuous
 62
     7
100
AcDbPolyline
 90
        5
 70
   128
 43
0.0
 10
7017.0669555664
 20
5156.2670042725
 10
7016.8662126924
 20
5156.6429573943
 10
7016.9375561034
 20
5157.070748356
 10
7017.267307095
 20
5157.3213941992
 10
7017.6713201212
 20
5157.2852602216
  0
LWPOLYLINE
  5
2A7
330
1F
100
AcDbEntity
  8
0
  6
Continuous
 62
     7
100
AcDbPolyline
 90
        3
 70
   128
 43
0.0
 10
7017.2500610352
 20
5155.35085108
 10
7017.4241956094
 20
5155.757470024
 10
7017.2511669803
 20
5156.0957005234
  0
LWPOLYLINE
  5
2A8
330
1F
100
AcDbEntity
  8
0
  6
Continuous
 62
     7
100
AcDbPolyline
 90
        5
 70
   128
 43
0.0
 10
7017.7726745605
 20
5394.0397968503
 10
7017.3709674766
 20
5394.07197603
 10
7017.0411325397
 20
5394.3537853171
 10
7016.970837892
 20
5394.7509210224
 10
7017.1745899129
 20
5395.0580229969
  0
LWPOLYLINE
  5
2A9
330
1F
100
AcDbEntity
  8
0
  6
Continuous
 62
     7
100
AcDbPolyline
 90
        3
 70
   128
 43
0.0
 10
7018.6576843262
 20
5393.724547884
 10
7018.3692407919
 20
5394.065334285
 10
7017.9993617344
 20
5394.0969577046
  0
LWPOLYLINE
  5
2AA
330
1F
100
AcDbEntity
  8
0
  6
Continuous
 62
     7
100
AcDbPolyline
 90
        5
 70
   128
 43
0.0
 10
7019.9012756348
 20
5393.5167660923
 10
7019.7032747717
 20
5393.2072268107
 10
7019.3020740072
 20
5393.0761428961
 10
7018.9020389742
 20
5393.2076614792
 10
7018.7017130661
 20
5393.5167660923
  0
LWPOLYLINE
  5
2AB
330
1F
100
AcDbEntity
  8
0
  6
Continuous
 62
     7
100
AcDbPolyline
 90
        3
 70
   128
 43
0.0
 10
7020.6031799316
 20
5394.0969577046
 10
7020.1434945114
 20
5394.0129634921
 10
7019.9466454792
 20
5393.724547884
  0
LWPOLYLINE
  5
2AC
330
1F
100
AcDbEntity
  8
0
  6
Continuous
 62
     7
100
AcDbPolyline
 90
        5
 70
   128
 43
0.0
 10
7021.427154541
 20
5395.0580229969
 10
7021.6349537039
 20
5394.7505829252
 10
7021.5636222933
 20
5394.3526239855
 10
7021.2339540312
 20
5394.072002779
 10
7020.8298522043
 20
5394.0397968502
  0
LWPOLYLINE
  5
2AD
330
1F
100
AcDbEntity
  8
0
  6
Continuous
 62
     7
100
AcDbPolyline
 90
        3
 70
   128
 43
0.0
 10
7021.2478637695
 20
5395.932721159
 10
7021.0769839917
 20
5395.4898003626
 10
7021.2500053453
 20
5395.1879015179
  0
LWPOLYLINE
  5
2AE
330
1F
100
AcDbEntity
  8
0
  6
Continuous
 62
     7
100
AcDbPolyline
 90
        5
 70
   128
 43
0.0
 10
7020.8282470703
 20
5397.1223106594
 10
7021.2344102935
 20
5397.1585777028
 10
7021.5642844821
 20
5396.9066669131
 10
7021.6346183773
 20
5396.479554129
 10
7021.4308607387
 20
5396.1040845128
  0
LWPOLYLINE
  5
2AF
330
1F
100
AcDbEntity
  8
0
  6
Continuous
 62
     7
100
AcDbPolyline
 90
        3
 70
   128
 43
0.0
 10
7019.9432373047
 20
5397.3960747928
 10
7020.2362213097
 20
5397.0189525293
 10
7020.6060963679
 20
5397.0236649723
  0
LWPOLYLINE
  5
2B0
330
1F
100
AcDbEntity
  8
0
  6
Continuous
 62
     7
100
AcDbPolyline
 90
        5
 70
   128
 43
0.0
 10
7018.6996459961
 20
5397.6453414174
 10
7018.9022282906
 20
5398.023280357
 10
7019.3033979966
 20
5398.1842390759
 10
7019.7034410636
 20
5398.0227350892
 10
7019.9037450361
 20
5397.6453414174
  0
LWPOLYLINE
  5
2B1
330
1F
100
AcDbEntity
  8
0
  6
Continuous
 62
     7
100
AcDbPolyline
 90
        3
 70
   128
 43
0.0
 10
7017.9977416992
 20
5397.0236649724
 10
7018.4619455779
 20
5397.0713117236
 10
7018.658812623
 20
5397.3960747928
  0
LWPOLYLINE
  5
2B2
330
1F
100
AcDbEntity
  8
0
  6
Continuous
 62
     7
100
AcDbPolyline
 90
        5
 70
   128
 43
0.0
 10
7017.1737670898
 20
5396.1040845128
 10
7016.9704916447
 20
5396.4800236791
 10
7017.0418307075
 20
5396.9078212483
 10
7017.3715726096
 20
5397.1584448942
 10
7017.7756058979
 20
5397.1223106595
  0
LWPOLYLINE
  5
2B3
330
1F
100
AcDbEntity
  8
0
  6
Continuous
 62
     7
100
AcDbPolyline
 90
        3
 70
   128
 43
0.0
 10
7017.3530578613
 20
5395.1879015179
 10
7017.5284852653
 20
5395.5945158105
 10
7017.3554527569
 20
5395.932721159
  0
LWPOLYLINE
  5
2B4
330
1F
100
AcDbEntity
  8
0
  6
Continuous
 62
     7
100
AcDbPolyline
 90
        5
 70
   128
 43
0.0
 10
7017.8718566895
 20
5274.2791643352
 10
7017.468852736
 20
5274.3113801785
 10
7017.1389614104
 20
5274.593137918
 10
7017.0686625252
 20
5274.9902957887
 10
7017.2724160362
 20
5275.2974500866
  0
LWPOLYLINE
  5
2B5
330
1F
100
AcDbEntity
  8
0
  6
Continuous
 62
     7
100
AcDbPolyline
 90
        3
 70
   128
 43
0.0
 10
7018.7530517578
 20
5273.9639749736
 10
7018.4670747912
 20
5274.3047582948
 10
7018.0971878576
 20
5274.3363847943
  0
LWPOLYLINE
  5
2B6
330
1F
100
AcDbEntity
  8
0
  6
Continuous
 62
     7
100
AcDbPolyline
 90
        5
 70
   128
 43
0.0
 10
7020.0004577637
 20
5273.7561931821
 10
7019.8010670939
 20
5273.4466349231
 10
7019.3998790251
 20
5273.3155696121
 10
7018.9997958628
 20
5273.4470722125
 10
7018.7995391893
 20
5273.756193182
  0
LWPOLYLINE
  5
2B7
330
1F
100
AcDbEntity
  8
0
  6
Continuous
 62
     7
100
AcDbPolyline
 90
        3
 70
   128
 43
0.0
 10
7020.7023620605
 20
5274.3363847943
 10
7020.2413515451
 20
5274.2524117508
 10
7020.0444567013
 20
5273.9639749738
  0
LWPOLYLINE
  5
2B8
330
1F
100
AcDbEntity
  8
0
  6
Continuous
 62
     7
100
AcDbPolyline
 90
        5
 70
   128
 43
0.0
 10
7021.5263366699
 20
5275.2974500866
 10
7021.7327731346
 20
5274.9899725098
 10
7021.6614869309
 20
5274.5920588666
 10
7021.3317549905
 20
5274.3114014048
 10
7020.9276783276
 20
5274.2791643353
  0
LWPOLYLINE
  5
2B9
330
1F
100
AcDbEntity
  8
0
  6
Continuous
 62
     7
100
AcDbPolyline
 90
        3
 70
   128
 43
0.0
 10
7021.3470458984
 20
5276.1721482487
 10
7021.1747934102
 20
5275.7291810542
 10
7021.3478314686
 20
5275.4272690029
  0
LWPOLYLINE
  5
2BA
330
1F
100
AcDbEntity
  8
0
  6
Continuous
 62
     7
100
AcDbPolyline
 90
        5
 70
   128
 43
0.0
 10
7020.9274291992
 20
5277.3616781445
 10
7021.3322904209
 20
5277.3979325002
 10
7021.6621378864
 20
5277.1460500909
 10
7021.7324389386
 20
5276.718928971
 10
7021.528686862
 20
5276.3434519978
  0
LWPOLYLINE
  5
2BB
330
1F
100
AcDbEntity
  8
0
  6
Continuous
 62
     7
100
AcDbPolyline
 90
        3
 70
   128
 43
0.0
 10
7020.0424194336
 20
5277.6355018825
 10
7020.3340423995
 20
5277.2583811937
 10
7020.7039224911
 20
5277.2630920621
  0
LWPOLYLINE
  5
2BC
330
1F
100
AcDbEntity
  8
0
  6
Continuous
 62
     7
100
AcDbPolyline
 90
        5
 70
   128
 43
0.0
 10
7018.798828125
 20
5277.8847089023
 10
7019.0000114124
 20
5278.2626629068
 10
7019.4012120944
 20
5278.4236070893
 10
7019.8012590245
 20
5278.2620958527
 10
7020.0015711594
 20
5277.8847089023
  0
LWPOLYLINE
  5
2BD
330
1F
100
AcDbEntity
  8
0
  6
Continuous
 62
     7
100
AcDbPolyline
 90
        3
 70
   128
 43
0.0
 10
7018.0969238281
 20
5277.263092062
 10
7018.5598105117
 20
5277.3107080281
 10
7018.7566387462
 20
5277.6355018825
  0
LWPOLYLINE
  5
2BE
330
1F
100
AcDbEntity
  8
0
  6
Continuous
 62
     7
100
AcDbPolyline
 90
        5
 70
   128
 43
0.0
 10
7017.2691345215
 20
5276.3434519978
 10
7017.0683166813
 20
5276.7193830131
 10
7017.1396414099
 20
5277.1471605613
 10
7017.4693688146
 20
5277.3977876982
 10
7017.8734245705
 20
5277.3616781445
  0
LWPOLYLINE
  5
2BF
330
1F
100
AcDbEntity
  8
0
  6
Continuous
 62
     7
100
AcDbPolyline
 90
        3
 70
   128
 43
0.0
 10
7017.4522399902
 20
5275.4272690029
 10
7017.6263013361
 20
5275.8339068887
 10
7017.4532714295
 20
5276.1721482487
  0
LWPOLYLINE
  5
2C0
330
1F
100
AcDbEntity
  8
0
  6
Continuous
 62
     7
100
AcDbPolyline
 90
        5
 70
   128
 43
0.0
 10
6276.1497497559
 20
4215.2035360031
 10
6299.8742136376
 20
4226.5485275634
 10
6309.0025015613
 20
4251.2085218953
 10
6298.3843436543
 20
4275.2644536613
 10
6274.0186599687
 20
4285.1384405784
  0
LWPOLYLINE
  5
2C1
330
1F
100
AcDbEntity
  8
0
  6
Continuous
 62
     7
100
AcDbPolyline
 90
        5
 70
   128
 43
0.0
 10
6274.0173339844
 20
4285.1384405784
 10
6248.8955805272
 20
4274.5068227935
 10
6239.0351136183
 20
4249.0711443944
 10
6250.4278231002
 20
4224.2837669947
 10
6276.152267833
 20
4215.2035360031
  0
ENDSEC
  0
SECTION
  2
OBJECTS
  0
DICTIONARY
  5
C
330
0
100
AcDbDictionary
281
     1
  3
ACAD_GROUP
350
D
  3
ACAD_LAYOUT
350
1A
  3
ACAD_MLINESTYLE
350
17
  3
ACAD_PLOTSETTINGS
350
19
  3
ACAD_PLOTSTYLENAME
350
E
  3
ACAD_SCALELIST
350
47
  3
DWGPROPS
350
2C2
  0
DICTIONARY
  5
D
102
{ACAD_REACTORS
330
C
102
}
330
C
100
AcDbDictionary
281
     1
  0
DICTIONARY
  5
1A
102
{ACAD_REACTORS
330
C
102
}
330
C
100
AcDbDictionary
281
     1
  3
Layout1
350
1E
  3
Layout2
350
26
  3
Model
350
22
  0
DICTIONARY
  5
17
102
{ACAD_REACTORS
330
C
102
}
330
C
100
AcDbDictionary
281
     1
  3
Standard
350
18
  0
DICTIONARY
  5
19
102
{ACAD_REACTORS
330
C
102
}
330
C
100
AcDbDictionary
281
     1
  0
ACDBDICTIONARYWDFLT
  5
E
102
{ACAD_REACTORS
330
C
102
}
330
C
100
AcDbDictionary
281
     1
  3
Normal
350
F
100
AcDbDictionaryWithDefault
340
F
  0
DICTIONARY
  5
47
102
{ACAD_REACTORS
330
C
102
}
330
C
100
AcDbDictionary
281
     1
  3
A0
350
48
  3
A1
350
49
  3
A2
350
4A
  3
A3
350
4B
  3
A4
350
4C
  3
A5
350
4D
  3
A6
350
4E
  3
A7
350
4F
  3
A8
350
50
  3
A9
350
51
  3
B0
350
52
  3
B1
350
53
  3
B2
350
54
  3
B3
350
55
  3
B4
350
56
  3
B5
350
57
  3
B6
350
58
  3
B7
350
59
  3
B8
350
5A
  3
B9
350
5B
  3
C0
350
5C
  3
C1
350
5D
  3
C2
350
5E
  3
C3
350
5F
  3
C4
350
60
  3
C5
350
61
  3
C6
350
62
  3
C7
350
63
  3
C8
350
64
  3
C9
350
65
  3
D0
350
66
  3
D1
350
67
  3
D2
350
68
  0
XRECORD
  5
2C2
102
{ACAD_REACTORS
330
C
102
}
330
C
100
AcDbXrecord
280
     1
  1
DWGPROPS COOKIE
  2

  3

  4

  6

  7

  8
radek.stransky
  9

300
=
301
=
302
=
303
=
304
=
305
=
306
=
307
=
308
=
309
=
 40
0.0
 41
2459100.311766887
 42
2459100.311797037
  1

 90
        0
  0
LAYOUT
  5
1E
102
{ACAD_REACTORS
330
1A
102
}
330
1A
100
AcDbPlotSettings
  1

  2
none_device
  4

  6

 40
0.0
 41
0.0
 42
0.0
 43
0.0
 44
0.0
 45
0.0
 46
0.0
 47
0.0
 48
0.0
 49
0.0
140
0.0
141
0.0
142
1.0
143
1.0
 70
   688
 72
     1
 73
     0
 74
     5
  7

 75
    16
147
1.0
148
0.0
149
0.0
100
AcDbLayout
  1
Layout1
 70
     1
 71
     1
 10
0.0
 20
0.0
 11
420.0
 21
297.0
 12
0.0
 22
0.0
 32
0.0
 14
1.0000000000E+20
 24
1.0000000000E+20
 34
1.0000000000E+20
 15
-1.0000000000E+20
 25
-1.0000000000E+20
 35
-1.0000000000E+20
146
0.0
 13
0.0
 23
0.0
 33
0.0
 16
1.0
 26
0.0
 36
0.0
 17
0.0
 27
1.0
 37
0.0
 76
     0
330
1B
  0
LAYOUT
  5
26
102
{ACAD_REACTORS
330
1A
102
}
330
1A
100
AcDbPlotSettings
  1

  2
none_device
  4

  6

 40
0.0
 41
0.0
 42
0.0
 43
0.0
 44
0.0
 45
0.0
 46
0.0
 47
0.0
 48
0.0
 49
0.0
140
0.0
141
0.0
142
1.0
143
1.0
 70
   688
 72
     1
 73
     0
 74
     5
  7

 75
    16
147
1.0
148
0.0
149
0.0
100
AcDbLayout
  1
Layout2
 70
     1
 71
     2
 10
0.0
 20
0.0
 11
0.0
 21
0.0
 12
0.0
 22
0.0
 32
0.0
 14
0.0
 24
0.0
 34
0.0
 15
0.0
 25
0.0
 35
0.0
146
0.0
 13
0.0
 23
0.0
 33
0.0
 16
1.0
 26
0.0
 36
0.0
 17
0.0
 27
1.0
 37
0.0
 76
     0
330
23
  0
LAYOUT
  5
22
102
{ACAD_REACTORS
330
1A
102
}
330
1A
100
AcDbPlotSettings
  1

  2
none_device
  4
ANSI_A_(11.00_x_8.50_Inches)
  6

 40
6.35
 41
19.05
 42
6.35000508
 43
19.05000254
 44
279.4
 45
215.9
 46
-876.4078301383
 47
-610.4629458182
 48
0.0
 49
0.0
140
0.0
141
0.0
142
0.0058380284
143
1.0
 70
  1696
 72
     0
 73
     0
 74
     0
  7

 75
     0
147
0.0179189148
148
-1300.4909072572
149
0.0
100
AcDbLayout
  1
Model
 70
     1
 71
     0
 10
0.0
 20
0.0
 11
420.0
 21
297.0
 12
0.0
 22
0.0
 32
0.0
 14
6094.4884647158
 24
3995.6081931285
 34
0.0
 15
7524.5768454047
 25
5437.0194696196
 35
0.0
146
0.0
 13
0.0
 23
0.0
 33
0.0
 16
1.0
 26
0.0
 36
0.0
 17
0.0
 27
1.0
 37
0.0
 76
     0
330
1F
331
29
  0
MLINESTYLE
  5
18
102
{ACAD_REACTORS
330
17
102
}
330
17
100
AcDbMlineStyle
  2
Standard
 70
     0
  3

 62
   256
 51
90.0
 52
90.0
 71
     2
 49
0.5
 62
   256
  6
BYLAYER
 49
-0.5
 62
   256
  6
BYLAYER
  0
ACDBPLACEHOLDER
  5
F
102
{ACAD_REACTORS
330
E
102
}
330
E
  0
SCALE
  5
48
102
{ACAD_REACTORS
330
47
102
}
330
47
100
AcDbScale
 70
     0
300
1:1
140
1.0
141
1.0
290
     1
  0
SCALE
  5
49
102
{ACAD_REACTORS
330
47
102
}
330
47
100
AcDbScale
 70
     0
300
1:2
140
1.0
141
2.0
290
     0
  0
SCALE
  5
4A
102
{ACAD_REACTORS
330
47
102
}
330
47
100
AcDbScale
 70
     0
300
1:4
140
1.0
141
4.0
290
     0
  0
SCALE
  5
4B
102
{ACAD_REACTORS
330
47
102
}
330
47
100
AcDbScale
 70
     0
300
1:5
140
1.0
141
5.0
290
     0
  0
SCALE
  5
4C
102
{ACAD_REACTORS
330
47
102
}
330
47
100
AcDbScale
 70
     0
300
1:8
140
1.0
141
8.0
290
     0
  0
SCALE
  5
4D
102
{ACAD_REACTORS
330
47
102
}
330
47
100
AcDbScale
 70
     0
300
1:10
140
1.0
141
10.0
290
     0
  0
SCALE
  5
4E
102
{ACAD_REACTORS
330
47
102
}
330
47
100
AcDbScale
 70
     0
300
1:16
140
1.0
141
16.0
290
     0
  0
SCALE
  5
4F
102
{ACAD_REACTORS
330
47
102
}
330
47
100
AcDbScale
 70
     0
300
1:20
140
1.0
141
20.0
290
     0
  0
SCALE
  5
50
102
{ACAD_REACTORS
330
47
102
}
330
47
100
AcDbScale
 70
     0
300
1:30
140
1.0
141
30.0
290
     0
  0
SCALE
  5
51
102
{ACAD_REACTORS
330
47
102
}
330
47
100
AcDbScale
 70
     0
300
1:40
140
1.0
141
40.0
290
     0
  0
SCALE
  5
52
102
{ACAD_REACTORS
330
47
102
}
330
47
100
AcDbScale
 70
     0
300
1:50
140
1.0
141
50.0
290
     0
  0
SCALE
  5
53
102
{ACAD_REACTORS
330
47
102
}
330
47
100
AcDbScale
 70
     0
300
1:100
140
1.0
141
100.0
290
     0
  0
SCALE
  5
54
102
{ACAD_REACTORS
330
47
102
}
330
47
100
AcDbScale
 70
     0
300
2:1
140
2.0
141
1.0
290
     0
  0
SCALE
  5
55
102
{ACAD_REACTORS
330
47
102
}
330
47
100
AcDbScale
 70
     0
300
4:1
140
4.0
141
1.0
290
     0
  0
SCALE
  5
56
102
{ACAD_REACTORS
330
47
102
}
330
47
100
AcDbScale
 70
     0
300
8:1
140
8.0
141
1.0
290
     0
  0
SCALE
  5
57
102
{ACAD_REACTORS
330
47
102
}
330
47
100
AcDbScale
 70
     0
300
10:1
140
10.0
141
1.0
290
     0
  0
SCALE
  5
58
102
{ACAD_REACTORS
330
47
102
}
330
47
100
AcDbScale
 70
     0
300
100:1
140
100.0
141
1.0
290
     0
  0
SCALE
  5
59
102
{ACAD_REACTORS
330
47
102
}
330
47
100
AcDbScale
 70
     0
300
1/128" = 1'-0"
140
0.0078125
141
12.0
290
     0
  0
SCALE
  5
5A
102
{ACAD_REACTORS
330
47
102
}
330
47
100
AcDbScale
 70
     0
300
1/64" = 1'-0"
140
0.015625
141
12.0
290
     0
  0
SCALE
  5
5B
102
{ACAD_REACTORS
330
47
102
}
330
47
100
AcDbScale
 70
     0
300
1/32" = 1'-0"
140
0.03125
141
12.0
290
     0
  0
SCALE
  5
5C
102
{ACAD_REACTORS
330
47
102
}
330
47
100
AcDbScale
 70
     0
300
1/16" = 1'-0"
140
0.0625
141
12.0
290
     0
  0
SCALE
  5
5D
102
{ACAD_REACTORS
330
47
102
}
330
47
100
AcDbScale
 70
     0
300
3/32" = 1'-0"
140
0.09375
141
12.0
290
     0
  0
SCALE
  5
5E
102
{ACAD_REACTORS
330
47
102
}
330
47
100
AcDbScale
 70
     0
300
1/8" = 1'-0"
140
0.125
141
12.0
290
     0
  0
SCALE
  5
5F
102
{ACAD_REACTORS
330
47
102
}
330
47
100
AcDbScale
 70
     0
300
3/16" = 1'-0"
140
0.1875
141
12.0
290
     0
  0
SCALE
  5
60
102
{ACAD_REACTORS
330
47
102
}
330
47
100
AcDbScale
 70
     0
300
1/4" = 1'-0"
140
0.25
141
12.0
290
     0
  0
SCALE
  5
61
102
{ACAD_REACTORS
330
47
102
}
330
47
100
AcDbScale
 70
     0
300
3/8" = 1'-0"
140
0.375
141
12.0
290
     0
  0
SCALE
  5
62
102
{ACAD_REACTORS
330
47
102
}
330
47
100
AcDbScale
 70
     0
300
1/2" = 1'-0"
140
0.5
141
12.0
290
     0
  0
SCALE
  5
63
102
{ACAD_REACTORS
330
47
102
}
330
47
100
AcDbScale
 70
     0
300
3/4" = 1'-0"
140
0.75
141
12.0
290
     0
  0
SCALE
  5
64
102
{ACAD_REACTORS
330
47
102
}
330
47
100
AcDbScale
 70
     0
300
1" = 1'-0"
140
1.0
141
12.0
290
     0
  0
SCALE
  5
65
102
{ACAD_REACTORS
330
47
102
}
330
47
100
AcDbScale
 70
     0
300
1-1/2" = 1'-0"
140
1.5
141
12.0
290
     0
  0
SCALE
  5
66
102
{ACAD_REACTORS
330
47
102
}
330
47
100
AcDbScale
 70
     0
300
3" = 1'-0"
140
3.0
141
12.0
290
     0
  0
SCALE
  5
67
102
{ACAD_REACTORS
330
47
102
}
330
47
100
AcDbScale
 70
     0
300
6" = 1'-0"
140
6.0
141
12.0
290
     0
  0
SCALE
  5
68
102
{ACAD_REACTORS
330
47
102
}
330
47
100
AcDbScale
 70
     0
300
1'-0" = 1'-0"
140
12.0
141
12.0
290
     0
  0
ENDSEC
  0
EOF
