  0
SECTION
  2
HEADER
  9
$ACADVER
  1
AC1015
  9
$ACADMAINTVER
 70
     6
  9
$DWGCODEPAGE
  3
ANSI_1250
  9
$INSBASE
 10
0.0
 20
0.0
 30
0.0
  9
$EXTMIN
 10
0.0
 20
0.0
 30
0.0
  9
$EXTMAX
 10
20000.0
 20
10000.0
 30
0.0
  9
$LIMMIN
 10
0.0
 20
0.0
  9
$LIMMAX
 10
20000.0
 20
10000.0
  9
$ORTHOMODE
 70
     0
  9
$REGENMODE
 70
     1
  9
$FILLMODE
 70
     1
  9
$QTEXTMODE
 70
     0
  9
$MIRRTEXT
 70
     1
  9
$LTSCALE
 40
1.0
  9
$ATTMODE
 70
     1
  9
$TEXTSIZE
 40
2.0
  9
$TRACEWID
 40
1.0
  9
$TEXTSTYLE
  7
Standard
  9
$CLAYER
  8
0
  9
$CELTYPE
  6
ByLayer
  9
$CECOLOR
 62
   256
  9
$CELTSCALE
 40
1.0
  9
$DISPSILH
 70
     0
  9
$DIMSCALE
 40
1.0
  9
$DIMASZ
 40
2.0
  9
$DIMEXO
 40
1.0
  9
$DIMDLI
 40
3.75
  9
$DIMRND
 40
0.0
  9
$DIMDLE
 40
0.0
  9
$DIMEXE
 40
1.0
  9
$DIMTP
 40
0.0
  9
$DIMTM
 40
0.0
  9
$DIMTXT
 40
2.0
  9
$DIMCEN
 40
2.5
  9
$DIMTSZ
 40
0.0
  9
$DIMTOL
 70
     0
  9
$DIMLIM
 70
     0
  9
$DIMTIH
 70
     1
  9
$DIMTOH
 70
     1
  9
$DIMSE1
 70
     0
  9
$DIMSE2
 70
     0
  9
$DIMTAD
 70
     1
  9
$DIMZIN
 70
     0
  9
$DIMBLK
  1

  9
$DIMASO
 70
     1
  9
$DIMSHO
 70
     1
  9
$DIMPOST
  1

  9
$DIMAPOST
  1

  9
$DIMALT
 70
     0
  9
$DIMALTD
 70
     3
  9
$DIMALTF
 40
0.0393700787
  9
$DIMLFAC
 40
1.0
  9
$DIMTOFL
 70
     1
  9
$DIMTVP
 40
0.0
  9
$DIMTIX
 70
     0
  9
$DIMSOXD
 70
     0
  9
$DIMSAH
 70
     0
  9
$DIMBLK1
  1

  9
$DIMBLK2
  1

  9
$DIMSTYLE
  2
ISO-25
  9
$DIMCLRD
 70
     0
  9
$DIMCLRE
 70
     0
  9
$DIMCLRT
 70
     0
  9
$DIMTFAC
 40
1.0
  9
$DIMGAP
 40
1.524
  9
$DIMJUST
 70
     0
  9
$DIMSD1
 70
     0
  9
$DIMSD2
 70
     0
  9
$DIMTOLJ
 70
     0
  9
$DIMTZIN
 70
     0
  9
$DIMALTZ
 70
     0
  9
$DIMALTTZ
 70
     0
  9
$DIMUPT
 70
     0
  9
$DIMDEC
 70
     2
  9
$DIMTDEC
 70
     0
  9
$DIMALTU
 70
     2
  9
$DIMALTTD
 70
     3
  9
$DIMTXSTY
  7
Standard
  9
$DIMAUNIT
 70
     0
  9
$DIMADEC
 70
     2
  9
$DIMALTRND
 40
0.0
  9
$DIMAZIN
 70
     0
  9
$DIMDSEP
 70
    44
  9
$DIMATFIT
 70
     3
  9
$DIMFRAC
 70
     0
  9
$DIMLDRBLK
  1

  9
$DIMLUNIT
 70
     2
  9
$DIMLWD
 70
    -2
  9
$DIMLWE
 70
    -2
  9
$DIMTMOVE
 70
     0
  9
$LUNITS
 70
     2
  9
$LUPREC
 70
     3
  9
$SKETCHINC
 40
1.0
  9
$FILLETRAD
 40
10.0
  9
$AUNITS
 70
     0
  9
$AUPREC
 70
     2
  9
$MENU
  1
.
  9
$ELEVATION
 40
0.0
  9
$PELEVATION
 40
0.0
  9
$THICKNESS
 40
0.0
  9
$LIMCHECK
 70
     0
  9
$CHAMFERA
 40
0.0
  9
$CHAMFERB
 40
0.0
  9
$CHAMFERC
 40
0.0
  9
$CHAMFERD
 40
0.0
  9
$SKPOLY
 70
     0
  9
$TDCREATE
 40
2460286.295903854
  9
$TDUCREATE
 40
2460286.254237188
  9
$TDUPDATE
 40
2460286.295904618
  9
$TDUUPDATE
 40
2460286.254237951
  9
$TDINDWG
 40
0.0000000116
  9
$TDUSRTIMER
 40
0.0000000116
  9
$USRTIMER
 70
     1
  9
$ANGBASE
 50
0.0
  9
$ANGDIR
 70
     0
  9
$PDMODE
 70
     0
  9
$PDSIZE
 40
-1.0
  9
$PLINEWID
 40
0.0
  9
$SPLFRAME
 70
     0
  9
$SPLINETYPE
 70
     6
  9
$SPLINESEGS
 70
     8
  9
$HANDSEED
  5
12A
  9
$SURFTAB1
 70
     6
  9
$SURFTAB2
 70
     6
  9
$SURFTYPE
 70
     6
  9
$SURFU
 70
     6
  9
$SURFV
 70
     6
  9
$UCSBASE
  2

  9
$UCSNAME
  2

  9
$UCSORG
 10
0.0
 20
0.0
 30
0.0
  9
$UCSXDIR
 10
1.0
 20
0.0
 30
0.0
  9
$UCSYDIR
 10
0.0
 20
1.0
 30
0.0
  9
$UCSORTHOREF
  2

  9
$UCSORTHOVIEW
 70
     0
  9
$UCSORGTOP
 10
0.0
 20
0.0
 30
0.0
  9
$UCSORGBOTTOM
 10
0.0
 20
0.0
 30
0.0
  9
$UCSORGLEFT
 10
0.0
 20
0.0
 30
0.0
  9
$UCSORGRIGHT
 10
0.0
 20
0.0
 30
0.0
  9
$UCSORGFRONT
 10
0.0
 20
0.0
 30
0.0
  9
$UCSORGBACK
 10
0.0
 20
0.0
 30
0.0
  9
$PUCSBASE
  2

  9
$PUCSNAME
  2

  9
$PUCSORG
 10
0.0
 20
0.0
 30
0.0
  9
$PUCSXDIR
 10
1.0
 20
0.0
 30
0.0
  9
$PUCSYDIR
 10
0.0
 20
1.0
 30
0.0
  9
$PUCSORTHOREF
  2

  9
$PUCSORTHOVIEW
 70
     0
  9
$PUCSORGTOP
 10
0.0
 20
0.0
 30
0.0
  9
$PUCSORGBOTTOM
 10
0.0
 20
0.0
 30
0.0
  9
$PUCSORGLEFT
 10
0.0
 20
0.0
 30
0.0
  9
$PUCSORGRIGHT
 10
0.0
 20
0.0
 30
0.0
  9
$PUCSORGFRONT
 10
0.0
 20
0.0
 30
0.0
  9
$PUCSORGBACK
 10
0.0
 20
0.0
 30
0.0
  9
$USERI1
 70
     0
  9
$USERI2
 70
     0
  9
$USERI3
 70
     0
  9
$USERI4
 70
     0
  9
$USERI5
 70
     0
  9
$USERR1
 40
0.0
  9
$USERR2
 40
0.0
  9
$USERR3
 40
0.0
  9
$USERR4
 40
0.0
  9
$USERR5
 40
0.0
  9
$WORLDVIEW
 70
     1
  9
$SHADEDGE
 70
     3
  9
$SHADEDIF
 70
    70
  9
$TILEMODE
 70
     1
  9
$MAXACTVP
 70
    64
  9
$PINSBASE
 10
0.0
 20
0.0
 30
0.0
  9
$PLIMCHECK
 70
     0
  9
$PEXTMIN
 10
1.0000000000E+20
 20
1.0000000000E+20
 30
1.0000000000E+20
  9
$PEXTMAX
 10
-1.0000000000E+20
 20
-1.0000000000E+20
 30
-1.0000000000E+20
  9
$PLIMMIN
 10
0.0
 20
0.0
  9
$PLIMMAX
 10
420.0
 20
297.0
  9
$UNITMODE
 70
     0
  9
$VISRETAIN
 70
     1
  9
$PLINEGEN
 70
     0
  9
$PSLTSCALE
 70
     1
  9
$TREEDEPTH
 70
  3020
  9
$CMLSTYLE
  2
Standard
  9
$CMLJUST
 70
     0
  9
$CMLSCALE
 40
20.0
  9
$PROXYGRAPHICS
 70
     1
  9
$MEASUREMENT
 70
     1
  9
$CELWEIGHT
370
    -1
  9
$ENDCAPS
280
     0
  9
$JOINSTYLE
280
     0
  9
$LWDISPLAY
290
     1
  9
$INSUNITS
 70
     4
  9
$HYPERLINKBASE
  1

  9
$STYLESHEET
  1

  9
$XEDIT
290
     1
  9
$CEPSNTYPE
380
     0
  9
$PSTYLEMODE
290
     1
  9
$FINGERPRINTGUID
  2
{694394ff-f5a1-4965-b699-672faa023dd8}
  9
$VERSIONGUID
  2
{FAEB1C32-E019-11D5-929B-00C0DF256EC4}
  9
$EXTNAMES
290
     1
  9
$PSVPSCALE
 40
0.0
  9
$OLESTARTUP
290
     0
  0
ENDSEC
  0
SECTION
  2
CLASSES
  0
CLASS
  1
ACDBDICTIONARYWDFLT
  2
AcDbDictionaryWithDefault
  3
ObjectDBX Classes
 90
        0
280
     0
281
     0
  0
CLASS
  1
VISUALSTYLE
  2
AcDbVisualStyle
  3
ObjectDBX Classes
 90
     4095
280
     0
281
     0
  0
CLASS
  1
MATERIAL
  2
AcDbMaterial
  3
ObjectDBX Classes
 90
     1153
280
     0
281
     0
  0
CLASS
  1
SCALE
  2
AcDbScale
  3
ObjectDBX Classes
 90
     1153
280
     0
281
     0
  0
CLASS
  1
TABLESTYLE
  2
AcDbTableStyle
  3
ObjectDBX Classes
 90
     4095
280
     0
281
     0
  0
CLASS
  1
MLEADERSTYLE
  2
AcDbMLeaderStyle
  3
ACDB_MLEADERSTYLE_CLASS
 90
     4095
280
     0
281
     0
  0
CLASS
  1
SUN
  2
AcDbSun
  3
SCENEOE
 90
     1153
280
     0
281
     0
  0
CLASS
  1
ACDBPLACEHOLDER
  2
AcDbPlaceHolder
  3
ObjectDBX Classes
 90
        0
280
     0
281
     0
  0
CLASS
  1
LAYOUT
  2
AcDbLayout
  3
ObjectDBX Classes
 90
        0
280
     0
281
     0
  0
ENDSEC
  0
SECTION
  2
TABLES
  0
TABLE
  2
VPORT
  5
8
330
0
100
AcDbSymbolTable
 70
     1
  0
VPORT
  5
29
330
8
100
AcDbSymbolTableRecord
100
AcDbViewportTableRecord
  2
*Active
 70
     0
 10
0.0
 20
0.0
 11
1.0
 21
1.0
 12
10000.0
 22
5000.0
 13
0.0
 23
0.0
 14
10.0
 24
10.0
 15
10.0
 25
10.0
 16
0.0
 26
0.0
 36
1.0
 17
0.0
 27
0.0
 37
0.0
 40
10000.0
 41
2.0
 42
50.0
 43
0.0
 44
0.0
 50
0.0
 51
0.0
 71
     0
 72
  2000
 73
     1
 74
     3
 75
     0
 76
     0
 77
     0
 78
     0
281
     0
 65
     1
110
0.0
120
0.0
130
0.0
111
1.0
121
0.0
131
0.0
112
0.0
122
1.0
132
0.0
 79
     0
146
0.0
  0
ENDTAB
  0
TABLE
  2
LTYPE
  5
5
330
0
100
AcDbSymbolTable
 70
     6
  0
LTYPE
  5
14
330
5
100
AcDbSymbolTableRecord
100
AcDbLinetypeTableRecord
  2
ByBlock
 70
     0
  3

 72
    65
 73
     0
 40
0.0
  0
LTYPE
  5
15
330
5
100
AcDbSymbolTableRecord
100
AcDbLinetypeTableRecord
  2
ByLayer
 70
     0
  3

 72
    65
 73
     0
 40
0.0
  0
LTYPE
  5
16
330
5
100
AcDbSymbolTableRecord
100
AcDbLinetypeTableRecord
  2
Continuous
 70
     0
  3
Solid line
 72
    65
 73
     0
 40
0.0
  0
LTYPE
  5
6E
330
5
100
AcDbSymbolTableRecord
100
AcDbLinetypeTableRecord
  2
HIDDEN
 70
     0
  3
Hidden __ __ __ __ __ __ __ __ __ __ __ __ __ __
 72
    65
 73
     2
 40
1.905
 49
1.27
 74
     0
 49
-0.635
 74
     0
  0
LTYPE
  5
6F
330
5
100
AcDbSymbolTableRecord
100
AcDbLinetypeTableRecord
  2
PHANTOM
 70
     0
  3
Phantom ______  __  __  ______  __  __  ______
 72
    65
 73
     6
 40
12.7
 49
6.35
 74
     0
 49
-1.27
 74
     0
 49
1.27
 74
     0
 49
-1.27
 74
     0
 49
1.27
 74
     0
 49
-1.27
 74
     0
  0
LTYPE
  5
70
330
5
100
AcDbSymbolTableRecord
100
AcDbLinetypeTableRecord
  2
CENTER
 70
     0
  3
Center ____ _ ____ _ ____ _ ____ _ ____ _ ____
 72
    65
 73
     4
 40
10.16
 49
6.35
 74
     0
 49
-1.27
 74
     0
 49
1.27
 74
     0
 49
-1.27
 74
     0
  0
LTYPE
  5
71
330
5
100
AcDbSymbolTableRecord
100
AcDbLinetypeTableRecord
  2
CENTERX2
 70
     0
  3
Center (2x) ________  __  ________  __  _____
 72
    65
 73
     4
 40
20.32
 49
12.7
 74
     0
 49
-2.54
 74
     0
 49
2.54
 74
     0
 49
-2.54
 74
     0
  0
LTYPE
  5
72
330
5
100
AcDbSymbolTableRecord
100
AcDbLinetypeTableRecord
  2
DOT2
 70
     0
  3
Dot (.5x) ........................................
 72
    65
 73
     2
 40
0.635
 49
0.0
 74
     0
 49
-0.635
 74
     0
  0
ENDTAB
  0
TABLE
  2
LAYER
  5
2
330
0
100
AcDbSymbolTable
 70
    13
  0
LAYER
  5
10
330
2
100
AcDbSymbolTableRecord
100
AcDbLayerTableRecord
  2
0
 70
     0
 62
     7
  6
Continuous
370
    -3
390
F
  0
LAYER
  5
73
330
2
100
AcDbSymbolTableRecord
100
AcDbLayerTableRecord
  2
FORMAT
 70
     0
 62
     7
  6
Continuous
370
    -3
390
F
  0
LAYER
  5
74
330
2
100
AcDbSymbolTableRecord
100
AcDbLayerTableRecord
  2
OSA
 70
     0
 62
     7
  6
CENTER
370
    -3
390
F
  0
LAYER
  5
75
330
2
100
AcDbSymbolTableRecord
100
AcDbLayerTableRecord
  2
0_35
 70
     0
 62
     7
  6
Continuous
370
    35
390
F
  0
LAYER
  5
76
330
2
100
AcDbSymbolTableRecord
100
AcDbLayerTableRecord
  2
0_5
 70
     0
 62
     7
  6
Continuous
370
    50
390
F
  0
LAYER
  5
77
330
2
100
AcDbSymbolTableRecord
100
AcDbLayerTableRecord
  2
0_25
 70
     0
 62
     7
  6
Continuous
370
    25
390
F
  0
LAYER
  5
78
330
2
100
AcDbSymbolTableRecord
100
AcDbLayerTableRecord
  2
0_18
 70
     0
 62
     7
  6
Continuous
370
    -3
390
F
  0
LAYER
  5
79
330
2
100
AcDbSymbolTableRecord
100
AcDbLayerTableRecord
  2
SLD-0
 70
     0
 62
   179
  6
Continuous
370
    -3
390
F
  0
LAYER
  5
7A
330
2
100
AcDbSymbolTableRecord
100
AcDbLayerTableRecord
  2
KOTY
 70
     0
 62
     7
  6
Continuous
370
    -3
390
F
  0
LAYER
  5
7B
330
2
100
AcDbSymbolTableRecord
100
AcDbLayerTableRecord
  2
SILNA
 70
     0
 62
   179
  6
Continuous
370
    -3
390
F
  0
LAYER
  5
7C
330
2
100
AcDbSymbolTableRecord
100
AcDbLayerTableRecord
  2
0_18_1
 70
     0
 62
   179
  6
Continuous
370
    -3
390
F
  0
LAYER
  5
7D
330
2
100
AcDbSymbolTableRecord
100
AcDbLayerTableRecord
  2
0_35_1
 70
     0
 62
   179
  6
Continuous
370
    35
390
F
  0
LAYER
  5
7E
330
2
100
AcDbSymbolTableRecord
100
AcDbLayerTableRecord
  2
0_5_1
 70
     0
 62
   179
  6
Continuous
370
    50
390
F
  0
ENDTAB
  0
TABLE
  2
STYLE
  5
3
330
0
100
AcDbSymbolTable
 70
     1
  0
STYLE
  5
11
330
3
100
AcDbSymbolTableRecord
100
AcDbTextStyleTableRecord
  2
Standard
 70
     0
 40
0.0
 41
1.0
 50
0.0
 71
     0
 42
2.0
  3
txt
  4

  0
ENDTAB
  0
TABLE
  2
VIEW
  5
6
330
0
100
AcDbSymbolTable
 70
     0
  0
ENDTAB
  0
TABLE
  2
UCS
  5
7
330
0
100
AcDbSymbolTable
 70
     0
  0
ENDTAB
  0
TABLE
  2
APPID
  5
9
330
0
100
AcDbSymbolTable
 70
     1
  0
APPID
  5
12
330
9
100
AcDbSymbolTableRecord
100
AcDbRegAppTableRecord
  2
ACAD
 70
     0
  0
ENDTAB
  0
TABLE
  2
DIMSTYLE
  5
A
330
0
100
AcDbSymbolTable
 70
     1
100
AcDbDimStyleTable
  0
DIMSTYLE
105
27
330
A
100
AcDbSymbolTableRecord
100
AcDbDimStyleTableRecord
  2
ISO-25
 70
     0
 41
2.5
 42
0.625
 43
3.75
 44
1.25
 73
     0
 74
     0
 77
     1
 78
     8
140
2.5
141
2.5
143
0.0393700787
147
0.625
171
     3
172
     1
178
     0
271
     2
272
     2
274
     3
278
    44
283
     0
284
     8
340
11
  0
ENDTAB
  0
TABLE
  2
BLOCK_RECORD
  5
1
330
0
100
AcDbSymbolTable
 70
     1
  0
BLOCK_RECORD
  5
1F
330
1
100
AcDbSymbolTableRecord
100
AcDbBlockTableRecord
  2
*Model_Space
340
22
  0
BLOCK_RECORD
  5
1B
330
1
100
AcDbSymbolTableRecord
100
AcDbBlockTableRecord
  2
*Paper_Space
340
1E
  0
BLOCK_RECORD
  5
23
330
1
100
AcDbSymbolTableRecord
100
AcDbBlockTableRecord
  2
*Paper_Space0
340
26
  0
ENDTAB
  0
ENDSEC
  0
SECTION
  2
BLOCKS
  0
BLOCK
  5
20
330
1F
100
AcDbEntity
  8
0
100
AcDbBlockBegin
  2
*Model_Space
 70
     0
 10
0.0
 20
0.0
 30
0.0
  3
*Model_Space
  1

  0
ENDBLK
  5
21
330
1F
100
AcDbEntity
  8
0
100
AcDbBlockEnd
  0
BLOCK
  5
1C
330
1B
100
AcDbEntity
 67
     1
  8
0
100
AcDbBlockBegin
  2
*Paper_Space
 70
     0
 10
0.0
 20
0.0
 30
0.0
  3
*Paper_Space
  1

  0
ENDBLK
  5
1D
330
1B
100
AcDbEntity
 67
     1
  8
0
100
AcDbBlockEnd
  0
BLOCK
  5
24
330
23
100
AcDbEntity
  8
0
100
AcDbBlockBegin
  2
*Paper_Space0
 70
     0
 10
0.0
 20
0.0
 30
0.0
  3
*Paper_Space0
  1

  0
ENDBLK
  5
25
330
23
100
AcDbEntity
  8
0
100
AcDbBlockEnd
  0
ENDSEC
  0
SECTION
  2
ENTITIES
  0
SPLINE
  5
7F
330
1F
100
AcDbEntity
  8
0
  6
Continuous
 62
     7
370
    25
100
AcDbSpline
210
0.0
220
0.0
230
1.0
 70
     8
 71
     3
 72
    35
 73
    31
 74
     0
 42
0.00000001
 43
0.00000001
 40
0.0
 40
0.0
 40
0.0
 40
0.0
 40
0.0564712121235397
 40
0.1100031124915928
 40
0.1605979127302679
 40
0.2082577175067131
 40
0.2529845235144642
 40
0.2947802184385584
 40
0.3336465801012195
 40
0.3667021666974135
 40
0.397298904071014
 40
0.4254379159860734
 40
0.451120247657375
 40
0.4743468659977995
 40
0.4951186602413812
 40
0.5112776609012775
 40
0.5289297646376332
 40
0.5487557619510922
 40
0.5707543297581229
 40
0.5949232255835522
 40
0.6207701627515864
 40
0.6487042150221095
 40
0.6787213195614893
 40
0.7108168789283403
 40
0.7517287682566923
 40
0.7955695516679226
 40
0.8423287995573299
 40
0.8919951924710415
 40
0.9445565722865744
 40
1.0
 40
1.0
 40
1.0
 40
1.0
 10
5845.321011974584
 20
5106.317174211214
 30
0.0
 10
5847.499847637762
 20
5098.860618581754
 30
0.0
 10
5851.744111140254
 20
5084.335619084438
 30
0.0
 10
5857.9390740117
 20
5063.123052186746
 30
0.0
 10
5863.792662311152
 20
5043.069840155798
 30
0.0
 10
5869.304935332808
 20
5024.175501898621
 30
0.0
 10
5874.476125190207
 20
5006.440155621981
 30
0.0
 10
5879.306523281445
 20
4989.863772244623
 30
0.0
 10
5883.685467242599
 20
4974.827574856014
 30
0.0
 10
5887.631509669232
 20
4961.269981005377
 30
0.0
 10
5891.163195371524
 20
4949.129359922541
 30
0.0
 10
5894.409850418481
 20
4937.96258138732
 30
0.0
 10
5897.371819000078
 20
4927.769686469715
 30
0.0
 10
5900.049495403531
 20
4918.550538308617
 30
0.0
 10
5902.360182862028
 20
4910.591191594783
 30
0.0
 10
5904.456220130844
 20
4903.368233821859
 30
0.0
 10
5906.512982976094
 20
4896.278024792629
 30
0.0
 10
5908.790883056045
 20
4888.421776682213
 30
0.0
 10
5911.31560006609
 20
4879.709588265388
 30
0.0
 10
5914.067978201867
 20
4870.205959363936
 30
0.0
 10
5917.044548275092
 20
4859.920947935675
 30
0.0
 10
5920.241644784243
 20
4848.864654577445
 30
0.0
 10
5923.673958565334
 20
4836.982642426081
 30
0.0
 10
5927.596790297688
 20
4823.384938201566
 30
0.0
 10
5932.039742158028
 20
4807.956644049833
 30
0.0
 10
5937.030341688601
 20
4790.582005262319
 30
0.0
 10
5942.339439742865
 20
4772.037261041221
 30
0.0
 10
5947.958466623904
 20
4752.321863747254
 30
0.0
 10
5953.881222433941
 20
4731.438014589608
 30
0.0
 10
5957.907185535042
 20
4717.111599458376
 30
0.0
 10
5959.973882372708
 20
4709.757245704188
 30
0.0
  0
ARC
  5
80
330
1F
100
AcDbEntity
  8
0
  6
Continuous
 62
     7
370
    25
100
AcDbCircle
 10
5847.2752994606
 20
5106.7572457299
 30
0.0
 40
1.999999974254175
100
AcDbArc
 50
89.9994059518
 51
196.5385963772
  0
LINE
  5
81
330
1F
100
AcDbEntity
  8
0
  6
Continuous
 62
     7
370
    25
100
AcDbLine
 10
6525.1901249004
 20
5445.7572457042
 30
0.0
 11
6525.5901249004
 21
5445.7572457042
 31
0.0
  0
LINE
  5
82
330
1F
100
AcDbEntity
  8
0
  6
Continuous
 62
     7
370
    25
100
AcDbLine
 10
6525.5901249004
 20
5473.7572457042
 30
0.0
 11
6525.1901249004
 21
5473.7572457042
 31
0.0
  0
LINE
  5
83
330
1F
100
AcDbEntity
  8
0
  6
Continuous
 62
     7
370
    25
100
AcDbLine
 10
6525.5901249004
 20
5445.7572457042
 30
0.0
 11
6527.0901249004
 21
5447.2572457042
 31
0.0
  0
LINE
  5
84
330
1F
100
AcDbEntity
  8
0
  6
Continuous
 62
     7
370
    25
100
AcDbLine
 10
6527.0901249004
 20
5472.2572457042
 30
0.0
 11
6525.5901249004
 21
5473.7572457042
 31
0.0
  0
LINE
  5
85
330
1F
100
AcDbEntity
  8
0
  6
Continuous
 62
     7
370
    25
100
AcDbLine
 10
6525.5901249004
 20
5495.7572457042
 30
0.0
 11
6527.0901249004
 21
5497.2572457042
 31
0.0
  0
LINE
  5
86
330
1F
100
AcDbEntity
  8
0
  6
Continuous
 62
     7
370
    25
100
AcDbLine
 10
6527.0901249004
 20
5522.2572457042
 30
0.0
 11
6525.5901249004
 21
5523.7572457042
 31
0.0
  0
LINE
  5
87
330
1F
100
AcDbEntity
  8
0
  6
Continuous
 62
     7
370
    25
100
AcDbLine
 10
6525.1901249004
 20
5495.7572457042
 30
0.0
 11
6525.5901249004
 21
5495.7572457042
 31
0.0
  0
LINE
  5
88
330
1F
100
AcDbEntity
  8
0
  6
Continuous
 62
     7
370
    25
100
AcDbLine
 10
6525.5901249004
 20
5523.7572457042
 30
0.0
 11
6525.1901249004
 21
5523.7572457042
 31
0.0
  0
LINE
  5
89
330
1F
100
AcDbEntity
  8
0
  6
Continuous
 62
     7
370
    25
100
AcDbLine
 10
6465.1901249004
 20
5562.2572457042
 30
0.0
 11
6465.1901249004
 21
5559.7572457042
 31
0.0
  0
LINE
  5
8A
330
1F
100
AcDbEntity
  8
0
  6
Continuous
 62
     7
370
    25
100
AcDbLine
 10
6510.1901249004
 20
5559.7572457042
 30
0.0
 11
6510.1901249004
 21
5562.2572457042
 31
0.0
  0
ARC
  5
8B
330
1F
100
AcDbEntity
  8
0
  6
Continuous
 62
     7
370
    25
100
AcDbCircle
 10
6487.6901249004
 20
5562.2572457042
 30
0.0
 40
22.5
100
AcDbArc
 50
0.0
 51
180.0
  0
LINE
  5
8C
330
1F
100
AcDbEntity
  8
0
  6
Continuous
 62
     7
370
    25
100
AcDbLine
 10
6165.1901249004
 20
5108.7572457042
 30
0.0
 11
6165.1901249004
 21
5559.7572457042
 31
0.0
  0
LINE
  5
8D
330
1F
100
AcDbEntity
  8
0
  6
Continuous
 62
     7
370
    25
100
AcDbLine
 10
6525.1901249004
 20
4709.7572457042
 30
0.0
 11
6525.1901249004
 21
5559.7572457042
 31
0.0
  0
LINE
  5
8E
330
1F
100
AcDbEntity
  8
0
  6
Continuous
 62
     7
370
    25
100
AcDbLine
 10
6298.7648976222
 20
4709.7572457042
 30
0.0
 11
6525.1901249004
 21
4709.7572457042
 31
0.0
  0
LINE
  5
8F
330
1F
100
AcDbEntity
  8
0
  6
Continuous
 62
     7
370
    25
100
AcDbLine
 10
6165.1901249004
 20
5559.7572457042
 30
0.0
 11
6525.1901249004
 21
5559.7572457042
 31
0.0
  0
LINE
  5
90
330
1F
100
AcDbEntity
  8
0
  6
Continuous
 62
     7
370
    25
100
AcDbLine
 10
6165.1901249004
 20
5582.7572457042
 30
0.0
 11
6478.4165064049
 21
5582.7572457042
 31
0.0
  0
LINE
  5
91
330
1F
100
AcDbEntity
  8
0
  6
Continuous
 62
     7
370
    25
100
AcDbLine
 10
6496.9637433959
 20
5582.7572457042
 30
0.0
 11
6525.1901249004
 21
5582.7572457042
 31
0.0
  0
LINE
  5
92
330
1F
100
AcDbEntity
  8
0
  6
Continuous
 62
     7
370
    25
100
AcDbLine
 10
6165.1901249004
 20
5582.7572457042
 30
0.0
 11
6165.1901249004
 21
5559.7572457042
 31
0.0
  0
LINE
  5
93
330
1F
100
AcDbEntity
  8
0
  6
Continuous
 62
     7
370
    25
100
AcDbLine
 10
6525.1901249004
 20
5582.7572457042
 30
0.0
 11
6525.1901249004
 21
5559.7572457042
 31
0.0
  0
SPLINE
  5
94
330
1F
100
AcDbEntity
  8
0
  6
Continuous
 62
     7
370
    25
100
AcDbSpline
210
0.0
220
0.0
230
1.0
 70
     8
 71
     3
 72
    14
 73
    10
 74
     0
 42
0.00000001
 43
0.00000001
 40
0.0
 40
0.0
 40
0.0
 40
0.0
 40
0.1152028070608912
 40
0.2878682244147769
 40
0.4611314765705095
 40
0.5952826919413418
 40
0.729433891113577
 40
0.8647179348629094
 40
1.0
 40
1.0
 40
1.0
 40
1.0
 10
6140.615697316587
 20
5106.309850384512
 30
0.0
 10
6137.503732209457
 20
5106.30864412618
 30
0.0
 10
6129.727568653329
 20
5106.305629933615
 30
0.0
 10
6116.779882174735
 20
5106.298984200627
 30
0.0
 10
6102.879641291786
 20
5106.290241790653
 30
0.0
 10
6089.759330230952
 20
5106.280971265231
 30
0.0
 10
6077.527711358237
 20
5106.270550823943
 30
0.0
 10
6065.060395512834
 20
5106.262234250592
 30
0.0
 10
6056.569170534555
 20
5106.25282627721
 30
0.0
 10
6052.323589092988
 20
5106.24812232492
 30
0.0
  0
SPLINE
  5
95
330
1F
100
AcDbEntity
  8
0
  6
Continuous
 62
     7
370
    25
100
AcDbSpline
210
0.0
220
0.0
230
1.0
 70
     8
 71
     3
 72
    11
 73
     7
 74
     0
 42
0.00000001
 43
0.00000001
 40
0.0
 40
0.0
 40
0.0
 40
0.0
 40
0.0844950944070504
 40
0.4226156818311573
 40
0.7109344268643885
 40
1.0
 40
1.0
 40
1.0
 40
1.0
 10
6176.863768940184
 20
5106.317174211213
 30
0.0
 10
6175.916542120603
 20
5106.317132318297
 30
0.0
 10
6171.178836209804
 20
5106.316922784202
 30
0.0
 10
6162.875867080874
 20
5106.315606506365
 30
0.0
 10
6151.715710972783
 20
5106.313529709836
 30
0.0
 10
6144.318891051785
 20
5106.311077883407
 30
0.0
 10
6140.615697316587
 20
5106.309850384512
 30
0.0
  0
LINE
  5
96
330
1F
100
AcDbEntity
  8
0
  6
Continuous
 62
     7
370
    25
100
AcDbLine
 10
6344.9042073536
 20
5106.3171742112
 30
0.0
 11
6176.8637689402
 21
5106.3171742112
 31
0.0
  0
LINE
  5
97
330
1F
100
AcDbEntity
  8
0
  6
Continuous
 62
     7
370
    25
100
AcDbLine
 10
6344.9042073536
 20
5106.3171742112
 30
0.0
 11
6298.4394222392
 21
4709.7572457042
 31
0.0
  0
LINE
  5
98
330
1F
100
AcDbEntity
  8
0
  6
Continuous
 62
     7
370
    25
100
AcDbLine
 10
6113.6133445945
 20
4709.7572457042
 30
0.0
 11
6298.4394222392
 21
4709.7572457042
 31
0.0
  0
LINE
  5
99
330
1F
100
AcDbEntity
  8
0
  6
Continuous
 62
     7
370
    25
100
AcDbLine
 10
5959.9752091411
 20
4709.7572457042
 30
0.0
 11
6113.6133445957
 21
4709.7572457042
 31
0.0
  0
ARC
  5
9A
330
1F
100
AcDbEntity
  8
0
  6
Continuous
 62
     7
370
    25
100
AcDbCircle
 10
6049.4629492612
 20
5106.9690721963
 30
0.0
 40
2.950089653630462
100
AcDbArc
 50
345.8546639358
 51
37.3110706561
  0
SPLINE
  5
9B
330
1F
100
AcDbEntity
  8
0
  6
Continuous
 62
     7
370
    25
100
AcDbSpline
210
0.0
220
0.0
230
1.0
 70
    24
 71
     3
 72
    29
 73
    25
 74
     0
 42
0.00000001
 43
0.00000001
 40
0.0
 40
0.0
 40
0.0
 40
0.0
 40
0.0372761307745718
 40
0.0830208463965245
 40
0.1289290336348001
 40
0.1748371978701241
 40
0.2205818820123186
 40
0.2663259224820363
 40
0.3122333492157616
 40
0.3581407811998902
 40
0.4038848288548202
 40
0.4496410660626622
 40
0.4955608722577491
 40
0.5414806415967576
 40
0.5872368283666414
 40
0.632984392136842
 40
0.6788953838569742
 40
0.7248063617251789
 40
0.7705539065389062
 40
0.8163094544420033
 40
0.8622286337471143
 40
0.9081478065689705
 40
0.9539033455996467
 40
1.0
 40
1.0
 40
1.0
 40
1.0
 10
5847.369242780837
 20
5108.757245704188
 30
0.0
 10
5847.402711184724
 20
5108.757245704188
 30
0.0
 10
5847.477251518189
 20
5108.757245704188
 30
0.0
 10
5848.992335757245
 20
5108.757245704188
 30
0.0
 10
5851.614043792933
 20
5108.757245704188
 30
0.0
 10
5855.372091613386
 20
5108.757245704188
 30
0.0
 10
5860.201968581581
 20
5108.757245704188
 30
0.0
 10
5866.116188765058
 20
5108.757245704188
 30
0.0
 10
5873.045474071048
 20
5108.757245704188
 30
0.0
 10
5880.927040371902
 20
5108.757245704188
 30
0.0
 10
5889.704923314145
 20
5108.757245704188
 30
0.0
 10
5899.350998580005
 20
5108.757245704188
 30
0.0
 10
5909.783103014797
 20
5108.757245704188
 30
0.0
 10
5920.910241273268
 20
5108.757245704188
 30
0.0
 10
5932.646845647513
 20
5108.757245704188
 30
0.0
 10
5944.937513554326
 20
5108.757245704188
 30
0.0
 10
5957.692456042127
 20
5108.757245704188
 30
0.0
 10
5970.806129833775
 20
5108.757245704188
 30
0.0
 10
5984.175830204006
 20
5108.757245704188
 30
0.0
 10
5997.725664923213
 20
5108.757245704188
 30
0.0
 10
6011.370845644041
 20
5108.757245704188
 30
0.0
 10
6024.992699931456
 20
5108.757245704188
 30
0.0
 10
6038.540668346067
 20
5108.757245704188
 30
0.0
 10
6047.375500605972
 20
5108.757245704188
 30
0.0
 10
6051.809321880753
 20
5108.757245704188
 30
0.0
  0
LWPOLYLINE
  5
9C
330
1F
100
AcDbEntity
  8
0
  6
Continuous
 62
     7
370
    25
100
AcDbPolyline
 90
        9
 70
   128
 43
0.0
 10
6140.6156973166
 20
5106.3098503845
 10
6140.6447016718
 20
5106.7551331848
 10
6140.616235711
 20
5107.2005220575
 10
6140.5317287484
 20
5107.6236534252
 10
6140.3954239931
 20
5108.0032812897
 10
6140.214165491
 20
5108.3203440227
 10
6139.9970544766
 20
5108.5589214757
 10
6139.7549923875
 20
5108.7070343521
 10
6139.5001334885
 20
5108.7572457042
  0
SPLINE
  5
9D
330
1F
100
AcDbEntity
  8
0
  6
Continuous
 62
     7
370
    25
100
AcDbSpline
210
0.0
220
0.0
230
1.0
 70
    24
 71
     3
 72
    14
 73
    10
 74
     0
 42
0.00000001
 43
0.00000001
 40
0.0
 40
0.0
 40
0.0
 40
0.0
 40
0.1457558856010003
 40
0.2916033885533236
 40
0.4373622371893076
 40
0.5864758120169951
 40
0.7356851871160808
 40
0.8847987337415372
 40
0.9999999999999999
 40
0.9999999999999999
 40
0.9999999999999999
 40
0.9999999999999999
 10
6051.809321880753
 20
5108.757245704188
 30
0.0
 10
6056.351270702073
 20
5108.757245704188
 30
0.0
 10
6065.438023264217
 20
5108.757245704188
 30
0.0
 10
6078.793997906867
 20
5108.757245704188
 30
0.0
 10
6092.011239232398
 20
5108.757245704188
 30
0.0
 10
6105.033974325213
 20
5108.757245704188
 30
0.0
 10
6117.816923313692
 20
5108.757245704188
 30
0.0
 10
6129.318766061509
 20
5108.757245704188
 30
0.0
 10
6136.409601929248
 20
5108.757245704188
 30
0.0
 10
6139.500133488496
 20
5108.757245704188
 30
0.0
  0
LWPOLYLINE
  5
9E
330
1F
100
AcDbEntity
  8
0
  6
Continuous
 62
     7
370
    25
100
AcDbPolyline
 90
        9
 70
   128
 43
0.0
 10
6176.8637689402
 20
5106.3171742112
 10
6176.8984252399
 20
5106.7617053311
 10
6176.8623674895
 20
5107.2060134584
 10
6176.7573986669
 20
5107.6278820722
 10
6176.5887674766
 20
5108.0062166834
 10
6176.3649059012
 20
5108.3220996125
 10
6176.097007581
 20
5108.5597359203
 10
6175.7984681041
 20
5108.7072431955
 10
6175.4842151933
 20
5108.7572457042
  0
SPLINE
  5
9F
330
1F
100
AcDbEntity
  8
0
  6
Continuous
 62
     7
370
    25
100
AcDbSpline
210
0.0
220
0.0
230
1.0
 70
    24
 71
     3
 72
    11
 73
     7
 74
     0
 42
0.00000001
 43
0.00000001
 40
0.0
 40
0.0
 40
0.0
 40
0.0
 40
0.2490296997341863
 40
0.4980593120459107
 40
0.7490299169979262
 40
1.0
 40
1.0
 40
1.0
 40
1.0
 10
6139.500133488496
 20
5108.757245704188
 30
0.0
 10
6142.671824313025
 20
5108.757245704188
 30
0.0
 10
6149.015204848652
 20
5108.757245704188
 30
0.0
 10
6158.156749996891
 20
5108.757245704188
 30
0.0
 10
6167.036858612293
 20
5108.757245704188
 30
0.0
 10
6172.668431618325
 20
5108.757245704188
 30
0.0
 10
6175.484215193306
 20
5108.757245704188
 30
0.0
  0
LINE
  5
A0
330
1F
100
AcDbEntity
  8
0
  6
Continuous
 62
     7
370
    25
100
AcDbLine
 10
6344.9284994802
 20
5106.5244986093
 30
0.0
 11
6344.9042073536
 21
5106.3171742112
 31
0.0
  0
SPLINE
  5
A1
330
1F
100
AcDbEntity
  8
0
  6
Continuous
 62
     7
370
    25
100
AcDbSpline
210
0.0
220
0.0
230
1.0
 70
     8
 71
     3
 72
    14
 73
    10
 74
     0
 42
0.00000001
 43
0.00000001
 40
0.0
 40
0.0
 40
0.0
 40
0.0
 40
0.1796172964536671
 40
0.3591157593987224
 40
0.5423008471758258
 40
0.7373673728940687
 40
0.9470955755818975
 40
0.9969532746956798
 40
1.0
 40
1.0
 40
1.0
 40
1.0
 10
6344.928499480235
 20
5106.524498609346
 30
0.0
 10
6344.93374659771
 20
5106.735493708217
 30
0.0
 10
6344.944237361208
 20
5107.157344313124
 30
0.0
 10
6344.710845578165
 20
5107.755013268552
 30
0.0
 10
6344.317454026722
 20
5108.255956587757
 30
0.0
 10
6343.768836453211
 20
5108.618966106785
 30
0.0
 10
6343.284479995064
 20
5108.744345530649
 30
0.0
 10
6343.002244118188
 20
5108.75714840924
 30
0.0
 10
6342.945364169739
 20
5108.757240406156
 30
0.0
 10
6342.942088497049
 20
5108.757245704188
 30
0.0
  0
LINE
  5
A2
330
1F
100
AcDbEntity
  8
0
  6
Continuous
 62
     7
370
    25
100
AcDbLine
 10
6175.4842151933
 20
5108.7572457042
 30
0.0
 11
6342.942088497
 21
5108.7572457042
 31
0.0
  0
LINE
  5
A3
330
1F
100
AcDbEntity
  8
0
  6
Continuous
 62
     7
370
    25
100
AcDbLine
 10
6344.9285039066
 20
5106.5244986093
 30
0.0
 11
6344.9284994802
 21
5106.5244986093
 31
0.0
  0
LINE
  5
A4
330
1F
100
AcDbEntity
  8
0
  6
Continuous
 62
     7
370
    25
100
AcDbLine
 10
6344.9285039066
 20
5106.5244986093
 30
0.0
 11
6343.6229725182
 21
5095.3822672726
 31
0.0
  0
LINE
  5
A5
330
1F
100
AcDbEntity
  8
0
  6
Continuous
 62
     7
370
    25
100
AcDbLine
 10
6300.0065638318
 20
4723.1322241358
 30
0.0
 11
6298.4394222392
 21
4709.7572457042
 31
0.0
  0
LINE
  5
A6
330
1F
100
AcDbEntity
  8
0
  6
Continuous
 62
     7
370
    25
100
AcDbLine
 10
6525.5901249004
 20
5445.7572457042
 30
0.0
 11
6525.5901249004
 21
5473.7572457042
 31
0.0
  0
LINE
  5
A7
330
1F
100
AcDbEntity
  8
0
  6
Continuous
 62
     7
370
    25
100
AcDbLine
 10
6527.0901249004
 20
5472.2572457042
 30
0.0
 11
6527.0901249004
 21
5447.2572457042
 31
0.0
  0
LINE
  5
A8
330
1F
100
AcDbEntity
  8
0
  6
Continuous
 62
     7
370
    25
100
AcDbLine
 10
6527.0901249004
 20
5522.2572457042
 30
0.0
 11
6527.0901249004
 21
5497.2572457042
 31
0.0
  0
LINE
  5
A9
330
1F
100
AcDbEntity
  8
0
  6
Continuous
 62
     7
370
    25
100
AcDbLine
 10
6525.5901249004
 20
5495.7572457042
 30
0.0
 11
6525.5901249004
 21
5523.7572457042
 31
0.0
  0
LWPOLYLINE
  5
AA
330
1F
100
AcDbEntity
  8
0
  6
Continuous
 62
     7
370
    25
100
AcDbPolyline
 90
       20
 70
   128
 43
0.0
 10
6478.2597850129
 20
5580.378707544
 10
6478.9449571003
 20
5580.2490767232
 10
6479.3725544957
 20
5579.8742317717
 10
6479.4962403864
 20
5579.2947929563
 10
6479.3026114868
 20
5578.5735514636
 10
6478.8126504929
 20
5577.7886650005
 10
6478.0794522808
 20
5577.025188194
 10
6477.1824702534
 20
5576.3658556028
 10
6476.2189063317
 20
5575.8821161436
 10
6475.2931776177
 20
5575.6263904929
 10
6474.5056011817
 20
5575.6263904929
 10
6473.9415231512
 20
5575.8821161436
 10
6473.6620701333
 20
5576.3658556028
 10
6473.6975251986
 20
5577.025188194
 10
6474.0440462406
 20
5577.7886650005
 10
6474.6640823278
 20
5578.5735514636
 10
6475.490442929
 20
5579.2947929563
 10
6476.433579051
 20
5579.8742317717
 10
6477.3912872606
 20
5580.2490767232
 10
6478.2597850129
 20
5580.378707544
  0
LWPOLYLINE
  5
AB
330
1F
100
AcDbEntity
  8
0
  6
Continuous
 62
     7
370
    25
100
AcDbPolyline
 90
        9
 70
   128
 43
0.0
 10
6478.2597850129
 20
5579.1292941768
 10
6477.4881393033
 20
5578.9947309299
 10
6476.6436684894
 20
5578.6115272238
 10
6475.8549355972
 20
5578.038022349
 10
6475.2420180599
 20
5577.3615272238
 10
6474.8982270163
 20
5576.6850320987
 10
6474.8759015364
 20
5576.1115272238
 10
6475.178440472
 20
5575.7283235177
 10
6475.3855434132
 20
5575.641484834
  0
LWPOLYLINE
  5
AC
330
1F
100
AcDbEntity
  8
0
  6
Continuous
 62
     7
370
    25
100
AcDbPolyline
 90
        4
 70
   128
 43
0.0
 10
6479.1728703965
 20
5578.3195294261
 10
6479.1436684894
 20
5578.6115272238
 10
6478.8411295537
 20
5578.9947309299
 10
6478.2597850129
 20
5579.1292941768
  0
SPLINE
  5
AD
330
1F
100
AcDbEntity
  8
0
  6
Continuous
 62
     8
370
    25
100
AcDbSpline
210
0.0
220
0.0
230
1.0
 70
     8
 71
     3
 72
    30
 73
    26
 74
     0
 42
0.00000001
 43
0.00000001
 40
0.0
 40
0.0
 40
0.0
 40
0.0
 40
0.0461007690422377
 40
0.0912850101552074
 40
0.1364692999786637
 40
0.1829665921685731
 40
0.2294638782006767
 40
0.2746368966664821
 40
0.3198098866453105
 40
0.3662939556318988
 40
0.4127780563406684
 40
0.4579573927498415
 40
0.5031367430734389
 40
0.5496278986528975
 40
0.5961190397597489
 40
0.6412870691804602
 40
0.6864550812336075
 40
0.7329335038914376
 40
0.7794119594474366
 40
0.8245829304577996
 40
0.869753899610548
 40
0.916236233336067
 40
0.9627185242391177
 40
0.9887527161721879
 40
1.0
 40
1.0
 40
1.0
 40
1.0
 10
6052.323589092988
 20
5106.24812232492
 30
0.0
 10
6047.836285638778
 20
5106.242186540537
 30
0.0
 10
6038.950890668213
 20
5106.230432980911
 30
0.0
 10
6025.374390580983
 20
5106.214212858458
 30
0.0
 10
6011.66586801069
 20
5106.199027614386
 30
0.0
 10
5997.79881642105
 20
5106.185002666033
 30
0.0
 10
5984.014538426556
 20
5106.172358237776
 30
0.0
 10
5970.540198165314
 20
5106.161259807472
 30
0.0
 10
5957.333173611596
 20
5106.151611676349
 30
0.0
 10
5944.368483217103
 20
5106.143418589891
 30
0.0
 10
5931.867840507678
 20
5106.136818948048
 30
0.0
 10
5920.033872475205
 20
5106.131891076679
 30
0.0
 10
5908.815646477848
 20
5106.128555434611
 30
0.0
 10
5898.20711341373
 20
5106.126860131833
 30
0.0
 10
5888.396683781748
 20
5106.126852476468
 30
0.0
 10
5879.537373895103
 20
5106.128505823614
 30
0.0
 10
5871.57515715249
 20
5106.131772284184
 30
0.0
 10
5864.521075563112
 20
5106.136717036513
 30
0.0
 10
5858.506333822365
 20
5106.143295659866
 30
0.0
 10
5853.616579127491
 20
5106.151386716965
 30
0.0
 10
5849.806971657211
 20
5106.160981820423
 30
0.0
 10
5847.088280692224
 20
5106.172152481053
 30
0.0
 10
5845.793593869132
 20
5106.18306698476
 30
0.0
 10
5845.355157231966
 20
5106.191298167268
 30
0.0
 10
5845.390990872052
 20
5106.195226513041
 30
0.0
 10
5845.401801364726
 20
5106.196411638333
 30
0.0
  0
LINE
  5
AE
330
1F
100
AcDbEntity
  8
0
  6
Continuous
 62
     8
370
    25
100
AcDbLine
 10
6503.6000274771
 20
5562.2572457042
 30
0.0
 11
6510.1901249004
 21
5562.2572457042
 31
0.0
  0
LINE
  5
AF
330
1F
100
AcDbEntity
  8
0
  6
Continuous
 62
     8
370
    25
100
AcDbLine
 10
6465.1901249004
 20
5562.2572457042
 30
0.0
 11
6503.6000274771
 21
5562.2572457042
 31
0.0
  0
LINE
  5
B0
330
1F
100
AcDbEntity
  8
0
  6
Continuous
 62
     7
370
    25
100
AcDbLine
 10
7407.9246994191
 20
5108.7572457042
 30
0.0
 11
7407.9246994191
 21
5559.7572457042
 31
0.0
  0
SPLINE
  5
B1
330
1F
100
AcDbEntity
  8
0
  6
Continuous
 62
     7
370
    25
100
AcDbSpline
210
0.0
220
0.0
230
1.0
 70
     8
 71
     3
 72
    35
 73
    31
 74
     0
 42
0.00000001
 43
0.00000001
 40
0.0
 40
0.0
 40
0.0
 40
0.0
 40
0.0530133132154876
 40
0.103399804744853
 40
0.1511481704402736
 40
0.1962477504582683
 40
0.2386885749125604
 40
0.2784614069994962
 40
0.3155577727793658
 40
0.349969994665183
 40
0.378577836402561
 40
0.4050114996895216
 40
0.4292672617966526
 40
0.4513420820527229
 40
0.4712336957014095
 40
0.4889407647220815
 40
0.5051444294355721
 40
0.5279381525384405
 40
0.5536549352159501
 40
0.5822959462295825
 40
0.6138624646067429
 40
0.6483558804564074
 40
0.6857776952210459
 40
0.7261295215681103
 40
0.7656941002691451
 40
0.8077235587505949
 40
0.8522193833906477
 40
0.8991831373498945
 40
0.948616459866699
 40
1.0
 40
1.0
 40
1.0
 40
1.0
 10
7613.14094194674
 20
4709.757245704188
 30
0.0
 10
7615.115846194176
 20
4716.785700302612
 30
0.0
 10
7618.967797735942
 20
4730.494347980998
 30
0.0
 10
7624.640431946769
 20
4750.505313078048
 30
0.0
 10
7630.037220581614
 20
4769.451638503449
 30
0.0
 10
7635.152720081904
 20
4787.331302734092
 30
0.0
 10
7639.97915380232
 20
4804.144810229109
 30
0.0
 10
7644.511322505708
 20
4819.892038736305
 30
0.0
 10
7648.745072950162
 20
4834.573019910354
 30
0.0
 10
7652.558774295152
 20
4847.777127305797
 30
0.0
 10
7655.969740996657
 20
4859.573488992539
 30
0.0
 10
7658.996126460002
 20
4870.030798403189
 30
0.0
 10
7661.775689412525
 20
4879.628355652399
 30
0.0
 10
7664.307817520781
 20
4888.366156554184
 30
0.0
 10
7666.592050998445
 20
4896.244269975576
 30
0.0
 10
7668.654066707638
 20
4903.352596940367
 30
0.0
 10
7670.830435903577
 20
4910.852381647792
 30
0.0
 10
7673.314905590418
 20
4919.410142966535
 30
0.0
 10
7676.27829536181
 20
4929.61229929409
 30
0.0
 10
7679.580094943644
 20
4940.973300429191
 30
0.0
 10
7683.220811653187
 20
4953.493304569667
 30
0.0
 10
7687.2008923159
 20
4967.172264036835
 30
0.0
 10
7691.52078898701
 20
4982.0101947484
 30
0.0
 10
7696.037758964789
 20
4997.515653694666
 30
0.0
 10
7700.73393287224
 20
5013.627045588185
 30
0.0
 10
7705.591389978957
 20
5030.282804032808
 30
0.0
 10
7710.735519421614
 20
5047.912437040033
 30
0.0
 10
7716.16648195634
 20
5066.515840477046
 30
0.0
 10
7721.864209287371
 20
5086.024647933414
 30
0.0
 10
7725.752022706077
 20
5099.329667932234
 30
0.0
 10
7727.733532659667
 20
5106.110865155723
 30
0.0
  0
ARC
  5
B2
330
1F
100
AcDbEntity
  8
0
  6
Continuous
 62
     7
370
    25
100
AcDbCircle
 10
7725.8395332398
 20
5106.7572457092
 30
0.0
 40
1.99999999497124
100
AcDbArc
 50
343.0410771636
 51
90.0001199651
  0
LINE
  5
B3
330
1F
100
AcDbEntity
  8
0
  6
Continuous
 62
     7
370
    25
100
AcDbLine
 10
7062.9246994191
 20
5562.2572457042
 30
0.0
 11
7062.9246994191
 21
5559.7572457042
 31
0.0
  0
LINE
  5
B4
330
1F
100
AcDbEntity
  8
0
  6
Continuous
 62
     7
370
    25
100
AcDbLine
 10
7107.9246994191
 20
5559.7572457042
 30
0.0
 11
7107.9246994191
 21
5562.2572457042
 31
0.0
  0
ARC
  5
B5
330
1F
100
AcDbEntity
  8
0
  6
Continuous
 62
     7
370
    25
100
AcDbCircle
 10
7085.4246994191
 20
5562.2572457042
 30
0.0
 40
22.5
100
AcDbArc
 50
0.0
 51
180.0
  0
LINE
  5
B6
330
1F
100
AcDbEntity
  8
0
  6
Continuous
 62
     7
370
    25
100
AcDbLine
 10
6967.9246994191
 20
4709.7572457042
 30
0.0
 11
6967.9246994191
 21
5582.7572457042
 31
0.0
  0
LINE
  5
B7
330
1F
100
AcDbEntity
  8
0
  6
Continuous
 62
     7
370
    25
100
AcDbLine
 10
6967.9246994191
 20
5582.7572457042
 30
0.0
 11
7047.9246994191
 21
5582.7572457042
 31
0.0
  0
LINE
  5
B8
330
1F
100
AcDbEntity
  8
0
  6
Continuous
 62
     7
370
    25
100
AcDbLine
 10
7047.9246994191
 20
5582.7572457042
 30
0.0
 11
7047.9246994191
 21
5559.7572457042
 31
0.0
  0
LINE
  5
B9
330
1F
100
AcDbEntity
  8
0
  6
Continuous
 62
     7
370
    25
100
AcDbLine
 10
7047.9246994191
 20
5559.7572457042
 30
0.0
 11
7227.9246994191
 21
5559.7572457042
 31
0.0
  0
LINE
  5
BA
330
1F
100
AcDbEntity
  8
0
  6
Continuous
 62
     7
370
    25
100
AcDbLine
 10
7227.9246994191
 20
4709.7572457042
 30
0.0
 11
7227.9246994191
 21
5559.7572457042
 31
0.0
  0
LINE
  5
BB
330
1F
100
AcDbEntity
  8
0
  6
Continuous
 62
     7
370
    25
100
AcDbLine
 10
6967.9246994191
 20
4709.7572457042
 30
0.0
 11
7227.9246994191
 21
4709.7572457042
 31
0.0
  0
LINE
  5
BC
330
1F
100
AcDbEntity
  8
0
  6
Continuous
 62
     7
370
    25
100
AcDbLine
 10
7227.9246994191
 20
5559.7572457042
 30
0.0
 11
7407.9246994191
 21
5559.7572457042
 31
0.0
  0
LINE
  5
BD
330
1F
100
AcDbEntity
  8
0
  6
Continuous
 62
     7
370
    25
100
AcDbLine
 10
7227.9246994191
 20
4709.7572457042
 30
0.0
 11
7400.4793441249
 21
4709.7572457042
 31
0.0
  0
SPLINE
  5
BE
330
1F
100
AcDbEntity
  8
0
  6
Continuous
 62
     7
370
    25
100
AcDbSpline
210
0.0
220
0.0
230
1.0
 70
     8
 71
     3
 72
    14
 73
    10
 74
     0
 42
0.00000001
 43
0.00000001
 40
0.0
 40
0.0
 40
0.0
 40
0.0
 40
0.1152817304336519
 40
0.2850688196421977
 40
0.4554242431348476
 40
0.5909843706964059
 40
0.7265444771714599
 40
0.863272246261545
 40
1.0
 40
1.0
 40
1.0
 40
1.0
 10
7520.791235231435
 20
5106.248122324913
 30
0.0
 10
7517.172062039932
 20
5106.251593351126
 30
0.0
 10
7508.222565654843
 20
5106.260176509461
 30
0.0
 10
7494.184379158568
 20
5106.272308901269
 30
0.0
 10
7479.829460874271
 20
5106.283526330873
 30
0.0
 10
7466.818892977972
 20
5106.292496431688
 30
0.0
 10
7455.082895345366
 20
5106.299569695877
 30
0.0
 10
7443.593749963791
 20
5106.305508982076
 30
0.0
 10
7436.197334518154
 20
5106.308403250422
 30
0.0
 10
7432.49912700295
 20
5106.309850384512
 30
0.0
  0
LINE
  5
BF
330
1F
100
AcDbEntity
  8
0
  6
Continuous
 62
     7
370
    25
100
AcDbLine
 10
7727.6724883722
 20
5106.1969223983
 30
0.0
 11
7727.6604494304
 21
5106.1964384627
 31
0.0
  0
LINE
  5
C0
330
1F
100
AcDbEntity
  8
0
  6
Continuous
 62
     7
370
    25
100
AcDbLine
 10
7459.5014797237
 20
4709.7572457042
 30
0.0
 11
7613.1396166446
 21
4709.7572457042
 31
0.0
  0
LINE
  5
C1
330
1F
100
AcDbEntity
  8
0
  6
Continuous
 62
     7
370
    25
100
AcDbLine
 10
7274.6754020802
 20
4709.7572457042
 30
0.0
 11
7459.5014797237
 21
4709.7572457042
 31
0.0
  0
LINE
  5
C2
330
1F
100
AcDbEntity
  8
0
  6
Continuous
 62
     7
370
    25
100
AcDbLine
 10
7274.6754020802
 20
4709.7572457042
 30
0.0
 11
7228.2106169658
 21
5106.3171742112
 31
0.0
  0
LINE
  5
C3
330
1F
100
AcDbEntity
  8
0
  6
Continuous
 62
     7
370
    25
100
AcDbLine
 10
7396.2510553796
 20
5106.3171742112
 30
0.0
 11
7228.2106169658
 21
5106.3171742112
 31
0.0
  0
SPLINE
  5
C4
330
1F
100
AcDbEntity
  8
0
  6
Continuous
 62
     7
370
    25
100
AcDbSpline
210
0.0
220
0.0
230
1.0
 70
     8
 71
     3
 72
    11
 73
     7
 74
     0
 42
0.00000001
 43
0.00000001
 40
0.0
 40
0.0
 40
0.0
 40
0.0
 40
0.0844950609604869
 40
0.4226161766368828
 40
0.7109348338775381
 40
1.0
 40
1.0
 40
1.0
 40
1.0
 10
7432.49912700295
 20
5106.309850384512
 30
0.0
 10
7431.409137484059
 20
5106.310242977554
 30
0.0
 10
7425.957372637547
 20
5106.312206597298
 30
0.0
 10
7417.063619361301
 20
5106.314397194359
 30
0.0
 10
7406.062636830977
 20
5106.316350439966
 30
0.0
 10
7399.524400327289
 20
5106.316899384217
 30
0.0
 10
7396.251055379594
 20
5106.317174211213
 30
0.0
  0
ARC
  5
C5
330
1F
100
AcDbEntity
  8
0
  6
Continuous
 62
     7
370
    25
100
AcDbCircle
 10
7523.6518750635
 20
5106.9690721963
 30
0.0
 40
2.9500896538888
100
AcDbArc
 50
142.6889293478
 51
194.1453360631
  0
SPLINE
  5
C6
330
1F
100
AcDbEntity
  8
0
  6
Continuous
 62
     7
370
    25
100
AcDbSpline
210
0.0
220
0.0
230
1.0
 70
    24
 71
     3
 72
    29
 73
    25
 74
     0
 42
0.00000001
 43
0.00000001
 40
0.0
 40
0.0
 40
0.0
 40
0.0
 40
0.0457469711975718
 40
0.0916574114611841
 40
0.1375678918167506
 40
0.1833149178805176
 40
0.2290646610256966
 40
0.2749778937533688
 40
0.3208911034755612
 40
0.3666408151375222
 40
0.4123898830562644
 40
0.4583023551958038
 40
0.5042148325863236
 40
0.5499639076910677
 40
0.5957251736884034
 40
0.6416500266498556
 40
0.6875748427511789
 40
0.733336058305013
 40
0.7790886499114625
 40
0.8250046874292148
 40
0.8709207110935172
 40
0.9166732837414099
 40
0.9624338603582435
 40
1.0
 40
1.0
 40
1.0
 40
1.0
 10
7521.30550244361
 20
5108.757245704188
 30
0.0
 10
7525.705837238612
 20
5108.757245704188
 30
0.0
 10
7534.522230680935
 20
5108.757245704188
 30
0.0
 10
7548.04716429329
 20
5108.757245704188
 30
0.0
 10
7561.663274624982
 20
5108.757245704188
 30
0.0
 10
7575.289759969525
 20
5108.757245704188
 30
0.0
 10
7588.83464668916
 20
5108.757245704188
 30
0.0
 10
7602.220610514484
 20
5108.757245704188
 30
0.0
 10
7615.340259809926
 20
5108.757245704188
 30
0.0
 10
7628.085050005365
 20
5108.757245704188
 30
0.0
 10
7640.365171361079
 20
5108.757245704188
 30
0.0
 10
7652.119839508852
 20
5108.757245704188
 30
0.0
 10
7663.258540389657
 20
5108.757245704188
 30
0.0
 10
7673.687019459391
 20
5108.757245704188
 30
0.0
 10
7683.319867957969
 20
5108.757245704188
 30
0.0
 10
7692.121028481352
 20
5108.757245704188
 30
0.0
 10
7700.025250696986
 20
5108.757245704188
 30
0.0
 10
7706.960532376069
 20
5108.757245704188
 30
0.0
 10
7712.857060000297
 20
5108.757245704188
 30
0.0
 10
7717.705916609537
 20
5108.757245704188
 30
0.0
 10
7721.487677084252
 20
5108.757245704188
 30
0.0
 10
7724.121639100698
 20
5108.757245704188
 30
0.0
 10
7725.617768024591
 20
5108.757245704188
 30
0.0
 10
7725.70123492181
 20
5108.757245704188
 30
0.0
 10
7725.73886425916
 20
5108.757245704188
 30
0.0
  0
LWPOLYLINE
  5
C7
330
1F
100
AcDbEntity
  8
0
  6
Continuous
 62
     7
370
    25
100
AcDbPolyline
 90
        9
 70
   128
 43
0.0
 10
7432.499127003
 20
5106.3098503845
 10
7432.4701226477
 20
5106.7551331848
 10
7432.4985886086
 20
5107.2005220575
 10
7432.5830955711
 20
5107.6236534252
 10
7432.7194003264
 20
5108.0032812897
 10
7432.9006588285
 20
5108.3203440227
 10
7433.1177698429
 20
5108.5589214757
 10
7433.359831932
 20
5108.7070343521
 10
7433.614690831
 20
5108.7572457042
  0
SPLINE
  5
C8
330
1F
100
AcDbEntity
  8
0
  6
Continuous
 62
     7
370
    25
100
AcDbSpline
210
0.0
220
0.0
230
1.0
 70
    24
 71
     3
 72
    14
 73
    10
 74
     0
 42
0.00000001
 43
0.00000001
 40
0.0
 40
0.0
 40
0.0
 40
0.0
 40
0.1457512863598518
 40
0.2915920346581122
 40
0.437343288013392
 40
0.5864385268240292
 40
0.7356295265151217
 40
0.8847247367711366
 40
1.0
 40
1.0
 40
1.0
 40
1.0
 10
7433.614690831041
 20
5108.757245704188
 30
0.0
 10
7437.532761528568
 20
5108.757245704188
 30
0.0
 10
7445.371307830006
 20
5108.757245704188
 30
0.0
 10
7457.608426125611
 20
5108.757245704188
 30
0.0
 10
7470.255337500585
 20
5108.757245704188
 30
0.0
 10
7483.328039613814
 20
5108.757245704188
 30
0.0
 10
7496.792625260836
 20
5108.757245704188
 30
0.0
 10
7509.467552907986
 20
5108.757245704188
 30
0.0
 10
7517.711038929753
 20
5108.757245704188
 30
0.0
 10
7521.30550244361
 20
5108.757245704188
 30
0.0
  0
LWPOLYLINE
  5
C9
330
1F
100
AcDbEntity
  8
0
  6
Continuous
 62
     7
370
    25
100
AcDbPolyline
 90
        9
 70
   128
 43
0.0
 10
7396.2510553796
 20
5106.3171742112
 10
7396.2163990799
 20
5106.7617053311
 10
7396.2524568303
 20
5107.2060134584
 10
7396.3574256529
 20
5107.6278820722
 10
7396.5260568432
 20
5108.0062166834
 10
7396.7499184186
 20
5108.3220996125
 10
7397.0178167388
 20
5108.5597359203
 10
7397.3163562157
 20
5108.7072431955
 10
7397.6306091265
 20
5108.7572457042
  0
SPLINE
  5
CA
330
1F
100
AcDbEntity
  8
0
  6
Continuous
 62
     7
370
    25
100
AcDbSpline
210
0.0
220
0.0
230
1.0
 70
    24
 71
     3
 72
    11
 73
     7
 74
     0
 42
0.00000001
 43
0.00000001
 40
0.0
 40
0.0
 40
0.0
 40
0.0
 40
0.0851125836115493
 40
0.4257061745484482
 40
0.712485926095964
 40
1.0
 40
1.0
 40
1.0
 40
1.0
 10
7397.630609126476
 20
5108.757245704188
 30
0.0
 10
7398.577861746299
 20
5108.757245704188
 30
0.0
 10
7403.315719205273
 20
5108.757245704188
 30
0.0
 10
7411.578911879434
 20
5108.757245704188
 30
0.0
 10
7422.654128938209
 20
5108.757245704188
 30
0.0
 10
7429.958057137566
 20
5108.757245704188
 30
0.0
 10
7433.614690831041
 20
5108.757245704188
 30
0.0
  0
SPLINE
  5
CB
330
1F
100
AcDbEntity
  8
0
  6
Continuous
 62
     7
370
    25
100
AcDbSpline
210
0.0
220
0.0
230
1.0
 70
     8
 71
     3
 72
    14
 73
    10
 74
     0
 42
0.00000001
 43
0.00000001
 40
0.0
 40
0.0
 40
0.0
 40
0.0
 40
0.0030467252929627
 40
0.0529044244180808
 40
0.2626326271059107
 40
0.4576991528241888
 40
0.6408842406012867
 40
0.8203827035463394
 40
0.9999999999999999
 40
0.9999999999999999
 40
0.9999999999999999
 40
0.9999999999999999
 10
7230.1727358224
 20
5108.757245704188
 30
0.0
 10
7230.169460149718
 20
5108.757240406156
 30
0.0
 10
7230.112580201202
 20
5108.75714840924
 30
0.0
 10
7229.830344324539
 20
5108.744345530655
 30
0.0
 10
7229.345987866186
 20
5108.618966106785
 30
0.0
 10
7228.797370292739
 20
5108.255956587758
 30
0.0
 10
7228.403978741279
 20
5107.755013268552
 30
0.0
 10
7228.170586958242
 20
5107.157344313125
 30
0.0
 10
7228.181077721739
 20
5106.735493708218
 30
0.0
 10
7228.186324839215
 20
5106.524498609346
 30
0.0
  0
LINE
  5
CC
330
1F
100
AcDbEntity
  8
0
  6
Continuous
 62
     7
370
    25
100
AcDbLine
 10
7228.2106169658
 20
5106.3171742112
 30
0.0
 11
7228.1863248392
 21
5106.5244986093
 31
0.0
  0
LINE
  5
CD
330
1F
100
AcDbEntity
  8
0
  6
Continuous
 62
     7
370
    25
100
AcDbLine
 10
7230.1727358224
 20
5108.7572457042
 30
0.0
 11
7397.6306091265
 21
5108.7572457042
 31
0.0
  0
LINE
  5
CE
330
1F
100
AcDbEntity
  8
0
  6
Continuous
 62
     7
370
    25
100
AcDbLine
 10
7228.1863248392
 20
5106.5244986093
 30
0.0
 11
7228.1863204128
 21
5106.5244986093
 31
0.0
  0
LINE
  5
CF
330
1F
100
AcDbEntity
  8
0
  6
Continuous
 62
     7
370
    25
100
AcDbLine
 10
7228.1863204128
 20
5106.5244986093
 30
0.0
 11
7229.4918518013
 21
5095.3822672726
 31
0.0
  0
LINE
  5
D0
330
1F
100
AcDbEntity
  8
0
  6
Continuous
 62
     7
370
    25
100
AcDbLine
 10
7273.1082604876
 20
4723.1322241358
 30
0.0
 11
7274.6754020802
 21
4709.7572457042
 31
0.0
  0
LWPOLYLINE
  5
D1
330
1F
100
AcDbEntity
  8
0
  6
Continuous
 62
     7
370
    25
100
AcDbPolyline
 90
       20
 70
   128
 43
0.0
 10
7094.8550393066
 20
5580.378707544
 10
7095.7235370589
 20
5580.2490767232
 10
7096.6812452685
 20
5579.8742317717
 10
7097.6243813904
 20
5579.2947929563
 10
7098.4507419917
 20
5578.5735514636
 10
7099.0707780788
 20
5577.7886650005
 10
7099.4172991209
 20
5577.025188194
 10
7099.4527541862
 20
5576.3658556028
 10
7099.1733011683
 20
5575.8821161436
 10
7098.6092231377
 20
5575.6263904929
 10
7097.8216467018
 20
5575.6263904929
 10
7096.8959179878
 20
5575.8821161436
 10
7095.932354066
 20
5576.3658556028
 10
7095.0353720387
 20
5577.025188194
 10
7094.3021738265
 20
5577.7886650005
 10
7093.8122128326
 20
5578.5735514636
 10
7093.6185839331
 20
5579.2947929563
 10
7093.7422698238
 20
5579.8742317717
 10
7094.1698672191
 20
5580.2490767232
 10
7094.8550393066
 20
5580.378707544
  0
LWPOLYLINE
  5
D2
330
1F
100
AcDbEntity
  8
0
  6
Continuous
 62
     7
370
    25
100
AcDbPolyline
 90
        4
 70
   128
 43
0.0
 10
7094.8550393066
 20
5579.1292941768
 10
7094.2736947658
 20
5578.9947309299
 10
7093.9711558301
 20
5578.6115272238
 10
7093.9419539226
 20
5578.3195294316
  0
LWPOLYLINE
  5
D3
330
1F
100
AcDbEntity
  8
0
  6
Continuous
 62
     7
370
    25
100
AcDbPolyline
 90
        9
 70
   128
 43
0.0
 10
7097.7292809112
 20
5575.6414848354
 10
7097.9363838474
 20
5575.7283235177
 10
7098.2389227831
 20
5576.1115272238
 10
7098.2165973031
 20
5576.6850320987
 10
7097.8728062595
 20
5577.3615272238
 10
7097.2598887222
 20
5578.038022349
 10
7096.4711558301
 20
5578.6115272238
 10
7095.6266850161
 20
5578.9947309299
 10
7094.8550393066
 20
5579.1292941768
  0
SPLINE
  5
D4
330
1F
100
AcDbEntity
  8
0
  6
Continuous
 62
     8
370
    25
100
AcDbSpline
210
0.0
220
0.0
230
1.0
 70
     8
 71
     3
 72
    31
 73
    27
 74
     0
 42
0.00000001
 43
0.00000001
 40
0.0
 40
0.0
 40
0.0
 40
0.0
 40
0.0368214651072888
 40
0.0833227791588289
 40
0.1284997109239238
 40
0.173676614199574
 40
0.2201647100606184
 40
0.2666528376465913
 40
0.3118360879023719
 40
0.3570193520737826
 40
0.4035145351416022
 40
0.4500097037355603
 40
0.495181646023365
 40
0.5403535709421007
 40
0.5868360199852496
 40
0.6333185019294174
 40
0.6784933860617007
 40
0.7236682683362083
 40
0.7701546287858587
 40
0.8166409464093316
 40
0.8426773936617995
 40
0.8687737715774567
 40
0.9013405939004027
 40
0.9339073802566268
 40
0.9669536929602023
 40
1.0
 40
1.0
 40
1.0
 40
1.0
 10
7727.660449430373
 20
5106.196438462708
 30
0.0
 10
7727.626814863997
 20
5106.192635226139
 30
0.0
 10
7727.550703673469
 20
5106.184028935224
 30
0.0
 10
7726.029135535176
 20
5106.172383265535
 30
0.0
 10
7723.393024056722
 20
5106.161253189649
 30
0.0
 10
7719.618455990748
 20
5106.151613507092
 30
0.0
 10
7714.701676525156
 20
5106.143418092958
 30
0.0
 10
7708.698682230259
 20
5106.136819077034
 30
0.0
 10
7701.726773467607
 20
5106.131891042583
 30
0.0
 10
7693.800634029017
 20
5106.128555443984
 30
0.0
 10
7684.867888146403
 20
5106.126860129521
 30
0.0
 10
7675.066906853098
 20
5106.126852476214
 30
0.0
 10
7664.573034969786
 20
5106.128505826759
 30
0.0
 10
7653.384795087923
 20
5106.131772271672
 30
0.0
 10
7641.448574731077
 20
5106.136717084894
 30
0.0
 10
7628.956130972735
 20
5106.143295481572
 30
0.0
 10
7616.1230692532
 20
5106.151387361531
 30
0.0
 10
7602.929553260237
 20
5106.160979383048
 30
0.0
 10
7589.33100488371
 20
5106.172161872588
 30
0.0
 10
7577.459187737431
 20
5106.183038480181
 30
0.0
 10
7567.579336483256
 20
5106.192813100578
 30
0.0
 10
7559.085365803538
 20
5106.201684925562
 30
0.0
 10
7549.94863406865
 20
5106.211758402241
 30
0.0
 10
7540.170436885968
 20
5106.223230562297
 30
0.0
 10
7530.420709068331
 20
5106.23530108975
 30
0.0
 10
7524.001059660358
 20
5106.243848580103
 30
0.0
 10
7520.791235231435
 20
5106.248122324913
 30
0.0
  0
LINE
  5
D5
330
1F
100
AcDbEntity
  8
0
  6
Continuous
 62
     8
370
    25
100
AcDbLine
 10
7062.9246994191
 20
5562.2572457042
 30
0.0
 11
7107.9246994191
 21
5562.2572457042
 31
0.0
  0
LINE
  5
D6
330
1F
100
AcDbEntity
  8
0
  6
Continuous
 62
     7
100
AcDbLine
 10
6349.9863360979
 20
4078.8318037291
 30
0.0
 11
6340.8556706439
 21
4084.6034904122
 31
0.0
  0
LINE
  5
D7
330
1F
100
AcDbEntity
  8
0
  6
Continuous
 62
     7
100
AcDbLine
 10
6340.8556706439
 20
4084.6034904122
 30
0.0
 11
6340.1076218409
 21
4083.4200957238
 31
0.0
  0
LINE
  5
D8
330
1F
100
AcDbEntity
  8
0
  6
Continuous
 62
     7
100
AcDbLine
 10
6349.9863360979
 20
4078.8318037291
 30
0.0
 11
6349.2382872949
 21
4077.6484090408
 31
0.0
  0
LINE
  5
D9
330
1F
100
AcDbEntity
  8
0
  6
CENTERX2
 62
     7
100
AcDbLine
 10
6345.1901249004
 20
4081.035464157
 30
0.0
 11
6346.9743366828
 21
4079.9076261657
 31
0.0
  0
LINE
  5
DA
330
1F
100
AcDbEntity
  8
0
  6
Continuous
 62
     7
100
AcDbLine
 10
6349.2382872949
 20
4077.6484090408
 30
0.0
 11
6340.1076218409
 21
4083.4200957238
 31
0.0
  0
POINT
  5
DB
330
1F
100
AcDbEntity
  8
0
  6
Continuous
 62
     7
100
AcDbPoint
 10
6349.6123116964
 20
4078.2401063849
 30
0.0
  0
POINT
  5
DC
330
1F
100
AcDbEntity
  8
0
  6
Continuous
 62
     7
100
AcDbPoint
 10
6340.4816462424
 20
4084.011793068
 30
0.0
  0
LINE
  5
DD
330
1F
100
AcDbEntity
  8
0
  6
Continuous
 62
     7
370
    25
100
AcDbLine
 10
6165.0211057842
 20
4080.5838798845
 30
0.0
 11
6091.1022438409
 21
4080.5838754585
 31
0.0
  0
SPLINE
  5
DE
330
1F
100
AcDbEntity
  8
0
  6
Continuous
 62
     7
370
    25
100
AcDbSpline
210
0.0
220
0.0
230
1.0
 70
     8
 71
     3
 72
    11
 73
     7
 74
     0
 42
0.00000001
 43
0.00000001
 40
0.0
 40
0.0
 40
0.0
 40
0.0
 40
0.1856244611367018
 40
0.7003201163385598
 40
0.9576637440748109
 40
1.0
 40
1.0
 40
1.0
 40
1.0
 10
6091.085950655342
 20
4080.577126599501
 30
0.0
 10
6080.68766632706
 20
4070.180892286409
 30
0.0
 10
6041.457234917802
 20
4030.95819513193
 30
0.0
 10
5987.87094103566
 20
3977.262771123174
 30
0.0
 10
5942.149366105466
 20
3931.753779712566
 30
0.0
 10
5925.438652860975
 20
3914.893270395949
 30
0.0
 10
5923.077903704349
 20
3912.511359308905
 30
0.0
  0
LINE
  5
DF
330
1F
100
AcDbEntity
  8
0
  6
Continuous
 62
     7
370
    25
100
AcDbLine
 10
6344.942088448
 20
3826.7440308514
 30
0.0
 11
6344.942092874
 21
3900.6628932256
 31
0.0
  0
SPLINE
  5
E0
330
1F
100
AcDbEntity
  8
0
  6
Continuous
 62
     7
370
    25
100
AcDbSpline
210
0.0
220
0.0
230
1.0
 70
     8
 71
     3
 72
    11
 73
     7
 74
     0
 42
0.00000001
 43
0.00000001
 40
0.0
 40
0.0
 40
0.0
 40
0.0
 40
0.0329390199654491
 40
0.0934407565856352
 40
0.6813275979097443
 40
0.9999999999999999
 40
0.9999999999999999
 40
0.9999999999999999
 40
0.9999999999999999
 10
6176.873189431433
 20
3658.716040049119
 30
0.0
 10
6178.72857910544
 20
3660.550583286511
 30
0.0
 10
6183.991911623598
 20
3665.754779047974
 30
0.0
 10
6222.085202648619
 20
3703.987280411407
 30
0.0
 10
6276.318323477753
 20
3758.088549769851
 30
0.0
 10
6327.08863327133
 20
3808.875264654231
 30
0.0
 10
6344.935339589
 20
3826.727737665839
 30
0.0
  0
SPLINE
  5
E1
330
1F
100
AcDbEntity
  8
0
  6
Continuous
 62
     7
370
    25
100
AcDbSpline
210
0.0
220
0.0
230
1.0
 70
     8
 71
     3
 72
    18
 73
    14
 74
     0
 42
0.00000001
 43
0.00000001
 40
0.0
 40
0.0
 40
0.0
 40
0.0
 40
0.0661934313645969
 40
0.1627523631264668
 40
0.2593456535779219
 40
0.3560314138788553
 40
0.4528764771173788
 40
0.5499462258600719
 40
0.6473045383752333
 40
0.7450137304752393
 40
0.8432329317430987
 40
0.9284771648476654
 40
1.0
 40
1.0
 40
1.0
 40
1.0
 10
5892.693852634563
 20
3876.275056356972
 30
0.0
 10
5891.457862317575
 20
3874.499406702718
 30
0.0
 10
5888.418884873073
 20
3870.133547865112
 30
0.0
 10
5883.857419328951
 20
3862.986632885248
 30
0.0
 10
5878.99774596437
 20
3854.854307848414
 30
0.0
 10
5874.414385909979
 20
3846.551570968993
 30
0.0
 10
5870.099445389778
 20
3838.089061485004
 30
0.0
 10
5866.058295742685
 20
3829.46807054962
 30
0.0
 10
5862.291118315447
 20
3820.693170719459
 30
0.0
 10
5858.805050833525
 20
3811.762396645491
 30
0.0
 10
5855.729103696588
 20
3803.102319933008
 30
0.0
 10
5853.148518842207
 20
3795.17590854092
 30
0.0
 10
5851.779950821507
 20
3790.238085035488
 30
0.0
 10
5851.155560341876
 20
3787.985270458311
 30
0.0
  0
SPLINE
  5
E2
330
1F
100
AcDbEntity
  8
0
  6
Continuous
 62
     7
370
    25
100
AcDbSpline
210
0.0
220
0.0
230
1.0
 70
     8
 71
     3
 72
    56
 73
    52
 74
     0
 42
0.00000001
 43
0.00000001
 40
0.0
 40
0.0
 40
0.0
 40
0.0
 40
0.0171296266778865
 40
0.0370077621730163
 40
0.057936605427472
 40
0.0787350424859089
 40
0.0995279426243266
 40
0.1203632306981143
 40
0.1412665138736127
 40
0.1617139803937712
 40
0.1822361735418735
 40
0.2028842938782476
 40
0.2236476567315371
 40
0.2445129727820971
 40
0.2654644254449876
 40
0.2864840725635087
 40
0.3075523192158268
 40
0.3286484511850767
 40
0.3497487789988705
 40
0.370827477299813
 40
0.3918643276788944
 40
0.4128405898725881
 40
0.4337395328891329
 40
0.4545469036940786
 40
0.4752513190994839
 40
0.4958445730137492
 40
0.5162988791794304
 40
0.5369001440403212
 40
0.5576851296215397
 40
0.5785212239713005
 40
0.5993926361662172
 40
0.6202821084417898
 40
0.6411672507668684
 40
0.662028277132959
 40
0.6828476273086015
 40
0.703620545407631
 40
0.7243110139181781
 40
0.7450771702662411
 40
0.7659449242534179
 40
0.7868781618553037
 40
0.8078389805060145
 40
0.8287789923942793
 40
0.8496560802187281
 40
0.8704333129401639
 40
0.8890347081716424
 40
0.9086769435090691
 40
0.9286153334726831
 40
0.9492377810677454
 40
0.9706055117697394
 40
0.992787269015278
 40
1.0
 40
1.0
 40
1.0
 40
1.0
 10
5851.16221185192
 20
3787.98237821928
 30
0.0
 10
5850.658131144155
 20
3786.078683596122
 30
0.0
 10
5849.569088207041
 20
3781.96583985535
 30
0.0
 10
5848.184043602972
 20
3775.448632348117
 30
0.0
 10
5846.985736762354
 20
3768.467238244456
 30
0.0
 10
5846.089792584808
 20
3761.333948288475
 30
0.0
 10
5845.508536539209
 20
3754.179213140919
 30
0.0
 10
5845.24118101805
 20
3746.993762565606
 30
0.0
 10
5845.292016775339
 20
3739.843074585455
 30
0.0
 10
5845.66668741071
 20
3732.738166221107
 30
0.0
 10
5846.351046129453
 20
3725.685944368079
 30
0.0
 10
5847.349497346592
 20
3718.634604390451
 30
0.0
 10
5848.66224918225
 20
3711.59485096603
 30
0.0
 10
5850.288169168214
 20
3704.584968611557
 30
0.0
 10
5852.224885556405
 20
3697.623931416415
 30
0.0
 10
5854.468840880329
 20
3690.731235481771
 30
0.0
 10
5857.015222098845
 20
3683.92667862409
 30
0.0
 10
5859.857859235757
 20
3677.230379257996
 30
0.0
 10
5862.989088374044
 20
3670.662728991484
 30
0.0
 10
5866.399979226165
 20
3664.243579697144
 30
0.0
 10
5870.080625734363
 20
3657.991736918648
 30
0.0
 10
5874.020525325742
 20
3651.924555056556
 30
0.0
 10
5878.208501042357
 20
3646.058241730977
 30
0.0
 10
5882.6329379744
 20
3640.407768058347
 30
0.0
 10
5887.28177461438
 20
3634.986612799294
 30
0.0
 10
5892.141615256233
 20
3629.80924666469
 30
0.0
 10
5897.220282990837
 20
3624.863540682968
 30
0.0
 10
5902.524602922567
 20
3620.127587235898
 30
0.0
 10
5908.064879759647
 20
3615.600164495105
 30
0.0
 10
5913.822602925484
 20
3611.300626523278
 30
0.0
 10
5919.772742302166
 20
3607.250171767341
 30
0.0
 10
5925.89919793918
 20
3603.460957021998
 30
0.0
 10
5932.184779241491
 20
3599.94441838154
 30
0.0
 10
5938.6115967335
 20
3596.711060058759
 30
0.0
 10
5945.162772789979
 20
3593.769033575399
 30
0.0
 10
5951.819937827401
 20
3591.128033878913
 30
0.0
 10
5958.581998709802
 20
3588.787352789132
 30
0.0
 10
5965.450323476726
 20
3586.74139992032
 30
0.0
 10
5972.428378060245
 20
3584.989981241974
 30
0.0
 10
5979.49800483991
 20
3583.539579225257
 30
0.0
 10
5986.632363577179
 20
3582.397516286728
 30
0.0
 10
5993.803438268174
 20
3581.569134496999
 30
0.0
 10
6000.982946811007
 20
3581.058423827172
 30
0.0
 10
6007.909213332656
 20
3580.87122228592
 30
0.0
 10
6014.694973053317
 20
3580.980398210238
 30
0.0
 10
6021.372557681221
 20
3581.397287778763
 30
0.0
 10
6028.256068461575
 20
3582.129402449639
 30
0.0
 10
6035.300320136061
 20
3583.173768371669
 30
0.0
 10
6042.545260520355
 20
3584.566149932878
 30
0.0
 10
6048.244457003553
 20
3585.832819042982
 30
0.0
 10
6051.504210382575
 20
3586.722993059935
 30
0.0
 10
6052.30407884823
 20
3586.941421278979
 30
0.0
  0
SPLINE
  5
E3
330
1F
100
AcDbEntity
  8
0
  6
Continuous
 62
     7
370
    25
100
AcDbSpline
210
0.0
220
0.0
230
1.0
 70
     8
 71
     3
 72
    18
 73
    14
 74
     0
 42
0.00000001
 43
0.00000001
 40
0.0
 40
0.0
 40
0.0
 40
0.0
 40
0.0684752195244416
 40
0.1517602007848415
 40
0.2420847885554719
 40
0.3424195947269781
 40
0.4401507348725048
 40
0.5377674978948154
 40
0.6352783435158506
 40
0.7326539127841806
 40
0.8298680440272319
 40
0.9268983183680998
 40
1.0
 40
1.0
 40
1.0
 40
1.0
 10
6052.342766804916
 20
3586.799690970853
 30
0.0
 10
6054.500159173467
 20
3587.395284127783
 30
0.0
 10
6059.281542881282
 20
3588.715284818682
 30
0.0
 10
6066.810368876049
 20
3591.154432494816
 30
0.0
 10
6075.25489379495
 20
3594.130281127596
 30
0.0
 10
6084.050011577569
 20
3597.523562246205
 30
0.0
 10
6092.942957433156
 20
3601.309243778456
 30
0.0
 10
6101.623052439492
 20
3605.346079965539
 30
0.0
 10
6110.153669124437
 20
3609.664042837862
 30
0.0
 10
6118.5264468733
 20
3614.253960196573
 30
0.0
 10
6126.722311017837
 20
3619.120490341125
 30
0.0
 10
6134.103848157893
 20
3623.800502029964
 30
0.0
 10
6138.668243399562
 20
3626.976507120835
 30
0.0
 10
6140.629456188134
 20
3628.341161466261
 30
0.0
  0
SPLINE
  5
E4
330
1F
100
AcDbEntity
  8
0
  6
Continuous
 62
     7
370
    25
100
AcDbSpline
210
0.0
220
0.0
230
1.0
 70
     8
 71
     3
 72
    13
 73
     9
 74
     0
 42
0.00000001
 43
0.00000001
 40
0.0
 40
0.0
 40
0.0
 40
0.0
 40
0.135097568725545
 40
0.3303059927614583
 40
0.5077385257851793
 40
0.6972940580328668
 40
0.8790777095426013
 40
1.0
 40
1.0
 40
1.0
 40
1.0
 10
5923.089896982116
 20
3912.499692948295
 30
0.0
 10
5921.595369357962
 20
3910.978764104715
 30
0.0
 10
5917.941332980678
 20
3907.260178223879
 30
0.0
 10
5912.510359937855
 20
3901.365455210593
 30
0.0
 10
5906.66951391693
 20
3894.68375632389
 30
0.0
 10
5901.233808695745
 20
3887.938474862499
 30
0.0
 10
5896.530176157861
 20
3881.751840653626
 30
0.0
 10
5893.799496130905
 20
3877.83110506906
 30
0.0
 10
5892.708668242888
 20
3876.26488432003
 30
0.0
  0
SPLINE
  5
E5
330
1F
100
AcDbEntity
  8
0
  6
Continuous
 62
     7
370
    25
100
AcDbSpline
210
0.0
220
0.0
230
1.0
 70
     8
 71
     3
 72
    13
 73
     9
 74
     0
 42
0.00000001
 43
0.00000001
 40
0.0
 40
0.0
 40
0.0
 40
0.0
 40
0.1040353791610313
 40
0.3021761824232982
 40
0.4744168228520921
 40
0.6556608873600227
 40
0.8433733221325183
 40
0.9999999999999999
 40
0.9999999999999999
 40
0.9999999999999999
 40
0.9999999999999999
 10
6140.620451772274
 20
3628.354226783511
 30
0.0
 10
6141.970684088895
 20
3629.288764052846
 30
0.0
 10
6145.892504243837
 20
3632.003176271626
 30
0.0
 10
6151.856757503145
 20
3636.534918932908
 30
0.0
 10
6158.647529963216
 20
3641.985039914955
 30
0.0
 10
6165.096842973276
 20
3647.588481003378
 30
0.0
 10
6171.208913390533
 20
3653.198945874228
 30
0.0
 10
6175.096187681665
 20
3656.997349483356
 30
0.0
 10
6176.86435991604
 20
3658.725097847277
 30
0.0
  0
LINE
  5
E6
330
1F
100
AcDbEntity
  8
0
  6
Continuous
 62
     7
370
    25
100
AcDbLine
 10
6249.3262189567
 20
3928.3994634723
 30
0.0
 11
6249.5032143807
 21
3928.5764588963
 31
0.0
  0
LINE
  5
E7
330
1F
100
AcDbEntity
  8
0
  6
Continuous
 62
     7
370
    25
100
AcDbLine
 10
6192.9263430197
 20
3985.1366725251
 30
0.0
 11
6192.7750858398
 21
3984.9854153452
 31
0.0
  0
LINE
  5
E8
330
1F
100
AcDbEntity
  8
0
  6
Continuous
 62
     7
370
    25
100
AcDbLine
 10
6525.1901249004
 20
4146.8319119109
 30
0.0
 11
6525.5901249004
 21
4146.8319119109
 31
0.0
  0
LINE
  5
E9
330
1F
100
AcDbEntity
  8
0
  6
Continuous
 62
     7
370
    25
100
AcDbLine
 10
6525.5901249004
 20
4174.8319119109
 30
0.0
 11
6525.1901249004
 21
4174.8319119109
 31
0.0
  0
LINE
  5
EA
330
1F
100
AcDbEntity
  8
0
  6
Continuous
 62
     7
370
    25
100
AcDbLine
 10
6525.5901249004
 20
4146.8319119109
 30
0.0
 11
6527.0901249004
 21
4148.3319119109
 31
0.0
  0
LINE
  5
EB
330
1F
100
AcDbEntity
  8
0
  6
Continuous
 62
     7
370
    25
100
AcDbLine
 10
6527.0901249004
 20
4173.3319119109
 30
0.0
 11
6525.5901249004
 21
4174.8319119109
 31
0.0
  0
LINE
  5
EC
330
1F
100
AcDbEntity
  8
0
  6
Continuous
 62
     7
370
    25
100
AcDbLine
 10
6165.1901249004
 20
4260.8319119109
 30
0.0
 11
6525.1901249004
 21
4260.8319119109
 31
0.0
  0
LINE
  5
ED
330
1F
100
AcDbEntity
  8
0
  6
Continuous
 62
     7
370
    25
100
AcDbLine
 10
6165.1901249004
 20
4340.8319119109
 30
0.0
 11
6165.1901249004
 21
4260.8319119109
 31
0.0
  0
LINE
  5
EE
330
1F
100
AcDbEntity
  8
0
  6
Continuous
 62
     7
370
    25
100
AcDbLine
 10
6525.1901249004
 20
4260.8319119109
 30
0.0
 11
6525.1901249004
 21
4340.8319119109
 31
0.0
  0
LINE
  5
EF
330
1F
100
AcDbEntity
  8
0
  6
Continuous
 62
     7
370
    25
100
AcDbLine
 10
6525.1901249004
 20
4340.8319119109
 30
0.0
 11
6165.1901249004
 21
4340.8319119109
 31
0.0
  0
ARC
  5
F0
330
1F
100
AcDbEntity
  8
0
  6
Continuous
 62
     7
370
    25
100
AcDbCircle
 10
6345.1901249004
 20
4080.8319119109
 30
0.0
 40
180.0
100
AcDbArc
 50
180.0
 51
0.0
  0
CIRCLE
  5
F1
330
1F
100
AcDbEntity
  8
0
  6
Continuous
 62
     7
370
    25
100
AcDbCircle
 10
6345.1901249004
 20
4080.8319119109
 30
0.0
 40
156.5
  0
LINE
  5
F2
330
1F
100
AcDbEntity
  8
0
  6
Continuous
 62
     7
370
    25
100
AcDbLine
 10
6165.1901249004
 20
4260.8319119109
 30
0.0
 11
6165.1901249004
 21
4080.8319119109
 31
0.0
  0
LINE
  5
F3
330
1F
100
AcDbEntity
  8
0
  6
Continuous
 62
     7
370
    25
100
AcDbLine
 10
6525.1901249004
 20
4080.8319119109
 30
0.0
 11
6525.1901249004
 21
4260.8319119109
 31
0.0
  0
SPLINE
  5
F4
330
1F
100
AcDbEntity
  8
0
  6
Continuous
 62
     7
370
    25
100
AcDbSpline
210
0.0
220
0.0
230
1.0
 70
    11
 71
     3
 72
    70
 73
    66
 74
     0
 42
0.00000001
 43
0.00000001
 40
0.0
 40
0.0
 40
0.0
 40
0.0
 40
0.03125
 40
0.03125
 40
0.0625
 40
0.0625
 40
0.09375
 40
0.09375
 40
0.125
 40
0.125
 40
0.1562500000000001
 40
0.1562500000000001
 40
0.1875000000000001
 40
0.1875000000000001
 40
0.2187500000000001
 40
0.2187500000000001
 40
0.2500000000000001
 40
0.2500000000000001
 40
0.28125
 40
0.28125
 40
0.3125
 40
0.3125
 40
0.34375
 40
0.34375
 40
0.375
 40
0.375
 40
0.40625
 40
0.40625
 40
0.4375
 40
0.4375
 40
0.46875
 40
0.46875
 40
0.5
 40
0.5
 40
0.53125
 40
0.53125
 40
0.5625
 40
0.5625
 40
0.59375
 40
0.59375
 40
0.625
 40
0.625
 40
0.65625
 40
0.65625
 40
0.6875
 40
0.6875
 40
0.71875
 40
0.71875
 40
0.75
 40
0.75
 40
0.78125
 40
0.78125
 40
0.8125
 40
0.8125
 40
0.84375
 40
0.84375
 40
0.875
 40
0.875
 40
0.90625
 40
0.90625
 40
0.9375
 40
0.9375
 40
0.96875
 40
0.96875
 40
1.0
 40
1.0
 40
1.0
 40
1.0
 10
6342.696277847757
 20
4099.781225345052
 30
0.0
 10
6342.943970121355
 20
4099.946133521374
 30
0.0
 10
6343.203820964338
 20
4100.084026496995
 30
0.0
 10
6343.746904302117
 20
4100.307860984529
 30
0.0
 10
6344.033444546498
 20
4100.394298537835
 30
0.0
 10
6344.613467764558
 20
4100.508138205965
 30
0.0
 10
6344.905911510471
 20
4100.536149113464
 30
0.0
 10
6345.49562955182
 20
4100.534754016109
 30
0.0
 10
6345.794376289343
 20
4100.504402244153
 30
0.0
 10
6346.37099832162
 20
4100.387712464585
 30
0.0
 10
6346.652087242797
 20
4100.301687119036
 30
0.0
 10
6347.199452588256
 20
4100.072863628837
 30
0.0
 10
6347.460555051626
 20
4099.931771674705
 30
0.0
 10
6347.947212138667
 20
4099.604012223747
 30
0.0
 10
6348.176398650594
 20
4099.414762615544
 30
0.0
 10
6348.593037657263
 20
4098.994800865148
 30
0.0
 10
6348.77799501864
 20
4098.767359817774
 30
0.0
 10
6349.102321106731
 20
4098.278405692103
 30
0.0
 10
6349.242460367884
 20
4098.014030585682
 30
0.0
 10
6349.465135441205
 20
4097.470884907082
 30
0.0
 10
6349.549267519537
 20
4097.19069061299
 30
0.0
 10
6349.662622981907
 20
4096.612901122871
 30
0.0
 10
6349.690850823507
 20
4096.316536990842
 30
0.0
 10
6349.689370141637
 20
4095.731608875474
 30
0.0
 10
6349.660384907606
 20
4095.439864281785
 30
0.0
 10
6349.543546009013
 20
4094.858311492934
 30
0.0
 10
6349.45761680897
 20
4094.578013686544
 30
0.0
 10
6349.232896552672
 20
4094.037553640692
 30
0.0
 10
6349.092189974842
 20
4093.774765670613
 30
0.0
 10
6348.763981635716
 20
4093.285115537821
 30
0.0
 10
6348.577834559387
 20
4093.058915395082
 30
0.0
 10
6348.16179709322
 20
4092.643476001929
 30
0.0
 10
6347.929836393607
 20
4092.453517493706
 30
0.0
 10
6347.440716222083
 20
4092.127625922438
 30
0.0
 10
6347.181718357915
 20
4091.989317940462
 30
0.0
 10
6346.634150945078
 20
4091.763165889327
 30
0.0
 10
6346.348956870778
 20
4091.677325165432
 30
0.0
 10
6345.772632062736
 20
4091.563668945761
 30
0.0
 10
6345.477207035838
 20
4091.534822607736
 30
0.0
 10
6344.883270737842
 20
4091.536127424724
 30
0.0
 10
6344.590685528166
 20
4091.565881192156
 30
0.0
 10
6344.014030067005
 20
4091.6819253225
 30
0.0
 10
6343.727064330671
 20
4091.769748809402
 30
0.0
 10
6343.183154810291
 20
4091.997030708885
 30
0.0
 10
6342.924697899442
 20
4092.136115331793
 30
0.0
 10
6342.434876521805
 20
4092.465353916466
 30
0.0
 10
6342.204487085116
 20
4092.655825148746
 30
0.0
 10
6341.791126843246
 20
4093.071884362626
 30
0.0
 10
6341.605296288887
 20
4093.299201037703
 30
0.0
 10
6341.276900192556
 20
4093.793856604849
 30
0.0
 10
6341.139516988271
 20
4094.053484278654
 30
0.0
 10
6340.916904736366
 20
4094.594888533981
 30
0.0
 10
6340.831032067414
 20
4094.880048014415
 30
0.0
 10
6340.717649621812
 20
4095.457846920825
 30
0.0
 10
6340.689689328299
 20
4095.748948019334
 30
0.0
 10
6340.690570631304
 20
4096.335502846478
 30
0.0
 10
6340.720353456684
 20
4096.632947622221
 30
0.0
 10
6340.835564344171
 20
4097.207490441838
 30
0.0
 10
6340.920615970384
 20
4097.487489515887
 30
0.0
 10
6341.146806225229
 20
4098.032626703541
 30
0.0
 10
6341.28718117055
 20
4098.294391174846
 30
0.0
 10
6341.61278938911
 20
4098.7810773253
 30
0.0
 10
6341.799831039095
 20
4099.009352062772
 30
0.0
 10
6342.219818591408
 20
4099.428896368316
 30
0.0
 10
6342.44858557416
 20
4099.61631716873
 30
0.0
 10
6342.696277847757
 20
4099.781225345052
 30
0.0
  0
SPLINE
  5
F5
330
1F
100
AcDbEntity
  8
0
  6
Continuous
 62
     7
370
    25
100
AcDbSpline
210
0.0
220
0.0
230
1.0
 70
    11
 71
     3
 72
    70
 73
    66
 74
     0
 42
0.00000001
 43
0.00000001
 40
0.0
 40
0.0
 40
0.0
 40
0.0
 40
0.03125
 40
0.03125
 40
0.0625
 40
0.0625
 40
0.09375
 40
0.09375
 40
0.125
 40
0.125
 40
0.15625
 40
0.15625
 40
0.1875
 40
0.1875
 40
0.21875
 40
0.21875
 40
0.25
 40
0.25
 40
0.28125
 40
0.28125
 40
0.3125
 40
0.3125
 40
0.34375
 40
0.34375
 40
0.375
 40
0.375
 40
0.40625
 40
0.40625
 40
0.4375
 40
0.4375
 40
0.46875
 40
0.46875
 40
0.5
 40
0.5
 40
0.53125
 40
0.53125
 40
0.5625
 40
0.5625
 40
0.59375
 40
0.59375
 40
0.625
 40
0.625
 40
0.65625
 40
0.65625
 40
0.6875
 40
0.6875
 40
0.71875
 40
0.71875
 40
0.75
 40
0.75
 40
0.78125
 40
0.78125
 40
0.8125
 40
0.8125
 40
0.84375
 40
0.84375
 40
0.875
 40
0.875
 40
0.90625
 40
0.90625
 40
0.9375
 40
0.9375
 40
0.96875
 40
0.96875
 40
1.0
 40
1.0
 40
1.0
 40
1.0
 10
6332.087484683005
 20
4095.386367119144
 30
0.0
 10
6332.335410940779
 20
4095.551640542426
 30
0.0
 10
6332.595370473668
 20
4095.689720044858
 30
0.0
 10
6333.138335768509
 20
4095.913797234862
 30
0.0
 10
6333.424622860945
 20
4096.000286878083
 30
0.0
 10
6334.0038936482
 20
4096.114332623531
 30
0.0
 10
6334.295807930058
 20
4096.142483176664
 30
0.0
 10
6334.884147219096
 20
4096.141639315262
 30
0.0
 10
6335.182068657881
 20
4096.111714425448
 30
0.0
 10
6335.757150620517
 20
4095.996214871933
 30
0.0
 10
6336.037460995389
 20
4095.910954230211
 30
0.0
 10
6336.583284609898
 20
4095.684131830261
 30
0.0
 10
6336.84406559326
 20
4095.544049380954
 30
0.0
 10
6337.330089670519
 20
4095.2186424223
 30
0.0
 10
6337.558865584952
 20
4095.030952552082
 30
0.0
 10
6337.976245076321
 20
4094.61303431532
 30
0.0
 10
6338.161676091353
 20
4094.38661887873
 30
0.0
 10
6338.487188503872
 20
4093.899751966647
 30
0.0
 10
6338.628222666394
 20
4093.636225019669
 30
0.0
 10
6338.853115606369
 20
4093.093563427052
 30
0.0
 10
6338.938316789855
 20
4092.813582903402
 30
0.0
 10
6339.053834896358
 20
4092.236197755752
 30
0.0
 10
6339.08328965401
 20
4091.938844372433
 30
0.0
 10
6339.083753891089
 20
4091.352412039523
 30
0.0
 10
6339.055607587081
 20
4091.060068211776
 30
0.0
 10
6338.940280843532
 20
4090.477195545308
 30
0.0
 10
6338.854507322355
 20
4090.194695191226
 30
0.0
 10
6338.630254764048
 20
4089.652053079497
 30
0.0
 10
6338.489806199894
 20
4089.388507283354
 30
0.0
 10
6338.161045702929
 20
4088.896359052711
 30
0.0
 10
6337.974582446961
 20
4088.669273333497
 30
0.0
 10
6337.558089912952
 20
4088.252562785147
 30
0.0
 10
6337.325796706836
 20
4088.062040048982
 30
0.0
 10
6336.836058058435
 20
4087.735310747019
 30
0.0
 10
6336.576910028539
 20
4087.596806122346
 30
0.0
 10
6336.029526701696
 20
4087.370439556267
 30
0.0
 10
6335.744431981101
 20
4087.284501028757
 30
0.0
 10
6335.168792390412
 20
4087.170652163195
 30
0.0
 10
6334.87396877257
 20
4087.141684342474
 30
0.0
 10
6334.281373030328
 20
4087.142455017987
 30
0.0
 10
6333.989527152566
 20
4087.171815073508
 30
0.0
 10
6333.414464408554
 20
4087.286692745779
 30
0.0
 10
6333.128363201473
 20
4087.37371256541
 30
0.0
 10
6332.585692950153
 20
4087.599170265612
 30
0.0
 10
6332.327766691358
 20
4087.737193533472
 30
0.0
 10
6331.838794959084
 20
4088.063947328847
 30
0.0
 10
6331.608323526615
 20
4088.253291829769
 30
0.0
 10
6331.194566890353
 20
4088.667073812546
 30
0.0
 10
6331.008408227113
 20
4088.893206586849
 30
0.0
 10
6330.679043786973
 20
4089.385361423835
 30
0.0
 10
6330.540320325551
 20
4089.645039633892
 30
0.0
 10
6330.315768810039
 20
4090.185399898817
 30
0.0
 10
6330.228884477412
 20
4090.469792566089
 30
0.0
 10
6330.113077638996
 20
4091.04858495289
 30
0.0
 10
6330.084066612624
 20
4091.340150583626
 30
0.0
 10
6330.082994736301
 20
4091.927558382848
 30
0.0
 10
6330.111890233044
 20
4092.226003583137
 30
0.0
 10
6330.225921061237
 20
4092.803008696226
 30
0.0
 10
6330.310562748595
 20
4093.084037544282
 30
0.0
 10
6330.536048913022
 20
4093.630890955898
 30
0.0
 10
6330.676672534239
 20
4093.894354505698
 30
0.0
 10
6331.00262183388
 20
4094.383129828115
 30
0.0
 10
6331.18960315457
 20
4094.611903167394
 30
0.0
 10
6331.610414864545
 20
4095.033120818354
 30
0.0
 10
6331.839558425231
 20
4095.221093695862
 30
0.0
 10
6332.087484683005
 20
4095.386367119144
 30
0.0
  0
SPLINE
  5
F6
330
1F
100
AcDbEntity
  8
0
  6
Continuous
 62
     7
370
    25
100
AcDbSpline
210
0.0
220
0.0
230
1.0
 70
    11
 71
     3
 72
    70
 73
    66
 74
     0
 42
0.00000001
 43
0.00000001
 40
0.0
 40
0.0
 40
0.0
 40
0.0
 40
0.03125
 40
0.03125
 40
0.0625
 40
0.0625
 40
0.09375
 40
0.09375
 40
0.125
 40
0.125
 40
0.15625
 40
0.15625
 40
0.1875
 40
0.1875
 40
0.21875
 40
0.21875
 40
0.25
 40
0.25
 40
0.28125
 40
0.28125
 40
0.3125
 40
0.3125
 40
0.34375
 40
0.34375
 40
0.375
 40
0.375
 40
0.40625
 40
0.40625
 40
0.4375
 40
0.4375
 40
0.46875
 40
0.46875
 40
0.5
 40
0.5
 40
0.53125
 40
0.53125
 40
0.5625
 40
0.5625
 40
0.59375
 40
0.59375
 40
0.625
 40
0.625
 40
0.65625
 40
0.65625
 40
0.6875
 40
0.6875
 40
0.71875
 40
0.71875
 40
0.75
 40
0.75
 40
0.78125
 40
0.78125
 40
0.8125
 40
0.8125
 40
0.84375
 40
0.84375
 40
0.875
 40
0.875
 40
0.90625
 40
0.90625
 40
0.9375
 40
0.9375
 40
0.96875
 40
0.96875
 40
1.0
 40
1.0
 40
1.0
 40
1.0
 10
6327.00217876068
 20
4084.211467842482
 30
0.0
 10
6327.212015871094
 20
4084.422093985379
 30
0.0
 10
6327.43891245188
 20
4084.608506934833
 30
0.0
 10
6327.925335895855
 20
4084.93501995144
 30
0.0
 10
6328.187905451106
 20
4085.076239520683
 30
0.0
 10
6328.731677995771
 20
4085.302744425415
 30
0.0
 10
6329.011469295318
 20
4085.388263759668
 30
0.0
 10
6329.586683491268
 20
4085.504463136871
 30
0.0
 10
6329.884092947213
 20
4085.534591982003
 30
0.0
 10
6330.469946221098
 20
4085.53629816533
 30
0.0
 10
6330.761242469159
 20
4085.508818124983
 30
0.0
 10
6331.340501782483
 20
4085.39593477717
 30
0.0
 10
6331.624621470357
 20
4085.31071998655
 30
0.0
 10
6332.166108054005
 20
4085.088991435059
 30
0.0
 10
6332.427357041539
 20
4084.951135097229
 30
0.0
 10
6332.921179030676
 20
4084.624200689959
 30
0.0
 10
6333.148551636335
 20
4084.438953783398
 30
0.0
 10
6333.565321741321
 20
4084.026129078708
 30
0.0
 10
6333.756407875032
 20
4083.79561919762
 30
0.0
 10
6334.085892835877
 20
4083.306988380145
 30
0.0
 10
6334.225374683317
 20
4083.048860026506
 30
0.0
 10
6334.453665409583
 20
4082.504894680861
 30
0.0
 10
6334.541814573539
 20
4082.218340351635
 30
0.0
 10
6334.65871128343
 20
4081.642205321389
 30
0.0
 10
6334.688986070197
 20
4081.349576742082
 30
0.0
 10
6334.691201293044
 20
4080.75487575945
 30
0.0
 10
6334.662871363296
 20
4080.460280619539
 30
0.0
 10
6334.55013299063
 20
4079.883671434204
 30
0.0
 10
6334.464502025599
 20
4079.597676926354
 30
0.0
 10
6334.239464097319
 20
4079.050424107684
 30
0.0
 10
6334.101623267319
 20
4078.791200470534
 30
0.0
 10
6333.776157276118
 20
4078.301070116421
 30
0.0
 10
6333.586489808491
 20
4078.06881493297
 30
0.0
 10
6333.171964899226
 20
4077.652428178945
 30
0.0
 10
6332.945930217616
 20
4077.465762180695
 30
0.0
 10
6332.455706201074
 20
4077.136185183123
 30
0.0
 10
6332.193944200217
 20
4076.995618330017
 30
0.0
 10
6331.653822926623
 20
4076.770111395482
 30
0.0
 10
6331.371748200817
 20
4076.683305526914
 30
0.0
 10
6330.791809385417
 20
4076.566068879555
 30
0.0
 10
6330.500465553523
 20
4076.536647817895
 30
0.0
 10
6329.915116244122
 20
4076.534349849078
 30
0.0
 10
6329.617891223485
 20
4076.562334914992
 30
0.0
 10
6329.041077265443
 20
4076.674727277833
 30
0.0
 10
6328.760819813397
 20
4076.758376929497
 30
0.0
 10
6328.216618367013
 20
4076.980632453205
 30
0.0
 10
6327.952383414401
 20
4077.120314515581
 30
0.0
 10
6327.463495716927
 20
4077.443615473008
 30
0.0
 10
6327.235669071129
 20
4077.628265141756
 30
0.0
 10
6326.814376968051
 20
4078.045122993549
 30
0.0
 10
6326.625639945683
 20
4078.273135001585
 30
0.0
 10
6326.297251362471
 20
4078.759162117961
 30
0.0
 10
6326.155407263861
 20
4079.020825755084
 30
0.0
 10
6325.926168049595
 20
4079.567000241366
 30
0.0
 10
6325.839722774485
 20
4079.847780665077
 30
0.0
 10
6325.722101628065
 20
4080.424433247811
 30
0.0
 10
6325.691310647379
 20
4080.723246418847
 30
0.0
 10
6325.689007874248
 20
4081.312511293856
 30
0.0
 10
6325.716523267313
 20
4081.605041510999
 30
0.0
 10
6325.829602719115
 20
4082.185845067926
 30
0.0
 10
6325.91548717592
 20
4082.472024410277
 30
0.0
 10
6326.138434217881
 20
4083.01537214728
 30
0.0
 10
6326.276400197499
 20
4083.276255765848
 30
0.0
 10
6326.605215159587
 20
4083.771667774157
 30
0.0
 10
6326.792341650265
 20
4084.000841699585
 30
0.0
 10
6327.00217876068
 20
4084.211467842482
 30
0.0
  0
SPLINE
  5
F7
330
1F
100
AcDbEntity
  8
0
  6
Continuous
 62
     7
370
    25
100
AcDbSpline
210
0.0
220
0.0
230
1.0
 70
    11
 71
     3
 72
    70
 73
    66
 74
     0
 42
0.00000001
 43
0.00000001
 40
0.0
 40
0.0
 40
0.0
 40
0.0
 40
0.03125
 40
0.03125
 40
0.0625
 40
0.0625
 40
0.09375
 40
0.09375
 40
0.125
 40
0.125
 40
0.15625
 40
0.15625
 40
0.1875
 40
0.1875
 40
0.21875
 40
0.21875
 40
0.25
 40
0.25
 40
0.28125
 40
0.28125
 40
0.3125
 40
0.3125
 40
0.34375
 40
0.34375
 40
0.375
 40
0.375
 40
0.40625
 40
0.40625
 40
0.4375
 40
0.4375
 40
0.46875
 40
0.46875
 40
0.5
 40
0.5
 40
0.53125
 40
0.53125
 40
0.5625
 40
0.5625
 40
0.59375
 40
0.59375
 40
0.625
 40
0.625
 40
0.65625
 40
0.65625
 40
0.6875
 40
0.6875
 40
0.71875
 40
0.71875
 40
0.75
 40
0.75
 40
0.78125
 40
0.78125
 40
0.8125
 40
0.8125
 40
0.84375
 40
0.84375
 40
0.875
 40
0.875
 40
0.90625
 40
0.90625
 40
0.9375
 40
0.9375
 40
0.96875
 40
0.96875
 40
1.0
 40
1.0
 40
1.0
 40
1.0
 10
6331.373151734679
 20
4073.582196415538
 30
0.0
 10
6331.580991960528
 20
4073.793796053188
 30
0.0
 10
6331.806098218876
 20
4073.981536210362
 30
0.0
 10
6332.289444003648
 20
4074.311230411723
 30
0.0
 10
6332.550701202557
 20
4074.454328954969
 30
0.0
 10
6333.092731760454
 20
4074.684950644083
 30
0.0
 10
6333.371990221658
 20
4074.772644455532
 30
0.0
 10
6333.946853291104
 20
4074.893266741017
 30
0.0
 10
6334.244600219611
 20
4074.925675159678
 30
0.0
 10
6334.831744712761
 20
4074.931592665388
 30
0.0
 10
6335.123948645984
 20
4074.906081895282
 30
0.0
 10
6335.705554560395
 20
4074.796768038755
 30
0.0
 10
6335.991239004014
 20
4074.713075892791
 30
0.0
 10
6336.535817577885
 20
4074.493920291669
 30
0.0
 10
6336.798793067652
 20
4074.357064912073
 30
0.0
 10
6337.295814488963
 20
4074.031871071014
 30
0.0
 10
6337.524754769456
 20
4073.847288648994
 30
0.0
 10
6337.944630197342
 20
4073.435428692384
 30
0.0
 10
6338.137210994599
 20
4073.205244969689
 30
0.0
 10
6338.469206424334
 20
4072.717631271057
 30
0.0
 10
6338.609948733055
 20
4072.459884945917
 30
0.0
 10
6338.840784743809
 20
4071.916437356846
 30
0.0
 10
6338.929990452056
 20
4071.630692476778
 30
0.0
 10
6339.049290476825
 20
4071.055835833801
 30
0.0
 10
6339.080870830153
 20
4070.76368475152
 30
0.0
 10
6339.085858387425
 20
4070.169595111506
 30
0.0
 10
6339.059092648514
 20
4069.876505232156
 30
0.0
 10
6338.949703608882
 20
4069.300904543895
 30
0.0
 10
6338.865789356498
 20
4069.014994972402
 30
0.0
 10
6338.644854593074
 20
4068.468655314397
 30
0.0
 10
6338.509109507576
 20
4068.209439904137
 30
0.0
 10
6338.187726738034
 20
4067.718552288124
 30
0.0
 10
6338.000196535734
 20
4067.485703002635
 30
0.0
 10
6337.589714372939
 20
4067.067514674056
 30
0.0
 10
6337.365507049166
 20
4066.879556374113
 30
0.0
 10
6336.878386049591
 20
4066.546773800432
 30
0.0
 10
6336.617940356676
 20
4066.404344487986
 30
0.0
 10
6336.079701412836
 20
4066.174799830208
 30
0.0
 10
6335.798333069873
 20
4066.085822355974
 30
0.0
 10
6335.218495299774
 20
4065.964047702039
 30
0.0
 10
6334.926888167014
 20
4065.932407853889
 30
0.0
 10
6334.340397992099
 20
4065.925875264884
 30
0.0
 10
6334.042221093185
 20
4065.951825183458
 30
0.0
 10
6333.462882487353
 20
4066.060678036788
 30
0.0
 10
6333.181216646241
 20
4066.142782424674
 30
0.0
 10
6332.633912442711
 20
4066.362418848572
 30
0.0
 10
6332.367988290152
 20
4066.501036616423
 30
0.0
 10
6331.875836248425
 20
4066.822639758856
 30
0.0
 10
6331.646379056278
 20
4067.006653592186
 30
0.0
 10
6331.221815424495
 20
4067.422660523083
 30
0.0
 10
6331.031878963317
 20
4067.649994874509
 30
0.0
 10
6330.70077465656
 20
4068.135274532453
 30
0.0
 10
6330.557495913432
 20
4068.39694372396
 30
0.0
 10
6330.326055928025
 20
4068.941730362475
 30
0.0
 10
6330.238426235176
 20
4069.221953108641
 30
0.0
 10
6330.118300385553
 20
4069.797765784636
 30
0.0
 10
6330.086248960715
 20
4070.095909008237
 30
0.0
 10
6330.081137825594
 20
4070.683537744262
 30
0.0
 10
6330.107101629374
 20
4070.975505343631
 30
0.0
 10
6330.216897492721
 20
4071.555693602949
 30
0.0
 10
6330.300802866027
 20
4071.840939176038
 30
0.0
 10
6330.519781799307
 20
4072.383769084124
 30
0.0
 10
6330.655887691906
 20
4072.645039927188
 30
0.0
 10
6330.980321509529
 20
4073.140817621194
 30
0.0
 10
6331.165311508829
 20
4073.370596777886
 30
0.0
 10
6331.373151734679
 20
4073.582196415538
 30
0.0
  0
SPLINE
  5
F8
330
1F
100
AcDbEntity
  8
0
  6
Continuous
 62
     7
370
    25
100
AcDbSpline
210
0.0
220
0.0
230
1.0
 70
    11
 71
     3
 72
    70
 73
    66
 74
     0
 42
0.00000001
 43
0.00000001
 40
0.0
 40
0.0
 40
0.0
 40
0.0
 40
0.03125
 40
0.03125
 40
0.0625
 40
0.0625
 40
0.09375
 40
0.09375
 40
0.125
 40
0.125
 40
0.15625
 40
0.15625
 40
0.1875
 40
0.1875
 40
0.21875
 40
0.21875
 40
0.25
 40
0.25
 40
0.28125
 40
0.28125
 40
0.3125
 40
0.3125
 40
0.34375
 40
0.34375
 40
0.375
 40
0.375
 40
0.40625
 40
0.40625
 40
0.4375
 40
0.4375
 40
0.46875
 40
0.46875
 40
0.5
 40
0.5
 40
0.53125
 40
0.53125
 40
0.5625
 40
0.5625
 40
0.59375
 40
0.59375
 40
0.625
 40
0.625
 40
0.65625
 40
0.65625
 40
0.6875
 40
0.6875
 40
0.71875
 40
0.71875
 40
0.75
 40
0.75
 40
0.78125
 40
0.78125
 40
0.8125
 40
0.8125
 40
0.84375
 40
0.84375
 40
0.875
 40
0.875
 40
0.90625
 40
0.90625
 40
0.9375
 40
0.9375
 40
0.96875
 40
0.96875
 40
1.0
 40
1.0
 40
1.0
 40
1.0
 10
6342.658313455167
 20
4069.75566990476
 30
0.0
 10
6342.904296271827
 20
4069.923075191661
 30
0.0
 10
6343.162704755609
 20
4070.0635911464
 30
0.0
 10
6343.703413790041
 20
4070.292919918429
 30
0.0
 10
6343.989012841351
 20
4070.382262494355
 30
0.0
 10
6344.567774522486
 20
4070.502007112251
 30
0.0
 10
6344.859877866304
 20
4070.533002737663
 30
0.0
 10
6345.449491289964
 20
4070.537646457175
 30
0.0
 10
6345.748502691721
 20
4070.510363794904
 30
0.0
 10
6346.326242436623
 20
4070.399607769556
 30
0.0
 10
6346.608172734706
 20
4070.316481924773
 30
0.0
 10
6347.157801230542
 20
4070.093323524715
 30
0.0
 10
6347.420369341342
 20
4069.954912441789
 30
0.0
 10
6347.910370441319
 20
4069.632175060115
 30
0.0
 10
6348.141469682878
 20
4069.445314121922
 30
0.0
 10
6348.562461597798
 20
4069.029601429693
 30
0.0
 10
6348.749763415559
 20
4068.804047276485
 30
0.0
 10
6349.079114093185
 20
4068.318410040397
 30
0.0
 10
6349.221974702928
 20
4068.055455738783
 30
0.0
 10
6349.450238832377
 20
4067.514520649234
 30
0.0
 10
6349.537240393665
 20
4067.23516231537
 30
0.0
 10
6349.656500094642
 20
4066.658506216004
 30
0.0
 10
6349.687756148255
 20
4066.362378558166
 30
0.0
 10
6349.692230423259
 20
4065.777383300577
 30
0.0
 10
6349.666214228107
 20
4065.48536133792
 30
0.0
 10
6349.55527506373
 20
4064.902568383857
 30
0.0
 10
6349.47218582718
 20
4064.621388292302
 30
0.0
 10
6349.252950089132
 20
4064.078653533146
 30
0.0
 10
6349.114917629712
 20
4063.814456959613
 30
0.0
 10
6348.791689286314
 20
4063.321499361157
 30
0.0
 10
6348.607850381339
 20
4063.093430852339
 30
0.0
 10
6348.196078184363
 20
4062.673819874289
 30
0.0
 10
6347.966078222626
 20
4062.481532831957
 30
0.0
 10
6347.480341331247
 20
4062.150717909145
 30
0.0
 10
6347.222794477549
 20
4062.009800003679
 30
0.0
 10
6346.677640881807
 20
4061.778115957674
 30
0.0
 10
6346.393365932363
 20
4061.689379204125
 30
0.0
 10
6345.81831062776
 20
4061.569859372585
 30
0.0
 10
6345.523259767717
 20
4061.53799870098
 30
0.0
 10
6344.929395605788
 20
4061.533220871384
 30
0.0
 10
6344.63655187722
 20
4061.559971418425
 30
0.0
 10
6344.058806321251
 20
4061.670077963601
 30
0.0
 10
6343.770985762164
 20
4061.754937070717
 30
0.0
 10
6343.224786142336
 20
4061.976608210291
 30
0.0
 10
6342.964926142837
 20
4062.113021165906
 30
0.0
 10
6342.471777352665
 20
4062.437179129548
 30
0.0
 10
6342.239419816962
 20
4062.625282453283
 30
0.0
 10
6341.821785026402
 20
4063.037083554906
 30
0.0
 10
6341.633624488903
 20
4063.262481077983
 30
0.0
 10
6341.30016184466
 20
4063.753728467125
 30
0.0
 10
6341.160076068782
 20
4064.012004058791
 30
0.0
 10
6340.931899786644
 20
4064.551145042115
 30
0.0
 10
6340.843103127366
 20
4064.835418528659
 30
0.0
 10
6340.723788441263
 20
4065.412129223697
 30
0.0
 10
6340.69285065967
 20
4065.702969040786
 30
0.0
 10
6340.687740621772
 20
4066.289559426871
 30
0.0
 10
6340.714490160384
 20
4066.587333547132
 30
0.0
 10
6340.82385535581
 20
4067.163097259451
 30
0.0
 10
6340.906061724789
 20
4067.443972105224
 30
0.0
 10
6341.126704927948
 20
4067.991406400592
 30
0.0
 10
6341.264427261483
 20
4068.254613805384
 30
0.0
 10
6341.585085548813
 20
4068.744600253172
 30
0.0
 10
6341.769792708292
 20
4068.97475434927
 30
0.0
 10
6342.18548962794
 20
4069.398538051249
 30
0.0
 10
6342.412330638507
 20
4069.588264617858
 30
0.0
 10
6342.658313455167
 20
4069.75566990476
 30
0.0
  0
SPLINE
  5
F9
330
1F
100
AcDbEntity
  8
0
  6
Continuous
 62
     7
370
    25
100
AcDbSpline
210
0.0
220
0.0
230
1.0
 70
    11
 71
     3
 72
    70
 73
    66
 74
     0
 42
0.00000001
 43
0.00000001
 40
0.0
 40
0.0
 40
0.0
 40
0.0
 40
0.0312499999999987
 40
0.0312499999999987
 40
0.0624999999999975
 40
0.0624999999999975
 40
0.0937499999999962
 40
0.0937499999999962
 40
0.1249999999999949
 40
0.1249999999999949
 40
0.1562499999999937
 40
0.1562499999999937
 40
0.1874999999999924
 40
0.1874999999999924
 40
0.2187499999999912
 40
0.2187499999999912
 40
0.2499999999999899
 40
0.2499999999999899
 40
0.2812499999999886
 40
0.2812499999999886
 40
0.3124999999999873
 40
0.3124999999999873
 40
0.3437499999999861
 40
0.3437499999999861
 40
0.3749999999999848
 40
0.3749999999999848
 40
0.4062499999999836
 40
0.4062499999999836
 40
0.4374999999999852
 40
0.4374999999999852
 40
0.4687499999999868
 40
0.4687499999999868
 40
0.4999999999999885
 40
0.4999999999999885
 40
0.5312499999999901
 40
0.5312499999999901
 40
0.5624999999999917
 40
0.5624999999999917
 40
0.5937499999999933
 40
0.5937499999999933
 40
0.6249999999999949
 40
0.6249999999999949
 40
0.6562499999999966
 40
0.6562499999999966
 40
0.6874999999999982
 40
0.6874999999999982
 40
0.7187499999999998
 40
0.7187499999999998
 40
0.7500000000000014
 40
0.7500000000000014
 40
0.7812500000000031
 40
0.7812500000000031
 40
0.8125000000000047
 40
0.8125000000000047
 40
0.8437500000000063
 40
0.8437500000000063
 40
0.875000000000005
 40
0.875000000000005
 40
0.9062500000000038
 40
0.9062500000000038
 40
0.9375000000000026
 40
0.9375000000000026
 40
0.9687500000000012
 40
0.9687500000000012
 40
1.0
 40
1.0
 40
1.0
 40
1.0
 10
6352.642133602034
 20
4094.851200166525
 30
0.0
 10
6352.853632221502
 20
4095.059104232619
 30
0.0
 10
6353.081979932942
 20
4095.24286109754
 30
0.0
 10
6353.571015000644
 20
4095.564027577399
 30
0.0
 10
6353.834740114276
 20
4095.702529069452
 30
0.0
 10
6354.380748913855
 20
4095.92362628398
 30
0.0
 10
6354.661519683201
 20
4096.006418769597
 30
0.0
 10
6355.238465156366
 20
4096.116953037152
 30
0.0
 10
6355.536775820114
 20
4096.144137008841
 30
0.0
 10
6356.124020526861
 20
4096.139742787464
 30
0.0
 10
6356.415779081563
 20
4096.109096253145
 30
0.0
 10
6356.995479846246
 20
4095.989545265399
 30
0.0
 10
6357.279695048248
 20
4095.900819698619
 30
0.0
 10
6357.820422331247
 20
4095.672057829803
 30
0.0
 10
6358.081004554367
 20
4095.53054756593
 30
0.0
 10
6358.572261021162
 20
4095.196587548651
 30
0.0
 10
6358.797928917295
 20
4095.00796629273
 30
0.0
 10
6359.210502371786
 20
4094.58869716625
 30
0.0
 10
6359.398995126251
 20
4094.355118634465
 30
0.0
 10
6359.722302972164
 20
4093.861715389934
 30
0.0
 10
6359.858461032431
 20
4093.601521959083
 30
0.0
 10
6360.079643915923
 20
4093.054076504673
 30
0.0
 10
6360.163762601118
 20
4092.766852185571
 30
0.0
 10
6360.272868580603
 20
4092.190062821373
 30
0.0
 10
6360.299282508482
 20
4091.89743649069
 30
0.0
 10
6360.293785384752
 20
4091.303412443111
 30
0.0
 10
6360.261868763988
 20
4091.010962223134
 30
0.0
 10
6360.14238940514
 20
4090.437490786439
 30
0.0
 10
6360.053472152579
 20
4090.153140527297
 30
0.0
 10
6359.823034128081
 20
4089.610901413013
 30
0.0
 10
6359.682792481872
 20
4089.354155956155
 30
0.0
 10
6359.352903903247
 20
4088.869045353779
 30
0.0
 10
6359.161351928174
 20
4088.639546584247
 30
0.0
 10
6358.743660282712
 20
4088.228650057224
 30
0.0
 10
6358.516214426416
 20
4088.044651188191
 30
0.0
 10
6358.023352363674
 20
4087.720440681579
 30
0.0
 10
6357.760449385742
 20
4087.582582965586
 30
0.0
 10
6357.218243795106
 20
4087.362475063313
 30
0.0
 10
6356.935336468438
 20
4087.278425858244
 30
0.0
 10
6356.353367666415
 20
4087.166807521517
 30
0.0
 10
6356.061202315917
 20
4087.140278733725
 30
0.0
 10
6355.474580375301
 20
4087.144037789466
 30
0.0
 10
6355.176842058865
 20
4087.175227079602
 30
0.0
 10
6354.599390319027
 20
4087.294274311731
 30
0.0
 10
6354.319156094586
 20
4087.381342056827
 30
0.0
 10
6353.775693499238
 20
4087.61063843066
 30
0.0
 10
6353.512214793249
 20
4087.753950443167
 30
0.0
 10
6353.025747096345
 20
4088.084242329779
 30
0.0
 10
6352.799544161529
 20
4088.272310209843
 30
0.0
 10
6352.382341441539
 20
4088.695825934557
 30
0.0
 10
6352.196473349743
 20
4088.926469435176
 30
0.0
 10
6351.873996425124
 20
4089.417548971683
 30
0.0
 10
6351.73536008303
 20
4089.681741702186
 30
0.0
 10
6351.513622520898
 20
4090.230475181156
 30
0.0
 10
6351.43096901045
 20
4090.512178140585
 30
0.0
 10
6351.321048749084
 20
4091.089984908429
 30
0.0
 10
6351.294276333307
 20
4091.388604611644
 30
0.0
 10
6351.299537775841
 20
4091.976122301139
 30
0.0
 10
6351.330640367817
 20
4092.267542955992
 30
0.0
 10
6351.450629429516
 20
4092.845638557033
 30
0.0
 10
6351.539519763445
 20
4093.129282665085
 30
0.0
 10
6351.767970374717
 20
4093.668083425569
 30
0.0
 10
6351.908635210742
 20
4093.926902654131
 30
0.0
 10
6352.241668087288
 20
4094.416825818051
 30
0.0
 10
6352.430634982566
 20
4094.643296100431
 30
0.0
 10
6352.642133602034
 20
4094.851200166525
 30
0.0
  0
SPLINE
  5
FA
330
1F
100
AcDbEntity
  8
0
  6
Continuous
 62
     7
370
    25
100
AcDbSpline
210
0.0
220
0.0
230
1.0
 70
    11
 71
     3
 72
    70
 73
    66
 74
     0
 42
0.00000001
 43
0.00000001
 40
0.0
 40
0.0
 40
0.0
 40
0.0
 40
0.0312499999999999
 40
0.0312499999999999
 40
0.0624999999999998
 40
0.0624999999999998
 40
0.0937499999999998
 40
0.0937499999999998
 40
0.1249999999999997
 40
0.1249999999999997
 40
0.1562499999999996
 40
0.1562499999999996
 40
0.1874999999999995
 40
0.1874999999999995
 40
0.2187499999999994
 40
0.2187499999999994
 40
0.2499999999999993
 40
0.2499999999999993
 40
0.2812499999999992
 40
0.2812499999999992
 40
0.3124999999999992
 40
0.3124999999999992
 40
0.3437499999999991
 40
0.3437499999999991
 40
0.374999999999999
 40
0.374999999999999
 40
0.4062499999999989
 40
0.4062499999999989
 40
0.4374999999999988
 40
0.4374999999999988
 40
0.4687499999999988
 40
0.4687499999999988
 40
0.4999999999999987
 40
0.4999999999999987
 40
0.5312499999999986
 40
0.5312499999999986
 40
0.5624999999999984
 40
0.5624999999999984
 40
0.5937499999999984
 40
0.5937499999999984
 40
0.6249999999999983
 40
0.6249999999999983
 40
0.6562499999999984
 40
0.6562499999999984
 40
0.6874999999999986
 40
0.6874999999999986
 40
0.7187499999999988
 40
0.7187499999999988
 40
0.7499999999999989
 40
0.7499999999999989
 40
0.781249999999999
 40
0.781249999999999
 40
0.8124999999999991
 40
0.8124999999999991
 40
0.8437499999999993
 40
0.8437499999999993
 40
0.8749999999999994
 40
0.8749999999999994
 40
0.9062499999999996
 40
0.9062499999999996
 40
0.9374999999999997
 40
0.9374999999999997
 40
0.9687499999999999
 40
0.9687499999999999
 40
1.0
 40
1.0
 40
1.0
 40
1.0
 10
6356.470186836361
 20
4083.56766888801
 30
0.0
 10
6356.637614685382
 20
4083.813628948393
 30
0.0
 10
6356.826314603924
 20
4084.038914732937
 30
0.0
 10
6357.244402441117
 20
4084.449941315454
 30
0.0
 10
6357.476593516103
 20
4084.63735136651
 30
0.0
 10
6357.969510261232
 20
4084.960475579641
 30
0.0
 10
6358.228866227911
 20
4085.096209200703
 30
0.0
 10
6358.773080392039
 20
4085.316605447784
 30
0.0
 10
6359.05990564252
 20
4085.401059864859
 30
0.0
 10
6359.635452741709
 20
4085.510747416381
 30
0.0
 10
6359.926851781013
 20
4085.5374391396
 30
0.0
 10
6360.51706232542
 20
4085.53326399686
 30
0.0
 10
6360.811782647877
 20
4085.501901865416
 30
0.0
 10
6361.384640190603
 20
4085.383872760111
 30
0.0
 10
6361.666864807913
 20
4085.296539346406
 30
0.0
 10
6362.212012396127
 20
4085.06653020444
 30
0.0
 10
6362.469469417866
 20
4084.926544603036
 30
0.0
 10
6362.954977566512
 20
4084.597978465956
 30
0.0
 10
6363.185203472683
 20
4084.406840695221
 30
0.0
 10
6363.598929354637
 20
4083.987874631407
 30
0.0
 10
6363.783596014812
 20
4083.760143110916
 30
0.0
 10
6364.108356558387
 20
4083.268034587331
 30
0.0
 10
6364.247895892747
 20
4083.002902109978
 30
0.0
 10
6364.469261357252
 20
4082.45859756916
 30
0.0
 10
6364.553145738958
 20
4082.176711754688
 30
0.0
 10
6364.665369299187
 20
4081.592765231898
 30
0.0
 10
6364.692054577245
 20
4081.298036891189
 30
0.0
 10
6364.687978695905
 20
4080.710461864246
 30
0.0
 10
6364.656751263493
 20
4080.41348680281
 30
0.0
 10
6364.536802237334
 20
4079.833797387373
 30
0.0
 10
6364.449250550021
 20
4079.553408974641
 30
0.0
 10
6364.219904451957
 20
4079.011232048588
 30
0.0
 10
6364.076343117478
 20
4078.747729083307
 30
0.0
 10
6363.745673218346
 20
4078.261567987899
 30
0.0
 10
6363.557876883189
 20
4078.03619519455
 30
0.0
 10
6363.136623270002
 20
4077.621446716406
 30
0.0
 10
6362.905173736692
 20
4077.434872624518
 30
0.0
 10
6362.415647239834
 20
4077.113372892897
 30
0.0
 10
6362.154187940835
 20
4076.975905891058
 30
0.0
 10
6361.605697654835
 20
4076.753675895266
 30
0.0
 10
6361.324711650857
 20
4076.671015307546
 30
0.0
 10
6360.749684158683
 20
4076.560802796593
 30
0.0
 10
6360.452340338384
 20
4076.533516942025
 30
0.0
 10
6359.864866327821
 20
4076.537632176663
 30
0.0
 10
6359.574058200812
 20
4076.568158618963
 30
0.0
 10
6358.998307065471
 20
4076.686219717227
 30
0.0
 10
6358.71305735782
 20
4076.774708126568
 30
0.0
 10
6358.173264855959
 20
4077.002097568484
 30
0.0
 10
6357.915409354055
 20
4077.141442299564
 30
0.0
 10
6357.42461316645
 20
4077.473206180328
 30
0.0
 10
6357.19731142663
 20
4077.662192398361
 30
0.0
 10
6356.785057230003
 20
4078.078876765019
 30
0.0
 10
6356.597365738512
 20
4078.30972346436
 30
0.0
 10
6356.271338848987
 20
4078.803716724587
 30
0.0
 10
6356.134521091834
 20
4079.063510806068
 30
0.0
 10
6355.912330117181
 20
4079.608231147663
 30
0.0
 10
6355.826796028112
 20
4079.896105815989
 30
0.0
 10
6355.715499941537
 20
4080.474654247615
 30
0.0
 10
6355.688392853117
 20
4080.767211539023
 30
0.0
 10
6355.692026619583
 20
4081.358980383272
 30
0.0
 10
6355.723473123492
 20
4081.656207227969
 30
0.0
 10
6355.84208558608
 20
4082.231647327504
 30
0.0
 10
6355.929445918559
 20
4082.513678757888
 30
0.0
 10
6356.161126537156
 20
4083.061710929114
 30
0.0
 10
6356.302758987339
 20
4083.321708827626
 30
0.0
 10
6356.470186836361
 20
4083.56766888801
 30
0.0
  0
SPLINE
  5
FB
330
1F
100
AcDbEntity
  8
0
  6
Continuous
 62
     7
370
    25
100
AcDbSpline
210
0.0
220
0.0
230
1.0
 70
    11
 71
     3
 72
    70
 73
    66
 74
     0
 42
0.00000001
 43
0.00000001
 40
0.0
 40
0.0
 40
0.0
 40
0.0
 40
0.03125
 40
0.03125
 40
0.0625
 40
0.0625
 40
0.09375
 40
0.09375
 40
0.125
 40
0.125
 40
0.15625
 40
0.15625
 40
0.1875
 40
0.1875
 40
0.21875
 40
0.21875
 40
0.25
 40
0.25
 40
0.28125
 40
0.28125
 40
0.3125
 40
0.3125
 40
0.34375
 40
0.34375
 40
0.375
 40
0.375
 40
0.40625
 40
0.40625
 40
0.4375
 40
0.4375
 40
0.46875
 40
0.46875
 40
0.5
 40
0.5
 40
0.53125
 40
0.53125
 40
0.5625
 40
0.5625
 40
0.59375
 40
0.59375
 40
0.625
 40
0.625
 40
0.65625
 40
0.65625
 40
0.6875
 40
0.6875
 40
0.71875
 40
0.71875
 40
0.75
 40
0.75
 40
0.78125
 40
0.78125
 40
0.8125
 40
0.8125
 40
0.84375
 40
0.84375
 40
0.875
 40
0.875
 40
0.90625
 40
0.90625
 40
0.9375
 40
0.9375
 40
0.96875
 40
0.96875
 40
1.0
 40
1.0
 40
1.0
 40
1.0
 10
6353.314914123725
 20
4074.182608134126
 30
0.0
 10
6353.563434556103
 20
4074.346918975702
 30
0.0
 10
6353.823880715436
 20
4074.483996338278
 30
0.0
 10
6354.367612362716
 20
4074.705995163378
 30
0.0
 10
6354.654177201674
 20
4074.791396434819
 30
0.0
 10
6355.233810132006
 20
4074.903261511888
 30
0.0
 10
6355.525796257526
 20
4074.930319237193
 30
0.0
 10
6356.114062403689
 20
4074.927286003489
 30
0.0
 10
6356.411855589134
 20
4074.896258284581
 30
0.0
 10
6356.986486617815
 20
4074.778630298926
 30
0.0
 10
6357.266467746012
 20
4074.692334636566
 30
0.0
 10
6357.811420695343
 20
4074.463505166382
 30
0.0
 10
6358.071719553464
 20
4074.322439499061
 30
0.0
 10
6358.556555349503
 20
4073.995216396738
 30
0.0
 10
6358.784622235796
 20
4073.806690357775
 30
0.0
 10
6359.20050716612
 20
4073.387159187458
 30
0.0
 10
6359.385112651054
 20
4073.160025315216
 30
0.0
 10
6359.708829781692
 20
4072.671899178602
 30
0.0
 10
6359.848888934798
 20
4072.407819718395
 30
0.0
 10
6360.071771491662
 20
4071.864230922498
 30
0.0
 10
6360.155922586551
 20
4071.583896903209
 30
0.0
 10
6360.269261934944
 20
4071.006029610865
 30
0.0
 10
6360.297591324222
 20
4070.708523104567
 30
0.0
 10
6360.295820906742
 20
4070.122033867342
 30
0.0
 10
6360.266555076488
 20
4069.829780765491
 30
0.0
 10
6360.148997472393
 20
4069.24733643014
 30
0.0
 10
6360.062135416838
 20
4068.965142202435
 30
0.0
 10
6359.835803270072
 20
4068.423357776686
 30
0.0
 10
6359.694349787576
 20
4068.160360579943
 30
0.0
 10
6359.363719898494
 20
4067.669491859831
 30
0.0
 10
6359.176400605773
 20
4067.443135238679
 30
0.0
 10
6358.75835794567
 20
4067.028053262193
 30
0.0
 10
6358.525367819614
 20
4066.838438349905
 30
0.0
 10
6358.034452707056
 20
4066.513608948256
 30
0.0
 10
6357.774818115333
 20
4066.376104837383
 30
0.0
 10
6357.226671689885
 20
4066.151836925817
 30
0.0
 10
6356.941294584726
 20
4066.066979861673
 30
0.0
 10
6356.365317642354
 20
4065.955300134121
 30
0.0
 10
6356.070447868815
 20
4065.927434638203
 30
0.0
 10
6355.477916461093
 20
4065.930403185813
 30
0.0
 10
6355.186210176867
 20
4065.960839878865
 30
0.0
 10
6354.611634014288
 20
4066.077826764216
 30
0.0
 10
6354.325878885398
 20
4066.165889610352
 30
0.0
 10
6353.784041926635
 20
4066.393341317346
 30
0.0
 10
6353.526627164915
 20
4066.532311234746
 30
0.0
 10
6353.038867055147
 20
4066.860855509944
 30
0.0
 10
6352.809063619469
 20
4067.051068870061
 30
0.0
 10
6352.396795507289
 20
4067.466416147576
 30
0.0
 10
6352.21145977078
 20
4067.693255104592
 30
0.0
 10
6351.883899976734
 20
4068.186659609347
 30
0.0
 10
6351.746100086472
 20
4068.446930761371
 30
0.0
 10
6351.5235380465
 20
4068.988207065493
 30
0.0
 10
6351.437713308373
 20
4069.272947115805
 30
0.0
 10
6351.324065596497
 20
4069.852285770396
 30
0.0
 10
6351.296155789843
 20
4070.144004239908
 30
0.0
 10
6351.297314966416
 20
4070.731478966364
 30
0.0
 10
6351.327350481199
 20
4071.029843223706
 30
0.0
 10
6351.443594824116
 20
4071.606463619833
 30
0.0
 10
6351.5293174954
 20
4071.887181798723
 30
0.0
 10
6351.756899752576
 20
4072.433176504273
 30
0.0
 10
6351.898531951404
 20
4072.69609839372
 30
0.0
 10
6352.226339459876
 20
4073.183606723762
 30
0.0
 10
6352.414183767434
 20
4073.41164874175
 30
0.0
 10
6352.836560603555
 20
4073.831218597751
 30
0.0
 10
6353.066393691346
 20
4074.01829729255
 30
0.0
 10
6353.314914123725
 20
4074.182608134126
 30
0.0
  0
LINE
  5
FC
330
1F
100
AcDbEntity
  8
0
  6
Continuous
 62
     7
370
    25
100
AcDbLine
 10
6165.0040223129
 20
4078.5838798834
 30
0.0
 11
6091.9211266881
 21
4078.5838755076
 31
0.0
  0
SPLINE
  5
FD
330
1F
100
AcDbEntity
  8
0
  6
Continuous
 62
     7
370
    25
100
AcDbSpline
210
0.0
220
0.0
230
1.0
 70
     8
 71
     3
 72
    14
 73
    10
 74
     0
 42
0.00000001
 43
0.00000001
 40
0.0
 40
0.0
 40
0.0
 40
0.0
 40
0.0030467252929627
 40
0.0529044244180808
 40
0.2626326271059107
 40
0.4576991528241888
 40
0.6408842406012867
 40
0.8203827035463394
 40
0.9999999999999999
 40
0.9999999999999999
 40
0.9999999999999999
 40
0.9999999999999999
 10
6091.921126688137
 20
4078.583875507551
 30
0.0
 10
6091.919769859966
 20
4078.587151180232
 30
0.0
 10
6091.896209411772
 20
4078.644031128748
 30
0.0
 10
6091.779303474271
 20
4078.926267005413
 30
0.0
 10
6091.578676442939
 20
4079.410623463765
 30
0.0
 10
6091.351431584309
 20
4079.959241037211
 30
0.0
 10
6091.188483454551
 20
4080.352632588671
 30
0.0
 10
6091.09180940449
 20
4080.586024371708
 30
0.0
 10
6091.096154821377
 20
4080.575533608212
 30
0.0
 10
6091.098328248782
 20
4080.570286490736
 30
0.0
  0
SPLINE
  5
FE
330
1F
100
AcDbEntity
  8
0
  6
Continuous
 62
     7
370
    25
100
AcDbSpline
210
0.0
220
0.0
230
1.0
 70
     8
 71
     3
 72
    12
 73
     8
 74
     0
 42
0.00000001
 43
0.00000001
 40
0.0
 40
0.0
 40
0.0
 40
0.0
 40
0.1406738833957186
 40
0.3554540420652469
 40
0.5702185564270488
 40
0.7849351621741998
 40
1.0
 40
1.0
 40
1.0
 40
1.0
 10
6165.021105785688
 20
4080.558232282478
 30
0.0
 10
6165.018835313319
 20
4080.558947859748
 30
0.0
 10
6165.01309829546
 20
4080.560755976698
 30
0.0
 10
6165.00484415331
 20
4080.307215262982
 30
0.0
 10
6164.998776266366
 20
4079.859503570482
 30
0.0
 10
6164.997462357152
 20
4079.25885053101
 30
0.0
 10
6165.001899106723
 20
4078.808992404377
 30
0.0
 10
6165.004119278954
 20
4078.583881091417
 30
0.0
  0
LINE
  5
FF
330
1F
100
AcDbEntity
  8
0
  6
Continuous
 62
     7
370
    25
100
AcDbLine
 10
6091.9211266881
 20
4078.5838755076
 30
0.0
 11
5924.4632533841
 21
3911.1260022035
 31
0.0
  0
SPLINE
  5
100
330
1F
100
AcDbEntity
  8
0
  6
Continuous
 62
     7
370
    25
100
AcDbSpline
210
0.0
220
0.0
230
1.0
 70
     8
 71
     3
 72
    14
 73
    10
 74
     0
 42
0.00000001
 43
0.00000001
 40
0.0
 40
0.0
 40
0.0
 40
0.0
 40
0.1212103291967831
 40
0.3134881459758149
 40
0.5097150560359772
 40
0.7186693004144126
 40
0.9433290566494832
 40
0.9967363637536025
 40
0.9999999999999999
 40
0.9999999999999999
 40
0.9999999999999999
 40
0.9999999999999999
 10
6344.919046402028
 20
3826.74403085281
 30
0.0
 10
6344.920493871678
 20
3826.7434312912
 30
0.0
 10
6344.924237484784
 20
3826.74188063575
 30
0.0
 10
6344.708057661287
 20
3826.83142525812
 30
0.0
 10
6344.318262552419
 20
3826.992883692498
 30
0.0
 10
6343.768585447432
 20
3827.220567423318
 30
0.0
 10
6343.284495964572
 20
3827.421083870319
 30
0.0
 10
6343.002244051322
 20
3827.53799644979
 30
0.0
 10
6342.945364166098
 20
3827.561556871956
 30
0.0
 10
6342.942088497049
 20
3827.562913698634
 30
0.0
  0
LINE
  5
101
330
1F
100
AcDbEntity
  8
0
  6
Continuous
 62
     7
370
    25
100
AcDbLine
 10
6342.942088497
 20
3827.5629136986
 30
0.0
 11
6342.9420928729
 21
3900.6458102899
 31
0.0
  0
SPLINE
  5
102
330
1F
100
AcDbEntity
  8
0
  6
Continuous
 62
     7
370
    25
100
AcDbSpline
210
0.0
220
0.0
230
1.0
 70
     8
 71
     3
 72
    12
 73
     8
 74
     0
 42
0.00000001
 43
0.00000001
 40
0.0
 40
0.0
 40
0.0
 40
0.0
 40
0.2146661116584813
 40
0.4293326349485322
 40
0.643998390330643
 40
0.8587109414934426
 40
1.0
 40
1.0
 40
1.0
 40
1.0
 10
6342.942094068877
 20
3900.645906289606
 30
0.0
 10
6343.166784401023
 20
3900.643689179668
 30
0.0
 10
6343.616165496168
 20
3900.639254955543
 30
0.0
 10
6344.216531755207
 20
3900.640555395028
 30
0.0
 10
6344.66449019698
 20
3900.646611258229
 30
0.0
 10
6344.918737238533
 20
3900.654866477003
 30
0.0
 10
6344.917016562523
 20
3900.660612685694
 30
0.0
 10
6344.916333664786
 20
3900.662893227113
 30
0.0
  0
LINE
  5
103
330
1F
100
AcDbEntity
  8
0
  6
Continuous
 62
     7
370
    25
100
AcDbLine
 10
6175.4842151933
 20
3660.1050403949
 30
0.0
 11
6342.942088497
 21
3827.5629136986
 31
0.0
  0
LINE
  5
104
330
1F
100
AcDbEntity
  8
0
  6
Continuous
 62
     7
370
    25
100
AcDbLine
 10
6344.9285039066
 20
3900.6664321739
 30
0.0
 11
6343.6229725182
 21
3900.8387341696
 31
0.0
  0
ARC
  5
105
330
1F
100
AcDbEntity
  8
0
  6
Continuous
 62
     7
370
    25
100
AcDbCircle
 10
6345.1904907372
 20
4080.8322787265
 30
0.0
 40
180.2004958389543
100
AcDbArc
 50
180.7149098347
 51
269.2850904765
  0
LINE
  5
106
330
1F
100
AcDbEntity
  8
0
  6
Continuous
 62
     7
370
    25
100
AcDbLine
 10
6165.0246451634
 20
4080.5702909171
 30
0.0
 11
6165.1969471591
 21
4079.2647595287
 31
0.0
  0
LINE
  5
107
330
1F
100
AcDbEntity
  8
0
  6
Continuous
 62
     7
370
    25
100
AcDbLine
 10
6159.273193525
 20
3705.2598232058
 30
0.0
 11
6115.9046146085
 21
3665.7893020489
 31
0.0
  0
SPLINE
  5
108
330
1F
100
AcDbEntity
  8
0
  6
Continuous
 62
     7
370
    25
100
AcDbSpline
210
0.0
220
0.0
230
1.0
 70
     8
 71
     3
 72
    45
 73
    41
 74
     0
 42
0.00000001
 43
0.00000001
 40
0.0
 40
0.0
 40
0.0
 40
0.0
 40
0.0261269098619389
 40
0.0523465035684277
 40
0.0785639264500826
 40
0.1046878655492135
 40
0.1308191486073542
 40
0.1570440956494529
 40
0.1832693929790731
 40
0.2094011554129438
 40
0.2355018973039789
 40
0.2616958175174935
 40
0.2878896465438686
 40
0.3139902636448134
 40
0.3401021537647749
 40
0.3663073917602346
 40
0.3925124195987773
 40
0.4186240221162023
 40
0.4447278210873853
 40
0.4709253055454979
 40
0.4971226053587129
 40
0.5232261516374085
 40
0.5492692845514738
 40
0.5754053420032796
 40
0.6015416608613485
 40
0.6275851515097285
 40
0.6536533577587148
 40
0.6798144220986584
 40
0.7059757004731062
 40
0.7320441996265367
 40
0.7581596770307737
 40
0.784368528759296
 40
0.8105772191752133
 40
0.8366924758209678
 40
0.8627975807993218
 40
0.8889960319920939
 40
0.9151942169488249
 40
0.9412989575791546
 40
0.9706483067392078
 40
1.0
 40
1.0
 40
1.0
 40
1.0
 10
5969.61833438726
 20
3894.914800969
 30
0.0
 10
5972.240970025859
 20
3897.627906273779
 30
0.0
 10
5977.495544965649
 20
3903.063741482331
 30
0.0
 10
5986.211086877555
 20
3910.350343842484
 30
0.0
 10
5995.452555433233
 20
3916.939467417051
 30
0.0
 10
6005.219288980424
 20
3922.706453909301
 30
0.0
 10
6015.447796022604
 20
3927.606686366304
 30
0.0
 10
6026.065150132931
 20
3931.635514341304
 30
0.0
 10
6036.980636214783
 20
3934.767581449733
 30
0.0
 10
6048.103325004913
 20
3936.970625853248
 30
0.0
 10
6059.370028252677
 20
3938.205739035153
 30
0.0
 10
6070.708830390143
 20
3938.493083995907
 30
0.0
 10
6082.03233801922
 20
3937.838172953008
 30
0.0
 10
6093.250135272372
 20
3936.238185985345
 30
0.0
 10
6104.289636795407
 20
3933.675855663153
 30
0.0
 10
6115.089368669456
 20
3930.193415676325
 30
0.0
 10
6125.562383952341
 20
3925.82568347386
 30
0.0
 10
6135.619783969989
 20
3920.601245449941
 30
0.0
 10
6145.186989269952
 20
3914.527528242279
 30
0.0
 10
6154.219832956765
 20
3907.665076280035
 30
0.0
 10
6162.650098238594
 20
3900.074580020703
 30
0.0
 10
6170.397855318934
 20
3891.818109805497
 30
0.0
 10
6177.396984380422
 20
3882.929533352463
 30
0.0
 10
6183.629097584733
 20
3873.482565889392
 30
0.0
 10
6189.055862187851
 20
3863.55103255512
 30
0.0
 10
6193.629301336952
 20
3853.208727370261
 30
0.0
 10
6197.295626982887
 20
3842.507353464304
 30
0.0
 10
6200.057201144917
 20
3831.520848358518
 30
0.0
 10
6201.898412125269
 20
3820.34319168374
 30
0.0
 10
6202.798415257574
 20
3809.056598613826
 30
0.0
 10
6202.722570365927
 20
3797.727481688516
 30
0.0
 10
6201.695789678105
 20
3786.425137140457
 30
0.0
 10
6199.733595805369
 20
3775.247162756923
 30
0.0
 10
6196.844090947586
 20
3764.287058846867
 30
0.0
 10
6193.019883988269
 20
3753.618500045146
 30
0.0
 10
6188.309986224675
 20
3743.298536347558
 30
0.0
 10
6182.762063463781
 20
3733.40184457563
 30
0.0
 10
6176.134752019195
 20
3723.642756155469
 30
0.0
 10
6168.40041036287
 20
3714.117816491691
 30
0.0
 10
6162.315680131169
 20
3708.21256623894
 30
0.0
 10
6159.273193524966
 20
3705.259823205786
 30
0.0
  0
LINE
  5
109
330
1F
100
AcDbEntity
  8
0
  6
Continuous
 62
     7
370
    25
100
AcDbLine
 10
5930.1468537424
 20
3851.5469983079
 30
0.0
 11
5969.6183343873
 21
3894.914800969
 31
0.0
  0
SPLINE
  5
10A
330
1F
100
AcDbEntity
  8
0
  6
Continuous
 62
     7
370
    25
100
AcDbSpline
210
0.0
220
0.0
230
1.0
 70
     8
 71
     3
 72
    43
 73
    39
 74
     0
 42
0.00000001
 43
0.00000001
 40
0.0
 40
0.0
 40
0.0
 40
0.0
 40
0.027769000454334
 40
0.0556342782004481
 40
0.083492172879909
 40
0.1112510701106211
 40
0.1390409971302945
 40
0.1669317872304288
 40
0.1948223347264676
 40
0.2226119297211147
 40
0.2501851533789097
 40
0.2778573399532547
 40
0.3055294947207662
 40
0.3331026748499279
 40
0.3606170304512661
 40
0.3882299079038198
 40
0.415842729303851
 40
0.4433570081962079
 40
0.4708428358986893
 40
0.4984268964334889
 40
0.5260109534372127
 40
0.553496776307382
 40
0.580981196656494
 40
0.6085638275360573
 40
0.6361465540989973
 40
0.6636311053915939
 40
0.6911183300382577
 40
0.7187036319400039
 40
0.7462890062129975
 40
0.7737763298998076
 40
0.8012845104457541
 40
0.8288906002533014
 40
0.8564969541378645
 40
0.8840054960699001
 40
0.9129431949665426
 40
0.9419932193810931
 40
0.971051288728259
 40
1.0
 40
1.0
 40
1.0
 40
1.0
 10
6115.904614608544
 20
3665.789302048923
 30
0.0
 10
6113.092167939313
 20
3663.348108954331
 30
0.0
 10
6107.457523628754
 20
3658.457258958167
 30
0.0
 10
6098.278215979475
 20
3652.022592400843
 30
0.0
 10
6088.642371354078
 20
3646.313962820122
 30
0.0
 10
6078.5523077937
 20
3641.464462068443
 30
0.0
 10
6068.07382676882
 20
3637.516308893359
 30
0.0
 10
6057.283516436807
 20
3634.459892967453
 30
0.0
 10
6046.27520937269
 20
3632.317892405034
 30
0.0
 10
6035.16684929173
 20
3631.118225522328
 30
0.0
 10
6024.025800756192
 20
3630.888210226093
 30
0.0
 10
6012.921234423536
 20
3631.593526166802
 30
0.0
 10
6001.913913238772
 20
3633.220628292044
 30
0.0
 10
5991.102011483797
 20
3635.761728159933
 30
0.0
 10
5980.557897451075
 20
3639.225575718061
 30
0.0
 10
5970.337250735786
 20
3643.563431837586
 30
0.0
 10
5960.512622707578
 20
3648.735964163819
 30
0.0
 10
5951.170370070165
 20
3654.705795756331
 30
0.0
 10
5942.381791622116
 20
3661.457910102939
 30
0.0
 10
5934.183559981995
 20
3668.928558798818
 30
0.0
 10
5926.634168254731
 20
3677.054335473623
 30
0.0
 10
5919.800063250671
 20
3685.774221981555
 30
0.0
 10
5913.744424000373
 20
3695.051424759861
 30
0.0
 10
5908.481843572171
 20
3704.814335837539
 30
0.0
 10
5904.048169522669
 20
3714.980550729654
 30
0.0
 10
5900.485533644997
 20
3725.470986433649
 30
0.0
 10
5897.841081908451
 20
3736.229989505699
 30
0.0
 10
5896.10496842266
 20
3747.18530077266
 30
0.0
 10
5895.283970706211
 20
3758.246905306048
 30
0.0
 10
5895.391798887519
 20
3769.328785184393
 30
0.0
 10
5896.4550502423
 20
3780.362861755644
 30
0.0
 10
5898.440357668117
 20
3791.284285993599
 30
0.0
 10
5901.324602805892
 20
3802.003534100653
 30
0.0
 10
5905.152790601884
 20
3812.613480389826
 30
0.0
 10
5909.993757197461
 20
3823.019493089736
 30
0.0
 10
5915.856659906153
 20
3833.120102919539
 30
0.0
 10
5922.512095581036
 20
3842.731065357764
 30
0.0
 10
5927.605134929254
 20
3848.612049726534
 30
0.0
 10
5930.146853742368
 20
3851.546998307866
 30
0.0
  0
SPLINE
  5
10B
330
1F
100
AcDbEntity
  8
0
  6
Continuous
 62
     7
370
    25
100
AcDbSpline
210
0.0
220
0.0
230
1.0
 70
     8
 71
     3
 72
    11
 73
     7
 74
     0
 42
0.00000001
 43
0.00000001
 40
0.0
 40
0.0
 40
0.0
 40
0.0
 40
0.2490296997341863
 40
0.4980593120459107
 40
0.7490299169979262
 40
1.0
 40
1.0
 40
1.0
 40
1.0
 10
6139.500133488496
 20
3629.959593793083
 30
0.0
 10
6142.671824313025
 20
3632.232688365932
 30
0.0
 10
6149.015204848652
 20
3636.778876713655
 30
0.0
 10
6158.156749996891
 20
3644.144257598625
 30
0.0
 10
6167.036858612293
 20
3651.869385701144
 30
0.0
 10
6172.668431618325
 20
3657.359824066747
 30
0.0
 10
6175.484215193306
 20
3660.105040394894
 30
0.0
  0
SPLINE
  5
10C
330
1F
100
AcDbEntity
  8
0
  6
Continuous
 62
     7
370
    25
100
AcDbSpline
210
0.0
220
0.0
230
1.0
 70
     8
 71
     3
 72
    14
 73
    10
 74
     0
 42
0.00000001
 43
0.00000001
 40
0.0
 40
0.0
 40
0.0
 40
0.0
 40
0.1457558856010003
 40
0.2916033885533236
 40
0.4373622371893076
 40
0.5864758120169951
 40
0.7356851871160808
 40
0.8847987337415372
 40
0.9999999999999999
 40
0.9999999999999999
 40
0.9999999999999999
 40
0.9999999999999999
 10
6051.809321880753
 20
3588.732633087434
 30
0.0
 10
6056.351270702073
 20
3590.056893621659
 30
0.0
 10
6065.438023264217
 20
3592.706247076684
 30
0.0
 10
6078.793997906867
 20
3597.535499945307
 30
0.0
 10
6092.011239232398
 20
3603.011157437805
 30
0.0
 10
6105.033974325213
 20
3609.20007884227
 30
0.0
 10
6117.816923313692
 20
3616.097400923366
 30
0.0
 10
6129.318766061509
 20
3623.026910825847
 30
0.0
 10
6136.409601929248
 20
3627.855193214855
 30
0.0
 10
6139.500133488496
 20
3629.959593793083
 30
0.0
  0
SPLINE
  5
10D
330
1F
100
AcDbEntity
  8
0
  6
Continuous
 62
     7
370
    25
100
AcDbSpline
210
0.0
220
0.0
230
1.0
 70
     8
 71
     3
 72
    32
 73
    28
 74
     0
 42
0.00000001
 43
0.00000001
 40
0.0
 40
0.0
 40
0.0
 40
0.0
 40
0.0399137869934021
 40
0.079970199155447
 40
0.1200266462973315
 40
0.1599404811609548
 40
0.1998566866516575
 40
0.2399155352114081
 40
0.2799743636991017
 40
0.3198905417210031
 40
0.3598061580832134
 40
0.3998643430372231
 40
0.439922532572662
 40
0.4798381552045891
 40
0.5197644142716159
 40
0.5598334013722092
 40
0.5999023563126987
 40
0.6398285713682617
 40
0.6797472621136912
 40
0.7198085578254804
 40
0.7598698414502693
 40
0.7997885156545426
 40
0.8397141732437929
 40
0.8797826133288729
 40
0.9198510477567544
 40
0.959776697604053
 40
1.0
 40
1.0
 40
1.0
 40
1.0
 10
5853.09084607557
 20
3787.45110888634
 30
0.0
 10
5851.994574039848
 20
3783.050774091339
 30
0.0
 10
5849.798112625656
 20
3774.234380649016
 30
0.0
 10
5847.931350596032
 20
3760.70944703666
 30
0.0
 10
5847.111244906798
 20
3747.093336704972
 30
0.0
 10
5847.456748088046
 20
3733.466851360411
 30
0.0
 10
5848.971087790716
 20
3719.921964640846
 30
0.0
 10
5851.619746421306
 20
3706.536000815262
 30
0.0
 10
5855.370569667613
 20
3693.416351520788
 30
0.0
 10
5860.202375716192
 20
3680.671561321748
 30
0.0
 10
5866.116079239539
 20
3668.391439979479
 30
0.0
 10
5873.045503465994
 20
3656.636771781353
 30
0.0
 10
5880.927032526888
 20
3645.498071088384
 30
0.0
 10
5889.704925413417
 20
3635.069591320005
 30
0.0
 10
5899.350998015199
 20
3625.436745430634
 30
0.0
 10
5909.783103166383
 20
3616.635575135023
 30
0.0
 10
5920.910241232812
 20
3608.731389373632
 30
0.0
 10
5932.646845658333
 20
3601.795972126948
 30
0.0
 10
5944.937513551415
 20
3595.899950578589
 30
0.0
 10
5957.692456042908
 20
3591.049198754162
 30
0.0
 10
5970.806129833567
 20
3587.274508209388
 30
0.0
 10
5984.175830204063
 20
3584.614250977338
 30
0.0
 10
5997.725664923199
 20
3583.119440506626
 30
0.0
 10
6011.370845644044
 20
3582.759997360314
 30
0.0
 10
6024.992699931455
 20
3583.555577398811
 30
0.0
 10
6038.540668346067
 20
3585.417906024843
 30
0.0
 10
6047.375500605972
 20
3587.624991883917
 30
0.0
 10
6051.809321880753
 20
3588.732633087434
 30
0.0
  0
SPLINE
  5
10E
330
1F
100
AcDbEntity
  8
0
  6
Continuous
 62
     7
370
    25
100
AcDbSpline
210
0.0
220
0.0
230
1.0
 70
     8
 71
     3
 72
    14
 73
    10
 74
     0
 42
0.00000001
 43
0.00000001
 40
0.0
 40
0.0
 40
0.0
 40
0.0
 40
0.1457512863598518
 40
0.2915920346581122
 40
0.437343288013392
 40
0.5864385268240292
 40
0.7356295265151217
 40
0.8847247367711366
 40
1.0
 40
1.0
 40
1.0
 40
1.0
 10
5894.317806782518
 20
3875.14192049891
 30
0.0
 10
5891.666398803589
 20
3871.223849801383
 30
0.0
 10
5886.361955415173
 20
3863.385303499943
 30
0.0
 10
5879.155344996221
 20
3851.148185204339
 30
0.0
 10
5872.469201557882
 20
3838.501273829364
 30
0.0
 10
5866.390020372587
 20
3825.428571716136
 30
0.0
 10
5860.94681666145
 20
3811.963986069115
 30
0.0
 10
5856.509654245438
 20
3799.289058421964
 30
0.0
 10
5854.12892967193
 20
3791.045572400198
 30
0.0
 10
5853.09084607557
 20
3787.45110888634
 30
0.0
  0
SPLINE
  5
10F
330
1F
100
AcDbEntity
  8
0
  6
Continuous
 62
     7
370
    25
100
AcDbSpline
210
0.0
220
0.0
230
1.0
 70
     8
 71
     3
 72
    11
 73
     7
 74
     0
 42
0.00000001
 43
0.00000001
 40
0.0
 40
0.0
 40
0.0
 40
0.0
 40
0.0851125836115493
 40
0.4257061745484482
 40
0.712485926095964
 40
1.0
 40
1.0
 40
1.0
 40
1.0
 10
5924.463253384058
 20
3911.126002203475
 30
0.0
 10
5923.5248268172
 20
3910.178749583651
 30
0.0
 10
5918.831114478553
 20
3905.440892124677
 30
0.0
 10
5911.316773750687
 20
3897.177699450516
 30
0.0
 10
5902.206358447549
 20
3886.102482391741
 30
0.0
 10
5896.94956454212
 20
3878.798554192383
 30
0.0
 10
5894.317806782518
 20
3875.14192049891
 30
0.0
  0
ARC
  5
110
330
1F
100
AcDbEntity
  8
0
  6
Continuous
 62
     7
370
    25
100
AcDbCircle
 10
6070.4791404094
 20
3806.1209274199
 30
0.0
 40
37.50000000000055
100
AcDbArc
 50
315.0
 51
135.0
  0
SPLINE
  5
111
330
1F
100
AcDbEntity
  8
0
  6
Continuous
 62
     7
370
    25
100
AcDbSpline
210
0.0
220
0.0
230
1.0
 70
     8
 71
     3
 72
    26
 73
    22
 74
     0
 42
0.00000001
 43
0.00000001
 40
0.0
 40
0.0
 40
0.0
 40
0.0
 40
0.0539861145401144
 40
0.1079761201603862
 40
0.1619461644728125
 40
0.2159146965885691
 40
0.2700929017659638
 40
0.3242689458658361
 40
0.378036228320433
 40
0.4317994444014346
 40
0.4848296450367139
 40
0.5378585149412297
 40
0.5903026024491445
 40
0.6427503706997663
 40
0.6955500765524278
 40
0.7483527284807157
 40
0.8018552613304512
 40
0.8553598014340004
 40
0.9093928582544591
 40
0.9634227828464696
 40
1.0
 40
1.0
 40
1.0
 40
1.0
 10
6043.9626284944
 20
3832.637434757774
 30
0.0
 10
6042.520644863554
 20
3831.059379114711
 30
0.0
 10
6039.636573670065
 20
3827.903154089321
 30
0.0
 10
6036.387704281006
 20
3822.337943197005
 30
0.0
 10
6034.071830693995
 20
3816.350044788054
 30
0.0
 10
6032.783344126536
 20
3810.042966086286
 30
0.0
 10
6032.59193256651
 20
3803.603173479839
 30
0.0
 10
6033.47028297694
 20
3797.227272522533
 30
0.0
 10
6035.433076635852
 20
3791.115560136535
 30
0.0
 10
6038.366861588484
 20
3785.456272933278
 30
0.0
 10
6042.222256487077
 20
3780.417597217754
 30
0.0
 10
6046.823463576418
 20
3776.125339270659
 30
0.0
 10
6052.075963542303
 20
3772.704379037577
 30
0.0
 10
6057.807528367144
 20
3770.190476172558
 30
0.0
 10
6063.896036020019
 20
3768.680471748726
 30
0.0
 10
6070.190314468988
 20
3768.175115704028
 30
0.0
 10
6076.507067215911
 20
3768.744740870685
 30
0.0
 10
6082.696708502838
 20
3770.345258142705
 30
0.0
 10
6088.532477487734
 20
3772.991806581077
 30
0.0
 10
6093.338396004384
 20
3776.151511983729
 30
0.0
 10
6095.943849099471
 20
3778.611389651133
 30
0.0
 10
6096.995645037478
 20
3779.604418212441
 30
0.0
  0
SPLINE
  5
112
330
1F
100
AcDbEntity
  8
0
  6
Continuous
 62
     7
370
    25
100
AcDbSpline
210
0.0
220
0.0
230
1.0
 70
     8
 71
     3
 72
    10
 73
     6
 74
     0
 42
0.00000001
 43
0.00000001
 40
0.0
 40
0.0
 40
0.0
 40
0.0
 40
0.0682225420743219
 40
0.341114240018062
 40
1.0
 40
1.0
 40
1.0
 40
1.0
 10
6114.619399235248
 20
3667.20083272117
 30
0.0
 10
6115.603793574362
 20
3668.100108852183
 30
0.0
 10
6120.525787341454
 20
3672.596509670304
 30
0.0
 10
6135.013035651997
 20
3685.712823485625
 30
0.0
 10
6148.439473908088
 20
3698.015869837696
 30
0.0
 10
6157.933681885504
 20
3706.715696150111
 30
0.0
  0
SPLINE
  5
113
330
1F
100
AcDbEntity
  8
0
  6
Continuous
 62
     7
370
    25
100
AcDbSpline
210
0.0
220
0.0
230
1.0
 70
     8
 71
     3
 72
    44
 73
    40
 74
     0
 42
0.00000001
 43
0.00000001
 40
0.0
 40
0.0
 40
0.0
 40
0.0
 40
0.0289597385647164
 40
0.0580310399539514
 40
0.0870975306874551
 40
0.1160506837918635
 40
0.1435602501764927
 40
0.1711676027988605
 40
0.1987747491758564
 40
0.2262840333166869
 40
0.2537667543265451
 40
0.2813473736276603
 40
0.3089279142162943
 40
0.3364105275085452
 40
0.3638872828776716
 40
0.3914620574501279
 40
0.4190367134548275
 40
0.4465133065637379
 40
0.473990380985189
 40
0.5015655528588611
 40
0.529140728743854
 40
0.5566178086548158
 40
0.584124268837032
 40
0.6117291223923396
 40
0.639334054684892
 40
0.6668406226200908
 40
0.6944093554804216
 40
0.7220769120885125
 40
0.7497445039235024
 40
0.7773132849926956
 40
0.8051042347311138
 40
0.8329960931799273
 40
0.8608881318056039
 40
0.8886793281315652
 40
0.8983457970177673
 40
0.9177189365928724
 40
0.9370921270121794
 40
0.968544226383807
 40
1.0
 40
1.0
 40
1.0
 40
1.0
 10
5931.55864294527
 20
3850.261556071564
 30
0.0
 10
5929.050272958022
 20
3847.371566796974
 30
0.0
 10
5924.02386988384
 20
3841.580455019999
 30
0.0
 10
5917.469292028101
 20
3832.102380324509
 30
0.0
 10
5911.700622276802
 20
3822.139779078873
 30
0.0
 10
5906.938434003427
 20
3811.879433721788
 30
0.0
 10
5903.171513034787
 20
3801.422088530736
 30
0.0
 10
5900.336347549342
 20
3790.858986101363
 30
0.0
 10
5898.386541462134
 20
3780.097360960962
 30
0.0
 10
5897.345086096606
 20
3769.226018724583
 30
0.0
 10
5897.244324669412
 20
3758.308892126197
 30
0.0
 10
5898.057878588865
 20
3747.412913679496
 30
0.0
 10
5899.772234159263
 20
3736.621942653808
 30
0.0
 10
5902.380599172905
 20
3726.024938283441
 30
0.0
 10
5905.892517769252
 20
3715.69295329446
 30
0.0
 10
5910.261557842885
 20
3705.68069519116
 30
0.0
 10
5915.446450783998
 20
3696.065575224531
 30
0.0
 10
5921.411898357773
 20
3686.928782706654
 30
0.0
 10
5928.143541211511
 20
3678.340769240312
 30
0.0
 10
5935.579202122076
 20
3670.337720149059
 30
0.0
 10
5943.653579334428
 20
3662.979574208964
 30
0.0
 10
5952.309222948425
 20
3656.328637119143
 30
0.0
 10
5961.510065588714
 20
3650.447644143861
 30
0.0
 10
5971.185961506484
 20
3645.351372173868
 30
0.0
 10
5981.251828907579
 20
3641.07662746348
 30
0.0
 10
5991.636715411685
 20
3637.661920307888
 30
0.0
 10
6002.285888161642
 20
3635.155248141177
 30
0.0
 10
6013.128188874159
 20
3633.548152588512
 30
0.0
 10
6024.066599362362
 20
3632.848431164499
 30
0.0
 10
6035.0421634485
 20
3633.069463379019
 30
0.0
 10
6045.986842194544
 20
3634.24515714542
 30
0.0
 10
6056.834343633031
 20
3636.349437363912
 30
0.0
 10
6067.46738622969
 20
3639.35346212966
 30
0.0
 10
6075.555301326493
 20
3642.397756831248
 30
0.0
 10
6082.413601103097
 20
3645.446582347291
 30
0.0
 10
6088.139756128853
 20
3648.300711255313
 30
0.0
 10
6096.175749857528
 20
3652.927742436323
 30
0.0
 10
6105.195628346085
 20
3659.034096605062
 30
0.0
 10
6111.47801996083
 20
3664.478481352856
 30
0.0
 10
6114.619399235248
 20
3667.20083272117
 30
0.0
  0
SPLINE
  5
114
330
1F
100
AcDbEntity
  8
0
  6
Continuous
 62
     7
370
    25
100
AcDbSpline
210
0.0
220
0.0
230
1.0
 70
     8
 71
     3
 72
    10
 73
     6
 74
     0
 42
0.00000001
 43
0.00000001
 40
0.0
 40
0.0
 40
0.0
 40
0.0
 40
0.0682221391123647
 40
0.3411110455799762
 40
0.9999999999999999
 40
0.9999999999999999
 40
0.9999999999999999
 40
0.9999999999999999
 10
5971.074119906677
 20
3893.575275368091
 30
0.0
 10
5970.171459303277
 20
3892.593961678022
 30
0.0
 10
5965.658151655117
 20
3887.687388192981
 30
0.0
 10
5952.433281093522
 20
3873.297175683973
 30
0.0
 10
5940.20537422239
 20
3859.80341309327
 30
0.0
 10
5931.55864294527
 20
3850.261556071564
 30
0.0
  0
SPLINE
  5
115
330
1F
100
AcDbEntity
  8
0
  6
Continuous
 62
     7
370
    25
100
AcDbSpline
210
0.0
220
0.0
230
1.0
 70
     8
 71
     3
 72
    46
 73
    42
 74
     0
 42
0.00000001
 43
0.00000001
 40
0.0
 40
0.0
 40
0.0
 40
0.0
 40
0.0293535237104485
 40
0.0587050603673093
 40
0.0848093511575266
 40
0.1110070634905426
 40
0.1372050078914163
 40
0.1633096162698043
 40
0.1894246233835908
 40
0.2156330944292423
 40
0.2418417234201794
 40
0.2679569466844887
 40
0.294024971750908
 40
0.3201857957000925
 40
0.3463464162604712
 40
0.3724141629907899
 40
0.398455875469177
 40
0.4245903846848054
 40
0.4507246527651172
 40
0.4767660352503327
 40
0.5028672540738914
 40
0.5290621598386295
 40
0.5552572304456371
 40
0.5813586748606802
 40
0.607469330342796
 40
0.6336734047077214
 40
0.6598776734480708
 40
0.6859885949355388
 40
0.7120889590195821
 40
0.7382825662663202
 40
0.7644762603321442
 40
0.7905767432287218
 40
0.8167082337686541
 40
0.8429332749566292
 40
0.869157979957309
 40
0.8952890104177154
 40
0.9118204978168113
 40
0.9340111293634787
 40
0.9562303276192784
 40
0.97842075991958
 40
1.0
 40
1.0
 40
1.0
 40
1.0
 10
6157.933681885504
 20
3706.715696150111
 30
0.0
 10
6160.931637936515
 20
3709.625049184399
 30
0.0
 10
6166.92734709529
 20
3715.443558307612
 30
0.0
 10
6174.546624931726
 20
3724.829790968964
 30
0.0
 10
6181.076666100184
 20
3734.445063012293
 30
0.0
 10
6186.542801534143
 20
3744.195802261106
 30
0.0
 10
6191.183433042035
 20
3754.363468343813
 30
0.0
 10
6194.951410958783
 20
3764.874663381744
 30
0.0
 10
6197.798365178843
 20
3775.673188543034
 30
0.0
 10
6199.731534898561
 20
3786.686442034367
 30
0.0
 10
6200.742927278269
 20
3797.822236553189
 30
0.0
 10
6200.817229850338
 20
3808.984352751817
 30
0.0
 10
6199.92989885873
 20
3820.104487113533
 30
0.0
 10
6198.115125744133
 20
3831.117192862166
 30
0.0
 10
6195.393484165919
 20
3841.941485646928
 30
0.0
 10
6191.780447752643
 20
3852.484584153481
 30
0.0
 10
6187.273797299025
 20
3862.673662423921
 30
0.0
 10
6181.926637320928
 20
3872.457850007996
 30
0.0
 10
6175.786197236635
 20
3881.764667261825
 30
0.0
 10
6168.890317313357
 20
3890.521367297232
 30
0.0
 10
6161.257225983679
 20
3898.655455972338
 30
0.0
 10
6152.952041316912
 20
3906.133623330287
 30
0.0
 10
6144.053353419508
 20
3912.894752131989
 30
0.0
 10
6134.628136189679
 20
3918.879155221788
 30
0.0
 10
6124.719802836892
 20
3924.027098235296
 30
0.0
 10
6114.401766494685
 20
3928.331143878284
 30
0.0
 10
6103.761771822171
 20
3931.762994433676
 30
0.0
 10
6092.885369685243
 20
3934.288325144032
 30
0.0
 10
6081.833107004507
 20
3935.865424355815
 30
0.0
 10
6070.676518084635
 20
3936.511240833899
 30
0.0
 10
6059.504818079134
 20
3936.228538435995
 30
0.0
 10
6048.404144728756
 20
3935.011838326162
 30
0.0
 10
6037.445390272516
 20
3932.84135578611
 30
0.0
 10
6026.69078524469
 20
3929.755225093281
 30
0.0
 10
6016.230031691475
 20
3925.786303476661
 30
0.0
 10
6007.383878081007
 20
3921.546176677334
 30
0.0
 10
5999.362910665417
 20
3916.985478116731
 30
0.0
 10
5992.102501545279
 20
3912.23676740958
 30
0.0
 10
5984.569123732476
 20
3906.485352935678
 30
0.0
 10
5977.495316471146
 20
3900.299397232684
 30
0.0
 10
5973.194500140252
 20
3895.795686306564
 30
0.0
 10
5971.074119906677
 20
3893.575275368091
 30
0.0
  0
LINE
  5
116
330
1F
100
AcDbEntity
  8
0
  6
Continuous
 62
     7
370
    25
100
AcDbLine
 10
5971.0741199067
 20
3893.5752753681
 30
0.0
 11
5969.6183343873
 21
3894.914800969
 31
0.0
  0
LINE
  5
117
330
1F
100
AcDbEntity
  8
0
  6
Continuous
 62
     7
370
    25
100
AcDbLine
 10
6157.9336818855
 20
3706.7156961501
 30
0.0
 11
6159.273193525
 21
3705.2598232058
 31
0.0
  0
LINE
  5
118
330
1F
100
AcDbEntity
  8
0
  6
Continuous
 62
     7
370
    25
100
AcDbLine
 10
5930.1468537424
 20
3851.5469983079
 30
0.0
 11
5931.5586429453
 21
3850.2615560716
 31
0.0
  0
LINE
  5
119
330
1F
100
AcDbEntity
  8
0
  6
Continuous
 62
     7
370
    25
100
AcDbLine
 10
6115.9046146085
 20
3665.7893020489
 30
0.0
 11
6114.6193992352
 21
3667.2008327212
 31
0.0
  0
SPLINE
  5
11A
330
1F
100
AcDbEntity
  8
0
  6
Continuous
 62
     7
370
    25
100
AcDbSpline
210
0.0
220
0.0
230
1.0
 70
     8
 71
     3
 72
    27
 73
    23
 74
     0
 42
0.00000001
 43
0.00000001
 40
0.0
 40
0.0
 40
0.0
 40
0.0
 40
0.0384361532397115
 40
0.0768723064794228
 40
0.1305609362687762
 40
0.1842495660581285
 40
0.2379381958474788
 40
0.291626825636829
 40
0.3453154554261845
 40
0.3990040852155393
 40
0.4526927150048925
 40
0.5063813447942457
 40
0.5600699745835975
 40
0.6137586043729489
 40
0.6674472341623008
 40
0.7211358639516524
 40
0.7748244937410032
 40
0.828513123530353
 40
0.8822017533197056
 40
0.9358903831090581
 40
0.9679451915545294
 40
0.9999999999999999
 40
0.9999999999999999
 40
0.9999999999999999
 40
0.9999999999999999
 10
6043.962636114901
 20
3832.637431714394
 30
0.0
 10
6042.933667926112
 20
3831.533025113207
 30
0.0
 10
6040.875731548535
 20
3829.324211910833
 30
0.0
 10
6037.979398974911
 20
3825.07893810237
 30
0.0
 10
6035.428647737299
 20
3819.9326460154
 30
0.0
 10
6033.599843878743
 20
3813.852432326554
 30
0.0
 10
6032.835669599973
 20
3807.551333841322
 30
0.0
 10
6033.119094497979
 20
3801.20963336456
 30
0.0
 10
6034.484627891237
 20
3795.010444578779
 30
0.0
 10
6036.850964040408
 20
3789.120092627449
 30
0.0
 10
6040.191545170936
 20
3783.722299287001
 30
0.0
 10
6044.374195232157
 20
3778.947234726265
 30
0.0
 10
6049.313148876618
 20
3774.959437386318
 30
0.0
 10
6054.840561839667
 20
3771.838004947878
 30
0.0
 10
6060.821064259657
 20
3769.709787505759
 30
0.0
 10
6067.0700319098
 20
3768.593952602774
 30
0.0
 10
6073.417958335936
 20
3768.565075096576
 30
0.0
 10
6079.683465259284
 20
3769.58131340318
 30
0.0
 10
6085.684970487036
 20
3771.652516873921
 30
0.0
 10
6090.505795304411
 20
3774.28689823868
 30
0.0
 10
6094.248794023896
 20
3777.014570459533
 30
0.0
 10
6096.08002781056
 20
3778.741138903446
 30
0.0
 10
6096.995644703892
 20
3779.604423125403
 30
0.0
  0
SPLINE
  5
11B
330
1F
100
AcDbEntity
  8
0
  6
Continuous
 62
     7
370
    25
100
AcDbSpline
210
0.0
220
0.0
230
1.0
 70
     8
 71
     3
 72
    27
 73
    23
 74
     0
 42
0.00000001
 43
0.00000001
 40
0.0
 40
0.0
 40
0.0
 40
0.0
 40
0.0433397026155077
 40
0.0970285688381111
 40
0.1507174350607141
 40
0.2044063012833161
 40
0.2580951675059189
 40
0.3117840337285175
 40
0.3654728999511163
 40
0.4191617661737147
 40
0.472850632396315
 40
0.4999980953093018
 40
0.5399106072556725
 40
0.5935994734782738
 40
0.6472883397008745
 40
0.7009772059234753
 40
0.7546660721460758
 40
0.8083549383686766
 40
0.862043804591278
 40
0.915732670813878
 40
0.9694215370364778
 40
1.0
 40
1.0
 40
1.0
 40
1.0
 10
6096.995644703892
 20
3779.604423125403
 30
0.0
 10
6098.150856420181
 20
3780.855124501406
 30
0.0
 10
6100.737134884779
 20
3783.655184428767
 30
0.0
 10
6103.874556782291
 20
3788.712806523163
 30
0.0
 10
6106.344572897412
 20
3794.554364839927
 30
0.0
 10
6107.763288332426
 20
3800.743705774914
 30
0.0
 10
6108.148676949721
 20
3807.079151833489
 30
0.0
 10
6107.441908936776
 20
3813.38772933653
 30
0.0
 10
6105.707463624451
 20
3819.494095148488
 30
0.0
 10
6102.953315416054
 20
3825.212837326592
 30
0.0
 10
6099.895879120056
 20
3829.546636410357
 30
0.0
 10
6096.688147518741
 20
3833.037678785294
 30
0.0
 10
6093.127796044421
 20
3836.180730938934
 30
0.0
 10
6088.253703833417
 20
3839.334430056525
 30
0.0
 10
6082.428721316963
 20
3841.857285617788
 30
0.0
 10
6076.257813846389
 20
3843.345396612839
 30
0.0
 10
6069.925981583406
 20
3843.798596517907
 30
0.0
 10
6063.610958825394
 20
3843.159558928925
 30
0.0
 10
6057.484016779419
 20
3841.493359232597
 30
0.0
 10
6051.744260745795
 20
3838.792631457437
 30
0.0
 10
6047.240008565105
 20
3835.732515768455
 30
0.0
 10
6044.835258526314
 20
3833.46151861688
 30
0.0
 10
6043.962636114901
 20
3832.637431714394
 30
0.0
  0
LINE
  5
11C
330
1F
100
AcDbEntity
  8
0
  6
Continuous
 62
     7
370
    25
100
AcDbLine
 10
6043.9626361149
 20
3832.6374317144
 30
0.0
 11
6096.9956447039
 21
3779.6044231254
 31
0.0
  0
CIRCLE
  5
11D
330
1F
100
AcDbEntity
  8
0
  6
Continuous
 62
     7
370
    25
100
AcDbCircle
 10
6345.1901249004
 20
4081.035464157
 30
0.0
 40
7.000000000000092
  0
LINE
  5
11E
330
1F
100
AcDbEntity
  8
0
  6
Continuous
 62
     7
370
    25
100
AcDbLine
 10
6525.5901249004
 20
4146.8319119109
 30
0.0
 11
6525.5901249004
 21
4174.8319119109
 31
0.0
  0
LINE
  5
11F
330
1F
100
AcDbEntity
  8
0
  6
Continuous
 62
     7
370
    25
100
AcDbLine
 10
6527.0901249004
 20
4173.3319119109
 30
0.0
 11
6527.0901249004
 21
4148.3319119109
 31
0.0
  0
CIRCLE
  5
120
330
1F
100
AcDbEntity
  8
0
  6
Continuous
 62
     7
370
    25
100
AcDbCircle
 10
6487.6901249004
 20
4223.3319119109
 30
0.0
 40
22.50000000000058
  0
LWPOLYLINE
  5
121
330
1F
100
AcDbEntity
  8
0
  6
Continuous
 62
     7
370
    25
100
AcDbPolyline
 90
       20
 70
   128
 43
0.0
 10
6478.2597850129
 20
4213.9015720234
 10
6478.9449571003
 20
4213.0330742711
 10
6479.3725544957
 20
4212.0753660615
 10
6479.4962403864
 20
4211.1322299395
 10
6479.3026114868
 20
4210.3058693383
 10
6478.8126504929
 20
4209.6858332511
 10
6478.0794522808
 20
4209.3393122091
 10
6477.1824702534
 20
4209.3038571438
 10
6476.2189063317
 20
4209.5833101617
 10
6475.2931776177
 20
4210.1473881922
 10
6474.5056011817
 20
4210.9349646282
 10
6473.9415231512
 20
4211.8606933422
 10
6473.6620701333
 20
4212.8242572639
 10
6473.6975251986
 20
4213.7212392913
 10
6474.0440462406
 20
4214.4544375034
 10
6474.6640823278
 20
4214.9443984973
 10
6475.490442929
 20
4215.1380273969
 10
6476.433579051
 20
4215.0143415062
 10
6477.3912872606
 20
4214.5867441108
 10
6478.2597850129
 20
4213.9015720234
  0
LWPOLYLINE
  5
122
330
1F
100
AcDbEntity
  8
0
  6
Continuous
 62
     7
370
    25
100
AcDbPolyline
 90
       17
 70
   128
 43
0.0
 10
6478.2597850129
 20
4213.9015720234
 10
6477.4881393033
 20
4214.4829165642
 10
6476.6436684894
 20
4214.7854554999
 10
6475.8549355972
 20
4214.7631300199
 10
6475.2420180599
 20
4214.4193389763
 10
6474.8982270163
 20
4213.806421439
 10
6474.8759015364
 20
4213.0176885469
 10
6475.178440472
 20
4212.1732177329
 10
6475.7597850129
 20
4211.4015720234
 10
6476.5314307224
 20
4210.8202274826
 10
6477.3759015364
 20
4210.5176885469
 10
6478.1646344285
 20
4210.5400140268
 10
6478.7775519658
 20
4210.8838050704
 10
6479.1213430094
 20
4211.4967226077
 10
6479.1436684894
 20
4212.2854554999
 10
6478.8411295537
 20
4213.1299263138
 10
6478.2597850129
 20
4213.9015720234
  0
LINE
  5
123
330
1F
100
AcDbEntity
  8
0
  6
Continuous
 62
     8
370
    25
100
AcDbLine
 10
5923.0490398849
 20
3912.5402157026
 30
0.0
 11
5924.4632533841
 21
3911.1260022035
 31
0.0
  0
LINE
  5
124
330
1F
100
AcDbEntity
  8
0
  6
Continuous
 62
     8
370
    25
100
AcDbLine
 10
6176.8984287138
 20
3658.6908268744
 30
0.0
 11
6175.4842151933
 21
3660.1050403949
 31
0.0
  0
LINE
  5
125
330
1F
100
AcDbEntity
  8
0
  6
Continuous
 62
     8
370
    25
100
AcDbLine
 10
5892.6776963616
 20
3876.2864893166
 30
0.0
 11
5894.3178067825
 21
3875.1419204989
 31
0.0
  0
LINE
  5
126
330
1F
100
AcDbEntity
  8
0
  6
Continuous
 62
     8
370
    25
100
AcDbLine
 10
5851.162841319
 20
3787.9828948867
 30
0.0
 11
5853.0908460756
 21
3787.4511088863
 31
0.0
  0
LINE
  5
127
330
1F
100
AcDbEntity
  8
0
  6
Continuous
 62
     8
370
    25
100
AcDbLine
 10
6052.341104297
 20
3586.8046413254
 30
0.0
 11
6051.8093218808
 21
3588.7326330874
 31
0.0
  0
LINE
  5
128
330
1F
100
AcDbEntity
  8
0
  6
Continuous
 62
     8
370
    25
100
AcDbLine
 10
6140.6447022938
 20
3628.3194833899
 30
0.0
 11
6139.5001334885
 21
3629.9595937931
 31
0.0
  0
ENDSEC
  0
SECTION
  2
OBJECTS
  0
DICTIONARY
  5
C
330
0
100
AcDbDictionary
281
     1
  3
ACAD_GROUP
350
D
  3
ACAD_LAYOUT
350
1A
  3
ACAD_MLINESTYLE
350
17
  3
ACAD_PLOTSETTINGS
350
19
  3
ACAD_PLOTSTYLENAME
350
E
  3
ACAD_SCALELIST
350
47
  3
DWGPROPS
350
129
  0
DICTIONARY
  5
D
102
{ACAD_REACTORS
330
C
102
}
330
C
100
AcDbDictionary
281
     1
  0
DICTIONARY
  5
1A
102
{ACAD_REACTORS
330
C
102
}
330
C
100
AcDbDictionary
281
     1
  3
Layout1
350
1E
  3
Layout2
350
26
  3
Model
350
22
  0
DICTIONARY
  5
17
102
{ACAD_REACTORS
330
C
102
}
330
C
100
AcDbDictionary
281
     1
  3
Standard
350
18
  0
DICTIONARY
  5
19
102
{ACAD_REACTORS
330
C
102
}
330
C
100
AcDbDictionary
281
     1
  0
ACDBDICTIONARYWDFLT
  5
E
102
{ACAD_REACTORS
330
C
102
}
330
C
100
AcDbDictionary
281
     1
  3
Normal
350
F
100
AcDbDictionaryWithDefault
340
F
  0
DICTIONARY
  5
47
102
{ACAD_REACTORS
330
C
102
}
330
C
100
AcDbDictionary
281
     1
  3
A0
350
48
  3
A1
350
49
  3
A2
350
4A
  3
A3
350
4B
  3
A4
350
4C
  3
A5
350
4D
  3
A6
350
4E
  3
A7
350
4F
  3
A8
350
50
  3
A9
350
51
  3
B0
350
52
  3
B1
350
53
  3
B2
350
54
  3
B3
350
55
  3
B4
350
56
  3
B5
350
57
  3
B6
350
58
  3
B7
350
59
  3
B8
350
5A
  3
B9
350
5B
  3
C0
350
5C
  3
C1
350
5D
  3
C2
350
5E
  3
C3
350
5F
  3
C4
350
60
  3
C5
350
61
  3
C6
350
62
  3
C7
350
63
  3
C8
350
64
  3
C9
350
65
  3
D0
350
66
  3
D1
350
67
  3
D2
350
68
  0
XRECORD
  5
129
102
{ACAD_REACTORS
330
C
102
}
330
C
100
AcDbXrecord
280
     1
  1
DWGPROPS COOKIE
  2

  3

  4

  6

  7

  8
radek.stransky
  9

300
=
301
=
302
=
303
=
304
=
305
=
306
=
307
=
308
=
309
=
 40
0.0
 41
2460286.254237188
 42
2460286.254237951
  1

 90
        0
  0
LAYOUT
  5
1E
102
{ACAD_REACTORS
330
1A
102
}
330
1A
100
AcDbPlotSettings
  1

  2
none_device
  4

  6

 40
0.0
 41
0.0
 42
0.0
 43
0.0
 44
0.0
 45
0.0
 46
0.0
 47
0.0
 48
0.0
 49
0.0
140
0.0
141
0.0
142
1.0
143
1.0
 70
   688
 72
     1
 73
     0
 74
     5
  7

 75
    16
147
1.0
148
0.0
149
0.0
100
AcDbLayout
  1
Layout1
 70
     1
 71
     1
 10
0.0
 20
0.0
 11
420.0
 21
297.0
 12
0.0
 22
0.0
 32
0.0
 14
1.0000000000E+20
 24
1.0000000000E+20
 34
1.0000000000E+20
 15
-1.0000000000E+20
 25
-1.0000000000E+20
 35
-1.0000000000E+20
146
0.0
 13
0.0
 23
0.0
 33
0.0
 16
1.0
 26
0.0
 36
0.0
 17
0.0
 27
1.0
 37
0.0
 76
     0
330
1B
  0
LAYOUT
  5
26
102
{ACAD_REACTORS
330
1A
102
}
330
1A
100
AcDbPlotSettings
  1

  2
none_device
  4

  6

 40
0.0
 41
0.0
 42
0.0
 43
0.0
 44
0.0
 45
0.0
 46
0.0
 47
0.0
 48
0.0
 49
0.0
140
0.0
141
0.0
142
1.0
143
1.0
 70
   688
 72
     1
 73
     0
 74
     5
  7

 75
    16
147
1.0
148
0.0
149
0.0
100
AcDbLayout
  1
Layout2
 70
     1
 71
     2
 10
0.0
 20
0.0
 11
0.0
 21
0.0
 12
0.0
 22
0.0
 32
0.0
 14
0.0
 24
0.0
 34
0.0
 15
0.0
 25
0.0
 35
0.0
146
0.0
 13
0.0
 23
0.0
 33
0.0
 16
1.0
 26
0.0
 36
0.0
 17
0.0
 27
1.0
 37
0.0
 76
     0
330
23
  0
LAYOUT
  5
22
102
{ACAD_REACTORS
330
1A
102
}
330
1A
100
AcDbPlotSettings
  1

  2
none_device
  4
Letter_(8.50_x_11.00_Inches)
  6

 40
6.35
 41
6.35
 42
6.35000508
 43
6.35000508
 44
215.9
 45
279.4
 46
0.0
 47
0.0
 48
0.0
 49
0.0
140
0.0
141
0.0
142
1.0
143
1.0
 70
  1712
 72
     1
 73
     0
 74
     0
  7

 75
     0
147
1.0
148
0.0
149
0.0
100
AcDbLayout
  1
Model
 70
     1
 71
     0
 10
0.0
 20
0.0
 11
20000.0
 21
10000.0
 12
0.0
 22
0.0
 32
0.0
 14
0.0
 24
0.0
 34
0.0
 15
20000.0
 25
10000.0
 35
0.0
146
0.0
 13
0.0
 23
0.0
 33
0.0
 16
1.0
 26
0.0
 36
0.0
 17
0.0
 27
1.0
 37
0.0
 76
     0
330
1F
331
29
  0
MLINESTYLE
  5
18
102
{ACAD_REACTORS
330
17
102
}
330
17
100
AcDbMlineStyle
  2
Standard
 70
     0
  3

 62
   256
 51
90.0
 52
90.0
 71
     2
 49
0.5
 62
   256
  6
BYLAYER
 49
-0.5
 62
   256
  6
BYLAYER
  0
ACDBPLACEHOLDER
  5
F
102
{ACAD_REACTORS
330
E
102
}
330
E
  0
SCALE
  5
48
102
{ACAD_REACTORS
330
47
102
}
330
47
100
AcDbScale
 70
     0
300
1:1
140
1.0
141
1.0
290
     1
  0
SCALE
  5
49
102
{ACAD_REACTORS
330
47
102
}
330
47
100
AcDbScale
 70
     0
300
1:2
140
1.0
141
2.0
290
     0
  0
SCALE
  5
4A
102
{ACAD_REACTORS
330
47
102
}
330
47
100
AcDbScale
 70
     0
300
1:4
140
1.0
141
4.0
290
     0
  0
SCALE
  5
4B
102
{ACAD_REACTORS
330
47
102
}
330
47
100
AcDbScale
 70
     0
300
1:5
140
1.0
141
5.0
290
     0
  0
SCALE
  5
4C
102
{ACAD_REACTORS
330
47
102
}
330
47
100
AcDbScale
 70
     0
300
1:8
140
1.0
141
8.0
290
     0
  0
SCALE
  5
4D
102
{ACAD_REACTORS
330
47
102
}
330
47
100
AcDbScale
 70
     0
300
1:10
140
1.0
141
10.0
290
     0
  0
SCALE
  5
4E
102
{ACAD_REACTORS
330
47
102
}
330
47
100
AcDbScale
 70
     0
300
1:16
140
1.0
141
16.0
290
     0
  0
SCALE
  5
4F
102
{ACAD_REACTORS
330
47
102
}
330
47
100
AcDbScale
 70
     0
300
1:20
140
1.0
141
20.0
290
     0
  0
SCALE
  5
50
102
{ACAD_REACTORS
330
47
102
}
330
47
100
AcDbScale
 70
     0
300
1:30
140
1.0
141
30.0
290
     0
  0
SCALE
  5
51
102
{ACAD_REACTORS
330
47
102
}
330
47
100
AcDbScale
 70
     0
300
1:40
140
1.0
141
40.0
290
     0
  0
SCALE
  5
52
102
{ACAD_REACTORS
330
47
102
}
330
47
100
AcDbScale
 70
     0
300
1:50
140
1.0
141
50.0
290
     0
  0
SCALE
  5
53
102
{ACAD_REACTORS
330
47
102
}
330
47
100
AcDbScale
 70
     0
300
1:100
140
1.0
141
100.0
290
     0
  0
SCALE
  5
54
102
{ACAD_REACTORS
330
47
102
}
330
47
100
AcDbScale
 70
     0
300
2:1
140
2.0
141
1.0
290
     0
  0
SCALE
  5
55
102
{ACAD_REACTORS
330
47
102
}
330
47
100
AcDbScale
 70
     0
300
4:1
140
4.0
141
1.0
290
     0
  0
SCALE
  5
56
102
{ACAD_REACTORS
330
47
102
}
330
47
100
AcDbScale
 70
     0
300
8:1
140
8.0
141
1.0
290
     0
  0
SCALE
  5
57
102
{ACAD_REACTORS
330
47
102
}
330
47
100
AcDbScale
 70
     0
300
10:1
140
10.0
141
1.0
290
     0
  0
SCALE
  5
58
102
{ACAD_REACTORS
330
47
102
}
330
47
100
AcDbScale
 70
     0
300
100:1
140
100.0
141
1.0
290
     0
  0
SCALE
  5
59
102
{ACAD_REACTORS
330
47
102
}
330
47
100
AcDbScale
 70
     0
300
1/128" = 1'-0"
140
0.0078125
141
12.0
290
     0
  0
SCALE
  5
5A
102
{ACAD_REACTORS
330
47
102
}
330
47
100
AcDbScale
 70
     0
300
1/64" = 1'-0"
140
0.015625
141
12.0
290
     0
  0
SCALE
  5
5B
102
{ACAD_REACTORS
330
47
102
}
330
47
100
AcDbScale
 70
     0
300
1/32" = 1'-0"
140
0.03125
141
12.0
290
     0
  0
SCALE
  5
5C
102
{ACAD_REACTORS
330
47
102
}
330
47
100
AcDbScale
 70
     0
300
1/16" = 1'-0"
140
0.0625
141
12.0
290
     0
  0
SCALE
  5
5D
102
{ACAD_REACTORS
330
47
102
}
330
47
100
AcDbScale
 70
     0
300
3/32" = 1'-0"
140
0.09375
141
12.0
290
     0
  0
SCALE
  5
5E
102
{ACAD_REACTORS
330
47
102
}
330
47
100
AcDbScale
 70
     0
300
1/8" = 1'-0"
140
0.125
141
12.0
290
     0
  0
SCALE
  5
5F
102
{ACAD_REACTORS
330
47
102
}
330
47
100
AcDbScale
 70
     0
300
3/16" = 1'-0"
140
0.1875
141
12.0
290
     0
  0
SCALE
  5
60
102
{ACAD_REACTORS
330
47
102
}
330
47
100
AcDbScale
 70
     0
300
1/4" = 1'-0"
140
0.25
141
12.0
290
     0
  0
SCALE
  5
61
102
{ACAD_REACTORS
330
47
102
}
330
47
100
AcDbScale
 70
     0
300
3/8" = 1'-0"
140
0.375
141
12.0
290
     0
  0
SCALE
  5
62
102
{ACAD_REACTORS
330
47
102
}
330
47
100
AcDbScale
 70
     0
300
1/2" = 1'-0"
140
0.5
141
12.0
290
     0
  0
SCALE
  5
63
102
{ACAD_REACTORS
330
47
102
}
330
47
100
AcDbScale
 70
     0
300
3/4" = 1'-0"
140
0.75
141
12.0
290
     0
  0
SCALE
  5
64
102
{ACAD_REACTORS
330
47
102
}
330
47
100
AcDbScale
 70
     0
300
1" = 1'-0"
140
1.0
141
12.0
290
     0
  0
SCALE
  5
65
102
{ACAD_REACTORS
330
47
102
}
330
47
100
AcDbScale
 70
     0
300
1-1/2" = 1'-0"
140
1.5
141
12.0
290
     0
  0
SCALE
  5
66
102
{ACAD_REACTORS
330
47
102
}
330
47
100
AcDbScale
 70
     0
300
3" = 1'-0"
140
3.0
141
12.0
290
     0
  0
SCALE
  5
67
102
{ACAD_REACTORS
330
47
102
}
330
47
100
AcDbScale
 70
     0
300
6" = 1'-0"
140
6.0
141
12.0
290
     0
  0
SCALE
  5
68
102
{ACAD_REACTORS
330
47
102
}
330
47
100
AcDbScale
 70
     0
300
1'-0" = 1'-0"
140
12.0
141
12.0
290
     0
  0
ENDSEC
  0
EOF
