  0
SECTION
  2
HEADER
  9
$ACADVER
  1
AC1015
  9
$ACADMAINTVER
 70
     6
  9
$DWGCODEPAGE
  3
ANSI_1250
  9
$INSBASE
 10
0.0
 20
0.0
 30
0.0
  9
$EXTMIN
 10
6227.3187545732
 20
4938.591235568
 30
0.0
  9
$EXTMAX
 10
6537.1593909542
 20
5265.5424898088
 30
0.0
  9
$LIMMIN
 10
0.0
 20
0.0
  9
$LIMMAX
 10
420.0
 20
297.0
  9
$ORTHOMODE
 70
     0
  9
$REGENMODE
 70
     1
  9
$FILLMODE
 70
     1
  9
$QTEXTMODE
 70
     0
  9
$MIRRTEXT
 70
     1
  9
$LTSCALE
 40
1.0
  9
$ATTMODE
 70
     1
  9
$TEXTSIZE
 40
3.5
  9
$TRACEWID
 40
1.0
  9
$TEXTSTYLE
  7
Standard
  9
$CLAYER
  8
0
  9
$CELTYPE
  6
ByLayer
  9
$CECOLOR
 62
   256
  9
$CELTSCALE
 40
1.0
  9
$DISPSILH
 70
     0
  9
$DIMSCALE
 40
1.0
  9
$DIMASZ
 40
3.302
  9
$DIMEXO
 40
0.0
  9
$DIMDLI
 40
3.75
  9
$DIMRND
 40
0.0
  9
$DIMDLE
 40
0.0
  9
$DIMEXE
 40
1.0
  9
$DIMTP
 40
0.0
  9
$DIMTM
 40
0.0
  9
$DIMTXT
 40
3.5
  9
$DIMCEN
 40
2.5
  9
$DIMTSZ
 40
0.0
  9
$DIMTOL
 70
     0
  9
$DIMLIM
 70
     0
  9
$DIMTIH
 70
     1
  9
$DIMTOH
 70
     1
  9
$DIMSE1
 70
     0
  9
$DIMSE2
 70
     0
  9
$DIMTAD
 70
     1
  9
$DIMZIN
 70
     0
  9
$DIMBLK
  1

  9
$DIMASO
 70
     1
  9
$DIMSHO
 70
     1
  9
$DIMPOST
  1

  9
$DIMAPOST
  1

  9
$DIMALT
 70
     0
  9
$DIMALTD
 70
     3
  9
$DIMALTF
 40
0.0393700787
  9
$DIMLFAC
 40
1.0
  9
$DIMTOFL
 70
     1
  9
$DIMTVP
 40
0.0
  9
$DIMTIX
 70
     0
  9
$DIMSOXD
 70
     0
  9
$DIMSAH
 70
     0
  9
$DIMBLK1
  1

  9
$DIMBLK2
  1

  9
$DIMSTYLE
  2
ISO-25
  9
$DIMCLRD
 70
     0
  9
$DIMCLRE
 70
     0
  9
$DIMCLRT
 70
     0
  9
$DIMTFAC
 40
1.0
  9
$DIMGAP
 40
1.524
  9
$DIMJUST
 70
     0
  9
$DIMSD1
 70
     0
  9
$DIMSD2
 70
     0
  9
$DIMTOLJ
 70
     0
  9
$DIMTZIN
 70
     0
  9
$DIMALTZ
 70
     0
  9
$DIMALTTZ
 70
     0
  9
$DIMUPT
 70
     0
  9
$DIMDEC
 70
     2
  9
$DIMTDEC
 70
     2
  9
$DIMALTU
 70
     2
  9
$DIMALTTD
 70
     3
  9
$DIMTXSTY
  7
Standard
  9
$DIMAUNIT
 70
     0
  9
$DIMADEC
 70
     2
  9
$DIMALTRND
 40
0.0
  9
$DIMAZIN
 70
     0
  9
$DIMDSEP
 70
    44
  9
$DIMATFIT
 70
     3
  9
$DIMFRAC
 70
     0
  9
$DIMLDRBLK
  1

  9
$DIMLUNIT
 70
     2
  9
$DIMLWD
 70
    -2
  9
$DIMLWE
 70
    -2
  9
$DIMTMOVE
 70
     0
  9
$LUNITS
 70
     2
  9
$LUPREC
 70
     2
  9
$SKETCHINC
 40
1.0
  9
$FILLETRAD
 40
10.0
  9
$AUNITS
 70
     0
  9
$AUPREC
 70
     2
  9
$MENU
  1
.
  9
$ELEVATION
 40
0.0
  9
$PELEVATION
 40
0.0
  9
$THICKNESS
 40
0.0
  9
$LIMCHECK
 70
     0
  9
$CHAMFERA
 40
0.0
  9
$CHAMFERB
 40
0.0
  9
$CHAMFERC
 40
0.0
  9
$CHAMFERD
 40
0.0
  9
$SKPOLY
 70
     0
  9
$TDCREATE
 40
2459103.534796007
  9
$TDUCREATE
 40
2459103.451462673
  9
$TDUPDATE
 40
2459103.534828299
  9
$TDUUPDATE
 40
2459103.451494965
  9
$TDINDWG
 40
0.0000000116
  9
$TDUSRTIMER
 40
0.0000000116
  9
$USRTIMER
 70
     1
  9
$ANGBASE
 50
0.0
  9
$ANGDIR
 70
     0
  9
$PDMODE
 70
     0
  9
$PDSIZE
 40
-1.0
  9
$PLINEWID
 40
0.0
  9
$SPLFRAME
 70
     0
  9
$SPLINETYPE
 70
     6
  9
$SPLINESEGS
 70
     8
  9
$HANDSEED
  5
3EC
  9
$SURFTAB1
 70
     6
  9
$SURFTAB2
 70
     6
  9
$SURFTYPE
 70
     6
  9
$SURFU
 70
     6
  9
$SURFV
 70
     6
  9
$UCSBASE
  2

  9
$UCSNAME
  2

  9
$UCSORG
 10
0.0
 20
0.0
 30
0.0
  9
$UCSXDIR
 10
1.0
 20
0.0
 30
0.0
  9
$UCSYDIR
 10
0.0
 20
1.0
 30
0.0
  9
$UCSORTHOREF
  2

  9
$UCSORTHOVIEW
 70
     0
  9
$UCSORGTOP
 10
0.0
 20
0.0
 30
0.0
  9
$UCSORGBOTTOM
 10
0.0
 20
0.0
 30
0.0
  9
$UCSORGLEFT
 10
0.0
 20
0.0
 30
0.0
  9
$UCSORGRIGHT
 10
0.0
 20
0.0
 30
0.0
  9
$UCSORGFRONT
 10
0.0
 20
0.0
 30
0.0
  9
$UCSORGBACK
 10
0.0
 20
0.0
 30
0.0
  9
$PUCSBASE
  2

  9
$PUCSNAME
  2

  9
$PUCSORG
 10
0.0
 20
0.0
 30
0.0
  9
$PUCSXDIR
 10
1.0
 20
0.0
 30
0.0
  9
$PUCSYDIR
 10
0.0
 20
1.0
 30
0.0
  9
$PUCSORTHOREF
  2

  9
$PUCSORTHOVIEW
 70
     0
  9
$PUCSORGTOP
 10
0.0
 20
0.0
 30
0.0
  9
$PUCSORGBOTTOM
 10
0.0
 20
0.0
 30
0.0
  9
$PUCSORGLEFT
 10
0.0
 20
0.0
 30
0.0
  9
$PUCSORGRIGHT
 10
0.0
 20
0.0
 30
0.0
  9
$PUCSORGFRONT
 10
0.0
 20
0.0
 30
0.0
  9
$PUCSORGBACK
 10
0.0
 20
0.0
 30
0.0
  9
$USERI1
 70
     0
  9
$USERI2
 70
     0
  9
$USERI3
 70
     0
  9
$USERI4
 70
     0
  9
$USERI5
 70
     0
  9
$USERR1
 40
0.0
  9
$USERR2
 40
0.0
  9
$USERR3
 40
0.0
  9
$USERR4
 40
0.0
  9
$USERR5
 40
0.0
  9
$WORLDVIEW
 70
     1
  9
$SHADEDGE
 70
     3
  9
$SHADEDIF
 70
    70
  9
$TILEMODE
 70
     1
  9
$MAXACTVP
 70
    64
  9
$PINSBASE
 10
0.0
 20
0.0
 30
0.0
  9
$PLIMCHECK
 70
     0
  9
$PEXTMIN
 10
1.0000000000E+20
 20
1.0000000000E+20
 30
1.0000000000E+20
  9
$PEXTMAX
 10
-1.0000000000E+20
 20
-1.0000000000E+20
 30
-1.0000000000E+20
  9
$PLIMMIN
 10
0.0
 20
0.0
  9
$PLIMMAX
 10
420.0
 20
297.0
  9
$UNITMODE
 70
     0
  9
$VISRETAIN
 70
     1
  9
$PLINEGEN
 70
     0
  9
$PSLTSCALE
 70
     1
  9
$TREEDEPTH
 70
  3020
  9
$CMLSTYLE
  2
Standard
  9
$CMLJUST
 70
     0
  9
$CMLSCALE
 40
20.0
  9
$PROXYGRAPHICS
 70
     1
  9
$MEASUREMENT
 70
     1
  9
$CELWEIGHT
370
    -1
  9
$ENDCAPS
280
     0
  9
$JOINSTYLE
280
     0
  9
$LWDISPLAY
290
     1
  9
$INSUNITS
 70
     4
  9
$HYPERLINKBASE
  1

  9
$STYLESHEET
  1

  9
$XEDIT
290
     1
  9
$CEPSNTYPE
380
     0
  9
$PSTYLEMODE
290
     1
  9
$FINGERPRINTGUID
  2
{1d33b76f-9821-4994-bc94-2751d631616c}
  9
$VERSIONGUID
  2
{FAEB1C32-E019-11D5-929B-00C0DF256EC4}
  9
$EXTNAMES
290
     1
  9
$PSVPSCALE
 40
0.0
  9
$OLESTARTUP
290
     0
  0
ENDSEC
  0
SECTION
  2
CLASSES
  0
CLASS
  1
ACDBDICTIONARYWDFLT
  2
AcDbDictionaryWithDefault
  3
ObjectDBX Classes
 90
        0
280
     0
281
     0
  0
CLASS
  1
VISUALSTYLE
  2
AcDbVisualStyle
  3
ObjectDBX Classes
 90
     4095
280
     0
281
     0
  0
CLASS
  1
MATERIAL
  2
AcDbMaterial
  3
ObjectDBX Classes
 90
     1153
280
     0
281
     0
  0
CLASS
  1
SCALE
  2
AcDbScale
  3
ObjectDBX Classes
 90
     1153
280
     0
281
     0
  0
CLASS
  1
TABLESTYLE
  2
AcDbTableStyle
  3
ObjectDBX Classes
 90
     4095
280
     0
281
     0
  0
CLASS
  1
MLEADERSTYLE
  2
AcDbMLeaderStyle
  3
ACDB_MLEADERSTYLE_CLASS
 90
     4095
280
     0
281
     0
  0
CLASS
  1
SUN
  2
AcDbSun
  3
SCENEOE
 90
     1153
280
     0
281
     0
  0
CLASS
  1
ACDBPLACEHOLDER
  2
AcDbPlaceHolder
  3
ObjectDBX Classes
 90
        0
280
     0
281
     0
  0
CLASS
  1
LAYOUT
  2
AcDbLayout
  3
ObjectDBX Classes
 90
        0
280
     0
281
     0
  0
ENDSEC
  0
SECTION
  2
TABLES
  0
TABLE
  2
VPORT
  5
8
330
0
100
AcDbSymbolTable
 70
     1
  0
VPORT
  5
29
330
8
100
AcDbSymbolTableRecord
100
AcDbViewportTableRecord
  2
*Active
 70
     0
 10
0.0
 20
0.0
 11
1.0
 21
1.0
 12
6382.2390727637
 22
5102.0668626884
 13
0.0
 23
0.0
 14
10.0
 24
10.0
 15
10.0
 25
10.0
 16
0.0
 26
0.0
 36
1.0
 17
0.0
 27
0.0
 37
0.0
 40
333.4902793256
 41
0.9476661501
 42
50.0
 43
0.0
 44
0.0
 50
0.0
 51
0.0
 71
     0
 72
   100
 73
     1
 74
     3
 75
     0
 76
     0
 77
     0
 78
     0
281
     0
 65
     1
110
0.0
120
0.0
130
0.0
111
1.0
121
0.0
131
0.0
112
0.0
122
1.0
132
0.0
 79
     0
146
0.0
  0
ENDTAB
  0
TABLE
  2
LTYPE
  5
5
330
0
100
AcDbSymbolTable
 70
     6
  0
LTYPE
  5
14
330
5
100
AcDbSymbolTableRecord
100
AcDbLinetypeTableRecord
  2
ByBlock
 70
     0
  3

 72
    65
 73
     0
 40
0.0
  0
LTYPE
  5
15
330
5
100
AcDbSymbolTableRecord
100
AcDbLinetypeTableRecord
  2
ByLayer
 70
     0
  3

 72
    65
 73
     0
 40
0.0
  0
LTYPE
  5
16
330
5
100
AcDbSymbolTableRecord
100
AcDbLinetypeTableRecord
  2
Continuous
 70
     0
  3
Solid line
 72
    65
 73
     0
 40
0.0
  0
LTYPE
  5
6E
330
5
100
AcDbSymbolTableRecord
100
AcDbLinetypeTableRecord
  2
HIDDEN
 70
     0
  3
Hidden __ __ __ __ __ __ __ __ __ __ __ __ __ __
 72
    65
 73
     2
 40
1.905
 49
1.27
 74
     0
 49
-0.635
 74
     0
  0
LTYPE
  5
6F
330
5
100
AcDbSymbolTableRecord
100
AcDbLinetypeTableRecord
  2
PHANTOM
 70
     0
  3
Phantom ______  __  __  ______  __  __  ______
 72
    65
 73
     6
 40
12.7
 49
6.35
 74
     0
 49
-1.27
 74
     0
 49
1.27
 74
     0
 49
-1.27
 74
     0
 49
1.27
 74
     0
 49
-1.27
 74
     0
  0
LTYPE
  5
70
330
5
100
AcDbSymbolTableRecord
100
AcDbLinetypeTableRecord
  2
CENTER
 70
     0
  3
Center ____ _ ____ _ ____ _ ____ _ ____ _ ____
 72
    65
 73
     4
 40
10.16
 49
6.35
 74
     0
 49
-1.27
 74
     0
 49
1.27
 74
     0
 49
-1.27
 74
     0
  0
LTYPE
  5
71
330
5
100
AcDbSymbolTableRecord
100
AcDbLinetypeTableRecord
  2
CENTERX2
 70
     0
  3
Center (2x) ________  __  ________  __  _____
 72
    65
 73
     4
 40
20.32
 49
12.7
 74
     0
 49
-2.54
 74
     0
 49
2.54
 74
     0
 49
-2.54
 74
     0
  0
LTYPE
  5
72
330
5
100
AcDbSymbolTableRecord
100
AcDbLinetypeTableRecord
  2
DOT2
 70
     0
  3
Dot (.5x) ........................................
 72
    65
 73
     2
 40
0.635
 49
0.0
 74
     0
 49
-0.635
 74
     0
  0
ENDTAB
  0
TABLE
  2
LAYER
  5
2
330
0
100
AcDbSymbolTable
 70
     1
  0
LAYER
  5
10
330
2
100
AcDbSymbolTableRecord
100
AcDbLayerTableRecord
  2
0
 70
     0
 62
     7
  6
Continuous
370
    -3
390
F
  0
ENDTAB
  0
TABLE
  2
STYLE
  5
3
330
0
100
AcDbSymbolTable
 70
     1
  0
STYLE
  5
11
330
3
100
AcDbSymbolTableRecord
100
AcDbTextStyleTableRecord
  2
Standard
 70
     0
 40
0.0
 41
1.0
 50
0.0
 71
     0
 42
3.5
  3
txt
  4

  0
ENDTAB
  0
TABLE
  2
VIEW
  5
6
330
0
100
AcDbSymbolTable
 70
     0
  0
ENDTAB
  0
TABLE
  2
UCS
  5
7
330
0
100
AcDbSymbolTable
 70
     0
  0
ENDTAB
  0
TABLE
  2
APPID
  5
9
330
0
100
AcDbSymbolTable
 70
     1
  0
APPID
  5
12
330
9
100
AcDbSymbolTableRecord
100
AcDbRegAppTableRecord
  2
ACAD
 70
     0
  0
ENDTAB
  0
TABLE
  2
DIMSTYLE
  5
A
330
0
100
AcDbSymbolTable
 70
     1
100
AcDbDimStyleTable
  0
DIMSTYLE
105
27
330
A
100
AcDbSymbolTableRecord
100
AcDbDimStyleTableRecord
  2
ISO-25
 70
     0
 41
2.5
 42
0.625
 43
3.75
 44
1.25
 73
     0
 74
     0
 77
     1
 78
     8
140
2.5
141
2.5
143
0.0393700787
147
0.625
171
     3
172
     1
178
     0
271
     2
272
     2
274
     3
278
    44
283
     0
284
     8
340
11
  0
ENDTAB
  0
TABLE
  2
BLOCK_RECORD
  5
1
330
0
100
AcDbSymbolTable
 70
     1
  0
BLOCK_RECORD
  5
1F
330
1
100
AcDbSymbolTableRecord
100
AcDbBlockTableRecord
  2
*Model_Space
340
22
  0
BLOCK_RECORD
  5
1B
330
1
100
AcDbSymbolTableRecord
100
AcDbBlockTableRecord
  2
*Paper_Space
340
1E
  0
BLOCK_RECORD
  5
23
330
1
100
AcDbSymbolTableRecord
100
AcDbBlockTableRecord
  2
*Paper_Space0
340
26
  0
ENDTAB
  0
ENDSEC
  0
SECTION
  2
BLOCKS
  0
BLOCK
  5
20
330
1F
100
AcDbEntity
  8
0
100
AcDbBlockBegin
  2
*Model_Space
 70
     0
 10
0.0
 20
0.0
 30
0.0
  3
*Model_Space
  1

  0
ENDBLK
  5
21
330
1F
100
AcDbEntity
  8
0
100
AcDbBlockEnd
  0
BLOCK
  5
1C
330
1B
100
AcDbEntity
 67
     1
  8
0
100
AcDbBlockBegin
  2
*Paper_Space
 70
     0
 10
0.0
 20
0.0
 30
0.0
  3
*Paper_Space
  1

  0
ENDBLK
  5
1D
330
1B
100
AcDbEntity
 67
     1
  8
0
100
AcDbBlockEnd
  0
BLOCK
  5
24
330
23
100
AcDbEntity
  8
0
100
AcDbBlockBegin
  2
*Paper_Space0
 70
     0
 10
0.0
 20
0.0
 30
0.0
  3
*Paper_Space0
  1

  0
ENDBLK
  5
25
330
23
100
AcDbEntity
  8
0
100
AcDbBlockEnd
  0
ENDSEC
  0
SECTION
  2
ENTITIES
  0
ARC
  5
73
330
1F
100
AcDbEntity
  8
0
  6
Continuous
 62
     7
100
AcDbCircle
 10
6274.0187553361
 20
5175.0424923718
 30
0.0
 40
4.90000000000051
100
AcDbArc
 50
246.6885543185
 51
293.3114456815
  0
ARC
  5
74
330
1F
100
AcDbEntity
  8
0
  6
Continuous
 62
     7
100
AcDbCircle
 10
6317.2011428116
 20
5183.4430286653
 30
0.0
 40
4.021952936305506
100
AcDbArc
 50
29.0019396503
 51
70.8765167375
  0
ARC
  5
75
330
1F
100
AcDbEntity
  8
0
  6
Continuous
 62
     7
100
AcDbCircle
 10
6317.2011428116
 20
5183.4430286653
 30
0.0
 40
4.021952342398155
100
AcDbArc
 50
289.1234866799
 51
330.9980756119
  0
ARC
  5
76
330
1F
100
AcDbEntity
  8
0
  6
Continuous
 62
     7
100
AcDbCircle
 10
6230.8363680147
 20
5183.4430294356
 30
0.0
 40
4.021952850655571
100
AcDbArc
 50
209.0019329205
 51
250.876512282
  0
ARC
  5
77
330
1F
100
AcDbEntity
  8
0
  6
Continuous
 62
     7
100
AcDbCircle
 10
6230.8363680147
 20
5183.4430294356
 30
0.0
 40
4.021952697657932
100
AcDbArc
 50
109.1234901791
 51
150.9980710112
  0
ARC
  5
78
330
1F
100
AcDbEntity
  8
0
  6
Continuous
 62
     7
100
AcDbCircle
 10
6230.8363689289
 20
5249.643623492
 30
0.0
 40
4.021952571998346
100
AcDbArc
 50
209.0018988976
 51
250.8764915624
  0
ARC
  5
79
330
1F
100
AcDbEntity
  8
0
  6
Continuous
 62
     7
100
AcDbCircle
 10
6230.8363689289
 20
5249.643623492
 30
0.0
 40
4.021954123938356
100
AcDbArc
 50
109.1235064512
 51
150.9980612206
  0
ARC
  5
7A
330
1F
100
AcDbEntity
  8
0
  6
Continuous
 62
     7
100
AcDbCircle
 10
6294.0187553361
 20
5169.3601060081
 30
0.0
 40
4.021952970229385
100
AcDbArc
 50
299.0019302679
 51
340.8765008164
  0
ARC
  5
7B
330
1F
100
AcDbEntity
  8
0
  6
Continuous
 62
     7
100
AcDbCircle
 10
6294.0187553361
 20
5169.3601060081
 30
0.0
 40
4.021952970229416
100
AcDbArc
 50
199.1234991836
 51
240.9980697321
  0
ARC
  5
7C
330
1F
100
AcDbEntity
  8
0
  6
Continuous
 62
     7
100
AcDbCircle
 10
6317.2011429976
 20
5249.6436229928
 30
0.0
 40
4.021953268971698
100
AcDbArc
 50
29.0019536628
 51
70.8765278206
  0
ARC
  5
7D
330
1F
100
AcDbEntity
  8
0
  6
Continuous
 62
     7
100
AcDbCircle
 10
6317.2011429976
 20
5249.6436229928
 30
0.0
 40
4.021951232939048
100
AcDbArc
 50
289.1234779758
 51
330.9980986592
  0
ARC
  5
7E
330
1F
100
AcDbEntity
  8
0
  6
Continuous
 62
     7
100
AcDbCircle
 10
6254.0187553361
 20
5169.3601060081
 30
0.0
 40
4.021952970229385
100
AcDbArc
 50
299.0019302679
 51
340.8765008164
  0
ARC
  5
7F
330
1F
100
AcDbEntity
  8
0
  6
Continuous
 62
     7
100
AcDbCircle
 10
6254.0187553361
 20
5169.3601060081
 30
0.0
 40
4.021952970229385
100
AcDbArc
 50
199.1234991836
 51
240.9980697321
  0
ARC
  5
80
330
1F
100
AcDbEntity
  8
0
  6
Continuous
 62
     7
100
AcDbCircle
 10
6271.0835873508
 20
5198.5561892561
 30
0.0
 40
2.065152869633535
100
AcDbArc
 50
181.0101763241
 51
270.9757518096
  0
ARC
  5
81
330
1F
100
AcDbEntity
  8
0
  6
Continuous
 62
     7
100
AcDbCircle
 10
6276.9539233214
 20
5198.5561892561
 30
0.0
 40
2.065152869631492
100
AcDbArc
 50
269.0242481904
 51
358.989823676
  0
ARC
  5
82
330
1F
100
AcDbEntity
  8
0
  6
Continuous
 62
     7
100
AcDbCircle
 10
6281.0835880898
 20
5233.0635160147
 30
0.0
 40
2.06515388304797
100
AcDbArc
 50
89.024268918
 51
178.9897440152
  0
ARC
  5
83
330
1F
100
AcDbEntity
  8
0
  6
Continuous
 62
     7
100
AcDbCircle
 10
6292.9539267944
 20
5237.1932201077
 30
0.0
 40
2.065149192802045
100
AcDbArc
 50
269.0241388695
 51
358.9898740665
  0
ARC
  5
84
330
1F
100
AcDbEntity
  8
0
  6
Continuous
 62
     7
100
AcDbCircle
 10
6292.9539267944
 20
5244.6546274374
 30
0.0
 40
2.06514919280206
100
AcDbArc
 50
1.0101259335
 51
90.9758611305
  0
ARC
  5
85
330
1F
100
AcDbEntity
  8
0
  6
Continuous
 62
     7
100
AcDbCircle
 10
6255.0835838778
 20
5244.6546274374
 30
0.0
 40
2.065149192801151
100
AcDbArc
 50
89.0241388695
 51
178.9898740665
  0
ARC
  5
86
330
1F
100
AcDbEntity
  8
0
  6
Continuous
 62
     7
100
AcDbCircle
 10
6255.0835838778
 20
5237.1932201077
 30
0.0
 40
2.065149192800242
100
AcDbArc
 50
181.0101259334
 51
270.9758611305
  0
ARC
  5
87
330
1F
100
AcDbEntity
  8
0
  6
Continuous
 62
     7
100
AcDbCircle
 10
6266.9539225824
 20
5233.0635160147
 30
0.0
 40
2.065153883047199
100
AcDbArc
 50
1.0102559848
 51
90.975731082
  0
ARC
  5
88
330
1F
100
AcDbEntity
  8
0
  6
Continuous
 62
     7
100
AcDbCircle
 10
6254.9931058764
 20
5244.4303534552
 30
0.0
 40
1.974351135632588
100
AcDbArc
 50
152.6678559522
 51
179.9459514183
  0
ARC
  5
89
330
1F
100
AcDbEntity
  8
0
  6
Continuous
 62
     7
100
AcDbCircle
 10
6293.0444047958
 20
5244.4303534552
 30
0.0
 40
1.974351135632588
100
AcDbArc
 50
0.0540485817
 51
27.3321440478
  0
ARC
  5
8A
330
1F
100
AcDbEntity
  8
0
  6
Continuous
 62
     7
100
AcDbCircle
 10
6267.2150347328
 20
5233.0266412893
 30
0.0
 40
1.90373590208543
100
AcDbArc
 50
0.2301371549
 51
46.8182863946
  0
ARC
  5
8B
330
1F
100
AcDbEntity
  8
0
  6
Continuous
 62
     7
100
AcDbCircle
 10
6280.8255950365
 20
5233.0252834998
 30
0.0
 40
1.906860902311416
100
AcDbArc
 50
133.2221345777
 51
179.7294418728
  0
ARC
  5
8C
330
1F
100
AcDbEntity
  8
0
  6
Continuous
 62
     7
100
AcDbCircle
 10
6271.0852626566
 20
5198.5544567936
 30
0.0
 40
1.966813083700227
100
AcDbArc
 50
181.0102132349
 51
270.9757328078
  0
ARC
  5
8D
330
1F
100
AcDbEntity
  8
0
  6
Continuous
 62
     7
100
AcDbCircle
 10
6292.9522464285
 20
5237.1914890916
 30
0.0
 40
1.966814491659049
100
AcDbArc
 50
269.0243023563
 51
358.9898001446
  0
ARC
  5
8E
330
1F
100
AcDbEntity
  8
0
  6
Continuous
 62
     7
100
AcDbCircle
 10
6280.8852601101
 20
5233.2584345345
 30
0.0
 40
1.966810473215891
100
AcDbArc
 50
89.0241951018
 51
178.9896998914
  0
ARC
  5
8F
330
1F
100
AcDbEntity
  8
0
  6
Continuous
 62
     7
100
AcDbCircle
 10
6276.9522480156
 20
5198.5544567936
 30
0.0
 40
1.966813083701106
100
AcDbArc
 50
269.0242671923
 51
358.989786765
  0
ARC
  5
90
330
1F
100
AcDbEntity
  8
0
  6
Continuous
 62
     7
100
AcDbCircle
 10
6267.1522505621
 20
5233.2584345345
 30
0.0
 40
1.966810473216709
100
AcDbArc
 50
1.0103001086
 51
90.9758048982
  0
ARC
  5
91
330
1F
100
AcDbEntity
  8
0
  6
Continuous
 62
     7
100
AcDbCircle
 10
6255.0852642437
 20
5237.1914890916
 30
0.0
 40
1.966814491659049
100
AcDbArc
 50
181.0101998554
 51
270.9756976438
  0
ARC
  5
92
330
1F
100
AcDbEntity
  8
0
  6
Continuous
 62
     7
100
AcDbCircle
 10
6255.0852611847
 20
5244.6563616204
 30
0.0
 40
1.966811377291606
100
AcDbArc
 50
89.0242116852
 51
178.9898908156
  0
ARC
  5
93
330
1F
100
AcDbEntity
  8
0
  6
Continuous
 62
     7
100
AcDbCircle
 10
6292.9522494875
 20
5244.6563616204
 30
0.0
 40
1.966811377290236
100
AcDbArc
 50
1.0101091843
 51
90.9757883148
  0
ARC
  5
94
330
1F
100
AcDbEntity
  8
0
  6
Continuous
 62
     7
100
AcDbCircle
 10
6317.2011432667
 20
4962.6476179603
 30
0.0
 40
4.021952959850545
100
AcDbArc
 50
29.0019536276
 51
70.8765241856
  0
ARC
  5
95
330
1F
100
AcDbEntity
  8
0
  6
Continuous
 62
     7
100
AcDbCircle
 10
6317.2011432667
 20
4962.6476179603
 30
0.0
 40
4.021951974305377
100
AcDbArc
 50
289.1234808306
 51
330.998071699
  0
ARC
  5
96
330
1F
100
AcDbEntity
  8
0
  6
Continuous
 62
     7
100
AcDbCircle
 10
6230.8363677415
 20
4962.6476190016
 30
0.0
 40
4.021952773098132
100
AcDbArc
 50
209.0019389536
 51
250.8765144704
  0
ARC
  5
97
330
1F
100
AcDbEntity
  8
0
  6
Continuous
 62
     7
100
AcDbCircle
 10
6230.8363677415
 20
4962.6476190016
 30
0.0
 40
4.021952748928174
100
AcDbArc
 50
109.1234884604
 51
150.9980616675
  0
ARC
  5
98
330
1F
100
AcDbEntity
  8
0
  6
Continuous
 62
     7
100
AcDbCircle
 10
6230.8363674862
 20
4978.3154624559
 30
0.0
 40
4.021952914977475
100
AcDbArc
 50
209.0019501017
 51
250.8765218512
  0
ARC
  5
99
330
1F
100
AcDbEntity
  8
0
  6
Continuous
 62
     7
100
AcDbCircle
 10
6230.8363674862
 20
4978.3154624559
 30
0.0
 40
4.021952160433318
100
AcDbArc
 50
109.1234826639
 51
150.9980692886
  0
ARC
  5
9A
330
1F
100
AcDbEntity
  8
0
  6
Continuous
 62
     7
100
AcDbCircle
 10
6317.2011430114
 20
4978.3154614146
 30
0.0
 40
4.021952817971433
100
AcDbArc
 50
29.0019424794
 51
70.8765168048
  0
ARC
  5
9B
330
1F
100
AcDbEntity
  8
0
  6
Continuous
 62
     7
100
AcDbCircle
 10
6317.2011430114
 20
4978.3154614146
 30
0.0
 40
4.021952562803671
100
AcDbArc
 50
289.1234866271
 51
330.9980640779
  0
ARC
  5
9C
330
1F
100
AcDbEntity
  8
0
  6
Continuous
 62
     7
100
AcDbCircle
 10
6260.0316376325
 20
5021.0098269508
 30
0.0
 40
12.5152121527372
100
AcDbArc
 50
179.999721338
 51
182.2893720663
  0
ARC
  5
9D
330
1F
100
AcDbEntity
  8
0
  6
Continuous
 62
     7
100
AcDbCircle
 10
6257.6774320701
 20
5020.1748985762
 30
0.0
 40
9.52486045513249
100
AcDbArc
 50
180.5894877055
 51
249.2626527439
  0
ARC
  5
9E
330
1F
100
AcDbEntity
  8
0
  6
Continuous
 62
     7
100
AcDbCircle
 10
6288.0058730397
 20
5021.0098269508
 30
0.0
 40
12.51521215273633
100
AcDbArc
 50
357.7106279338
 51
0.0002786621
  0
ARC
  5
9F
330
1F
100
AcDbEntity
  8
0
  6
Continuous
 62
     7
100
AcDbCircle
 10
6293.1598331656
 20
5022.6560815121
 30
0.0
 40
7.659100199624628
100
AcDbArc
 50
97.6864691162
 51
162.4111944466
  0
ARC
  5
A0
330
1F
100
AcDbEntity
  8
0
  6
Continuous
 62
     7
100
AcDbCircle
 10
6293.054404222
 20
5023.077865086
 30
0.0
 40
7.972655302746797
100
AcDbArc
 50
96.6190842986
 51
155.5170015471
  0
ARC
  5
A1
330
1F
100
AcDbEntity
  8
0
  6
Continuous
 62
     7
100
AcDbCircle
 10
6255.5027810529
 20
5024.6309943818
 30
0.0
 40
6.378894560878281
100
AcDbArc
 50
86.4109483458
 51
93.5890516542
  0
ARC
  5
A2
330
1F
100
AcDbEntity
  8
0
  6
Continuous
 62
     7
100
AcDbCircle
 10
6256.8804017607
 20
5020.2530076269
 30
0.0
 40
8.75796839079395
100
AcDbArc
 50
178.3192094242
 51
252.8974025934
  0
ARC
  5
A3
330
1F
100
AcDbEntity
  8
0
  6
Continuous
 62
     7
100
AcDbCircle
 10
6256.8803975047
 20
5021.7667692526
 30
0.0
 40
8.757964173095292
100
AcDbArc
 50
107.1025767656
 51
181.680799506
  0
ARC
  5
A4
330
1F
100
AcDbEntity
  8
0
  6
Continuous
 62
     7
100
AcDbCircle
 10
6254.640097267
 20
5022.4557517162
 30
0.0
 40
7.953287328188477
100
AcDbArc
 50
17.3711730496
 51
74.9837828559
  0
ARC
  5
A5
330
1F
100
AcDbEntity
  8
0
  6
Continuous
 62
     7
100
AcDbCircle
 10
6254.8888009677
 20
5023.0264695112
 30
0.0
 40
8.076160310792138
100
AcDbArc
 50
25.1641872614
 51
77.0350041811
  0
ARC
  5
A6
330
1F
100
AcDbEntity
  8
0
  6
Continuous
 62
     7
100
AcDbCircle
 10
6292.4553388448
 20
5022.881382838
 30
0.0
 40
7.422435239535014
100
AcDbArc
 50
97.1335899857
 51
153.8249366387
  0
ARC
  5
A7
330
1F
100
AcDbEntity
  8
0
  6
Continuous
 62
     7
100
AcDbCircle
 10
6255.5330173537
 20
5022.8922875641
 30
0.0
 40
7.458128752323142
100
AcDbArc
 50
26.7003607791
 51
76.2749946188
  0
ARC
  5
A8
330
1F
100
AcDbEntity
  8
0
  6
Continuous
 62
     7
100
AcDbCircle
 10
6257.6774289949
 20
5021.8448773267
 30
0.0
 40
9.524857377322302
100
AcDbArc
 50
110.7373344855
 51
179.4105136925
  0
ARC
  5
A9
330
1F
100
AcDbEntity
  8
0
  6
Continuous
 62
     7
100
AcDbCircle
 10
6454.852346137
 20
5204.396240172
 30
0.0
 40
8.611968213258805
100
AcDbArc
 50
265.9275273809
 51
279.7983132531
  0
ARC
  5
AA
330
1F
100
AcDbEntity
  8
0
  6
Continuous
 62
     7
100
AcDbCircle
 10
6270.6289275711
 20
4950.9803048537
 30
0.0
 40
2.48485648291918
100
AcDbArc
 50
229.6094707881
 51
281.3688979881
  0
ARC
  5
AB
330
1F
100
AcDbEntity
  8
0
  6
Continuous
 62
     7
100
AcDbCircle
 10
6277.4085831011
 20
4950.9803048537
 30
0.0
 40
2.484856482918822
100
AcDbArc
 50
258.6311020119
 51
310.3905292119
  0
ARC
  5
AC
330
1F
100
AcDbEntity
  8
0
  6
Continuous
 62
     7
100
AcDbCircle
 10
6280.6289244735
 20
4956.460881573
 30
0.0
 40
2.484846003554047
100
AcDbArc
 50
78.6309803536
 51
130.3906477824
  0
ARC
  5
AD
330
1F
100
AcDbEntity
  8
0
  6
Continuous
 62
     7
100
AcDbCircle
 10
6293.4085889081
 20
4961.3330458245
 30
0.0
 40
2.484834856757718
100
AcDbArc
 50
258.6308556607
 51
310.3907724753
  0
ARC
  5
AE
330
1F
100
AcDbEntity
  8
0
  6
Continuous
 62
     7
100
AcDbCircle
 10
6293.408588908
 20
4959.5667202429
 30
0.0
 40
2.484834856757085
100
AcDbArc
 50
49.6092275219
 51
101.3691443371
  0
ARC
  5
AF
330
1F
100
AcDbEntity
  8
0
  6
Continuous
 62
     7
100
AcDbCircle
 10
6254.6289217642
 20
4959.5667202429
 30
0.0
 40
2.484834856758509
100
AcDbArc
 50
78.6308556629
 51
130.3907724781
  0
ARC
  5
B0
330
1F
100
AcDbEntity
  8
0
  6
Continuous
 62
     7
100
AcDbCircle
 10
6254.6289217641
 20
4961.3330458245
 30
0.0
 40
2.484834856757562
100
AcDbArc
 50
229.6092275247
 51
281.3691443393
  0
ARC
  5
B1
330
1F
100
AcDbEntity
  8
0
  6
Continuous
 62
     7
100
AcDbCircle
 10
6267.4085861987
 20
4956.460881573
 30
0.0
 40
2.484846003554748
100
AcDbArc
 50
49.6093522176
 51
101.3690196464
  0
ARC
  5
B2
330
1F
100
AcDbEntity
  8
0
  6
Continuous
 62
     7
100
AcDbCircle
 10
6293.3852595309
 20
4961.2429295404
 30
0.0
 40
2.366516206440288
100
AcDbArc
 50
258.6309863552
 51
310.3907631511
  0
ARC
  5
B3
330
1F
100
AcDbEntity
  8
0
  6
Continuous
 62
     7
100
AcDbCircle
 10
6280.4522470893
 20
4956.6027710864
 30
0.0
 40
2.366514890977648
100
AcDbArc
 50
78.630892746
 51
130.3906631945
  0
ARC
  5
B4
330
1F
100
AcDbEntity
  8
0
  6
Continuous
 62
     7
100
AcDbCircle
 10
6277.3852614625
 20
4950.890175367
 30
0.0
 40
2.366522762342486
100
AcDbArc
 50
258.6309805506
 51
310.3905721544
  0
ARC
  5
B5
330
1F
100
AcDbEntity
  8
0
  6
Continuous
 62
     7
100
AcDbCircle
 10
6270.6522492097
 20
4950.890175367
 30
0.0
 40
2.366522762343378
100
AcDbArc
 50
229.6094278456
 51
281.3690194494
  0
ARC
  5
B6
330
1F
100
AcDbEntity
  8
0
  6
Continuous
 62
     7
100
AcDbCircle
 10
6267.5852635829
 20
4956.6027710864
 30
0.0
 40
2.366514890976936
100
AcDbArc
 50
49.6093368055
 51
101.369107254
  0
ARC
  5
B7
330
1F
100
AcDbEntity
  8
0
  6
Continuous
 62
     7
100
AcDbCircle
 10
6254.6522511413
 20
4961.2429295404
 30
0.0
 40
2.366516206440288
100
AcDbArc
 50
229.6092368489
 51
281.3690136448
  0
ARC
  5
B8
330
1F
100
AcDbEntity
  8
0
  6
Continuous
 62
     7
100
AcDbCircle
 10
6254.6522479796
 20
4959.6568403944
 30
0.0
 40
2.366511212095257
100
AcDbArc
 50
78.6308839626
 51
130.3907655246
  0
ARC
  5
B9
330
1F
100
AcDbEntity
  8
0
  6
Continuous
 62
     7
100
AcDbCircle
 10
6293.3852626926
 20
4959.6568403944
 30
0.0
 40
2.366511212094002
100
AcDbArc
 50
49.6092344754
 51
101.3691160374
  0
ARC
  5
BA
330
1F
100
AcDbEntity
  8
0
  6
Continuous
 62
     7
100
AcDbCircle
 10
6254.9855691748
 20
5013.8318432517
 30
0.0
 40
1.263760848953896
100
AcDbArc
 50
304.7152310191
 51
316.4887871902
  0
ARC
  5
BB
330
1F
100
AcDbEntity
  8
0
  6
Continuous
 62
     7
100
AcDbCircle
 10
6250.8166489778
 20
5021.4686828073
 30
0.0
 40
9.938696004523491
100
AcDbArc
 50
282.8760715608
 51
287.6727628411
  0
ARC
  5
BC
330
1F
100
AcDbEntity
  8
0
  6
Continuous
 62
     7
100
AcDbCircle
 10
6494.7407380134
 20
5169.3601056142
 30
0.0
 40
4.021952925374946
100
AcDbArc
 50
299.0019400267
 51
333.1328670508
  0
ARC
  5
BD
330
1F
100
AcDbEntity
  8
0
  6
Continuous
 62
     7
100
AcDbCircle
 10
6494.7407380134
 20
5169.3601056142
 30
0.0
 40
4.021952765779796
100
AcDbArc
 50
206.8671350357
 51
240.9980640746
  0
ARC
  5
BE
330
1F
100
AcDbEntity
  8
0
  6
Continuous
 62
     7
100
AcDbCircle
 10
6459.0883845881
 20
5227.7529760122
 30
0.0
 40
5.932694377263234
100
AcDbArc
 50
29.6060603646
 51
52.9578126231
  0
ARC
  5
BF
330
1F
100
AcDbEntity
  8
0
  6
Continuous
 62
     7
100
AcDbCircle
 10
6454.74080367
 20
5219.0217142329
 30
0.0
 40
16.61045702255633
100
AcDbArc
 50
88.2752784668
 51
90.0002260353
  0
ARC
  5
C0
330
1F
100
AcDbEntity
  8
0
  6
Continuous
 62
     7
100
AcDbCircle
 10
6454.7407385024
 20
5205.0424928898
 30
0.0
 40
10.00761327622191
100
AcDbArc
 50
18.393112283
 51
40.5415979248
  0
ARC
  5
C1
330
1F
100
AcDbEntity
  8
0
  6
Continuous
 62
     7
100
AcDbCircle
 10
6454.7407385024
 20
5205.0424928898
 30
0.0
 40
10.00000079976769
100
AcDbArc
 50
319.4583943203
 51
9.2004304517
  0
ARC
  5
C2
330
1F
100
AcDbEntity
  8
0
  6
Continuous
 62
     7
100
AcDbCircle
 10
6448.3660719377
 20
5229.6140206576
 30
0.0
 40
3.625333417345334
100
AcDbArc
 50
175.2389108951
 51
184.7610891049
  0
ARC
  5
C3
330
1F
100
AcDbEntity
  8
0
  6
Continuous
 62
     7
100
AcDbCircle
 10
6451.2234139985
 20
5230.8196219504
 30
0.0
 40
5.993317433121911
100
AcDbArc
 50
200.5961817146
 51
247.5377466102
  0
ARC
  5
C4
330
1F
100
AcDbEntity
  8
0
  6
Continuous
 62
     7
100
AcDbCircle
 10
6450.5471665898
 20
5230.6177786572
 30
0.0
 40
6.004014789640706
100
AcDbArc
 50
198.5138840887
 51
243.1559739682
  0
ARC
  5
C5
330
1F
100
AcDbEntity
  8
0
  6
Continuous
 62
     7
100
AcDbCircle
 10
6454.7407385024
 20
5205.0424928898
 30
0.0
 40
9.267787425592728
100
AcDbArc
 50
279.7983132535
 51
350.9302035924
  0
ARC
  5
C6
330
1F
100
AcDbEntity
  8
0
  6
Continuous
 62
     7
100
AcDbCircle
 10
6454.7407385024
 20
5205.0424928898
 30
0.0
 40
9.249999128396556
100
AcDbArc
 50
68.170865842
 51
176.9014308567
  0
ARC
  5
C7
330
1F
100
AcDbEntity
  8
0
  6
Continuous
 62
     7
100
AcDbCircle
 10
6454.7407385024
 20
5205.0424928898
 30
0.0
 40
9.997527290544824
100
AcDbArc
 50
139.8470448719
 51
177.133316271
  0
ARC
  5
C8
330
1F
100
AcDbEntity
  8
0
  6
Continuous
 62
     7
100
AcDbCircle
 10
6454.7407385024
 20
5205.0424928898
 30
0.0
 40
9.999998439643287
100
AcDbArc
 50
180.0000286126
 51
267.1340216139
  0
ARC
  5
C9
330
1F
100
AcDbEntity
  8
0
  6
Continuous
 62
     7
100
AcDbCircle
 10
6454.7407385024
 20
5205.0424928898
 30
0.0
 40
9.249999216867034
100
AcDbArc
 50
183.0985798579
 51
266.9014263661
  0
ARC
  5
CA
330
1F
100
AcDbEntity
  8
0
  6
Continuous
 62
     7
100
AcDbCircle
 10
6454.1190468825
 20
5204.9417960259
 30
0.0
 40
10.62979467767391
100
AcDbArc
 50
9.2004304517
 51
17.8507900409
  0
ARC
  5
CB
330
1F
100
AcDbEntity
  8
0
  6
Continuous
 62
     7
100
AcDbCircle
 10
6453.09155628
 20
5205.0424920662
 30
0.0
 40
8.350816217232598
100
AcDbArc
 50
176.5674032561
 51
180.0000286126
  0
ARC
  5
CC
330
1F
100
AcDbEntity
  8
0
  6
Continuous
 62
     7
100
AcDbCircle
 10
6452.7632358838
 20
5205.0424920596
 30
0.0
 40
7.27617283109192
100
AcDbArc
 50
176.0596820144
 51
183.9403185522
  0
ARC
  5
CD
330
1F
100
AcDbEntity
  8
0
  6
Continuous
 62
     7
100
AcDbCircle
 10
6454.7322363858
 20
5205.0212673891
 30
0.0
 40
9.272864120596092
100
AcDbArc
 50
351.0679947218
 51
68.170865842
  0
ARC
  5
CE
330
1F
100
AcDbEntity
  8
0
  6
Continuous
 62
     7
100
AcDbCircle
 10
6454.566529075
 20
5205.437754888
 30
0.0
 40
9.611371305843328
100
AcDbArc
 50
88.9269426566
 51
140.9784049236
  0
ARC
  5
CF
330
1F
100
AcDbEntity
  8
0
  6
Continuous
 62
     7
100
AcDbCircle
 10
6513.1030074529
 20
5183.4430290626
 30
0.0
 40
1.950000000028236
100
AcDbArc
 50
66.4940639323
 51
126.4940639421
  0
ARC
  5
D0
330
1F
100
AcDbEntity
  8
0
  6
Continuous
 62
     7
100
AcDbCircle
 10
6513.7432215199
 20
5184.9150035531
 30
0.0
 40
0.3448261925502863
100
AcDbArc
 50
66.4940639306
 51
142.9949854955
  0
ARC
  5
D1
330
1F
100
AcDbEntity
  8
0
  6
Continuous
 62
     7
100
AcDbCircle
 10
6512.8596469562
 20
5185.5809459927
 30
0.0
 40
0.761601998729888
100
AcDbArc
 50
229.9931423357
 51
322.99498555
  0
ARC
  5
D2
330
1F
100
AcDbEntity
  8
0
  6
Continuous
 62
     7
100
AcDbCircle
 10
6512.1483471839
 20
5184.7334579536
 30
0.0
 40
0.3448261926291222
100
AcDbArc
 50
49.9931423382
 51
126.4940639784
  0
CIRCLE
  5
D3
330
1F
100
AcDbEntity
  8
0
  6
Continuous
 62
     7
100
AcDbCircle
 10
6513.1030074529
 20
5183.4430290626
 30
0.0
 40
3.799999999991087
  0
ARC
  5
D4
330
1F
100
AcDbEntity
  8
0
  6
Continuous
 62
     7
100
AcDbCircle
 10
6513.1030074529
 20
5183.4430290626
 30
0.0
 40
1.950000000014572
100
AcDbArc
 50
6.4940639453
 51
66.4940639323
  0
ARC
  5
D5
330
1F
100
AcDbEntity
  8
0
  6
Continuous
 62
     7
100
AcDbCircle
 10
6513.1030074529
 20
5183.4430290626
 30
0.0
 40
1.950000000028236
100
AcDbArc
 50
126.4940639421
 51
186.4940639393
  0
ARC
  5
D6
330
1F
100
AcDbEntity
  8
0
  6
Continuous
 62
     7
100
AcDbCircle
 10
6513.1030074529
 20
5183.4430290626
 30
0.0
 40
1.950000000007988
100
AcDbArc
 50
186.4940639393
 51
246.4940639365
  0
ARC
  5
D7
330
1F
100
AcDbEntity
  8
0
  6
Continuous
 62
     7
100
AcDbCircle
 10
6513.1030074529
 20
5183.4430290626
 30
0.0
 40
1.950000000007988
100
AcDbArc
 50
246.4940639365
 51
306.4940639367
  0
ARC
  5
D8
330
1F
100
AcDbEntity
  8
0
  6
Continuous
 62
     7
100
AcDbCircle
 10
6513.1030074529
 20
5183.4430290626
 30
0.0
 40
1.950000000014572
100
AcDbArc
 50
306.4940639367
 51
6.4940639453
  0
ARC
  5
D9
330
1F
100
AcDbEntity
  8
0
  6
Continuous
 62
     7
100
AcDbCircle
 10
6514.8328175774
 20
5184.7227439006
 30
0.0
 40
0.7616019987534296
100
AcDbArc
 50
169.9931423492
 51
262.9949855227
  0
ARC
  5
DA
330
1F
100
AcDbEntity
  8
0
  6
Continuous
 62
     7
100
AcDbCircle
 10
6514.6978817888
 20
5183.6245746625
 30
0.0
 40
0.3448261925781584
100
AcDbArc
 50
6.4940639253
 51
82.9949855141
  0
ARC
  5
DB
330
1F
100
AcDbEntity
  8
0
  6
Continuous
 62
     7
100
AcDbCircle
 10
6513.7432215199
 20
5184.9150035531
 30
0.0
 40
0.3448261925711185
100
AcDbArc
 50
349.9931423839
 51
66.4940639306
  0
ARC
  5
DC
330
1F
100
AcDbEntity
  8
0
  6
Continuous
 62
     7
100
AcDbCircle
 10
6515.0761780742
 20
5182.5848269706
 30
0.0
 40
0.7616019987066743
100
AcDbArc
 50
109.9931423519
 51
202.9949855451
  0
ARC
  5
DD
330
1F
100
AcDbEntity
  8
0
  6
Continuous
 62
     7
100
AcDbCircle
 10
6514.0576677223
 20
5182.1526001719
 30
0.0
 40
0.3448261925946363
100
AcDbArc
 50
306.4940638751
 51
22.994985548
  0
ARC
  5
DE
330
1F
100
AcDbEntity
  8
0
  6
Continuous
 62
     7
100
AcDbCircle
 10
6514.6978817888
 20
5183.6245746625
 30
0.0
 40
0.3448261925788532
100
AcDbArc
 50
289.9931423549
 51
6.4940639253
  0
ARC
  5
DF
330
1F
100
AcDbEntity
  8
0
  6
Continuous
 62
     7
100
AcDbCircle
 10
6511.508133117
 20
5183.2614834631
 30
0.0
 40
0.3448261925781085
100
AcDbArc
 50
186.4940639533
 51
262.9949855287
  0
ARC
  5
E0
330
1F
100
AcDbEntity
  8
0
  6
Continuous
 62
     7
100
AcDbCircle
 10
6511.3731973286
 20
5182.163314225
 30
0.0
 40
0.7616019987339282
100
AcDbArc
 50
349.9931423201
 51
82.9949855299
  0
ARC
  5
E1
330
1F
100
AcDbEntity
  8
0
  6
Continuous
 62
     7
100
AcDbCircle
 10
6512.462793386
 20
5181.9710545721
 30
0.0
 40
0.3448261925590861
100
AcDbArc
 50
169.9931423839
 51
246.4940639466
  0
CIRCLE
  5
E2
330
1F
100
AcDbEntity
  8
0
  6
Continuous
 62
     7
100
AcDbCircle
 10
6513.1030074529
 20
5183.4430290626
 30
0.0
 40
0.549999999991087
  0
ARC
  5
E3
330
1F
100
AcDbEntity
  8
0
  6
Continuous
 62
     7
100
AcDbCircle
 10
6512.462793386
 20
5181.9710545721
 30
0.0
 40
0.3448261925590861
100
AcDbArc
 50
246.4940639466
 51
322.9949855739
  0
ARC
  5
E4
330
1F
100
AcDbEntity
  8
0
  6
Continuous
 62
     7
100
AcDbCircle
 10
6514.0576677223
 20
5182.1526001719
 30
0.0
 40
0.3448261925946363
100
AcDbArc
 50
229.9931423135
 51
306.4940638751
  0
ARC
  5
E5
330
1F
100
AcDbEntity
  8
0
  6
Continuous
 62
     7
100
AcDbCircle
 10
6513.3463679499
 20
5181.3051121328
 30
0.0
 40
0.7616019987075948
100
AcDbArc
 50
49.9931423393
 51
142.9949855452
  0
ARC
  5
E6
330
1F
100
AcDbEntity
  8
0
  6
Continuous
 62
     7
100
AcDbCircle
 10
6512.1483471839
 20
5184.7334579536
 30
0.0
 40
0.3448261926466305
100
AcDbArc
 50
126.4940639784
 51
202.9949855385
  0
ARC
  5
E7
330
1F
100
AcDbEntity
  8
0
  6
Continuous
 62
     7
100
AcDbCircle
 10
6511.1298368318
 20
5184.3012311551
 30
0.0
 40
0.761601998730041
100
AcDbArc
 50
289.9931423436
 51
22.994985528
  0
ARC
  5
E8
330
1F
100
AcDbEntity
  8
0
  6
Continuous
 62
     7
100
AcDbCircle
 10
6511.508133117
 20
5183.2614834631
 30
0.0
 40
0.3448261925781085
100
AcDbArc
 50
109.9931423378
 51
186.4940639533
  0
ARC
  5
E9
330
1F
100
AcDbEntity
  8
0
  6
Continuous
 62
     7
100
AcDbCircle
 10
6497.4351640385
 20
5249.6436233404
 30
0.0
 40
1.950000000010184
100
AcDbArc
 50
94.5707722161
 51
154.5707722161
  0
ARC
  5
EA
330
1F
100
AcDbEntity
  8
0
  6
Continuous
 62
     7
100
AcDbCircle
 10
6497.3072470379
 20
5251.2436921492
 30
0.0
 40
0.3448261926184865
100
AcDbArc
 50
94.5707722218
 51
171.0716937863
  0
ARC
  5
EB
330
1F
100
AcDbEntity
  8
0
  6
Continuous
 62
     7
100
AcDbCircle
 10
6496.2142250911
 20
5251.4154080955
 30
0.0
 40
0.7616019987323104
100
AcDbArc
 50
258.0698506212
 51
351.071693815
  0
ARC
  5
EC
330
1F
100
AcDbEntity
  8
0
  6
Continuous
 62
     7
100
AcDbCircle
 10
6495.985505302
 20
5250.3328783728
 30
0.0
 40
0.3448261925982451
100
AcDbArc
 50
78.0698506176
 51
154.570772231
  0
CIRCLE
  5
ED
330
1F
100
AcDbEntity
  8
0
  6
Continuous
 62
     7
100
AcDbCircle
 10
6497.4351640385
 20
5249.6436233404
 30
0.0
 40
3.800000000000182
  0
ARC
  5
EE
330
1F
100
AcDbEntity
  8
0
  6
Continuous
 62
     7
100
AcDbCircle
 10
6497.4351640385
 20
5249.6436233404
 30
0.0
 40
1.950000000002303
100
AcDbArc
 50
34.5707722139
 51
94.5707722161
  0
ARC
  5
EF
330
1F
100
AcDbEntity
  8
0
  6
Continuous
 62
     7
100
AcDbCircle
 10
6497.4351640385
 20
5249.6436233404
 30
0.0
 40
1.950000000010184
100
AcDbArc
 50
154.5707722161
 51
214.5707722139
  0
ARC
  5
F0
330
1F
100
AcDbEntity
  8
0
  6
Continuous
 62
     7
100
AcDbCircle
 10
6497.4351640385
 20
5249.6436233404
 30
0.0
 40
1.950000000000135
100
AcDbArc
 50
214.5707722139
 51
274.5707722117
  0
ARC
  5
F1
330
1F
100
AcDbEntity
  8
0
  6
Continuous
 62
     7
100
AcDbCircle
 10
6497.4351640385
 20
5249.6436233404
 30
0.0
 40
1.950000000000169
100
AcDbArc
 50
274.5707722117
 51
334.5707722139
  0
ARC
  5
F2
330
1F
100
AcDbEntity
  8
0
  6
Continuous
 62
     7
100
AcDbCircle
 10
6497.4351640385
 20
5249.6436233404
 30
0.0
 40
1.950000000001167
100
AcDbArc
 50
334.5707722139
 51
34.5707722139
  0
ARC
  5
F3
330
1F
100
AcDbEntity
  8
0
  6
Continuous
 62
     7
100
AcDbCircle
 10
6498.3591051729
 20
5251.5868798629
 30
0.0
 40
0.7616019988764111
100
AcDbArc
 50
198.0698506227
 51
291.0716938458
  0
ARC
  5
F4
330
1F
100
AcDbEntity
  8
0
  6
Continuous
 62
     7
100
AcDbCircle
 10
6498.7569057745
 20
5250.5544371168
 30
0.0
 40
0.3448261925722176
100
AcDbArc
 50
34.5707722245
 51
111.0716937055
  0
ARC
  5
F5
330
1F
100
AcDbEntity
  8
0
  6
Continuous
 62
     7
100
AcDbCircle
 10
6497.3072470379
 20
5251.2436921492
 30
0.0
 40
0.3448261926209935
100
AcDbArc
 50
18.0698506154
 51
94.5707722218
  0
ARC
  5
F6
330
1F
100
AcDbEntity
  8
0
  6
Continuous
 62
     7
100
AcDbCircle
 10
6499.5800441203
 20
5249.8150951079
 30
0.0
 40
0.7616019987350333
100
AcDbArc
 50
138.0698506506
 51
231.0716937865
  0
ARC
  5
F7
330
1F
100
AcDbEntity
  8
0
  6
Continuous
 62
     7
100
AcDbCircle
 10
6498.7569057745
 20
5250.5544371168
 30
0.0
 40
0.3448261925722176
100
AcDbArc
 50
318.0698505847
 51
34.5707722245
  0
ARC
  5
F8
330
1F
100
AcDbEntity
  8
0
  6
Continuous
 62
     7
100
AcDbCircle
 10
6498.8848227752
 20
5248.9543683083
 30
0.0
 40
0.3448261925462437
100
AcDbArc
 50
334.5707721669
 51
51.0716938423
  0
ARC
  5
F9
330
1F
100
AcDbEntity
  8
0
  6
Continuous
 62
     7
100
AcDbCircle
 10
6498.6561029859
 20
5247.8718385856
 30
0.0
 40
0.7616019987265047
100
AcDbArc
 50
78.0698506252
 51
171.0716938334
  0
ARC
  5
FA
330
1F
100
AcDbEntity
  8
0
  6
Continuous
 62
     7
100
AcDbCircle
 10
6498.8848227752
 20
5248.9543683083
 30
0.0
 40
0.3448261925462437
100
AcDbArc
 50
258.0698505835
 51
334.5707721669
  0
ARC
  5
FB
330
1F
100
AcDbEntity
  8
0
  6
Continuous
 62
     7
100
AcDbCircle
 10
6497.5630810391
 20
5248.0435545315
 30
0.0
 40
0.3448261925070938
100
AcDbArc
 50
274.5707721913
 51
351.0716938167
  0
CIRCLE
  5
FC
330
1F
100
AcDbEntity
  8
0
  6
Continuous
 62
     7
100
AcDbCircle
 10
6497.4351640385
 20
5249.6436233404
 30
0.0
 40
0.5500000000010914
  0
ARC
  5
FD
330
1F
100
AcDbEntity
  8
0
  6
Continuous
 62
     7
100
AcDbCircle
 10
6496.5112229043
 20
5247.7003668179
 30
0.0
 40
0.7616019987312111
100
AcDbArc
 50
18.0698506149
 51
111.0716938146
  0
ARC
  5
FE
330
1F
100
AcDbEntity
  8
0
  6
Continuous
 62
     7
100
AcDbCircle
 10
6496.1134223025
 20
5248.7328095639
 30
0.0
 40
0.3448261925636318
100
AcDbArc
 50
214.570772208
 51
291.0716938068
  0
ARC
  5
FF
330
1F
100
AcDbEntity
  8
0
  6
Continuous
 62
     7
100
AcDbCircle
 10
6497.5630810391
 20
5248.0435545315
 30
0.0
 40
0.3448261925625169
100
AcDbArc
 50
198.0698506178
 51
274.5707721913
  0
ARC
  5
100
330
1F
100
AcDbEntity
  8
0
  6
Continuous
 62
     7
100
AcDbCircle
 10
6495.985505302
 20
5250.3328783728
 30
0.0
 40
0.3448261926029963
100
AcDbArc
 50
154.570772231
 51
231.0716938166
  0
ARC
  5
101
330
1F
100
AcDbEntity
  8
0
  6
Continuous
 62
     7
100
AcDbCircle
 10
6495.2902839569
 20
5249.472151573
 30
0.0
 40
0.7616019987316692
100
AcDbArc
 50
318.069850616
 51
51.0716938076
  0
ARC
  5
102
330
1F
100
AcDbEntity
  8
0
  6
Continuous
 62
     7
100
AcDbCircle
 10
6496.1134223025
 20
5248.7328095639
 30
0.0
 40
0.3448261925741595
100
AcDbArc
 50
138.0698506208
 51
214.570772208
  0
ARC
  5
103
330
1F
100
AcDbEntity
  8
0
  6
Continuous
 62
     7
100
AcDbCircle
 10
6509.5080644516
 20
5262.5424898088
 30
0.0
 40
3.000000000001101
100
AcDbArc
 50
14.999981056
 51
89.9999795207
  0
ARC
  5
104
330
1F
100
AcDbEntity
  8
0
  6
Continuous
 62
     7
100
AcDbCircle
 10
6534.1593909542
 20
5170.5424923718
 30
0.0
 40
3.000000000000363
100
AcDbArc
 50
270.0000154462
 51
15.0000005021
  0
LINE
  5
105
330
1F
100
AcDbEntity
  8
0
  6
Continuous
 62
     7
100
AcDbLine
 10
6299.889415656
 20
5180.0755107373
 30
0.0
 11
6299.889415656
 21
5180.0787452206
 31
0.0
  0
LINE
  5
106
330
1F
100
AcDbEntity
  8
0
  6
Continuous
 62
     7
100
AcDbLine
 10
6297.5187545314
 20
5170.0424923159
 30
0.0
 11
6297.0187553808
 21
5170.5424923979
 31
0.0
  0
LINE
  5
107
330
1F
100
AcDbEntity
  8
0
  6
Continuous
 62
     7
100
AcDbLine
 10
6291.01875626
 20
5170.5424923979
 30
0.0
 11
6290.5187552467
 21
5170.0424923159
 31
0.0
  0
LINE
  5
108
330
1F
100
AcDbEntity
  8
0
  6
Continuous
 62
     7
100
AcDbLine
 10
6257.5187554255
 20
5170.0424923159
 30
0.0
 11
6257.0187544122
 21
5170.5424923979
 31
0.0
  0
LINE
  5
109
330
1F
100
AcDbEntity
  8
0
  6
Continuous
 62
     7
100
AcDbLine
 10
6251.0187552914
 20
5170.5424923979
 30
0.0
 11
6250.5187561408
 21
5170.0424923159
 31
0.0
  0
LINE
  5
10A
330
1F
100
AcDbEntity
  8
0
  6
Continuous
 62
     7
100
AcDbLine
 10
6242.0187538162
 20
5170.0424923159
 30
0.0
 11
6242.0187538162
 21
5168.0424923955
 31
0.0
  0
LINE
  5
10B
330
1F
100
AcDbEntity
  8
0
  6
Continuous
 62
     7
100
AcDbLine
 10
6306.018756856
 20
5170.0424923159
 30
0.0
 11
6242.0187538162
 21
5170.0424923159
 31
0.0
  0
LINE
  5
10C
330
1F
100
AcDbEntity
  8
0
  6
Continuous
 62
     7
100
AcDbLine
 10
6306.018756856
 20
5168.0424923955
 30
0.0
 11
6306.018756856
 21
5170.0424923159
 31
0.0
  0
LINE
  5
10D
330
1F
100
AcDbEntity
  8
0
  6
Continuous
 62
     7
100
AcDbLine
 10
6306.018756856
 20
5168.0424923955
 30
0.0
 11
6242.0187538162
 21
5168.0424923955
 31
0.0
  0
LINE
  5
10E
330
1F
100
AcDbEntity
  8
0
  6
Continuous
 62
     7
100
AcDbLine
 10
6306.018756856
 20
5170.0424923159
 30
0.0
 11
6312.0187541142
 21
5170.0424923159
 31
0.0
  0
LINE
  5
10F
330
1F
100
AcDbEntity
  8
0
  6
Continuous
 62
     7
100
AcDbLine
 10
6312.0187541142
 20
5170.0424923159
 30
0.0
 11
6312.0187541142
 21
5168.0424923955
 31
0.0
  0
LINE
  5
110
330
1F
100
AcDbEntity
  8
0
  6
Continuous
 62
     7
100
AcDbLine
 10
6312.0187541142
 20
5168.0424923955
 30
0.0
 11
6306.018756856
 21
5168.0424923955
 31
0.0
  0
LINE
  5
111
330
1F
100
AcDbEntity
  8
0
  6
Continuous
 62
     7
100
AcDbLine
 10
6236.018756558
 20
5168.0424923955
 30
0.0
 11
6236.018756558
 21
5170.0424923159
 31
0.0
  0
LINE
  5
112
330
1F
100
AcDbEntity
  8
0
  6
Continuous
 62
     7
100
AcDbLine
 10
6242.0187538162
 20
5168.0424923955
 30
0.0
 11
6236.018756558
 21
5168.0424923955
 31
0.0
  0
LINE
  5
113
330
1F
100
AcDbEntity
  8
0
  6
Continuous
 62
     7
100
AcDbLine
 10
6236.018756558
 20
5170.0424923159
 30
0.0
 11
6242.0187538162
 21
5170.0424923159
 31
0.0
  0
LINE
  5
114
330
1F
100
AcDbEntity
  8
0
  6
Continuous
 62
     7
100
AcDbLine
 10
6312.0187541142
 20
5170.0424923159
 30
0.0
 11
6312.0187541142
 21
5170.5424923979
 31
0.0
  0
LINE
  5
115
330
1F
100
AcDbEntity
  8
0
  6
Continuous
 62
     7
100
AcDbLine
 10
6236.018756558
 20
5170.0424923159
 30
0.0
 11
6236.018756558
 21
5170.5424923979
 31
0.0
  0
LINE
  5
116
330
1F
100
AcDbEntity
  8
0
  6
Continuous
 62
     7
100
AcDbLine
 10
6286.5187555224
 20
5178.6298038035
 30
0.0
 11
6286.5187555224
 21
5178.6039214179
 31
0.0
  0
LINE
  5
117
330
1F
100
AcDbEntity
  8
0
  6
Continuous
 62
     7
100
AcDbLine
 10
6286.5187555224
 20
5178.6298038035
 30
0.0
 11
6309.5187564984
 21
5178.6298038035
 31
0.0
  0
LINE
  5
118
330
1F
100
AcDbEntity
  8
0
  6
Continuous
 62
     7
100
AcDbLine
 10
6309.5187564984
 20
5178.6298038035
 30
0.0
 11
6309.5187564984
 21
5178.6039214179
 31
0.0
  0
LINE
  5
119
330
1F
100
AcDbEntity
  8
0
  6
Continuous
 62
     7
100
AcDbLine
 10
6286.5187555224
 20
5178.6039214179
 30
0.0
 11
6309.5187564984
 21
5178.6039214179
 31
0.0
  0
LINE
  5
11A
330
1F
100
AcDbEntity
  8
0
  6
Continuous
 62
     7
100
AcDbLine
 10
6293.3680696085
 20
5180.2472950488
 30
0.0
 11
6293.3680696085
 21
5183.4297639847
 31
0.0
  0
LINE
  5
11B
330
1F
100
AcDbEntity
  8
0
  6
Continuous
 62
     7
100
AcDbLine
 10
6294.9585022077
 20
5180.1713149592
 30
0.0
 11
6293.4519743219
 21
5180.1713149592
 31
0.0
  0
LINE
  5
11C
330
1F
100
AcDbEntity
  8
0
  6
Continuous
 62
     7
100
AcDbLine
 10
6294.9929630056
 20
5180.1872349873
 30
0.0
 11
6294.9585022077
 21
5180.1713149592
 31
0.0
  0
LINE
  5
11D
330
1F
100
AcDbEntity
  8
0
  6
Continuous
 62
     7
100
AcDbLine
 10
6293.6077957645
 20
5180.4028724849
 30
0.0
 11
6294.9502618656
 21
5180.4028724849
 31
0.0
  0
LINE
  5
11E
330
1F
100
AcDbEntity
  8
0
  6
Continuous
 62
     7
100
AcDbLine
 10
6293.6077957645
 20
5183.4348303795
 30
0.0
 11
6293.6077957645
 21
5180.4028724849
 31
0.0
  0
LINE
  5
11F
330
1F
100
AcDbEntity
  8
0
  6
Continuous
 62
     7
100
AcDbLine
 10
6293.5913150802
 20
5183.4681158483
 30
0.0
 11
6293.6077957645
 21
5183.4348303795
 31
0.0
  0
LINE
  5
120
330
1F
100
AcDbEntity
  8
0
  6
Continuous
 62
     7
100
AcDbLine
 10
6295.9091664895
 20
5180.9607822046
 30
0.0
 11
6295.9091664895
 21
5181.6959775582
 31
0.0
  0
LINE
  5
121
330
1F
100
AcDbEntity
  8
0
  6
Continuous
 62
     7
100
AcDbLine
 10
6297.5872477189
 20
5181.6380874783
 30
0.0
 11
6297.5872477189
 21
5180.8601993665
 31
0.0
  0
LINE
  5
122
330
1F
100
AcDbEntity
  8
0
  6
Continuous
 62
     7
100
AcDbLine
 10
6300.991358389
 20
5180.9607822046
 30
0.0
 11
6300.991358389
 21
5181.6959775582
 31
0.0
  0
LINE
  5
123
330
1F
100
AcDbEntity
  8
0
  6
Continuous
 62
     7
100
AcDbLine
 10
6302.6694396183
 20
5181.6380874783
 30
0.0
 11
6302.6694396183
 21
5180.8601993665
 31
0.0
  0
LINE
  5
124
330
1F
100
AcDbEntity
  8
0
  6
Continuous
 62
     7
100
AcDbLine
 10
6309.5187564984
 20
5185.5941595107
 30
0.0
 11
6286.5187555224
 21
5185.5941595107
 31
0.0
  0
LINE
  5
125
330
1F
100
AcDbEntity
  8
0
  6
Continuous
 62
     7
100
AcDbLine
 10
6309.5187564984
 20
5178.6298038035
 30
0.0
 11
6309.5187564984
 21
5185.5941595107
 31
0.0
  0
LINE
  5
126
330
1F
100
AcDbEntity
  8
0
  6
Continuous
 62
     7
100
AcDbLine
 10
6286.5187555224
 20
5185.5941595107
 30
0.0
 11
6286.5187555224
 21
5178.6298038035
 31
0.0
  0
LINE
  5
127
330
1F
100
AcDbEntity
  8
0
  6
Continuous
 62
     7
100
AcDbLine
 10
6298.4502615079
 20
5180.9354548871
 30
0.0
 11
6298.4502615079
 21
5181.7893240198
 31
0.0
  0
LINE
  5
128
330
1F
100
AcDbEntity
  8
0
  6
Continuous
 62
     7
100
AcDbLine
 10
6299.8886184439
 20
5180.1713149592
 30
0.0
 11
6299.1155014977
 21
5180.1713149592
 31
0.0
  0
LINE
  5
129
330
1F
100
AcDbEntity
  8
0
  6
Continuous
 62
     7
100
AcDbLine
 10
6299.8893672273
 20
5180.1047421589
 30
0.0
 11
6299.8886184439
 21
5180.1713149592
 31
0.0
  0
LINE
  5
12A
330
1F
100
AcDbEntity
  8
0
  6
Continuous
 62
     7
100
AcDbLine
 10
6299.8886184439
 20
5179.8948937625
 30
0.0
 11
6299.8886184439
 21
5179.999817495
 31
0.0
  0
LINE
  5
12B
330
1F
100
AcDbEntity
  8
0
  6
Continuous
 62
     7
100
AcDbLine
 10
6298.7222021118
 20
5179.3377076804
 30
0.0
 11
6299.4226516828
 21
5179.3377076804
 31
0.0
  0
LINE
  5
12C
330
1F
100
AcDbEntity
  8
0
  6
Continuous
 62
     7
100
AcDbLine
 10
6298.6877413139
 20
5179.3217885837
 30
0.0
 11
6298.7222021118
 21
5179.3377076804
 31
0.0
  0
LINE
  5
12D
330
1F
100
AcDbEntity
  8
0
  6
Continuous
 62
     7
100
AcDbLine
 10
6299.3185205057
 20
5179.1061501548
 30
0.0
 11
6298.7184563324
 21
5179.1061501548
 31
0.0
  0
LINE
  5
12E
330
1F
100
AcDbEntity
  8
0
  6
Continuous
 62
     7
100
AcDbLine
 10
6300.1283445999
 20
5182.368941006
 30
0.0
 11
6300.1283445999
 21
5179.7479990467
 31
0.0
  0
LINE
  5
12F
330
1F
100
AcDbEntity
  8
0
  6
Continuous
 62
     7
100
AcDbLine
 10
6299.1844230935
 20
5182.4405792698
 30
0.0
 11
6300.0481856659
 21
5182.4405792698
 31
0.0
  0
LINE
  5
130
330
1F
100
AcDbEntity
  8
0
  6
Continuous
 62
     7
100
AcDbLine
 10
6298.6877413139
 20
5179.3192004382
 30
0.0
 11
6298.7222021118
 21
5179.335119535
 31
0.0
  0
LINE
  5
131
330
1F
100
AcDbEntity
  8
0
  6
Continuous
 62
     7
100
AcDbLine
 10
6298.7222021118
 20
5179.335119535
 30
0.0
 11
6299.4226516828
 21
5179.335119535
 31
0.0
  0
LINE
  5
132
330
1F
100
AcDbEntity
  8
0
  6
Continuous
 62
     7
100
AcDbLine
 10
6299.1844230935
 20
5182.4379911244
 30
0.0
 11
6300.0481856659
 21
5182.4379911244
 31
0.0
  0
LINE
  5
133
330
1F
100
AcDbEntity
  8
0
  6
Continuous
 62
     7
100
AcDbLine
 10
6299.1394737408
 20
5180.4002843395
 30
0.0
 11
6299.8886184439
 21
5180.4002843395
 31
0.0
  0
LINE
  5
134
330
1F
100
AcDbEntity
  8
0
  6
Continuous
 62
     7
100
AcDbLine
 10
6298.6877413139
 20
5179.3192004382
 30
0.0
 11
6298.6877413139
 21
5179.3217885837
 31
0.0
  0
LINE
  5
135
330
1F
100
AcDbEntity
  8
0
  6
Continuous
 62
     7
100
AcDbLine
 10
6298.7222021118
 20
5179.335119535
 30
0.0
 11
6298.7222021118
 21
5179.3377076804
 31
0.0
  0
LINE
  5
136
330
1F
100
AcDbEntity
  8
0
  6
Continuous
 62
     7
100
AcDbLine
 10
6299.4226516828
 20
5179.335119535
 30
0.0
 11
6299.4226516828
 21
5179.3377076804
 31
0.0
  0
LINE
  5
137
330
1F
100
AcDbEntity
  8
0
  6
Continuous
 62
     7
100
AcDbLine
 10
6299.854157646
 20
5179.6636417106
 30
0.0
 11
6299.854157646
 21
5179.6662307873
 31
0.0
  0
LINE
  5
138
330
1F
100
AcDbEntity
  8
0
  6
Continuous
 62
     7
100
AcDbLine
 10
6299.8886184439
 20
5179.892305617
 30
0.0
 11
6299.8886184439
 21
5179.8948937625
 31
0.0
  0
LINE
  5
139
330
1F
100
AcDbEntity
  8
0
  6
Continuous
 62
     7
100
AcDbLine
 10
6293.5913150802
 20
5183.4655286342
 30
0.0
 11
6293.6077957645
 21
5183.4322413027
 31
0.0
  0
LINE
  5
13A
330
1F
100
AcDbEntity
  8
0
  6
Continuous
 62
     7
100
AcDbLine
 10
6293.6077957645
 20
5180.4002843395
 30
0.0
 11
6294.9502618656
 21
5180.4002843395
 31
0.0
  0
LINE
  5
13B
330
1F
100
AcDbEntity
  8
0
  6
Continuous
 62
     7
100
AcDbLine
 10
6295.0334177956
 20
5180.3141742542
 30
0.0
 11
6295.0340417817
 21
5180.3066398546
 31
0.0
  0
LINE
  5
13C
330
1F
100
AcDbEntity
  8
0
  6
Continuous
 62
     7
100
AcDbLine
 10
6295.0334177956
 20
5180.2982542261
 30
0.0
 11
6295.0334177956
 21
5180.3008423716
 31
0.0
  0
LINE
  5
13D
330
1F
100
AcDbEntity
  8
0
  6
Continuous
 62
     7
100
AcDbLine
 10
6295.0334177956
 20
5180.3141742542
 30
0.0
 11
6295.0334177956
 21
5180.3167623997
 31
0.0
  0
LINE
  5
13E
330
1F
100
AcDbEntity
  8
0
  6
Continuous
 62
     7
100
AcDbLine
 10
6294.9502618656
 20
5180.4002843395
 30
0.0
 11
6294.9502618656
 21
5180.4028724849
 31
0.0
  0
LINE
  5
13F
330
1F
100
AcDbEntity
  8
0
  6
Continuous
 62
     7
100
AcDbLine
 10
6301.231084545
 20
5181.6872939065
 30
0.0
 11
6301.231084545
 21
5180.902168487
 31
0.0
  0
LINE
  5
140
330
1F
100
AcDbEntity
  8
0
  6
Continuous
 62
     7
100
AcDbLine
 10
6302.4297134623
 20
5180.8688820869
 30
0.0
 11
6302.4297134623
 21
5181.6916357323
 31
0.0
  0
LINE
  5
141
330
1F
100
AcDbEntity
  8
0
  6
Continuous
 62
     7
100
AcDbLine
 10
6301.8281517222
 20
5180.3539733931
 30
0.0
 11
6301.8281517222
 21
5180.3565615386
 31
0.0
  0
LINE
  5
142
330
1F
100
AcDbEntity
  8
0
  6
Continuous
 62
     7
100
AcDbLine
 10
6301.5030232862
 20
5180.4523853183
 30
0.0
 11
6301.5030232862
 21
5180.4549734637
 31
0.0
  0
LINE
  5
143
330
1F
100
AcDbEntity
  8
0
  6
Continuous
 62
     7
100
AcDbLine
 10
6296.7459598228
 20
5180.3539733931
 30
0.0
 11
6296.7459598228
 21
5180.3565615386
 31
0.0
  0
LINE
  5
144
330
1F
100
AcDbEntity
  8
0
  6
Continuous
 62
     7
100
AcDbLine
 10
6296.4208313867
 20
5180.4523853183
 30
0.0
 11
6296.4208313867
 21
5180.4549734637
 31
0.0
  0
LINE
  5
145
330
1F
100
AcDbEntity
  8
0
  6
Continuous
 62
     7
100
AcDbLine
 10
6302.4297134623
 20
5180.8662939414
 30
0.0
 11
6302.4297134623
 21
5180.8688820869
 31
0.0
  0
LINE
  5
146
330
1F
100
AcDbEntity
  8
0
  6
Continuous
 62
     7
100
AcDbLine
 10
6297.3475215629
 20
5180.8662939414
 30
0.0
 11
6297.3475215629
 21
5180.8688820869
 31
0.0
  0
LINE
  5
147
330
1F
100
AcDbEntity
  8
0
  6
Continuous
 62
     7
100
AcDbLine
 10
6296.1488926455
 20
5181.6872939065
 30
0.0
 11
6296.1488926455
 21
5180.902168487
 31
0.0
  0
LINE
  5
148
330
1F
100
AcDbEntity
  8
0
  6
Continuous
 62
     7
100
AcDbLine
 10
6297.3475215629
 20
5180.8688820869
 30
0.0
 11
6297.3475215629
 21
5181.6916357323
 31
0.0
  0
LINE
  5
149
330
1F
100
AcDbEntity
  8
0
  6
Continuous
 62
     7
100
AcDbLine
 10
6299.1394737408
 20
5180.4002843395
 30
0.0
 11
6299.1394737408
 21
5180.4028724849
 31
0.0
  0
LINE
  5
14A
330
1F
100
AcDbEntity
  8
0
  6
Continuous
 62
     7
100
AcDbLine
 10
6298.7431773588
 20
5180.6716410041
 30
0.0
 11
6298.7431773588
 21
5180.6742291495
 31
0.0
  0
LINE
  5
14B
330
1F
100
AcDbEntity
  8
0
  6
Continuous
 62
     7
100
AcDbLine
 10
6298.6899876639
 20
5181.7770221799
 30
0.0
 11
6298.6899876639
 21
5180.8667111739
 31
0.0
  0
LINE
  5
14C
330
1F
100
AcDbEntity
  8
0
  6
Continuous
 62
     7
100
AcDbLine
 10
6299.8886184439
 20
5182.2090217441
 30
0.0
 11
6299.1701887593
 21
5182.2090217441
 31
0.0
  0
LINE
  5
14D
330
1F
100
AcDbEntity
  8
0
  6
Continuous
 62
     7
100
AcDbLine
 10
6299.8886184439
 20
5180.4028724849
 30
0.0
 11
6299.8886184439
 21
5182.2090217441
 31
0.0
  0
LINE
  5
14E
330
1F
100
AcDbEntity
  8
0
  6
Continuous
 62
     7
100
AcDbLine
 10
6299.1394737408
 20
5180.4028724849
 30
0.0
 11
6299.8886184439
 21
5180.4028724849
 31
0.0
  0
LINE
  5
14F
330
1F
100
AcDbEntity
  8
0
  6
Continuous
 62
     7
100
AcDbLine
 10
6299.8886184439
 20
5180.4002843395
 30
0.0
 11
6299.8886184439
 21
5180.4028724849
 31
0.0
  0
LINE
  5
150
330
1F
100
AcDbEntity
  8
0
  6
Continuous
 62
     7
100
AcDbLine
 10
6293.6077957645
 20
5180.4002843395
 30
0.0
 11
6293.6077957645
 21
5180.4028724849
 31
0.0
  0
LINE
  5
151
330
1F
100
AcDbEntity
  8
0
  6
Continuous
 62
     7
100
AcDbLine
 10
6296.1488926455
 20
5180.8995803416
 30
0.0
 11
6296.1488926455
 21
5180.902168487
 31
0.0
  0
LINE
  5
152
330
1F
100
AcDbEntity
  8
0
  6
Continuous
 62
     7
100
AcDbLine
 10
6301.231084545
 20
5180.8995803416
 30
0.0
 11
6301.231084545
 21
5180.902168487
 31
0.0
  0
LINE
  5
153
330
1F
100
AcDbEntity
  8
0
  6
Continuous
 62
     7
100
AcDbLine
 10
6298.6899876639
 20
5180.8641230285
 30
0.0
 11
6298.6899876639
 21
5180.8667111739
 31
0.0
  0
LINE
  5
154
330
1F
100
AcDbEntity
  8
0
  6
Continuous
 62
     7
100
AcDbLine
 10
6302.6050144479
 20
5181.9386951223
 30
0.0
 11
6302.6050144479
 21
5181.9412832677
 31
0.0
  0
LINE
  5
155
330
1F
100
AcDbEntity
  8
0
  6
Continuous
 62
     7
100
AcDbLine
 10
6297.5228225484
 20
5181.9386951223
 30
0.0
 11
6297.5228225484
 21
5181.9412832677
 31
0.0
  0
LINE
  5
156
330
1F
100
AcDbEntity
  8
0
  6
Continuous
 62
     7
100
AcDbLine
 10
6296.3571549997
 20
5182.3511574015
 30
0.0
 11
6296.3571549997
 21
5182.3537455469
 31
0.0
  0
LINE
  5
157
330
1F
100
AcDbEntity
  8
0
  6
Continuous
 62
     7
100
AcDbLine
 10
6301.4393468991
 20
5182.3511574015
 30
0.0
 11
6301.4393468991
 21
5182.3537455469
 31
0.0
  0
LINE
  5
158
330
1F
100
AcDbEntity
  8
0
  6
Continuous
 62
     7
100
AcDbLine
 10
6298.9394535914
 20
5182.3952974349
 30
0.0
 11
6298.9394535914
 21
5182.3978855803
 31
0.0
  0
LINE
  5
159
330
1F
100
AcDbEntity
  8
0
  6
Continuous
 62
     7
100
AcDbLine
 10
6301.8281517222
 20
5182.4379911244
 30
0.0
 11
6301.8281517222
 21
5182.4405792698
 31
0.0
  0
LINE
  5
15A
330
1F
100
AcDbEntity
  8
0
  6
Continuous
 62
     7
100
AcDbLine
 10
6296.7459598228
 20
5182.4379911244
 30
0.0
 11
6296.7459598228
 21
5182.4405792698
 31
0.0
  0
LINE
  5
15B
330
1F
100
AcDbEntity
  8
0
  6
Continuous
 62
     7
100
AcDbLine
 10
6300.0481856659
 20
5182.4379911244
 30
0.0
 11
6300.0481856659
 21
5182.4405792698
 31
0.0
  0
LINE
  5
15C
330
1F
100
AcDbEntity
  8
0
  6
Continuous
 62
     7
100
AcDbLine
 10
6299.1844230935
 20
5182.4379911244
 30
0.0
 11
6299.1844230935
 21
5182.4405792698
 31
0.0
  0
LINE
  5
15D
330
1F
100
AcDbEntity
  8
0
  6
Continuous
 62
     7
100
AcDbLine
 10
6293.4609634474
 20
5183.5031559288
 30
0.0
 11
6293.4609634474
 21
5183.5057450056
 31
0.0
  0
LINE
  5
15E
330
1F
100
AcDbEntity
  8
0
  6
Continuous
 62
     7
100
AcDbLine
 10
6293.5913150802
 20
5183.4655286342
 30
0.0
 11
6293.5913150802
 21
5183.4681158483
 31
0.0
  0
LINE
  5
15F
330
1F
100
AcDbEntity
  8
0
  6
Continuous
 62
     7
100
AcDbLine
 10
6232.5187569156
 20
5170.5424923979
 30
0.0
 11
6315.5187537566
 21
5170.5424923979
 31
0.0
  0
LINE
  5
160
330
1F
100
AcDbEntity
  8
0
  6
Continuous
 62
     7
100
AcDbLine
 10
6232.5187569156
 20
5172.8083666943
 30
0.0
 11
6315.5187537566
 21
5172.8083666943
 31
0.0
  0
LINE
  5
161
330
1F
100
AcDbEntity
  8
0
  6
Continuous
 62
     7
100
AcDbLine
 10
6232.5187569156
 20
5261.2083678663
 30
0.0
 11
6315.5187537566
 21
5261.2083678663
 31
0.0
  0
LINE
  5
162
330
1F
100
AcDbEntity
  8
0
  6
Continuous
 62
     7
100
AcDbLine
 10
6271.118755373
 20
5196.4913358509
 30
0.0
 11
6276.9187552992
 21
5196.4913358509
 31
0.0
  0
LINE
  5
163
330
1F
100
AcDbEntity
  8
0
  6
Continuous
 62
     7
100
AcDbLine
 10
6279.0187552243
 20
5198.5197806328
 30
0.0
 11
6279.0187552243
 21
5233.0999275267
 31
0.0
  0
LINE
  5
164
330
1F
100
AcDbEntity
  8
0
  6
Continuous
 62
     7
100
AcDbLine
 10
6281.1187553823
 20
5235.1283704459
 30
0.0
 11
6292.918754895
 21
5235.1283704459
 31
0.0
  0
LINE
  5
165
330
1F
100
AcDbEntity
  8
0
  6
Continuous
 62
     7
100
AcDbLine
 10
6295.018755053
 20
5237.1568133652
 30
0.0
 11
6295.018755053
 21
5244.6910341799
 31
0.0
  0
LINE
  5
166
330
1F
100
AcDbEntity
  8
0
  6
Continuous
 62
     7
100
AcDbLine
 10
6292.918754895
 20
5246.7194770992
 30
0.0
 11
6255.1187557772
 21
5246.7194770992
 31
0.0
  0
LINE
  5
167
330
1F
100
AcDbEntity
  8
0
  6
Continuous
 62
     7
100
AcDbLine
 10
6253.0187556192
 20
5244.6910341799
 30
0.0
 11
6253.0187556192
 21
5237.1568133652
 31
0.0
  0
LINE
  5
168
330
1F
100
AcDbEntity
  8
0
  6
Continuous
 62
     7
100
AcDbLine
 10
6255.1187557772
 20
5235.1283704459
 30
0.0
 11
6266.9187552899
 21
5235.1283704459
 31
0.0
  0
LINE
  5
169
330
1F
100
AcDbEntity
  8
0
  6
Continuous
 62
     7
100
AcDbLine
 10
6269.0187554479
 20
5233.0999275267
 30
0.0
 11
6269.0187554479
 21
5198.5197806328
 31
0.0
  0
LINE
  5
16A
330
1F
100
AcDbEntity
  8
0
  6
Continuous
 62
     7
100
AcDbLine
 10
6232.5187569156
 20
5262.5424911797
 30
0.0
 11
6315.5187537566
 21
5262.5424911797
 31
0.0
  0
LINE
  5
16B
330
1F
100
AcDbEntity
  8
0
  6
Continuous
 62
     7
100
AcDbLine
 10
6253.1187554493
 20
5236.8979950964
 30
0.0
 11
6253.1571855441
 21
5236.5211074769
 31
0.0
  0
LINE
  5
16C
330
1F
100
AcDbEntity
  8
0
  6
Continuous
 62
     7
100
AcDbLine
 10
6253.1571855441
 20
5236.5211074769
 30
0.0
 11
6253.2209364369
 21
5236.2884034931
 31
0.0
  0
LINE
  5
16D
330
1F
100
AcDbEntity
  8
0
  6
Continuous
 62
     7
100
AcDbLine
 10
6269.118755278
 20
5198.2609623641
 30
0.0
 11
6269.157184907
 21
5197.8840766072
 31
0.0
  0
LINE
  5
16E
330
1F
100
AcDbEntity
  8
0
  6
Continuous
 62
     7
100
AcDbLine
 10
6269.157184907
 20
5197.8840766072
 30
0.0
 11
6269.2209362656
 21
5197.6513688981
 31
0.0
  0
LINE
  5
16F
330
1F
100
AcDbEntity
  8
0
  6
Continuous
 62
     7
100
AcDbLine
 10
6278.8165744066
 20
5197.6513688981
 30
0.0
 11
6278.8803257652
 21
5197.8840766072
 31
0.0
  0
LINE
  5
170
330
1F
100
AcDbEntity
  8
0
  6
Continuous
 62
     7
100
AcDbLine
 10
6278.8803257652
 20
5197.8840766072
 30
0.0
 11
6278.9187553942
 21
5198.2609623641
 31
0.0
  0
LINE
  5
171
330
1F
100
AcDbEntity
  8
0
  6
Continuous
 62
     7
100
AcDbLine
 10
6294.8165742353
 20
5236.2884034931
 30
0.0
 11
6294.8803251281
 21
5236.5211074769
 31
0.0
  0
LINE
  5
172
330
1F
100
AcDbEntity
  8
0
  6
Continuous
 62
     7
100
AcDbLine
 10
6294.8803251281
 20
5236.5211074769
 30
0.0
 11
6294.9187552229
 21
5236.8979950964
 31
0.0
  0
LINE
  5
173
330
1F
100
AcDbEntity
  8
0
  6
Continuous
 62
     7
100
AcDbLine
 10
6271.118755373
 20
5196.5879289031
 30
0.0
 11
6276.9187552992
 21
5196.5879289031
 31
0.0
  0
LINE
  5
174
330
1F
100
AcDbEntity
  8
0
  6
Continuous
 62
     7
100
AcDbLine
 10
6269.118755278
 20
5198.2609623641
 30
0.0
 11
6269.118755278
 21
5198.5197806328
 31
0.0
  0
LINE
  5
175
330
1F
100
AcDbEntity
  8
0
  6
Continuous
 62
     7
100
AcDbLine
 10
6280.9187552564
 20
5235.2249597728
 30
0.0
 11
6292.918754895
 21
5235.2249597728
 31
0.0
  0
LINE
  5
176
330
1F
100
AcDbEntity
  8
0
  6
Continuous
 62
     7
100
AcDbLine
 10
6278.9187553942
 20
5198.5197806328
 30
0.0
 11
6278.9187553942
 21
5233.293113631
 31
0.0
  0
LINE
  5
177
330
1F
100
AcDbEntity
  8
0
  6
Continuous
 62
     7
100
AcDbLine
 10
6269.118755278
 20
5233.293113631
 30
0.0
 11
6269.118755278
 21
5198.5197806328
 31
0.0
  0
LINE
  5
178
330
1F
100
AcDbEntity
  8
0
  6
Continuous
 62
     7
100
AcDbLine
 10
6255.1187557772
 20
5235.2249597728
 30
0.0
 11
6267.1187554158
 21
5235.2249597728
 31
0.0
  0
LINE
  5
179
330
1F
100
AcDbEntity
  8
0
  6
Continuous
 62
     7
100
AcDbLine
 10
6253.1187554493
 20
5244.6910341799
 30
0.0
 11
6253.1187554493
 21
5237.1568133652
 31
0.0
  0
LINE
  5
17A
330
1F
100
AcDbEntity
  8
0
  6
Continuous
 62
     7
100
AcDbLine
 10
6292.918754895
 20
5246.6228877723
 30
0.0
 11
6255.1187557772
 21
5246.6228877723
 31
0.0
  0
LINE
  5
17B
330
1F
100
AcDbEntity
  8
0
  6
Continuous
 62
     7
100
AcDbLine
 10
6294.9187552229
 20
5237.1568133652
 30
0.0
 11
6294.9187552229
 21
5244.6910341799
 31
0.0
  0
LINE
  5
17C
330
1F
100
AcDbEntity
  8
0
  6
Continuous
 62
     7
100
AcDbLine
 10
6278.9187553942
 20
5198.2609623641
 30
0.0
 11
6278.9187553942
 21
5198.5197806328
 31
0.0
  0
LINE
  5
17D
330
1F
100
AcDbEntity
  8
0
  6
Continuous
 62
     7
100
AcDbLine
 10
6253.1187554493
 20
5236.8979950964
 30
0.0
 11
6253.1187554493
 21
5237.1568133652
 31
0.0
  0
LINE
  5
17E
330
1F
100
AcDbEntity
  8
0
  6
Continuous
 62
     7
100
AcDbLine
 10
6294.9187552229
 20
5236.8979950964
 30
0.0
 11
6294.9187552229
 21
5237.1568133652
 31
0.0
  0
LINE
  5
17F
330
1F
100
AcDbEntity
  8
0
  6
Continuous
 62
     7
100
AcDbLine
 10
6320.718756099
 20
5182.1239407703
 30
0.0
 11
6320.718756099
 21
5184.0272204548
 31
0.0
  0
LINE
  5
180
330
1F
100
AcDbEntity
  8
0
  6
Continuous
 62
     7
100
AcDbLine
 10
6320.718756099
 20
5181.4930293307
 30
0.0
 11
6320.718756099
 21
5182.1239407703
 31
0.0
  0
LINE
  5
181
330
1F
100
AcDbEntity
  8
0
  6
Continuous
 62
     7
100
AcDbLine
 10
6320.718756099
 20
5185.3463084966
 30
0.0
 11
6320.718756099
 21
5185.3930292249
 31
0.0
  0
LINE
  5
182
330
1F
100
AcDbEntity
  8
0
  6
Continuous
 62
     7
100
AcDbLine
 10
6320.718756099
 20
5184.0272204548
 30
0.0
 11
6320.718756099
 21
5185.3463084966
 31
0.0
  0
LINE
  5
183
330
1F
100
AcDbEntity
  8
0
  6
Continuous
 62
     7
100
AcDbLine
 10
6227.3187545732
 20
5185.2312156528
 30
0.0
 11
6227.3187545732
 21
5183.6635743797
 31
0.0
  0
LINE
  5
184
330
1F
100
AcDbEntity
  8
0
  6
Continuous
 62
     7
100
AcDbLine
 10
6227.3187545732
 20
5185.3930292249
 30
0.0
 11
6227.3187545732
 21
5185.2312156528
 31
0.0
  0
LINE
  5
185
330
1F
100
AcDbEntity
  8
0
  6
Continuous
 62
     7
100
AcDbLine
 10
6227.3187545732
 20
5181.8753884703
 30
0.0
 11
6227.3187545732
 21
5181.4930293307
 31
0.0
  0
LINE
  5
186
330
1F
100
AcDbEntity
  8
0
  6
Continuous
 62
     7
100
AcDbLine
 10
6227.3187545732
 20
5183.6635743797
 30
0.0
 11
6227.3187545732
 21
5181.8753884703
 31
0.0
  0
LINE
  5
187
330
1F
100
AcDbEntity
  8
0
  6
Continuous
 62
     7
100
AcDbLine
 10
6227.3187545732
 20
5251.5936245739
 30
0.0
 11
6227.3187545732
 21
5250.7500996411
 31
0.0
  0
LINE
  5
188
330
1F
100
AcDbEntity
  8
0
  6
Continuous
 62
     7
100
AcDbLine
 10
6227.3187545732
 20
5247.6998244941
 30
0.0
 11
6227.3187545732
 21
5247.693625611
 31
0.0
  0
LINE
  5
189
330
1F
100
AcDbEntity
  8
0
  6
Continuous
 62
     7
100
AcDbLine
 10
6227.3187545732
 20
5248.806302768
 30
0.0
 11
6227.3187545732
 21
5247.6998244941
 31
0.0
  0
LINE
  5
18A
330
1F
100
AcDbEntity
  8
0
  6
Continuous
 62
     7
100
AcDbLine
 10
6227.3187545732
 20
5250.7500996411
 30
0.0
 11
6227.3187545732
 21
5248.806302768
 31
0.0
  0
LINE
  5
18B
330
1F
100
AcDbEntity
  8
0
  6
Continuous
 62
     7
100
AcDbLine
 10
6295.0933018371
 20
5165.8424923492
 30
0.0
 11
6295.9652432844
 21
5165.8424923492
 31
0.0
  0
LINE
  5
18C
330
1F
100
AcDbEntity
  8
0
  6
Continuous
 62
     7
100
AcDbLine
 10
6293.1468134418
 20
5165.8424923492
 30
0.0
 11
6295.0933018371
 21
5165.8424923492
 31
0.0
  0
LINE
  5
18D
330
1F
100
AcDbEntity
  8
0
  6
Continuous
 62
     7
100
AcDbLine
 10
6292.0722664937
 20
5165.8424923492
 30
0.0
 11
6293.1468134418
 21
5165.8424923492
 31
0.0
  0
LINE
  5
18E
330
1F
100
AcDbEntity
  8
0
  6
Continuous
 62
     7
100
AcDbLine
 10
6292.0716462329
 20
5165.8424923492
 30
0.0
 11
6292.0722664937
 21
5165.8424923492
 31
0.0
  0
LINE
  5
18F
330
1F
100
AcDbEntity
  8
0
  6
Continuous
 62
     7
100
AcDbLine
 10
6320.718756099
 20
5249.3175914109
 30
0.0
 11
6320.718756099
 21
5251.1455839097
 31
0.0
  0
LINE
  5
190
330
1F
100
AcDbEntity
  8
0
  6
Continuous
 62
     7
100
AcDbLine
 10
6320.718756099
 20
5247.8156288683
 30
0.0
 11
6320.718756099
 21
5249.3175914109
 31
0.0
  0
LINE
  5
191
330
1F
100
AcDbEntity
  8
0
  6
Continuous
 62
     7
100
AcDbLine
 10
6320.718756099
 20
5247.693625611
 30
0.0
 11
6320.718756099
 21
5247.8156288683
 31
0.0
  0
LINE
  5
192
330
1F
100
AcDbEntity
  8
0
  6
Continuous
 62
     7
100
AcDbLine
 10
6320.718756099
 20
5251.1455839097
 30
0.0
 11
6320.718756099
 21
5251.5936245739
 31
0.0
  0
LINE
  5
193
330
1F
100
AcDbEntity
  8
0
  6
Continuous
 62
     7
100
AcDbLine
 10
6255.0933008686
 20
5165.8424923492
 30
0.0
 11
6255.9652441785
 21
5165.8424923492
 31
0.0
  0
LINE
  5
194
330
1F
100
AcDbEntity
  8
0
  6
Continuous
 62
     7
100
AcDbLine
 10
6253.1468124732
 20
5165.8424923492
 30
0.0
 11
6255.0933008686
 21
5165.8424923492
 31
0.0
  0
LINE
  5
195
330
1F
100
AcDbEntity
  8
0
  6
Continuous
 62
     7
100
AcDbLine
 10
6252.0722673878
 20
5165.8424923492
 30
0.0
 11
6253.1468124732
 21
5165.8424923492
 31
0.0
  0
LINE
  5
196
330
1F
100
AcDbEntity
  8
0
  6
Continuous
 62
     7
100
AcDbLine
 10
6252.0716452643
 20
5165.8424923492
 30
0.0
 11
6252.0722673878
 21
5165.8424923492
 31
0.0
  0
LINE
  5
197
330
1F
100
AcDbEntity
  8
0
  6
Continuous
 62
     7
100
AcDbLine
 10
6318.518756111
 20
5167.5424923718
 30
0.0
 11
6315.5187537566
 21
5167.5424923718
 31
0.0
  0
LINE
  5
198
330
1F
100
AcDbEntity
  8
0
  6
Continuous
 62
     7
100
AcDbLine
 10
6315.5187537566
 20
5167.5424923718
 30
0.0
 11
6315.5187537566
 21
5171.3189495325
 31
0.0
  0
LINE
  5
199
330
1F
100
AcDbEntity
  8
0
  6
Continuous
 62
     7
100
AcDbLine
 10
6315.5187537566
 20
5171.3189495325
 30
0.0
 11
6318.518756111
 21
5171.3189495325
 31
0.0
  0
LINE
  5
19A
330
1F
100
AcDbEntity
  8
0
  6
Continuous
 62
     7
100
AcDbLine
 10
6318.518756111
 20
5171.3189495325
 30
0.0
 11
6318.518756111
 21
5167.5424923718
 31
0.0
  0
LINE
  5
19B
330
1F
100
AcDbEntity
  8
0
  6
Continuous
 62
     7
100
AcDbLine
 10
6318.518756111
 20
5263.318945986
 30
0.0
 11
6315.5187537566
 21
5263.318945986
 31
0.0
  0
LINE
  5
19C
330
1F
100
AcDbEntity
  8
0
  6
Continuous
 62
     7
100
AcDbLine
 10
6315.5187537566
 20
5263.318945986
 30
0.0
 11
6315.5187537566
 21
5171.3189495325
 31
0.0
  0
LINE
  5
19D
330
1F
100
AcDbEntity
  8
0
  6
Continuous
 62
     7
100
AcDbLine
 10
6318.518756111
 20
5263.318945986
 30
0.0
 11
6318.518756111
 21
5171.3189495325
 31
0.0
  0
LINE
  5
19E
330
1F
100
AcDbEntity
  8
0
  6
Continuous
 62
     7
100
AcDbLine
 10
6315.5187537566
 20
5265.5424898088
 30
0.0
 11
6318.518756111
 21
5265.5424898088
 31
0.0
  0
LINE
  5
19F
330
1F
100
AcDbEntity
  8
0
  6
Continuous
 62
     7
100
AcDbLine
 10
6315.5187537566
 20
5263.318945986
 30
0.0
 11
6315.5187537566
 21
5265.5424898088
 31
0.0
  0
LINE
  5
1A0
330
1F
100
AcDbEntity
  8
0
  6
Continuous
 62
     7
100
AcDbLine
 10
6318.518756111
 20
5265.5424898088
 30
0.0
 11
6318.518756111
 21
5263.318945986
 31
0.0
  0
LINE
  5
1A1
330
1F
100
AcDbEntity
  8
0
  6
Continuous
 62
     7
100
AcDbLine
 10
6232.5187569156
 20
5167.5424923718
 30
0.0
 11
6229.5187545612
 21
5167.5424923718
 31
0.0
  0
LINE
  5
1A2
330
1F
100
AcDbEntity
  8
0
  6
Continuous
 62
     7
100
AcDbLine
 10
6229.5187545612
 20
5167.5424923718
 30
0.0
 11
6229.5187545612
 21
5171.3189495325
 31
0.0
  0
LINE
  5
1A3
330
1F
100
AcDbEntity
  8
0
  6
Continuous
 62
     7
100
AcDbLine
 10
6229.5187545612
 20
5171.3189495325
 30
0.0
 11
6232.5187569156
 21
5171.3189495325
 31
0.0
  0
LINE
  5
1A4
330
1F
100
AcDbEntity
  8
0
  6
Continuous
 62
     7
100
AcDbLine
 10
6232.5187569156
 20
5171.3189495325
 30
0.0
 11
6232.5187569156
 21
5167.5424923718
 31
0.0
  0
LINE
  5
1A5
330
1F
100
AcDbEntity
  8
0
  6
Continuous
 62
     7
100
AcDbLine
 10
6232.5187569156
 20
5263.318945986
 30
0.0
 11
6229.5187545612
 21
5263.318945986
 31
0.0
  0
LINE
  5
1A6
330
1F
100
AcDbEntity
  8
0
  6
Continuous
 62
     7
100
AcDbLine
 10
6229.5187545612
 20
5263.318945986
 30
0.0
 11
6229.5187545612
 21
5171.3189495325
 31
0.0
  0
LINE
  5
1A7
330
1F
100
AcDbEntity
  8
0
  6
Continuous
 62
     7
100
AcDbLine
 10
6232.5187569156
 20
5263.318945986
 30
0.0
 11
6232.5187569156
 21
5171.3189495325
 31
0.0
  0
LINE
  5
1A8
330
1F
100
AcDbEntity
  8
0
  6
Continuous
 62
     7
100
AcDbLine
 10
6229.5187545612
 20
5265.5424898088
 30
0.0
 11
6232.5187569156
 21
5265.5424898088
 31
0.0
  0
LINE
  5
1A9
330
1F
100
AcDbEntity
  8
0
  6
Continuous
 62
     7
100
AcDbLine
 10
6229.5187545612
 20
5263.318945986
 30
0.0
 11
6229.5187545612
 21
5265.5424898088
 31
0.0
  0
LINE
  5
1AA
330
1F
100
AcDbEntity
  8
0
  6
Continuous
 62
     7
100
AcDbLine
 10
6232.5187569156
 20
5265.5424898088
 30
0.0
 11
6232.5187569156
 21
5263.318945986
 31
0.0
  0
LINE
  5
1AB
330
1F
100
AcDbEntity
  8
0
  6
Continuous
 62
     7
100
AcDbLine
 10
6255.1187557772
 20
5246.7194770992
 30
0.0
 11
6255.1187557772
 21
5246.6228877723
 31
0.0
  0
LINE
  5
1AC
330
1F
100
AcDbEntity
  8
0
  6
Continuous
 62
     7
100
AcDbLine
 10
6292.918754895
 20
5246.6228877723
 30
0.0
 11
6292.918754895
 21
5246.7194770992
 31
0.0
  0
LINE
  5
1AD
330
1F
100
AcDbEntity
  8
0
  6
Continuous
 62
     7
100
AcDbLine
 10
6276.9187552992
 20
5196.4913358509
 30
0.0
 11
6276.9187552992
 21
5196.5879289031
 31
0.0
  0
LINE
  5
1AE
330
1F
100
AcDbEntity
  8
0
  6
Continuous
 62
     7
100
AcDbLine
 10
6271.118755373
 20
5196.4913358509
 30
0.0
 11
6271.118755373
 21
5196.5879289031
 31
0.0
  0
LINE
  5
1AF
330
1F
100
AcDbEntity
  8
0
  6
Continuous
 62
     7
100
AcDbLine
 10
6280.9187552564
 20
5235.1191466272
 30
0.0
 11
6280.9187552564
 21
5235.2249597728
 31
0.0
  0
LINE
  5
1B0
330
1F
100
AcDbEntity
  8
0
  6
Continuous
 62
     7
100
AcDbLine
 10
6267.1187554158
 20
5235.1191466272
 30
0.0
 11
6267.1187554158
 21
5235.2249597728
 31
0.0
  0
LINE
  5
1B1
330
1F
100
AcDbEntity
  8
0
  6
Continuous
 62
     7
100
AcDbLine
 10
6255.1187557772
 20
5235.1283704459
 30
0.0
 11
6255.1187557772
 21
5235.2249597728
 31
0.0
  0
LINE
  5
1B2
330
1F
100
AcDbEntity
  8
0
  6
Continuous
 62
     7
100
AcDbLine
 10
6292.918754895
 20
5235.1283704459
 30
0.0
 11
6292.918754895
 21
5235.2249597728
 31
0.0
  0
LINE
  5
1B3
330
1F
100
AcDbEntity
  8
0
  6
Continuous
 62
     7
100
AcDbLine
 10
6299.889415656
 20
4944.0416444738
 30
0.0
 11
6299.889415656
 21
4944.0537181396
 31
0.0
  0
LINE
  5
1B4
330
1F
100
AcDbEntity
  8
0
  6
Continuous
 62
     7
100
AcDbLine
 10
6258.4254296169
 20
5030.3162124653
 30
0.0
 11
6258.3674901769
 21
5029.8152279754
 31
0.0
  0
LINE
  5
1B5
330
1F
100
AcDbEntity
  8
0
  6
Continuous
 62
     7
100
AcDbLine
 10
6255.7052785203
 20
5023.036019196
 30
0.0
 11
6255.9020986453
 21
5023.101150309
 31
0.0
  0
LINE
  5
1B6
330
1F
100
AcDbEntity
  8
0
  6
Continuous
 62
     7
100
AcDbLine
 10
6255.9020986453
 20
5029.3750476737
 30
0.0
 11
6255.7052785203
 21
5029.5812611182
 31
0.0
  0
LINE
  5
1B7
330
1F
100
AcDbEntity
  8
0
  6
Continuous
 62
     7
100
AcDbLine
 10
6251.6921536669
 20
5012.674742629
 30
0.0
 11
6251.7358755365
 21
5013.0527869512
 31
0.0
  0
LINE
  5
1B8
330
1F
100
AcDbEntity
  8
0
  6
Continuous
 62
     7
100
AcDbLine
 10
6297.7072877482
 20
5014.1317874838
 30
0.0
 11
6297.6172437563
 21
5014.4033630092
 31
0.0
  0
LINE
  5
1B9
330
1F
100
AcDbEntity
  8
0
  6
Continuous
 62
     7
100
AcDbLine
 10
6296.3756845936
 20
5028.8154680927
 30
0.0
 11
6296.3565459147
 21
5029.2375658352
 31
0.0
  0
LINE
  5
1BA
330
1F
100
AcDbEntity
  8
0
  6
Continuous
 62
     7
100
AcDbLine
 10
6232.5187569156
 20
4942.1370413799
 30
0.0
 11
6315.5187537566
 21
4942.1370413799
 31
0.0
  0
LINE
  5
1BB
330
1F
100
AcDbEntity
  8
0
  6
Continuous
 62
     7
100
AcDbLine
 10
6315.5187537566
 20
4938.591235568
 30
0.0
 11
6318.518756111
 21
4938.591235568
 31
0.0
  0
LINE
  5
1BC
330
1F
100
AcDbEntity
  8
0
  6
Continuous
 62
     7
100
AcDbLine
 10
6229.5187545612
 20
4938.591235568
 30
0.0
 11
6232.5187569156
 21
4938.591235568
 31
0.0
  0
LINE
  5
1BD
330
1F
100
AcDbEntity
  8
0
  6
Continuous
 62
     7
100
AcDbLine
 10
6239.8896796301
 20
5007.2598878939
 30
0.0
 11
6239.856967856
 21
5005.4190133412
 31
0.0
  0
LINE
  5
1BE
330
1F
100
AcDbEntity
  8
0
  6
Continuous
 62
     7
100
AcDbLine
 10
6239.856967856
 20
5005.4190133412
 30
0.0
 11
6239.6365051761
 21
4993.0098877409
 31
0.0
  0
LINE
  5
1BF
330
1F
100
AcDbEntity
  8
0
  6
Continuous
 62
     7
100
AcDbLine
 10
6239.9989721969
 20
5013.410545205
 30
0.0
 11
6239.8896796301
 21
5007.2598878939
 31
0.0
  0
LINE
  5
1C0
330
1F
100
AcDbEntity
  8
0
  6
Continuous
 62
     7
100
AcDbLine
 10
6241.2434650257
 20
5034.5098872383
 30
0.0
 11
6241.1899288788
 21
5031.5761093695
 31
0.0
  0
LINE
  5
1C1
330
1F
100
AcDbEntity
  8
0
  6
Continuous
 62
     7
100
AcDbLine
 10
6241.1899288788
 20
5031.5761093695
 30
0.0
 11
6240.9971786335
 21
5021.0098878194
 31
0.0
  0
LINE
  5
1C2
330
1F
100
AcDbEntity
  8
0
  6
Continuous
 62
     7
100
AcDbLine
 10
6241.2434650257
 20
5034.5098872383
 30
0.0
 11
6246.3077382788
 21
5034.5098872383
 31
0.0
  0
LINE
  5
1C3
330
1F
100
AcDbEntity
  8
0
  6
Continuous
 62
     7
100
AcDbLine
 10
6246.1595182911
 20
5021.0098878194
 30
0.0
 11
6246.3077382788
 21
5034.5098872383
 31
0.0
  0
LINE
  5
1C4
330
1F
100
AcDbEntity
  8
0
  6
Continuous
 62
     7
100
AcDbLine
 10
6262.2804494247
 20
5034.5098872383
 30
0.0
 11
6262.1322285056
 21
5021.0098878194
 31
0.0
  0
LINE
  5
1C5
330
1F
100
AcDbEntity
  8
0
  6
Continuous
 62
     7
100
AcDbLine
 10
6262.2804494247
 20
5034.5098872383
 30
0.0
 11
6285.7570612475
 21
5034.5098872383
 31
0.0
  0
LINE
  5
1C6
330
1F
100
AcDbEntity
  8
0
  6
Continuous
 62
     7
100
AcDbLine
 10
6285.9052821666
 20
5021.0098878194
 30
0.0
 11
6285.7570612475
 21
5034.5098872383
 31
0.0
  0
LINE
  5
1C7
330
1F
100
AcDbEntity
  8
0
  6
Continuous
 62
     7
100
AcDbLine
 10
6301.7297723934
 20
5034.5098872383
 30
0.0
 11
6301.8779923811
 21
5021.0098878194
 31
0.0
  0
LINE
  5
1C8
330
1F
100
AcDbEntity
  8
0
  6
Continuous
 62
     7
100
AcDbLine
 10
6301.7297723934
 20
5034.5098872383
 30
0.0
 11
6306.7940456465
 21
5034.5098872383
 31
0.0
  0
LINE
  5
1C9
330
1F
100
AcDbEntity
  8
0
  6
Continuous
 62
     7
100
AcDbLine
 10
6307.0403320387
 20
5021.0098878194
 30
0.0
 11
6306.8475817934
 21
5031.5761093695
 31
0.0
  0
LINE
  5
1CA
330
1F
100
AcDbEntity
  8
0
  6
Continuous
 62
     7
100
AcDbLine
 10
6306.8475817934
 20
5031.5761093695
 30
0.0
 11
6306.7940456465
 21
5034.5098872383
 31
0.0
  0
LINE
  5
1CB
330
1F
100
AcDbEntity
  8
0
  6
Continuous
 62
     7
100
AcDbLine
 10
6308.1478310421
 20
5007.2598878939
 30
0.0
 11
6308.0385384753
 21
5013.410545205
 31
0.0
  0
LINE
  5
1CC
330
1F
100
AcDbEntity
  8
0
  6
Continuous
 62
     7
100
AcDbLine
 10
6308.4010054961
 20
4993.0098877409
 30
0.0
 11
6308.1805428162
 21
5005.4190133412
 31
0.0
  0
LINE
  5
1CD
330
1F
100
AcDbEntity
  8
0
  6
Continuous
 62
     7
100
AcDbLine
 10
6308.1805428162
 20
5005.4190133412
 30
0.0
 11
6308.1478310421
 21
5007.2598878939
 31
0.0
  0
LINE
  5
1CE
330
1F
100
AcDbEntity
  8
0
  6
Continuous
 62
     7
100
AcDbLine
 10
6246.1595182911
 20
5021.0098878194
 30
0.0
 11
6247.5164254799
 21
5021.0098878194
 31
0.0
  0
LINE
  5
1CF
330
1F
100
AcDbEntity
  8
0
  6
Continuous
 62
     7
100
AcDbLine
 10
6292.1354120269
 20
5011.773410504
 30
0.0
 11
6292.1354120269
 21
5011.5845699508
 31
0.0
  0
LINE
  5
1D0
330
1F
100
AcDbEntity
  8
0
  6
Continuous
 62
     7
100
AcDbLine
 10
6300.5210851923
 20
5021.0098878194
 30
0.0
 11
6300.5210851923
 21
5034.5098872383
 31
0.0
  0
LINE
  5
1D1
330
1F
100
AcDbEntity
  8
0
  6
Continuous
 62
     7
100
AcDbLine
 10
6299.9113091871
 20
5020.5098886688
 30
0.0
 11
6300.5110958263
 21
5020.5098886688
 31
0.0
  0
LINE
  5
1D2
330
1F
100
AcDbEntity
  8
0
  6
Continuous
 62
     7
100
AcDbLine
 10
6292.9340472117
 20
5011.773410504
 30
0.0
 11
6294.0048670068
 21
5011.9449042429
 31
0.0
  0
LINE
  5
1D3
330
1F
100
AcDbEntity
  8
0
  6
Continuous
 62
     7
100
AcDbLine
 10
6294.0048670068
 20
5011.9449042429
 30
0.0
 11
6295.0442900553
 21
5012.3099789668
 31
0.0
  0
LINE
  5
1D4
330
1F
100
AcDbEntity
  8
0
  6
Continuous
 62
     7
100
AcDbLine
 10
6295.0442900553
 20
5012.3099789668
 30
0.0
 11
6296.0301210776
 21
5012.8608413685
 31
0.0
  0
LINE
  5
1D5
330
1F
100
AcDbEntity
  8
0
  6
Continuous
 62
     7
100
AcDbLine
 10
6296.0301210776
 20
5012.8608413685
 30
0.0
 11
6296.9413103208
 21
5013.5857251186
 31
0.0
  0
LINE
  5
1D6
330
1F
100
AcDbEntity
  8
0
  6
Continuous
 62
     7
100
AcDbLine
 10
6296.9413103208
 20
5013.5857251186
 30
0.0
 11
6297.7583950058
 21
5014.4691497732
 31
0.0
  0
LINE
  5
1D7
330
1F
100
AcDbEntity
  8
0
  6
Continuous
 62
     7
100
AcDbLine
 10
6297.7583950058
 20
5014.4691497732
 30
0.0
 11
6298.4639314607
 21
5015.4922523249
 31
0.0
  0
LINE
  5
1D8
330
1F
100
AcDbEntity
  8
0
  6
Continuous
 62
     7
100
AcDbLine
 10
6298.4639314607
 20
5015.4922523249
 30
0.0
 11
6299.0428490236
 21
5016.6331839461
 31
0.0
  0
LINE
  5
1D9
330
1F
100
AcDbEntity
  8
0
  6
Continuous
 62
     7
100
AcDbLine
 10
6299.0428490236
 20
5016.6331839461
 30
0.0
 11
6299.4827853188
 21
5017.8675793756
 31
0.0
  0
LINE
  5
1DA
330
1F
100
AcDbEntity
  8
0
  6
Continuous
 62
     7
100
AcDbLine
 10
6299.4827853188
 20
5017.8675793756
 30
0.0
 11
6299.7743470266
 21
5019.1690784593
 31
0.0
  0
LINE
  5
1DB
330
1F
100
AcDbEntity
  8
0
  6
Continuous
 62
     7
100
AcDbLine
 10
6299.7743470266
 20
5019.1690784593
 30
0.0
 11
6299.9113091871
 21
5020.5098886688
 31
0.0
  0
LINE
  5
1DC
330
1F
100
AcDbEntity
  8
0
  6
Continuous
 62
     7
100
AcDbLine
 10
6292.9340472117
 20
5011.773410504
 30
0.0
 11
6292.9340472117
 21
5011.3307249446
 31
0.0
  0
LINE
  5
1DD
330
1F
100
AcDbEntity
  8
0
  6
Continuous
 62
     7
100
AcDbLine
 10
6292.1354120269
 20
5030.9973780711
 30
0.0
 11
6292.1354120269
 21
5030.2463632722
 31
0.0
  0
LINE
  5
1DE
330
1F
100
AcDbEntity
  8
0
  6
Continuous
 62
     7
100
AcDbLine
 10
6292.9340472117
 20
5030.9973780711
 30
0.0
 11
6292.9340472117
 21
5030.2463632722
 31
0.0
  0
LINE
  5
1DF
330
1F
100
AcDbEntity
  8
0
  6
Continuous
 62
     7
100
AcDbLine
 10
6299.9113091871
 20
5021.50988697
 30
0.0
 11
6299.7743470266
 21
5022.8506971795
 31
0.0
  0
LINE
  5
1E0
330
1F
100
AcDbEntity
  8
0
  6
Continuous
 62
     7
100
AcDbLine
 10
6299.7743470266
 20
5022.8506971795
 30
0.0
 11
6299.4827853188
 21
5024.1521962632
 31
0.0
  0
LINE
  5
1E1
330
1F
100
AcDbEntity
  8
0
  6
Continuous
 62
     7
100
AcDbLine
 10
6299.4827853188
 20
5024.1521962632
 30
0.0
 11
6299.0428490236
 21
5025.3865916927
 31
0.0
  0
LINE
  5
1E2
330
1F
100
AcDbEntity
  8
0
  6
Continuous
 62
     7
100
AcDbLine
 10
6299.0428490236
 20
5025.3865916927
 30
0.0
 11
6298.4639314607
 21
5026.5275214512
 31
0.0
  0
LINE
  5
1E3
330
1F
100
AcDbEntity
  8
0
  6
Continuous
 62
     7
100
AcDbLine
 10
6298.4639314607
 20
5026.5275214512
 30
0.0
 11
6297.7583950058
 21
5027.5506240029
 31
0.0
  0
LINE
  5
1E4
330
1F
100
AcDbEntity
  8
0
  6
Continuous
 62
     7
100
AcDbLine
 10
6297.7583950058
 20
5027.5506240029
 30
0.0
 11
6296.9413103208
 21
5028.4340505202
 31
0.0
  0
LINE
  5
1E5
330
1F
100
AcDbEntity
  8
0
  6
Continuous
 62
     7
100
AcDbLine
 10
6296.9413103208
 20
5028.4340505202
 30
0.0
 11
6296.0301210776
 21
5029.1589361329
 31
0.0
  0
LINE
  5
1E6
330
1F
100
AcDbEntity
  8
0
  6
Continuous
 62
     7
100
AcDbLine
 10
6296.0301210776
 20
5029.1589361329
 30
0.0
 11
6295.0442900553
 21
5029.7097948093
 31
0.0
  0
LINE
  5
1E7
330
1F
100
AcDbEntity
  8
0
  6
Continuous
 62
     7
100
AcDbLine
 10
6295.0442900553
 20
5029.7097948093
 30
0.0
 11
6294.0048670068
 21
5030.0748695333
 31
0.0
  0
LINE
  5
1E8
330
1F
100
AcDbEntity
  8
0
  6
Continuous
 62
     7
100
AcDbLine
 10
6294.0048670068
 20
5030.0748695333
 30
0.0
 11
6292.9340472117
 21
5030.2463632722
 31
0.0
  0
LINE
  5
1E9
330
1F
100
AcDbEntity
  8
0
  6
Continuous
 62
     7
100
AcDbLine
 10
6299.9113091871
 20
5021.50988697
 30
0.0
 11
6300.5110958263
 21
5021.50988697
 31
0.0
  0
LINE
  5
1EA
330
1F
100
AcDbEntity
  8
0
  6
Continuous
 62
     7
100
AcDbLine
 10
6300.5110958263
 20
5021.50988697
 30
0.0
 11
6300.386672993
 21
5022.8368279238
 31
0.0
  0
LINE
  5
1EB
330
1F
100
AcDbEntity
  8
0
  6
Continuous
 62
     7
100
AcDbLine
 10
6300.386672993
 20
5022.8368279238
 30
0.0
 11
6300.1220917001
 21
5024.1311558236
 31
0.0
  0
LINE
  5
1EC
330
1F
100
AcDbEntity
  8
0
  6
Continuous
 62
     7
100
AcDbLine
 10
6300.1220917001
 20
5024.1311558236
 30
0.0
 11
6299.7220700279
 21
5025.3697682817
 31
0.0
  0
LINE
  5
1ED
330
1F
100
AcDbEntity
  8
0
  6
Continuous
 62
     7
100
AcDbLine
 10
6299.7220700279
 20
5025.3697682817
 30
0.0
 11
6299.193753083
 21
5026.5305538375
 31
0.0
  0
LINE
  5
1EE
330
1F
100
AcDbEntity
  8
0
  6
Continuous
 62
     7
100
AcDbLine
 10
6299.193753083
 20
5026.5305538375
 30
0.0
 11
6298.5465695754
 21
5027.5927942891
 31
0.0
  0
LINE
  5
1EF
330
1F
100
AcDbEntity
  8
0
  6
Continuous
 62
     7
100
AcDbLine
 10
6298.5465695754
 20
5027.5927942891
 30
0.0
 11
6297.7920734927
 21
5028.5375279088
 31
0.0
  0
LINE
  5
1F0
330
1F
100
AcDbEntity
  8
0
  6
Continuous
 62
     7
100
AcDbLine
 10
6297.7920734927
 20
5028.5375279088
 30
0.0
 11
6296.9437298968
 21
5029.3478865821
 31
0.0
  0
LINE
  5
1F1
330
1F
100
AcDbEntity
  8
0
  6
Continuous
 62
     7
100
AcDbLine
 10
6296.9437298968
 20
5029.3478865821
 30
0.0
 11
6296.0166839555
 21
5030.0094124575
 31
0.0
  0
LINE
  5
1F2
330
1F
100
AcDbEntity
  8
0
  6
Continuous
 62
     7
100
AcDbLine
 10
6296.0166839555
 20
5030.0094124575
 30
0.0
 11
6295.0274852708
 21
5030.5102926392
 31
0.0
  0
LINE
  5
1F3
330
1F
100
AcDbEntity
  8
0
  6
Continuous
 62
     7
100
AcDbLine
 10
6295.0274852708
 20
5030.5102926392
 30
0.0
 11
6293.9937898561
 21
5030.8415864308
 31
0.0
  0
LINE
  5
1F4
330
1F
100
AcDbEntity
  8
0
  6
Continuous
 62
     7
100
AcDbLine
 10
6293.9937898561
 20
5030.8415864308
 30
0.0
 11
6292.9340472117
 21
5030.9973780711
 31
0.0
  0
LINE
  5
1F5
330
1F
100
AcDbEntity
  8
0
  6
Continuous
 62
     7
100
AcDbLine
 10
6300.5210851923
 20
5034.5098872383
 30
0.0
 11
6285.7570612475
 21
5034.5098872383
 31
0.0
  0
LINE
  5
1F6
330
1F
100
AcDbEntity
  8
0
  6
Continuous
 62
     7
100
AcDbLine
 10
6255.1034634605
 20
5030.9973780711
 30
0.0
 11
6255.1034634605
 21
5011.3019377638
 31
0.0
  0
LINE
  5
1F7
330
1F
100
AcDbEntity
  8
0
  6
Continuous
 62
     7
100
AcDbLine
 10
6254.3048264131
 20
5011.8823193659
 30
0.0
 11
6254.3048264131
 21
5011.1230269719
 31
0.0
  0
LINE
  5
1F8
330
1F
100
AcDbEntity
  8
0
  6
Continuous
 62
     7
100
AcDbLine
 10
6247.5264148459
 20
5020.5098886688
 30
0.0
 11
6248.1262014851
 21
5020.5098886688
 31
0.0
  0
LINE
  5
1F9
330
1F
100
AcDbEntity
  8
0
  6
Continuous
 62
     7
100
AcDbLine
 10
6247.5164254799
 20
5021.0098878194
 30
0.0
 11
6247.5164254799
 21
5034.5098872383
 31
0.0
  0
LINE
  5
1FA
330
1F
100
AcDbEntity
  8
0
  6
Continuous
 62
     7
100
AcDbLine
 10
6255.9020986453
 20
5030.9973780711
 30
0.0
 11
6255.9020986453
 21
5011.6124146331
 31
0.0
  0
LINE
  5
1FB
330
1F
100
AcDbEntity
  8
0
  6
Continuous
 62
     7
100
AcDbLine
 10
6254.3048264131
 20
5030.8967468042
 30
0.0
 11
6254.3048264131
 21
5030.1374544103
 31
0.0
  0
LINE
  5
1FC
330
1F
100
AcDbEntity
  8
0
  6
Continuous
 62
     7
100
AcDbLine
 10
6254.3048264131
 20
5030.8967468042
 30
0.0
 11
6253.2375214294
 21
5030.5991929669
 31
0.0
  0
LINE
  5
1FD
330
1F
100
AcDbEntity
  8
0
  6
Continuous
 62
     7
100
AcDbLine
 10
6253.2375214294
 20
5030.5991929669
 30
0.0
 11
6252.2126810297
 21
5030.1218826969
 31
0.0
  0
LINE
  5
1FE
330
1F
100
AcDbEntity
  8
0
  6
Continuous
 62
     7
100
AcDbLine
 10
6252.2126810297
 20
5030.1218826969
 30
0.0
 11
6251.249512811
 21
5029.4737678666
 31
0.0
  0
LINE
  5
1FF
330
1F
100
AcDbEntity
  8
0
  6
Continuous
 62
     7
100
AcDbLine
 10
6251.249512811
 20
5029.4737678666
 30
0.0
 11
6250.3660732552
 21
5028.6669929225
 31
0.0
  0
LINE
  5
200
330
1F
100
AcDbEntity
  8
0
  6
Continuous
 62
     7
100
AcDbLine
 10
6250.3660732552
 20
5028.6669929225
 30
0.0
 11
6249.5789231405
 21
5027.7166825433
 31
0.0
  0
LINE
  5
201
330
1F
100
AcDbEntity
  8
0
  6
Continuous
 62
     7
100
AcDbLine
 10
6249.5789231405
 20
5027.7166825433
 30
0.0
 11
6248.9028183415
 21
5026.640651067
 31
0.0
  0
LINE
  5
202
330
1F
100
AcDbEntity
  8
0
  6
Continuous
 62
     7
100
AcDbLine
 10
6248.9028183415
 20
5026.640651067
 30
0.0
 11
6248.3504304334
 21
5025.4590709407
 31
0.0
  0
LINE
  5
203
330
1F
100
AcDbEntity
  8
0
  6
Continuous
 62
     7
100
AcDbLine
 10
6248.3504304334
 20
5025.4590709407
 30
0.0
 11
6247.9321175858
 21
5024.1940890152
 31
0.0
  0
LINE
  5
204
330
1F
100
AcDbEntity
  8
0
  6
Continuous
 62
     7
100
AcDbLine
 10
6247.9321175858
 20
5024.1940890152
 30
0.0
 11
6247.6557178095
 21
5022.8694167633
 31
0.0
  0
LINE
  5
205
330
1F
100
AcDbEntity
  8
0
  6
Continuous
 62
     7
100
AcDbLine
 10
6247.6557178095
 20
5022.8694167633
 30
0.0
 11
6247.5264148459
 21
5021.50988697
 31
0.0
  0
LINE
  5
206
330
1F
100
AcDbEntity
  8
0
  6
Continuous
 62
     7
100
AcDbLine
 10
6247.5264148459
 20
5021.50988697
 30
0.0
 11
6248.1262014851
 21
5021.50988697
 31
0.0
  0
LINE
  5
207
330
1F
100
AcDbEntity
  8
0
  6
Continuous
 62
     7
100
AcDbLine
 10
6256.70073383
 20
5030.8967468042
 30
0.0
 11
6256.70073383
 21
5030.1374544103
 31
0.0
  0
LINE
  5
208
330
1F
100
AcDbEntity
  8
0
  6
Continuous
 62
     7
100
AcDbLine
 10
6262.2804494247
 20
5034.5098872383
 30
0.0
 11
6247.5164254799
 21
5034.5098872383
 31
0.0
  0
LINE
  5
209
330
1F
100
AcDbEntity
  8
0
  6
Continuous
 62
     7
100
AcDbLine
 10
6291.5335969672
 20
5030.2463632722
 30
0.0
 11
6292.1354120269
 21
5030.2463632722
 31
0.0
  0
LINE
  5
20A
330
1F
100
AcDbEntity
  8
0
  6
Continuous
 62
     7
100
AcDbLine
 10
6257.3025488898
 20
5030.1374544103
 30
0.0
 11
6256.70073383
 21
5030.1374544103
 31
0.0
  0
LINE
  5
20B
330
1F
100
AcDbEntity
  8
0
  6
Continuous
 62
     7
100
AcDbLine
 10
6291.7565611795
 20
5011.773410504
 30
0.0
 11
6292.1354120269
 21
5011.773410504
 31
0.0
  0
LINE
  5
20C
330
1F
100
AcDbEntity
  8
0
  6
Continuous
 62
     7
100
AcDbLine
 10
6300.5210851923
 20
5021.0098878194
 30
0.0
 11
6301.8779923811
 21
5021.0098878194
 31
0.0
  0
LINE
  5
20D
330
1F
100
AcDbEntity
  8
0
  6
Continuous
 62
     7
100
AcDbLine
 10
6293.2726351216
 20
5011.1515943606
 30
0.0
 11
6293.3919747963
 21
5011.178189208
 31
0.0
  0
LINE
  5
20E
330
1F
100
AcDbEntity
  8
0
  6
Continuous
 62
     7
100
AcDbLine
 10
6293.3919747963
 20
5011.178189208
 30
0.0
 11
6294.425670211
 21
5011.5094829996
 31
0.0
  0
LINE
  5
20F
330
1F
100
AcDbEntity
  8
0
  6
Continuous
 62
     7
100
AcDbLine
 10
6294.425670211
 20
5011.5094829996
 30
0.0
 11
6295.4148688957
 21
5012.0103631813
 31
0.0
  0
LINE
  5
210
330
1F
100
AcDbEntity
  8
0
  6
Continuous
 62
     7
100
AcDbLine
 10
6295.4148688957
 20
5012.0103631813
 30
0.0
 11
6296.3419148371
 21
5012.671887194
 31
0.0
  0
LINE
  5
211
330
1F
100
AcDbEntity
  8
0
  6
Continuous
 62
     7
100
AcDbLine
 10
6296.3419148371
 20
5012.671887194
 30
0.0
 11
6297.1902584329
 21
5013.4822495927
 31
0.0
  0
LINE
  5
212
330
1F
100
AcDbEntity
  8
0
  6
Continuous
 62
     7
100
AcDbLine
 10
6297.1902584329
 20
5013.4822495927
 30
0.0
 11
6297.9447545156
 21
5014.4269813497
 31
0.0
  0
LINE
  5
213
330
1F
100
AcDbEntity
  8
0
  6
Continuous
 62
     7
100
AcDbLine
 10
6297.9447545156
 20
5014.4269813497
 30
0.0
 11
6298.5919380233
 21
5015.4892218013
 31
0.0
  0
LINE
  5
214
330
1F
100
AcDbEntity
  8
0
  6
Continuous
 62
     7
100
AcDbLine
 10
6298.5919380233
 20
5015.4892218013
 30
0.0
 11
6299.1202549681
 21
5016.6500092198
 31
0.0
  0
LINE
  5
215
330
1F
100
AcDbEntity
  8
0
  6
Continuous
 62
     7
100
AcDbLine
 10
6299.1202549681
 20
5016.6500092198
 30
0.0
 11
6299.5202766403
 21
5017.8886198152
 31
0.0
  0
LINE
  5
216
330
1F
100
AcDbEntity
  8
0
  6
Continuous
 62
     7
100
AcDbLine
 10
6299.5202766403
 20
5017.8886198152
 30
0.0
 11
6299.7848579332
 21
5019.182947715
 31
0.0
  0
LINE
  5
217
330
1F
100
AcDbEntity
  8
0
  6
Continuous
 62
     7
100
AcDbLine
 10
6299.7848579332
 20
5019.182947715
 30
0.0
 11
6299.8844349429
 21
5020.0769037653
 31
0.0
  0
LINE
  5
218
330
1F
100
AcDbEntity
  8
0
  6
Continuous
 62
     7
100
AcDbLine
 10
6257.3025488898
 20
5030.7526525755
 30
0.0
 11
6257.3025488898
 21
5030.1374544103
 31
0.0
  0
LINE
  5
219
330
1F
100
AcDbEntity
  8
0
  6
Continuous
 62
     7
100
AcDbLine
 10
6291.5335969672
 20
5030.9310082991
 30
0.0
 11
6291.5335969672
 21
5030.2463632722
 31
0.0
  0
LINE
  5
21A
330
1F
100
AcDbEntity
  8
0
  6
Continuous
 62
     7
100
AcDbLine
 10
6255.7052785203
 20
5030.9973780711
 30
0.0
 11
6255.1034634605
 21
5030.9973780711
 31
0.0
  0
LINE
  5
21B
330
1F
100
AcDbEntity
  8
0
  6
Continuous
 62
     7
100
AcDbLine
 10
6255.8036876514
 20
5031.0027871926
 30
0.0
 11
6255.7052785203
 21
5030.9973780711
 31
0.0
  0
LINE
  5
21C
330
1F
100
AcDbEntity
  8
0
  6
Continuous
 62
     7
100
AcDbLine
 10
6299.8844349429
 20
5021.9428718735
 30
0.0
 11
6299.7848579332
 21
5022.8368279238
 31
0.0
  0
LINE
  5
21D
330
1F
100
AcDbEntity
  8
0
  6
Continuous
 62
     7
100
AcDbLine
 10
6299.7848579332
 20
5022.8368279238
 30
0.0
 11
6299.5202766403
 21
5024.1311558236
 31
0.0
  0
LINE
  5
21E
330
1F
100
AcDbEntity
  8
0
  6
Continuous
 62
     7
100
AcDbLine
 10
6299.5202766403
 20
5024.1311558236
 30
0.0
 11
6299.1202549681
 21
5025.3697682817
 31
0.0
  0
LINE
  5
21F
330
1F
100
AcDbEntity
  8
0
  6
Continuous
 62
     7
100
AcDbLine
 10
6299.1202549681
 20
5025.3697682817
 30
0.0
 11
6298.5919380233
 21
5026.5305538375
 31
0.0
  0
LINE
  5
220
330
1F
100
AcDbEntity
  8
0
  6
Continuous
 62
     7
100
AcDbLine
 10
6298.5919380233
 20
5026.5305538375
 30
0.0
 11
6297.9447545156
 21
5027.5927942891
 31
0.0
  0
LINE
  5
221
330
1F
100
AcDbEntity
  8
0
  6
Continuous
 62
     7
100
AcDbLine
 10
6297.9447545156
 20
5027.5927942891
 30
0.0
 11
6297.1902584329
 21
5028.5375279088
 31
0.0
  0
LINE
  5
222
330
1F
100
AcDbEntity
  8
0
  6
Continuous
 62
     7
100
AcDbLine
 10
6297.1902584329
 20
5028.5375279088
 30
0.0
 11
6296.3419148371
 21
5029.3478865821
 31
0.0
  0
LINE
  5
223
330
1F
100
AcDbEntity
  8
0
  6
Continuous
 62
     7
100
AcDbLine
 10
6296.3419148371
 20
5029.3478865821
 30
0.0
 11
6295.4148688957
 21
5030.0094124575
 31
0.0
  0
LINE
  5
224
330
1F
100
AcDbEntity
  8
0
  6
Continuous
 62
     7
100
AcDbLine
 10
6295.4148688957
 20
5030.0094124575
 30
0.0
 11
6294.425670211
 21
5030.5102926392
 31
0.0
  0
LINE
  5
225
330
1F
100
AcDbEntity
  8
0
  6
Continuous
 62
     7
100
AcDbLine
 10
6294.425670211
 20
5030.5102926392
 30
0.0
 11
6293.3919747963
 21
5030.8415864308
 31
0.0
  0
LINE
  5
226
330
1F
100
AcDbEntity
  8
0
  6
Continuous
 62
     7
100
AcDbLine
 10
6293.3919747963
 20
5030.8415864308
 30
0.0
 11
6292.9340472117
 21
5030.9310082991
 31
0.0
  0
LINE
  5
227
330
1F
100
AcDbEntity
  8
0
  6
Continuous
 62
     7
100
AcDbLine
 10
6255.7052785203
 20
5030.9973780711
 30
0.0
 11
6255.7052785203
 21
5011.5358990331
 31
0.0
  0
LINE
  5
228
330
1F
100
AcDbEntity
  8
0
  6
Continuous
 62
     7
100
AcDbLine
 10
6247.5164254799
 20
5034.5098872383
 30
0.0
 11
6246.3077382788
 21
5034.5098872383
 31
0.0
  0
LINE
  5
229
330
1F
100
AcDbEntity
  8
0
  6
Continuous
 62
     7
100
AcDbLine
 10
6301.7297723934
 20
5034.5098872383
 30
0.0
 11
6300.5210851923
 21
5034.5098872383
 31
0.0
  0
LINE
  5
22A
330
1F
100
AcDbEntity
  8
0
  6
Continuous
 62
     7
100
AcDbLine
 10
6298.5187546954
 20
5026.4339347083
 30
0.0
 11
6298.5187546954
 21
5026.6665194828
 31
0.0
  0
LINE
  5
22B
330
1F
100
AcDbEntity
  8
0
  6
Continuous
 62
     7
100
AcDbLine
 10
6249.5187559769
 20
5026.4339347083
 30
0.0
 11
6249.5187559769
 21
5026.6665194828
 31
0.0
  0
LINE
  5
22C
330
1F
100
AcDbEntity
  8
0
  6
Continuous
 62
     7
100
AcDbLine
 10
6298.5187546954
 20
5015.5858409305
 30
0.0
 11
6298.5187546954
 21
5015.3532580186
 31
0.0
  0
LINE
  5
22D
330
1F
100
AcDbEntity
  8
0
  6
Continuous
 62
     7
100
AcDbLine
 10
6249.5187559769
 20
5015.3532580186
 30
0.0
 11
6249.5187559769
 21
5015.5858409305
 31
0.0
  0
LINE
  5
22E
330
1F
100
AcDbEntity
  8
0
  6
Continuous
 62
     7
100
AcDbLine
 10
6308.1478310421
 20
5007.2598878939
 30
0.0
 11
6309.0187554851
 21
5007.2598878939
 31
0.0
  0
LINE
  5
22F
330
1F
100
AcDbEntity
  8
0
  6
Continuous
 62
     7
100
AcDbLine
 10
6309.0187554851
 20
4993.0098877409
 30
0.0
 11
6309.0187554851
 21
5007.2598878939
 31
0.0
  0
LINE
  5
230
330
1F
100
AcDbEntity
  8
0
  6
Continuous
 62
     7
100
AcDbLine
 10
6239.0187551871
 20
5007.2598878939
 30
0.0
 11
6239.8896796301
 21
5007.2598878939
 31
0.0
  0
LINE
  5
231
330
1F
100
AcDbEntity
  8
0
  6
Continuous
 62
     7
100
AcDbLine
 10
6239.0187551871
 20
4993.0098877409
 30
0.0
 11
6239.0187551871
 21
5007.2598878939
 31
0.0
  0
LINE
  5
232
330
1F
100
AcDbEntity
  8
0
  6
Continuous
 62
     7
100
AcDbLine
 10
6236.818755199
 20
4993.5598877671
 30
0.0
 11
6239.0187551871
 21
4993.5598877671
 31
0.0
  0
LINE
  5
233
330
1F
100
AcDbEntity
  8
0
  6
Continuous
 62
     7
100
AcDbLine
 10
6236.818755199
 20
4993.5598877671
 30
0.0
 11
6236.818755199
 21
5007.2598878939
 31
0.0
  0
LINE
  5
234
330
1F
100
AcDbEntity
  8
0
  6
Continuous
 62
     7
100
AcDbLine
 10
6236.818755199
 20
5007.2598878939
 30
0.0
 11
6239.0187551871
 21
5007.2598878939
 31
0.0
  0
LINE
  5
235
330
1F
100
AcDbEntity
  8
0
  6
Continuous
 62
     7
100
AcDbLine
 10
6293.3680696085
 20
4944.0881025691
 30
0.0
 11
6293.3680696085
 21
4944.9408401449
 31
0.0
  0
LINE
  5
236
330
1F
100
AcDbEntity
  8
0
  6
Continuous
 62
     7
100
AcDbLine
 10
6294.9585022077
 20
4944.0677438576
 30
0.0
 11
6293.4519743219
 21
4944.0677438576
 31
0.0
  0
LINE
  5
237
330
1F
100
AcDbEntity
  8
0
  6
Continuous
 62
     7
100
AcDbLine
 10
6294.9929630056
 20
4944.072009315
 30
0.0
 11
6294.9585022077
 21
4944.0677438576
 31
0.0
  0
LINE
  5
238
330
1F
100
AcDbEntity
  8
0
  6
Continuous
 62
     7
100
AcDbLine
 10
6293.6077957645
 20
4944.1297885675
 30
0.0
 11
6294.9502618656
 21
4944.1297885675
 31
0.0
  0
LINE
  5
239
330
1F
100
AcDbEntity
  8
0
  6
Continuous
 62
     7
100
AcDbLine
 10
6293.6077957645
 20
4944.9421998758
 30
0.0
 11
6293.6077957645
 21
4944.1297885675
 31
0.0
  0
LINE
  5
23A
330
1F
100
AcDbEntity
  8
0
  6
Continuous
 62
     7
100
AcDbLine
 10
6293.5913150802
 20
4944.9511182208
 30
0.0
 11
6293.6077957645
 21
4944.9421998758
 31
0.0
  0
LINE
  5
23B
330
1F
100
AcDbEntity
  8
0
  6
Continuous
 62
     7
100
AcDbLine
 10
6295.9091664895
 20
4944.2792807419
 30
0.0
 11
6295.9091664895
 21
4944.4762740929
 31
0.0
  0
LINE
  5
23C
330
1F
100
AcDbEntity
  8
0
  6
Continuous
 62
     7
100
AcDbLine
 10
6297.5872477189
 20
4944.4607619841
 30
0.0
 11
6297.5872477189
 21
4944.2523282666
 31
0.0
  0
LINE
  5
23D
330
1F
100
AcDbEntity
  8
0
  6
Continuous
 62
     7
100
AcDbLine
 10
6300.991358389
 20
4944.2792807419
 30
0.0
 11
6300.991358389
 21
4944.4762740929
 31
0.0
  0
LINE
  5
23E
330
1F
100
AcDbEntity
  8
0
  6
Continuous
 62
     7
100
AcDbLine
 10
6302.6694396183
 20
4944.4607619841
 30
0.0
 11
6302.6694396183
 21
4944.2523282666
 31
0.0
  0
LINE
  5
23F
330
1F
100
AcDbEntity
  8
0
  6
Continuous
 62
     7
100
AcDbLine
 10
6309.5187564984
 20
4945.5207896132
 30
0.0
 11
6286.5187555224
 21
4945.5207896132
 31
0.0
  0
LINE
  5
240
330
1F
100
AcDbEntity
  8
0
  6
Continuous
 62
     7
100
AcDbLine
 10
6309.5187564984
 20
4943.6546948452
 30
0.0
 11
6309.5187564984
 21
4945.5207896132
 31
0.0
  0
LINE
  5
241
330
1F
100
AcDbEntity
  8
0
  6
Continuous
 62
     7
100
AcDbLine
 10
6286.5187555224
 20
4943.6546948452
 30
0.0
 11
6309.5187564984
 21
4943.6546948452
 31
0.0
  0
LINE
  5
242
330
1F
100
AcDbEntity
  8
0
  6
Continuous
 62
     7
100
AcDbLine
 10
6286.5187555224
 20
4945.5207896132
 30
0.0
 11
6286.5187555224
 21
4943.6546948452
 31
0.0
  0
LINE
  5
243
330
1F
100
AcDbEntity
  8
0
  6
Continuous
 62
     7
100
AcDbLine
 10
6298.4502615079
 20
4944.272493263
 30
0.0
 11
6298.4502615079
 21
4944.501285692
 31
0.0
  0
LINE
  5
244
330
1F
100
AcDbEntity
  8
0
  6
Continuous
 62
     7
100
AcDbLine
 10
6299.8886184439
 20
4944.0677438576
 30
0.0
 11
6299.1155014977
 21
4944.0677438576
 31
0.0
  0
LINE
  5
245
330
1F
100
AcDbEntity
  8
0
  6
Continuous
 62
     7
100
AcDbLine
 10
6299.8893672273
 20
4944.0499034424
 30
0.0
 11
6299.8886184439
 21
4944.0677438576
 31
0.0
  0
LINE
  5
246
330
1F
100
AcDbEntity
  8
0
  6
Continuous
 62
     7
100
AcDbLine
 10
6299.8886184439
 20
4943.9936739106
 30
0.0
 11
6299.8886184439
 21
4944.0217886765
 31
0.0
  0
LINE
  5
247
330
1F
100
AcDbEntity
  8
0
  6
Continuous
 62
     7
100
AcDbLine
 10
6298.7222021118
 20
4943.8443791766
 30
0.0
 11
6299.4226516828
 21
4943.8443791766
 31
0.0
  0
LINE
  5
248
330
1F
100
AcDbEntity
  8
0
  6
Continuous
 62
     7
100
AcDbLine
 10
6298.6877413139
 20
4943.8401137192
 30
0.0
 11
6298.7222021118
 21
4943.8443791766
 31
0.0
  0
LINE
  5
249
330
1F
100
AcDbEntity
  8
0
  6
Continuous
 62
     7
100
AcDbLine
 10
6299.3185205057
 20
4943.7823344667
 30
0.0
 11
6298.7184563324
 21
4943.7823344667
 31
0.0
  0
LINE
  5
24A
330
1F
100
AcDbEntity
  8
0
  6
Continuous
 62
     7
100
AcDbLine
 10
6300.1283445999
 20
4944.6565930445
 30
0.0
 11
6300.1283445999
 21
4943.9543162186
 31
0.0
  0
LINE
  5
24B
330
1F
100
AcDbEntity
  8
0
  6
Continuous
 62
     7
100
AcDbLine
 10
6299.1844230935
 20
4944.6757894654
 30
0.0
 11
6300.0481856659
 21
4944.6757894654
 31
0.0
  0
LINE
  5
24C
330
1F
100
AcDbEntity
  8
0
  6
Continuous
 62
     7
100
AcDbLine
 10
6309.5187564984
 20
4945.5207896132
 30
0.0
 11
6309.5187564984
 21
4945.6173826654
 31
0.0
  0
LINE
  5
24D
330
1F
100
AcDbEntity
  8
0
  6
Continuous
 62
     7
100
AcDbLine
 10
6286.5187555224
 20
4945.5207896132
 30
0.0
 11
6286.5187555224
 21
4945.6173826654
 31
0.0
  0
LINE
  5
24E
330
1F
100
AcDbEntity
  8
0
  6
Continuous
 62
     7
100
AcDbLine
 10
6309.5187564984
 20
4945.6173826654
 30
0.0
 11
6286.5187555224
 21
4945.6173826654
 31
0.0
  0
LINE
  5
24F
330
1F
100
AcDbEntity
  8
0
  6
Continuous
 62
     7
100
AcDbLine
 10
6294.9929630056
 20
4944.0816689927
 30
0.0
 11
6294.9585022077
 21
4944.0774035354
 31
0.0
  0
LINE
  5
250
330
1F
100
AcDbEntity
  8
0
  6
Continuous
 62
     7
100
AcDbLine
 10
6294.9585022077
 20
4944.0774035354
 30
0.0
 11
6293.4519743219
 21
4944.0774035354
 31
0.0
  0
LINE
  5
251
330
1F
100
AcDbEntity
  8
0
  6
Continuous
 62
     7
100
AcDbLine
 10
6299.3185205057
 20
4943.7919904191
 30
0.0
 11
6298.7184563324
 21
4943.7919904191
 31
0.0
  0
LINE
  5
252
330
1F
100
AcDbEntity
  8
0
  6
Continuous
 62
     7
100
AcDbLine
 10
6299.8886184439
 20
4944.0774035354
 30
0.0
 11
6299.1155014977
 21
4944.0774035354
 31
0.0
  0
LINE
  5
253
330
1F
100
AcDbEntity
  8
0
  6
Continuous
 62
     7
100
AcDbLine
 10
6299.8886184439
 20
4944.6234044332
 30
0.0
 11
6299.1701887593
 21
4944.6234044332
 31
0.0
  0
LINE
  5
254
330
1F
100
AcDbEntity
  8
0
  6
Continuous
 62
     7
100
AcDbLine
 10
6301.8229083762
 20
4944.6234044332
 30
0.0
 11
6301.8229083762
 21
4944.6137447555
 31
0.0
  0
LINE
  5
255
330
1F
100
AcDbEntity
  8
0
  6
Continuous
 62
     7
100
AcDbLine
 10
6302.2499197766
 20
4944.5793901284
 30
0.0
 11
6302.2499197766
 21
4944.5697304506
 31
0.0
  0
LINE
  5
256
330
1F
100
AcDbEntity
  8
0
  6
Continuous
 62
     7
100
AcDbLine
 10
6301.589923133
 20
4944.6108017762
 30
0.0
 11
6301.589923133
 21
4944.6011420984
 31
0.0
  0
LINE
  5
257
330
1F
100
AcDbEntity
  8
0
  6
Continuous
 62
     7
100
AcDbLine
 10
6301.231084545
 20
4944.4739495118
 30
0.0
 11
6301.231084545
 21
4944.263574918
 31
0.0
  0
LINE
  5
258
330
1F
100
AcDbEntity
  8
0
  6
Continuous
 62
     7
100
AcDbLine
 10
6302.4297134623
 20
4944.254656573
 30
0.0
 11
6302.4297134623
 21
4944.4751118023
 31
0.0
  0
LINE
  5
259
330
1F
100
AcDbEntity
  8
0
  6
Continuous
 62
     7
100
AcDbLine
 10
6298.6899876639
 20
4944.4979888101
 30
0.0
 11
6298.6899876639
 21
4944.2540754278
 31
0.0
  0
LINE
  5
25A
330
1F
100
AcDbEntity
  8
0
  6
Continuous
 62
     7
100
AcDbLine
 10
6299.8886184439
 20
4944.6137447555
 30
0.0
 11
6299.1701887593
 21
4944.6137447555
 31
0.0
  0
LINE
  5
25B
330
1F
100
AcDbEntity
  8
0
  6
Continuous
 62
     7
100
AcDbLine
 10
6299.8886184439
 20
4944.1297885675
 30
0.0
 11
6299.8886184439
 21
4944.6137447555
 31
0.0
  0
LINE
  5
25C
330
1F
100
AcDbEntity
  8
0
  6
Continuous
 62
     7
100
AcDbLine
 10
6299.1394737408
 20
4944.1297885675
 30
0.0
 11
6299.8886184439
 21
4944.1297885675
 31
0.0
  0
LINE
  5
25D
330
1F
100
AcDbEntity
  8
0
  6
Continuous
 62
     7
100
AcDbLine
 10
6298.9424505874
 20
4944.6061488886
 30
0.0
 11
6298.9424505874
 21
4944.5964892108
 31
0.0
  0
LINE
  5
25E
330
1F
100
AcDbEntity
  8
0
  6
Continuous
 62
     7
100
AcDbLine
 10
6299.1701887593
 20
4944.6234044332
 30
0.0
 11
6299.1701887593
 21
4944.6137447555
 31
0.0
  0
LINE
  5
25F
330
1F
100
AcDbEntity
  8
0
  6
Continuous
 62
     7
100
AcDbLine
 10
6299.8886184439
 20
4944.6234044332
 30
0.0
 11
6299.8886184439
 21
4944.6137447555
 31
0.0
  0
LINE
  5
260
330
1F
100
AcDbEntity
  8
0
  6
Continuous
 62
     7
100
AcDbLine
 10
6296.7407164767
 20
4944.6234044332
 30
0.0
 11
6296.7407164767
 21
4944.6137447555
 31
0.0
  0
LINE
  5
261
330
1F
100
AcDbEntity
  8
0
  6
Continuous
 62
     7
100
AcDbLine
 10
6297.1677278772
 20
4944.5793901284
 30
0.0
 11
6297.1677278772
 21
4944.5697304506
 31
0.0
  0
LINE
  5
262
330
1F
100
AcDbEntity
  8
0
  6
Continuous
 62
     7
100
AcDbLine
 10
6296.5077330962
 20
4944.6108017762
 30
0.0
 11
6296.5077330962
 21
4944.6011420984
 31
0.0
  0
LINE
  5
263
330
1F
100
AcDbEntity
  8
0
  6
Continuous
 62
     7
100
AcDbLine
 10
6296.1488926455
 20
4944.4739495118
 30
0.0
 11
6296.1488926455
 21
4944.263574918
 31
0.0
  0
LINE
  5
264
330
1F
100
AcDbEntity
  8
0
  6
Continuous
 62
     7
100
AcDbLine
 10
6297.3475215629
 20
4944.254656573
 30
0.0
 11
6297.3475215629
 21
4944.4751118023
 31
0.0
  0
LINE
  5
265
330
1F
100
AcDbEntity
  8
0
  6
Continuous
 62
     7
100
AcDbLine
 10
6301.231084545
 20
4944.4836054642
 30
0.0
 11
6301.231084545
 21
4944.4739495118
 31
0.0
  0
LINE
  5
266
330
1F
100
AcDbEntity
  8
0
  6
Continuous
 62
     7
100
AcDbLine
 10
6296.1488926455
 20
4944.4836054642
 30
0.0
 11
6296.1488926455
 21
4944.4739495118
 31
0.0
  0
LINE
  5
267
330
1F
100
AcDbEntity
  8
0
  6
Continuous
 62
     7
100
AcDbLine
 10
6298.6899876639
 20
4944.5076484878
 30
0.0
 11
6298.6899876639
 21
4944.4979888101
 31
0.0
  0
LINE
  5
268
330
1F
100
AcDbEntity
  8
0
  6
Continuous
 62
     7
100
AcDbLine
 10
6302.4297134623
 20
4944.4847714801
 30
0.0
 11
6302.4297134623
 21
4944.4751118023
 31
0.0
  0
LINE
  5
269
330
1F
100
AcDbEntity
  8
0
  6
Continuous
 62
     7
100
AcDbLine
 10
6297.3475215629
 20
4944.4847714801
 30
0.0
 11
6297.3475215629
 21
4944.4751118023
 31
0.0
  0
LINE
  5
26A
330
1F
100
AcDbEntity
  8
0
  6
Continuous
 62
     7
100
AcDbLine
 10
6301.255056788
 20
4944.1254858572
 30
0.0
 11
6301.255056788
 21
4944.1158299048
 31
0.0
  0
LINE
  5
26B
330
1F
100
AcDbEntity
  8
0
  6
Continuous
 62
     7
100
AcDbLine
 10
6296.1728648886
 20
4944.1254858572
 30
0.0
 11
6296.1728648886
 21
4944.1158299048
 31
0.0
  0
LINE
  5
26C
330
1F
100
AcDbEntity
  8
0
  6
Continuous
 62
     7
100
AcDbLine
 10
6298.4652446255
 20
4944.2290265758
 30
0.0
 11
6298.4652446255
 21
4944.2193668981
 31
0.0
  0
LINE
  5
26D
330
1F
100
AcDbEntity
  8
0
  6
Continuous
 62
     7
100
AcDbLine
 10
6302.1465373829
 20
4944.0805029769
 30
0.0
 11
6302.1465373829
 21
4944.0708432991
 31
0.0
  0
LINE
  5
26E
330
1F
100
AcDbEntity
  8
0
  6
Continuous
 62
     7
100
AcDbLine
 10
6297.0643454835
 20
4944.0805029769
 30
0.0
 11
6297.0643454835
 21
4944.0708432991
 31
0.0
  0
LINE
  5
26F
330
1F
100
AcDbEntity
  8
0
  6
Continuous
 62
     7
100
AcDbLine
 10
6298.6914870933
 20
4944.1254858572
 30
0.0
 11
6298.6914870933
 21
4944.1158299048
 31
0.0
  0
LINE
  5
270
330
1F
100
AcDbEntity
  8
0
  6
Continuous
 62
     7
100
AcDbLine
 10
6301.8431348398
 20
4944.0649945934
 30
0.0
 11
6301.8431348398
 21
4944.0553349156
 31
0.0
  0
LINE
  5
271
330
1F
100
AcDbEntity
  8
0
  6
Continuous
 62
     7
100
AcDbLine
 10
6296.7609429404
 20
4944.0649945934
 30
0.0
 11
6296.7609429404
 21
4944.0553349156
 31
0.0
  0
LINE
  5
272
330
1F
100
AcDbEntity
  8
0
  6
Continuous
 62
     7
100
AcDbLine
 10
6299.1155014977
 20
4944.0774035354
 30
0.0
 11
6299.1155014977
 21
4944.0677438576
 31
0.0
  0
LINE
  5
273
330
1F
100
AcDbEntity
  8
0
  6
Continuous
 62
     7
100
AcDbLine
 10
6295.0334177956
 20
4944.1067141194
 30
0.0
 11
6295.0334177956
 21
4944.102448662
 31
0.0
  0
LINE
  5
274
330
1F
100
AcDbEntity
  8
0
  6
Continuous
 62
     7
100
AcDbLine
 10
6294.9929630056
 20
4944.0816689927
 30
0.0
 11
6294.9929630056
 21
4944.072009315
 31
0.0
  0
LINE
  5
275
330
1F
100
AcDbEntity
  8
0
  6
Continuous
 62
     7
100
AcDbLine
 10
6293.4519743219
 20
4944.0774035354
 30
0.0
 11
6293.4519743219
 21
4944.0677438576
 31
0.0
  0
LINE
  5
276
330
1F
100
AcDbEntity
  8
0
  6
Continuous
 62
     7
100
AcDbLine
 10
6294.9585022077
 20
4944.0774035354
 30
0.0
 11
6294.9585022077
 21
4944.0677438576
 31
0.0
  0
LINE
  5
277
330
1F
100
AcDbEntity
  8
0
  6
Continuous
 62
     7
100
AcDbLine
 10
6299.8886184439
 20
4944.0774035354
 30
0.0
 11
6299.8886184439
 21
4944.0677438576
 31
0.0
  0
LINE
  5
278
330
1F
100
AcDbEntity
  8
0
  6
Continuous
 62
     7
100
AcDbLine
 10
6299.6084393606
 20
4943.8009124894
 30
0.0
 11
6299.6084393606
 21
4943.7912528117
 31
0.0
  0
LINE
  5
279
330
1F
100
AcDbEntity
  8
0
  6
Continuous
 62
     7
100
AcDbLine
 10
6298.7184563324
 20
4943.7919904191
 30
0.0
 11
6298.7184563324
 21
4943.7823344667
 31
0.0
  0
LINE
  5
27A
330
1F
100
AcDbEntity
  8
0
  6
Continuous
 62
     7
100
AcDbLine
 10
6299.3185205057
 20
4943.7919904191
 30
0.0
 11
6299.3185205057
 21
4943.7823344667
 31
0.0
  0
LINE
  5
27B
330
1F
100
AcDbEntity
  8
0
  6
Continuous
 62
     7
100
AcDbLine
 10
6255.8668462232
 20
5018.9600673218
 30
0.0
 11
6255.9020986453
 21
5019.2648873378
 31
0.0
  0
LINE
  5
27C
330
1F
100
AcDbEntity
  8
0
  6
Continuous
 62
     7
100
AcDbLine
 10
6255.7052785203
 20
5018.9066019554
 30
0.0
 11
6255.8668462232
 21
5018.9600673218
 31
0.0
  0
LINE
  5
27D
330
1F
100
AcDbEntity
  8
0
  6
Continuous
 62
     7
100
AcDbLine
 10
6255.7052785203
 20
5018.4619811077
 30
0.0
 11
6255.9020986453
 21
5018.5271140833
 31
0.0
  0
LINE
  5
27E
330
1F
100
AcDbEntity
  8
0
  6
Continuous
 62
     7
100
AcDbLine
 10
6255.9020986453
 20
5018.1528211285
 30
0.0
 11
6255.7052785203
 21
5018.0876881529
 31
0.0
  0
LINE
  5
27F
330
1F
100
AcDbEntity
  8
0
  6
Continuous
 62
     7
100
AcDbLine
 10
6255.8668462232
 20
5018.9600673218
 30
0.0
 11
6255.9020986453
 21
5018.9231329311
 31
0.0
  0
LINE
  5
280
330
1F
100
AcDbEntity
  8
0
  6
Continuous
 62
     7
100
AcDbLine
 10
6295.0517462239
 20
5012.3133578051
 30
0.0
 11
6295.0536721989
 21
5011.8049674381
 31
0.0
  0
LINE
  5
281
330
1F
100
AcDbEntity
  8
0
  6
Continuous
 62
     7
100
AcDbLine
 10
6250.1090449884
 20
5014.5063393463
 30
0.0
 11
6250.2655891374
 21
5014.5910524477
 31
0.0
  0
LINE
  5
282
330
1F
100
AcDbEntity
  8
0
  6
Continuous
 62
     7
100
AcDbLine
 10
6255.7052785203
 20
5017.9324795206
 30
0.0
 11
6255.9020986453
 21
5017.9976106335
 31
0.0
  0
LINE
  5
283
330
1F
100
AcDbEntity
  8
0
  6
Continuous
 62
     7
100
AcDbLine
 10
6232.5187569156
 20
4991.209887801
 30
0.0
 11
6315.5187537566
 21
4991.209887801
 31
0.0
  0
LINE
  5
284
330
1F
100
AcDbEntity
  8
0
  6
Continuous
 62
     7
100
AcDbLine
 10
6232.5187569156
 20
4992.9405797918
 30
0.0
 11
6232.5187569156
 21
4993.0098877409
 31
0.0
  0
LINE
  5
285
330
1F
100
AcDbEntity
  8
0
  6
Continuous
 62
     7
100
AcDbLine
 10
6232.5187569156
 20
4993.0098877409
 30
0.0
 11
6315.5187537566
 21
4993.0098877409
 31
0.0
  0
LINE
  5
286
330
1F
100
AcDbEntity
  8
0
  6
Continuous
 62
     7
100
AcDbLine
 10
6315.5187537566
 20
4992.9405797918
 30
0.0
 11
6315.5187537566
 21
4993.0098877409
 31
0.0
  0
LINE
  5
287
330
1F
100
AcDbEntity
  8
0
  6
Continuous
 62
     7
100
AcDbLine
 10
6232.5187569156
 20
4967.6237490673
 30
0.0
 11
6315.5187537566
 21
4967.6237490673
 31
0.0
  0
LINE
  5
288
330
1F
100
AcDbEntity
  8
0
  6
Continuous
 62
     7
100
AcDbLine
 10
6232.5187569156
 20
4965.8850834418
 30
0.0
 11
6315.5187537566
 21
4965.8850834418
 31
0.0
  0
LINE
  5
289
330
1F
100
AcDbEntity
  8
0
  6
Continuous
 62
     7
100
AcDbLine
 10
6232.5187569156
 20
4942.1983745594
 30
0.0
 11
6315.5187537566
 21
4942.1983745594
 31
0.0
  0
LINE
  5
28A
330
1F
100
AcDbEntity
  8
0
  6
Continuous
 62
     7
100
AcDbLine
 10
6271.118755373
 20
4948.5442054171
 30
0.0
 11
6276.9187552992
 21
4948.5442054171
 31
0.0
  0
LINE
  5
28B
330
1F
100
AcDbEntity
  8
0
  6
Continuous
 62
     7
100
AcDbLine
 10
6279.0187552243
 20
4949.0877252717
 30
0.0
 11
6279.0187552243
 21
4958.3534498413
 31
0.0
  0
LINE
  5
28C
330
1F
100
AcDbEntity
  8
0
  6
Continuous
 62
     7
100
AcDbLine
 10
6281.1187553823
 20
4958.8969696958
 30
0.0
 11
6292.918754895
 21
4958.8969696958
 31
0.0
  0
LINE
  5
28D
330
1F
100
AcDbEntity
  8
0
  6
Continuous
 62
     7
100
AcDbLine
 10
6295.018755053
 20
4959.4404895503
 30
0.0
 11
6295.018755053
 21
4961.4592765171
 31
0.0
  0
LINE
  5
28E
330
1F
100
AcDbEntity
  8
0
  6
Continuous
 62
     7
100
AcDbLine
 10
6292.918754895
 20
4962.0027963717
 30
0.0
 11
6255.1187557772
 21
4962.0027963717
 31
0.0
  0
LINE
  5
28F
330
1F
100
AcDbEntity
  8
0
  6
Continuous
 62
     7
100
AcDbLine
 10
6253.0187556192
 20
4961.4592765171
 30
0.0
 11
6253.0187556192
 21
4959.4404895503
 31
0.0
  0
LINE
  5
290
330
1F
100
AcDbEntity
  8
0
  6
Continuous
 62
     7
100
AcDbLine
 10
6255.1187557772
 20
4958.8969696958
 30
0.0
 11
6266.9187552899
 21
4958.8969696958
 31
0.0
  0
LINE
  5
291
330
1F
100
AcDbEntity
  8
0
  6
Continuous
 62
     7
100
AcDbLine
 10
6269.0187554479
 20
4958.3534498413
 30
0.0
 11
6269.0187554479
 21
4949.0877252717
 31
0.0
  0
LINE
  5
292
330
1F
100
AcDbEntity
  8
0
  6
Continuous
 62
     7
100
AcDbLine
 10
6294.9187552229
 20
4960.240689357
 30
0.0
 11
6294.9784045711
 21
4960.3003796835
 31
0.0
  0
LINE
  5
293
330
1F
100
AcDbEntity
  8
0
  6
Continuous
 62
     7
100
AcDbLine
 10
6294.9784045711
 20
4960.3003796835
 30
0.0
 11
6295.018755053
 21
4960.4064126213
 31
0.0
  0
LINE
  5
294
330
1F
100
AcDbEntity
  8
0
  6
Continuous
 62
     7
100
AcDbLine
 10
6253.0187556192
 20
4960.4064126213
 30
0.0
 11
6253.0591061011
 21
4960.3003796835
 31
0.0
  0
LINE
  5
295
330
1F
100
AcDbEntity
  8
0
  6
Continuous
 62
     7
100
AcDbLine
 10
6253.0591061011
 20
4960.3003796835
 30
0.0
 11
6253.1187554493
 21
4960.240689357
 31
0.0
  0
LINE
  5
296
330
1F
100
AcDbEntity
  8
0
  6
Continuous
 62
     7
100
AcDbLine
 10
6279.0187552243
 20
4958.3534498413
 30
0.0
 11
6279.0187552243
 21
4958.5668456454
 31
0.0
  0
LINE
  5
297
330
1F
100
AcDbEntity
  8
0
  6
Continuous
 62
     7
100
AcDbLine
 10
6269.0187554479
 20
4958.5668456454
 30
0.0
 11
6269.0187554479
 21
4958.3534498413
 31
0.0
  0
LINE
  5
298
330
1F
100
AcDbEntity
  8
0
  6
Continuous
 62
     7
100
AcDbLine
 10
6269.118755278
 20
4949.8879288037
 30
0.0
 11
6269.0591063954
 21
4949.9476154048
 31
0.0
  0
LINE
  5
299
330
1F
100
AcDbEntity
  8
0
  6
Continuous
 62
     7
100
AcDbLine
 10
6269.0591063954
 20
4949.9476154048
 30
0.0
 11
6269.0187554479
 21
4950.0536520679
 31
0.0
  0
LINE
  5
29A
330
1F
100
AcDbEntity
  8
0
  6
Continuous
 62
     7
100
AcDbLine
 10
6279.0187552243
 20
4950.0536520679
 30
0.0
 11
6278.9784042768
 21
4949.9476154048
 31
0.0
  0
LINE
  5
29B
330
1F
100
AcDbEntity
  8
0
  6
Continuous
 62
     7
100
AcDbLine
 10
6278.9784042768
 20
4949.9476154048
 30
0.0
 11
6278.9187553942
 21
4949.8879288037
 31
0.0
  0
LINE
  5
29C
330
1F
100
AcDbEntity
  8
0
  6
Continuous
 62
     7
100
AcDbLine
 10
6292.918754895
 20
4961.9769149173
 30
0.0
 11
6255.1187557772
 21
4961.9769149173
 31
0.0
  0
LINE
  5
29D
330
1F
100
AcDbEntity
  8
0
  6
Continuous
 62
     7
100
AcDbLine
 10
6280.9187552564
 20
4958.9228492875
 30
0.0
 11
6292.918754895
 21
4958.9228492875
 31
0.0
  0
LINE
  5
29E
330
1F
100
AcDbEntity
  8
0
  6
Continuous
 62
     7
100
AcDbLine
 10
6278.9187553942
 20
4949.0877252717
 30
0.0
 11
6278.9187553942
 21
4958.4052127499
 31
0.0
  0
LINE
  5
29F
330
1F
100
AcDbEntity
  8
0
  6
Continuous
 62
     7
100
AcDbLine
 10
6271.118755373
 20
4948.5700887341
 30
0.0
 11
6276.9187552992
 21
4948.5700887341
 31
0.0
  0
LINE
  5
2A0
330
1F
100
AcDbEntity
  8
0
  6
Continuous
 62
     7
100
AcDbLine
 10
6269.118755278
 20
4958.4052127499
 30
0.0
 11
6269.118755278
 21
4949.0877252717
 31
0.0
  0
LINE
  5
2A1
330
1F
100
AcDbEntity
  8
0
  6
Continuous
 62
     7
100
AcDbLine
 10
6255.1187557772
 20
4958.9228492875
 30
0.0
 11
6267.1187554158
 21
4958.9228492875
 31
0.0
  0
LINE
  5
2A2
330
1F
100
AcDbEntity
  8
0
  6
Continuous
 62
     7
100
AcDbLine
 10
6253.1187554493
 20
4961.4592765171
 30
0.0
 11
6253.1187554493
 21
4959.4404895503
 31
0.0
  0
LINE
  5
2A3
330
1F
100
AcDbEntity
  8
0
  6
Continuous
 62
     7
100
AcDbLine
 10
6294.9187552229
 20
4959.4404895503
 30
0.0
 11
6294.9187552229
 21
4961.4592765171
 31
0.0
  0
LINE
  5
2A4
330
1F
100
AcDbEntity
  8
0
  6
Continuous
 62
     7
100
AcDbLine
 10
6294.9187552229
 20
4961.6250035067
 30
0.0
 11
6294.9187552229
 21
4961.4592765171
 31
0.0
  0
LINE
  5
2A5
330
1F
100
AcDbEntity
  8
0
  6
Continuous
 62
     7
100
AcDbLine
 10
6253.1187554493
 20
4961.6250035067
 30
0.0
 11
6253.1187554493
 21
4961.4592765171
 31
0.0
  0
LINE
  5
2A6
330
1F
100
AcDbEntity
  8
0
  6
Continuous
 62
     7
100
AcDbLine
 10
6320.718756099
 20
4960.6976185639
 30
0.0
 11
6320.718756099
 21
4960.7871819932
 31
0.0
  0
LINE
  5
2A7
330
1F
100
AcDbEntity
  8
0
  6
Continuous
 62
     7
100
AcDbLine
 10
6320.718756099
 20
4964.0837621589
 30
0.0
 11
6320.718756099
 21
4964.5976193894
 31
0.0
  0
LINE
  5
2A8
330
1F
100
AcDbEntity
  8
0
  6
Continuous
 62
     7
100
AcDbLine
 10
6320.718756099
 20
4962.2233261068
 30
0.0
 11
6320.718756099
 21
4964.0837621589
 31
0.0
  0
LINE
  5
2A9
330
1F
100
AcDbEntity
  8
0
  6
Continuous
 62
     7
100
AcDbLine
 10
6320.718756099
 20
4960.7871819932
 30
0.0
 11
6320.718756099
 21
4962.2233261068
 31
0.0
  0
LINE
  5
2AA
330
1F
100
AcDbEntity
  8
0
  6
Continuous
 62
     7
100
AcDbLine
 10
6227.3187545732
 20
4961.8698724259
 30
0.0
 11
6227.3187545732
 21
4960.710131814
 31
0.0
  0
LINE
  5
2AB
330
1F
100
AcDbEntity
  8
0
  6
Continuous
 62
     7
100
AcDbLine
 10
6227.3187545732
 20
4963.8073605199
 30
0.0
 11
6227.3187545732
 21
4961.8698724259
 31
0.0
  0
LINE
  5
2AC
330
1F
100
AcDbEntity
  8
0
  6
Continuous
 62
     7
100
AcDbLine
 10
6227.3187545732
 20
4964.5976193894
 30
0.0
 11
6227.3187545732
 21
4963.8073605199
 31
0.0
  0
LINE
  5
2AD
330
1F
100
AcDbEntity
  8
0
  6
Continuous
 62
     7
100
AcDbLine
 10
6227.3187545732
 20
4960.710131814
 30
0.0
 11
6227.3187545732
 21
4960.6976185639
 31
0.0
  0
LINE
  5
2AE
330
1F
100
AcDbEntity
  8
0
  6
Continuous
 62
     7
100
AcDbLine
 10
6227.3187545732
 20
4978.4708584372
 30
0.0
 11
6227.3187545732
 21
4976.709780534
 31
0.0
  0
LINE
  5
2AF
330
1F
100
AcDbEntity
  8
0
  6
Continuous
 62
     7
100
AcDbLine
 10
6227.3187545732
 20
4980.0765386496
 30
0.0
 11
6227.3187545732
 21
4978.4708584372
 31
0.0
  0
LINE
  5
2B0
330
1F
100
AcDbEntity
  8
0
  6
Continuous
 62
     7
100
AcDbLine
 10
6227.3187545732
 20
4980.2654620905
 30
0.0
 11
6227.3187545732
 21
4980.0765386496
 31
0.0
  0
LINE
  5
2B1
330
1F
100
AcDbEntity
  8
0
  6
Continuous
 62
     7
100
AcDbLine
 10
6227.3187545732
 20
4976.709780534
 30
0.0
 11
6227.3187545732
 21
4976.365461265
 31
0.0
  0
LINE
  5
2B2
330
1F
100
AcDbEntity
  8
0
  6
Continuous
 62
     7
100
AcDbLine
 10
6320.718756099
 20
4976.365461265
 30
0.0
 11
6320.718756099
 21
4977.0718340475
 31
0.0
  0
LINE
  5
2B3
330
1F
100
AcDbEntity
  8
0
  6
Continuous
 62
     7
100
AcDbLine
 10
6320.718756099
 20
4980.2380132202
 30
0.0
 11
6320.718756099
 21
4980.2654620905
 31
0.0
  0
LINE
  5
2B4
330
1F
100
AcDbEntity
  8
0
  6
Continuous
 62
     7
100
AcDbLine
 10
6320.718756099
 20
4978.9943846587
 30
0.0
 11
6320.718756099
 21
4980.2380132202
 31
0.0
  0
LINE
  5
2B5
330
1F
100
AcDbEntity
  8
0
  6
Continuous
 62
     7
100
AcDbLine
 10
6320.718756099
 20
4977.0718340475
 30
0.0
 11
6320.718756099
 21
4978.9943846587
 31
0.0
  0
LINE
  5
2B6
330
1F
100
AcDbEntity
  8
0
  6
Continuous
 62
     7
100
AcDbLine
 10
6318.518756111
 20
4992.9405797918
 30
0.0
 11
6315.5187537566
 21
4992.9405797918
 31
0.0
  0
LINE
  5
2B7
330
1F
100
AcDbEntity
  8
0
  6
Continuous
 62
     7
100
AcDbLine
 10
6315.5187537566
 20
4966.2425604362
 30
0.0
 11
6318.518756111
 21
4966.2425604362
 31
0.0
  0
LINE
  5
2B8
330
1F
100
AcDbEntity
  8
0
  6
Continuous
 62
     7
100
AcDbLine
 10
6315.5187537566
 20
4992.9405797918
 30
0.0
 11
6315.5187537566
 21
4966.2425604362
 31
0.0
  0
LINE
  5
2B9
330
1F
100
AcDbEntity
  8
0
  6
Continuous
 62
     7
100
AcDbLine
 10
6318.518756111
 20
4992.9405797918
 30
0.0
 11
6318.518756111
 21
4966.2425604362
 31
0.0
  0
LINE
  5
2BA
330
1F
100
AcDbEntity
  8
0
  6
Continuous
 62
     7
100
AcDbLine
 10
6318.518756111
 20
4963.3447837729
 30
0.0
 11
6315.5187537566
 21
4963.3447837729
 31
0.0
  0
LINE
  5
2BB
330
1F
100
AcDbEntity
  8
0
  6
Continuous
 62
     7
100
AcDbLine
 10
6315.5187537566
 20
4963.3447837729
 30
0.0
 11
6315.5187537566
 21
4966.2425604362
 31
0.0
  0
LINE
  5
2BC
330
1F
100
AcDbEntity
  8
0
  6
Continuous
 62
     7
100
AcDbLine
 10
6318.518756111
 20
4966.2425604362
 30
0.0
 11
6318.518756111
 21
4963.3447837729
 31
0.0
  0
LINE
  5
2BD
330
1F
100
AcDbEntity
  8
0
  6
Continuous
 62
     7
100
AcDbLine
 10
6315.5187537566
 20
4938.6934575338
 30
0.0
 11
6318.518756111
 21
4938.6934575338
 31
0.0
  0
LINE
  5
2BE
330
1F
100
AcDbEntity
  8
0
  6
Continuous
 62
     7
100
AcDbLine
 10
6315.5187537566
 20
4963.3447837729
 30
0.0
 11
6315.5187537566
 21
4938.6934575338
 31
0.0
  0
LINE
  5
2BF
330
1F
100
AcDbEntity
  8
0
  6
Continuous
 62
     7
100
AcDbLine
 10
6318.518756111
 20
4963.3447837729
 30
0.0
 11
6318.518756111
 21
4938.6934575338
 31
0.0
  0
LINE
  5
2C0
330
1F
100
AcDbEntity
  8
0
  6
Continuous
 62
     7
100
AcDbLine
 10
6315.5187537566
 20
4938.591235568
 30
0.0
 11
6315.5187537566
 21
4938.6934575338
 31
0.0
  0
LINE
  5
2C1
330
1F
100
AcDbEntity
  8
0
  6
Continuous
 62
     7
100
AcDbLine
 10
6318.518756111
 20
4938.6934575338
 30
0.0
 11
6318.518756111
 21
4938.591235568
 31
0.0
  0
LINE
  5
2C2
330
1F
100
AcDbEntity
  8
0
  6
Continuous
 62
     7
100
AcDbLine
 10
6232.5187569156
 20
4992.9405797918
 30
0.0
 11
6229.5187545612
 21
4992.9405797918
 31
0.0
  0
LINE
  5
2C3
330
1F
100
AcDbEntity
  8
0
  6
Continuous
 62
     7
100
AcDbLine
 10
6229.5187545612
 20
4966.2425604362
 30
0.0
 11
6232.5187569156
 21
4966.2425604362
 31
0.0
  0
LINE
  5
2C4
330
1F
100
AcDbEntity
  8
0
  6
Continuous
 62
     7
100
AcDbLine
 10
6229.5187545612
 20
4992.9405797918
 30
0.0
 11
6229.5187545612
 21
4966.2425604362
 31
0.0
  0
LINE
  5
2C5
330
1F
100
AcDbEntity
  8
0
  6
Continuous
 62
     7
100
AcDbLine
 10
6232.5187569156
 20
4992.9405797918
 30
0.0
 11
6232.5187569156
 21
4966.2425604362
 31
0.0
  0
LINE
  5
2C6
330
1F
100
AcDbEntity
  8
0
  6
Continuous
 62
     7
100
AcDbLine
 10
6232.5187569156
 20
4963.3447837729
 30
0.0
 11
6229.5187545612
 21
4963.3447837729
 31
0.0
  0
LINE
  5
2C7
330
1F
100
AcDbEntity
  8
0
  6
Continuous
 62
     7
100
AcDbLine
 10
6229.5187545612
 20
4963.3447837729
 30
0.0
 11
6229.5187545612
 21
4966.2425604362
 31
0.0
  0
LINE
  5
2C8
330
1F
100
AcDbEntity
  8
0
  6
Continuous
 62
     7
100
AcDbLine
 10
6232.5187569156
 20
4966.2425604362
 30
0.0
 11
6232.5187569156
 21
4963.3447837729
 31
0.0
  0
LINE
  5
2C9
330
1F
100
AcDbEntity
  8
0
  6
Continuous
 62
     7
100
AcDbLine
 10
6229.5187545612
 20
4938.6934575338
 30
0.0
 11
6232.5187569156
 21
4938.6934575338
 31
0.0
  0
LINE
  5
2CA
330
1F
100
AcDbEntity
  8
0
  6
Continuous
 62
     7
100
AcDbLine
 10
6229.5187545612
 20
4963.3447837729
 30
0.0
 11
6229.5187545612
 21
4938.6934575338
 31
0.0
  0
LINE
  5
2CB
330
1F
100
AcDbEntity
  8
0
  6
Continuous
 62
     7
100
AcDbLine
 10
6232.5187569156
 20
4963.3447837729
 30
0.0
 11
6232.5187569156
 21
4938.6934575338
 31
0.0
  0
LINE
  5
2CC
330
1F
100
AcDbEntity
  8
0
  6
Continuous
 62
     7
100
AcDbLine
 10
6229.5187545612
 20
4938.591235568
 30
0.0
 11
6229.5187545612
 21
4938.6934575338
 31
0.0
  0
LINE
  5
2CD
330
1F
100
AcDbEntity
  8
0
  6
Continuous
 62
     7
100
AcDbLine
 10
6232.5187569156
 20
4938.6934575338
 30
0.0
 11
6232.5187569156
 21
4938.591235568
 31
0.0
  0
LINE
  5
2CE
330
1F
100
AcDbEntity
  8
0
  6
Continuous
 62
     7
100
AcDbLine
 10
6258.4633195445
 20
5030.2974146504
 30
0.0
 11
6258.4057544962
 21
5029.7996674378
 31
0.0
  0
LINE
  5
2CF
330
1F
100
AcDbEntity
  8
0
  6
Continuous
 62
     7
100
AcDbLine
 10
6255.9020986453
 20
5025.4842278261
 30
0.0
 11
6255.7052785203
 21
5025.4190948505
 31
0.0
  0
LINE
  5
2D0
330
1F
100
AcDbEntity
  8
0
  6
Continuous
 62
     7
100
AcDbLine
 10
6255.7052785203
 20
5025.7170174916
 30
0.0
 11
6255.9020986453
 21
5025.7821504671
 31
0.0
  0
LINE
  5
2D1
330
1F
100
AcDbEntity
  8
0
  6
Continuous
 62
     7
100
AcDbLine
 10
6255.7052785203
 20
5023.0984792758
 30
0.0
 11
6255.9020986453
 21
5023.1636103887
 31
0.0
  0
LINE
  5
2D2
330
1F
100
AcDbEntity
  8
0
  6
Continuous
 62
     7
100
AcDbLine
 10
6255.9020986453
 20
5029.259917577
 30
0.0
 11
6255.7052785203
 21
5029.4661310215
 31
0.0
  0
LINE
  5
2D3
330
1F
100
AcDbEntity
  8
0
  6
Continuous
 62
     7
100
AcDbLine
 10
6294.8560082957
 20
5011.703781103
 30
0.0
 11
6294.8540245786
 21
5012.227582996
 31
0.0
  0
LINE
  5
2D4
330
1F
100
AcDbEntity
  8
0
  6
Continuous
 62
     7
100
AcDbLine
 10
6251.6182718471
 20
5012.7368078281
 30
0.0
 11
6251.6613026753
 21
5013.1088805098
 31
0.0
  0
LINE
  5
2D5
330
1F
100
AcDbEntity
  8
0
  6
Continuous
 62
     7
100
AcDbLine
 10
6251.6921536669
 20
5012.674742629
 30
0.0
 11
6251.7358755365
 21
5013.0527869512
 31
0.0
  0
LINE
  5
2D6
330
1F
100
AcDbEntity
  8
0
  6
Continuous
 62
     7
100
AcDbLine
 10
6251.9963366583
 20
5012.8682900865
 30
0.0
 11
6251.9501989379
 21
5012.469361787
 31
0.0
  0
LINE
  5
2D7
330
1F
100
AcDbEntity
  8
0
  6
Continuous
 62
     7
100
AcDbLine
 10
6292.918754895
 20
4958.8969696958
 30
0.0
 11
6292.918754895
 21
4958.9228492875
 31
0.0
  0
LINE
  5
2D8
330
1F
100
AcDbEntity
  8
0
  6
Continuous
 62
     7
100
AcDbLine
 10
6255.1187557772
 20
4958.9228492875
 30
0.0
 11
6255.1187557772
 21
4958.8969696958
 31
0.0
  0
LINE
  5
2D9
330
1F
100
AcDbEntity
  8
0
  6
Continuous
 62
     7
100
AcDbLine
 10
6281.1187553823
 20
4958.9228492875
 30
0.0
 11
6281.1187553823
 21
4958.8969696958
 31
0.0
  0
LINE
  5
2DA
330
1F
100
AcDbEntity
  8
0
  6
Continuous
 62
     7
100
AcDbLine
 10
6266.9187552899
 20
4958.8969696958
 30
0.0
 11
6266.9187552899
 21
4958.9228492875
 31
0.0
  0
LINE
  5
2DB
330
1F
100
AcDbEntity
  8
0
  6
Continuous
 62
     7
100
AcDbLine
 10
6271.118755373
 20
4948.5700887341
 30
0.0
 11
6271.118755373
 21
4948.5442054171
 31
0.0
  0
LINE
  5
2DC
330
1F
100
AcDbEntity
  8
0
  6
Continuous
 62
     7
100
AcDbLine
 10
6276.9187552992
 20
4948.5700887341
 30
0.0
 11
6276.9187552992
 21
4948.5442054171
 31
0.0
  0
LINE
  5
2DD
330
1F
100
AcDbEntity
  8
0
  6
Continuous
 62
     7
100
AcDbLine
 10
6255.1187557772
 20
4962.0027963717
 30
0.0
 11
6255.1187557772
 21
4961.9769149173
 31
0.0
  0
LINE
  5
2DE
330
1F
100
AcDbEntity
  8
0
  6
Continuous
 62
     7
100
AcDbLine
 10
6292.918754895
 20
4962.0027963717
 30
0.0
 11
6292.918754895
 21
4961.9769149173
 31
0.0
  0
LINE
  5
2DF
330
1F
100
AcDbEntity
  8
0
  6
Continuous
 62
     7
100
AcDbLine
 10
6464.7407379172
 20
5170.3654111892
 30
0.0
 11
6482.8100461684
 21
5170.0500101846
 31
0.0
  0
LINE
  5
2E0
330
1F
100
AcDbEntity
  8
0
  6
Continuous
 62
     7
100
AcDbLine
 10
6482.8100461684
 20
5240.0349726498
 30
0.0
 11
6441.2407387219
 21
5239.3093829572
 31
0.0
  0
LINE
  5
2E1
330
1F
100
AcDbEntity
  8
0
  6
Continuous
 62
     7
100
AcDbLine
 10
6446.0439939223
 20
5209.7097498894
 30
0.0
 11
6445.9032263778
 21
5209.7220656991
 31
0.0
  0
LINE
  5
2E2
330
1F
100
AcDbEntity
  8
0
  6
Continuous
 62
     7
100
AcDbLine
 10
6461.9472451679
 20
5171.1134338815
 30
0.0
 11
6447.5307386539
 21
5171.1134338815
 31
0.0
  0
LINE
  5
2E3
330
1F
100
AcDbEntity
  8
0
  6
Continuous
 62
     7
100
AcDbLine
 10
6447.5307386539
 20
5171.1134338815
 30
0.0
 11
6447.5307386539
 21
5172.0982714154
 31
0.0
  0
LINE
  5
2E4
330
1F
100
AcDbEntity
  8
0
  6
Continuous
 62
     7
100
AcDbLine
 10
6458.6407389663
 20
5171.5783908561
 30
0.0
 11
6459.5816243611
 21
5171.5783908561
 31
0.0
  0
LINE
  5
2E5
330
1F
100
AcDbEntity
  8
0
  6
Continuous
 62
     7
100
AcDbLine
 10
6454.0407374672
 20
5172.0169310987
 30
0.0
 11
6454.0407374672
 21
5171.5783908561
 31
0.0
  0
LINE
  5
2E6
330
1F
100
AcDbEntity
  8
0
  6
Continuous
 62
     7
100
AcDbLine
 10
6454.0407374672
 20
5171.5783908561
 30
0.0
 11
6456.6407386384
 21
5171.5783908561
 31
0.0
  0
LINE
  5
2E7
330
1F
100
AcDbEntity
  8
0
  6
Continuous
 62
     7
100
AcDbLine
 10
6456.6407386384
 20
5171.5783908561
 30
0.0
 11
6456.6407386384
 21
5171.8720610782
 31
0.0
  0
LINE
  5
2E8
330
1F
100
AcDbEntity
  8
0
  6
Continuous
 62
     7
100
AcDbLine
 10
6449.4407396934
 20
5171.5783908561
 30
0.0
 11
6452.040739002
 21
5171.5783908561
 31
0.0
  0
LINE
  5
2E9
330
1F
100
AcDbEntity
  8
0
  6
Continuous
 62
     7
100
AcDbLine
 10
6452.040739002
 20
5171.5783908561
 30
0.0
 11
6452.040739002
 21
5172.01026702
 31
0.0
  0
LINE
  5
2EA
330
1F
100
AcDbEntity
  8
0
  6
Continuous
 62
     7
100
AcDbLine
 10
6449.4407396934
 20
5172.0705571182
 30
0.0
 11
6449.4407396934
 21
5171.5783908561
 31
0.0
  0
LINE
  5
2EB
330
1F
100
AcDbEntity
  8
0
  6
Continuous
 62
     7
100
AcDbLine
 10
6463.982969167
 20
5231.1134313762
 30
0.0
 11
6463.6488814078
 21
5231.1134313762
 31
0.0
  0
LINE
  5
2EC
330
1F
100
AcDbEntity
  8
0
  6
Continuous
 62
     7
100
AcDbLine
 10
6463.2407386027
 20
5231.9856410444
 30
0.0
 11
6463.2407386027
 21
5231.8098222434
 31
0.0
  0
LINE
  5
2ED
330
1F
100
AcDbEntity
  8
0
  6
Continuous
 62
     7
100
AcDbLine
 10
6463.3956976406
 20
5231.5783923089
 30
0.0
 11
6463.6245217345
 21
5231.5783923089
 31
0.0
  0
LINE
  5
2EE
330
1F
100
AcDbEntity
  8
0
  6
Continuous
 62
     7
100
AcDbLine
 10
6482.1907381931
 20
5206.9924933433
 30
0.0
 11
6468.4907380662
 21
5206.9924933433
 31
0.0
  0
LINE
  5
2EF
330
1F
100
AcDbEntity
  8
0
  6
Continuous
 62
     7
100
AcDbLine
 10
6482.1907381931
 20
5203.0924906552
 30
0.0
 11
6482.1907381931
 21
5206.9924933433
 31
0.0
  0
LINE
  5
2F0
330
1F
100
AcDbEntity
  8
0
  6
Continuous
 62
     7
100
AcDbLine
 10
6482.1907381931
 20
5203.0924906552
 30
0.0
 11
6468.4907380662
 21
5203.0924906552
 31
0.0
  0
LINE
  5
2F1
330
1F
100
AcDbEntity
  8
0
  6
Continuous
 62
     7
100
AcDbLine
 10
6468.4907380662
 20
5203.0924906552
 30
0.0
 11
6468.4907380662
 21
5206.9924933433
 31
0.0
  0
LINE
  5
2F2
330
1F
100
AcDbEntity
  8
0
  6
Continuous
 62
     7
100
AcDbLine
 10
6482.8100461684
 20
5198.5424918651
 30
0.0
 11
6468.4907380662
 21
5198.5424918651
 31
0.0
  0
LINE
  5
2F3
330
1F
100
AcDbEntity
  8
0
  6
Continuous
 62
     7
100
AcDbLine
 10
6482.8100461684
 20
5211.5474409952
 30
0.0
 11
6468.4907380662
 21
5211.5474409952
 31
0.0
  0
LINE
  5
2F4
330
1F
100
AcDbEntity
  8
0
  6
Continuous
 62
     7
100
AcDbLine
 10
6468.4907380662
 20
5206.9924933433
 30
0.0
 11
6468.4907380662
 21
5211.5474409952
 31
0.0
  0
LINE
  5
2F5
330
1F
100
AcDbEntity
  8
0
  6
Continuous
 62
     7
100
AcDbLine
 10
6468.4907380662
 20
5198.5424918651
 30
0.0
 11
6468.4907380662
 21
5203.0924906552
 31
0.0
  0
LINE
  5
2F6
330
1F
100
AcDbEntity
  8
0
  6
Continuous
 62
     7
100
AcDbLine
 10
6441.2407387219
 20
5172.2672035515
 30
0.0
 11
6444.1379416905
 21
5172.2143346973
 31
0.0
  0
LINE
  5
2F7
330
1F
100
AcDbEntity
  8
0
  6
Continuous
 62
     7
100
AcDbLine
 10
6444.1379416905
 20
5172.2143346973
 30
0.0
 11
6454.7407381407
 21
5172.0209143653
 31
0.0
  0
LINE
  5
2F8
330
1F
100
AcDbEntity
  8
0
  6
Continuous
 62
     7
100
AcDbLine
 10
6441.2407387219
 20
5172.2672035515
 30
0.0
 11
6441.2407387219
 21
5195.0424922228
 31
0.0
  0
LINE
  5
2F9
330
1F
100
AcDbEntity
  8
0
  6
Continuous
 62
     7
100
AcDbLine
 10
6454.7407381407
 20
5195.0424922228
 30
0.0
 11
6441.2407387219
 21
5195.0424922228
 31
0.0
  0
LINE
  5
2FA
330
1F
100
AcDbEntity
  8
0
  6
Continuous
 62
     7
100
AcDbLine
 10
6468.4907380662
 20
5198.5424918651
 30
0.0
 11
6462.3400807552
 21
5198.5424918651
 31
0.0
  0
LINE
  5
2FB
330
1F
100
AcDbEntity
  8
0
  6
Continuous
 62
     7
100
AcDbLine
 10
6462.3458666166
 20
5211.5474409952
 30
0.0
 11
6468.4907380662
 21
5211.5474409952
 31
0.0
  0
LINE
  5
2FC
330
1F
100
AcDbEntity
  8
0
  6
Continuous
 62
     7
100
AcDbLine
 10
6441.2407387219
 20
5215.0474406375
 30
0.0
 11
6454.7465240021
 21
5215.0474406375
 31
0.0
  0
LINE
  5
2FD
330
1F
100
AcDbEntity
  8
0
  6
Continuous
 62
     7
100
AcDbLine
 10
6441.2407387219
 20
5215.0474406375
 30
0.0
 11
6441.2407387219
 21
5225.1998534024
 31
0.0
  0
LINE
  5
2FE
330
1F
100
AcDbEntity
  8
0
  6
Continuous
 62
     7
100
AcDbLine
 10
6454.7407381407
 20
5225.3965487301
 30
0.0
 11
6441.2407387219
 21
5225.1998534024
 31
0.0
  0
LINE
  5
2FF
330
1F
100
AcDbEntity
  8
0
  6
Continuous
 62
     7
100
AcDbLine
 10
6441.2407387219
 20
5237.236154598
 30
0.0
 11
6454.7407381407
 21
5237.4328499257
 31
0.0
  0
LINE
  5
300
330
1F
100
AcDbEntity
  8
0
  6
Continuous
 62
     7
100
AcDbLine
 10
6441.2407387219
 20
5237.236154598
 30
0.0
 11
6441.2407387219
 21
5239.3093829572
 31
0.0
  0
LINE
  5
301
330
1F
100
AcDbEntity
  8
0
  6
Continuous
 62
     7
100
AcDbLine
 10
6454.7407381407
 20
5235.6321712553
 30
0.0
 11
6454.7407381407
 21
5237.4328499257
 31
0.0
  0
LINE
  5
302
330
1F
100
AcDbEntity
  8
0
  6
Continuous
 62
     7
100
AcDbLine
 10
6444.7532478891
 20
5229.313114059
 30
0.0
 11
6463.2859450005
 21
5229.313114059
 31
0.0
  0
LINE
  5
303
330
1F
100
AcDbEntity
  8
0
  6
Continuous
 62
     7
100
AcDbLine
 10
6454.7407381407
 20
5235.6321712553
 30
0.0
 11
6441.2407387219
 21
5235.6321712553
 31
0.0
  0
LINE
  5
304
330
1F
100
AcDbEntity
  8
0
  6
Continuous
 62
     7
100
AcDbLine
 10
6455.2407372914
 20
5235.1726715982
 30
0.0
 11
6455.2407372914
 21
5235.6246461689
 31
0.0
  0
LINE
  5
305
330
1F
100
AcDbEntity
  8
0
  6
Continuous
 62
     7
100
AcDbLine
 10
6463.8683065943
 20
5230.5167441785
 30
0.0
 11
6463.5823309592
 21
5231.2498887598
 31
0.0
  0
LINE
  5
306
330
1F
100
AcDbEntity
  8
0
  6
Continuous
 62
     7
100
AcDbLine
 10
6463.5823309592
 20
5231.2498887598
 30
0.0
 11
6463.1345473401
 21
5231.9530969083
 31
0.0
  0
LINE
  5
307
330
1F
100
AcDbEntity
  8
0
  6
Continuous
 62
     7
100
AcDbLine
 10
6463.1345473401
 20
5231.9530969083
 30
0.0
 11
6462.5331513755
 21
5232.6135014713
 31
0.0
  0
LINE
  5
308
330
1F
100
AcDbEntity
  8
0
  6
Continuous
 62
     7
100
AcDbLine
 10
6462.5331513755
 20
5232.6135014713
 30
0.0
 11
6461.7891494356
 21
5233.2190101564
 31
0.0
  0
LINE
  5
309
330
1F
100
AcDbEntity
  8
0
  6
Continuous
 62
     7
100
AcDbLine
 10
6461.7891494356
 20
5233.2190101564
 30
0.0
 11
6460.9161555938
 21
5233.7585439503
 31
0.0
  0
LINE
  5
30A
330
1F
100
AcDbEntity
  8
0
  6
Continuous
 62
     7
100
AcDbLine
 10
6460.9161555938
 20
5233.7585439503
 30
0.0
 11
6459.9301476202
 21
5234.2222308338
 31
0.0
  0
LINE
  5
30B
330
1F
100
AcDbEntity
  8
0
  6
Continuous
 62
     7
100
AcDbLine
 10
6459.9301476202
 20
5234.2222308338
 30
0.0
 11
6458.8491708211
 21
5234.6015845954
 31
0.0
  0
LINE
  5
30C
330
1F
100
AcDbEntity
  8
0
  6
Continuous
 62
     7
100
AcDbLine
 10
6458.8491708211
 20
5234.6015845954
 30
0.0
 11
6457.6930064879
 21
5234.8896612942
 31
0.0
  0
LINE
  5
30D
330
1F
100
AcDbEntity
  8
0
  6
Continuous
 62
     7
100
AcDbLine
 10
6457.6930064879
 20
5234.8896612942
 30
0.0
 11
6456.4828124068
 21
5235.0811933696
 31
0.0
  0
LINE
  5
30E
330
1F
100
AcDbEntity
  8
0
  6
Continuous
 62
     7
100
AcDbLine
 10
6456.4828124068
 20
5235.0811933696
 30
0.0
 11
6455.2407372914
 21
5235.1726715982
 31
0.0
  0
LINE
  5
30F
330
1F
100
AcDbEntity
  8
0
  6
Continuous
 62
     7
100
AcDbLine
 10
6463.8683065943
 20
5230.5167441785
 30
0.0
 11
6464.1120858661
 21
5230.5167441785
 31
0.0
  0
LINE
  5
310
330
1F
100
AcDbEntity
  8
0
  6
Continuous
 62
     7
100
AcDbLine
 10
6444.7532478891
 20
5229.9149272561
 30
0.0
 11
6463.7381784789
 21
5229.9149272561
 31
0.0
  0
LINE
  5
311
330
1F
100
AcDbEntity
  8
0
  6
Continuous
 62
     7
100
AcDbLine
 10
6444.8538791559
 20
5228.7112971365
 30
0.0
 11
6445.6131715498
 21
5228.7112971365
 31
0.0
  0
LINE
  5
312
330
1F
100
AcDbEntity
  8
0
  6
Continuous
 62
     7
100
AcDbLine
 10
6444.8538791559
 20
5230.5167441785
 30
0.0
 11
6445.6131715498
 21
5230.5167441785
 31
0.0
  0
LINE
  5
313
330
1F
100
AcDbEntity
  8
0
  6
Continuous
 62
     7
100
AcDbLine
 10
6454.2407389901
 20
5235.1726715982
 30
0.0
 11
6452.9986638747
 21
5235.0811933696
 31
0.0
  0
LINE
  5
314
330
1F
100
AcDbEntity
  8
0
  6
Continuous
 62
     7
100
AcDbLine
 10
6452.9986638747
 20
5235.0811933696
 30
0.0
 11
6451.7884697936
 21
5234.8896612942
 31
0.0
  0
LINE
  5
315
330
1F
100
AcDbEntity
  8
0
  6
Continuous
 62
     7
100
AcDbLine
 10
6451.7884697936
 20
5234.8896612942
 30
0.0
 11
6450.632307323
 21
5234.6015845954
 31
0.0
  0
LINE
  5
316
330
1F
100
AcDbEntity
  8
0
  6
Continuous
 62
     7
100
AcDbLine
 10
6450.632307323
 20
5234.6015845954
 30
0.0
 11
6449.5513286612
 21
5234.2222308338
 31
0.0
  0
LINE
  5
317
330
1F
100
AcDbEntity
  8
0
  6
Continuous
 62
     7
100
AcDbLine
 10
6449.5513286612
 20
5234.2222308338
 30
0.0
 11
6448.565318825
 21
5233.7585439503
 31
0.0
  0
LINE
  5
318
330
1F
100
AcDbEntity
  8
0
  6
Continuous
 62
     7
100
AcDbLine
 10
6448.565318825
 20
5233.7585439503
 30
0.0
 11
6447.6923268459
 21
5233.2190101564
 31
0.0
  0
LINE
  5
319
330
1F
100
AcDbEntity
  8
0
  6
Continuous
 62
     7
100
AcDbLine
 10
6447.6923268459
 20
5233.2190101564
 30
0.0
 11
6446.9483230434
 21
5232.6135014713
 31
0.0
  0
LINE
  5
31A
330
1F
100
AcDbEntity
  8
0
  6
Continuous
 62
     7
100
AcDbLine
 10
6446.9483230434
 20
5232.6135014713
 30
0.0
 11
6446.3469308041
 21
5231.9530969083
 31
0.0
  0
LINE
  5
31B
330
1F
100
AcDbEntity
  8
0
  6
Continuous
 62
     7
100
AcDbLine
 10
6446.3469308041
 20
5231.9530969083
 30
0.0
 11
6445.8991471849
 21
5231.2498887598
 31
0.0
  0
LINE
  5
31C
330
1F
100
AcDbEntity
  8
0
  6
Continuous
 62
     7
100
AcDbLine
 10
6445.8991471849
 20
5231.2498887598
 30
0.0
 11
6445.6131715498
 21
5230.5167441785
 31
0.0
  0
LINE
  5
31D
330
1F
100
AcDbEntity
  8
0
  6
Continuous
 62
     7
100
AcDbLine
 10
6454.2407389901
 20
5235.1726715982
 30
0.0
 11
6454.2407389901
 21
5235.6246461689
 31
0.0
  0
LINE
  5
31E
330
1F
100
AcDbEntity
  8
0
  6
Continuous
 62
     7
100
AcDbLine
 10
6454.2407389901
 20
5235.6246461689
 30
0.0
 11
6452.8812091968
 21
5235.5272074759
 31
0.0
  0
LINE
  5
31F
330
1F
100
AcDbEntity
  8
0
  6
Continuous
 62
     7
100
AcDbLine
 10
6452.8812091968
 20
5235.5272074759
 30
0.0
 11
6451.5565369449
 21
5235.3189264953
 31
0.0
  0
LINE
  5
320
330
1F
100
AcDbEntity
  8
0
  6
Continuous
 62
     7
100
AcDbLine
 10
6451.5565369449
 20
5235.3189264953
 30
0.0
 11
6450.2915550194
 21
5235.0036998808
 31
0.0
  0
LINE
  5
321
330
1F
100
AcDbEntity
  8
0
  6
Continuous
 62
     7
100
AcDbLine
 10
6450.2915550194
 20
5235.0036998808
 30
0.0
 11
6449.1099748931
 21
5234.587450844
 31
0.0
  0
LINE
  5
322
330
1F
100
AcDbEntity
  8
0
  6
Continuous
 62
     7
100
AcDbLine
 10
6449.1099748931
 20
5234.587450844
 30
0.0
 11
6448.0339434169
 21
5234.0779652417
 31
0.0
  0
LINE
  5
323
330
1F
100
AcDbEntity
  8
0
  6
Continuous
 62
     7
100
AcDbLine
 10
6448.0339434169
 20
5234.0779652417
 30
0.0
 11
6447.0836330376
 21
5233.4848096192
 31
0.0
  0
LINE
  5
324
330
1F
100
AcDbEntity
  8
0
  6
Continuous
 62
     7
100
AcDbLine
 10
6447.0836330376
 20
5233.4848096192
 30
0.0
 11
6446.2768580935
 21
5232.8190853417
 31
0.0
  0
LINE
  5
325
330
1F
100
AcDbEntity
  8
0
  6
Continuous
 62
     7
100
AcDbLine
 10
6446.2768580935
 20
5232.8190853417
 30
0.0
 11
6445.6287432633
 21
5232.0932870328
 31
0.0
  0
LINE
  5
326
330
1F
100
AcDbEntity
  8
0
  6
Continuous
 62
     7
100
AcDbLine
 10
6445.6287432633
 20
5232.0932870328
 30
0.0
 11
6445.1514329932
 21
5231.3210120022
 31
0.0
  0
LINE
  5
327
330
1F
100
AcDbEntity
  8
0
  6
Continuous
 62
     7
100
AcDbLine
 10
6445.1514329932
 20
5231.3210120022
 30
0.0
 11
6444.8538791559
 21
5230.5167441785
 31
0.0
  0
LINE
  5
328
330
1F
100
AcDbEntity
  8
0
  6
Continuous
 62
     7
100
AcDbLine
 10
6441.2407387219
 20
5235.6321712553
 30
0.0
 11
6441.2407387219
 21
5225.1998534024
 31
0.0
  0
LINE
  5
329
330
1F
100
AcDbEntity
  8
0
  6
Continuous
 62
     7
100
AcDbLine
 10
6441.2407387219
 20
5215.0474406375
 30
0.0
 11
6441.2407387219
 21
5195.0424922228
 31
0.0
  0
LINE
  5
32A
330
1F
100
AcDbEntity
  8
0
  6
Continuous
 62
     7
100
AcDbLine
 10
6444.7532478891
 20
5229.313114059
 30
0.0
 11
6444.7532478891
 21
5229.9149272561
 31
0.0
  0
LINE
  5
32B
330
1F
100
AcDbEntity
  8
0
  6
Continuous
 62
     7
100
AcDbLine
 10
6441.2407387219
 20
5237.236154598
 30
0.0
 11
6441.2407387219
 21
5235.6321712553
 31
0.0
  0
LINE
  5
32C
330
1F
100
AcDbEntity
  8
0
  6
Continuous
 62
     7
100
AcDbLine
 10
6482.8100461684
 20
5246.5424960077
 30
0.0
 11
6482.7407382192
 21
5246.5424960077
 31
0.0
  0
LINE
  5
32D
330
1F
100
AcDbEntity
  8
0
  6
Continuous
 62
     7
100
AcDbLine
 10
6482.7407382192
 20
5260.7424905121
 30
0.0
 11
6482.7407382192
 21
5246.5424960077
 31
0.0
  0
LINE
  5
32E
330
1F
100
AcDbEntity
  8
0
  6
Continuous
 62
     7
100
AcDbLine
 10
6482.8100461684
 20
5261.2371718108
 30
0.0
 11
6482.7753247129
 21
5261.0936512768
 31
0.0
  0
LINE
  5
32F
330
1F
100
AcDbEntity
  8
0
  6
Continuous
 62
     7
100
AcDbLine
 10
6482.7753247129
 20
5261.0936512768
 30
0.0
 11
6482.7407382192
 21
5260.7424905121
 31
0.0
  0
LINE
  5
330
330
1F
100
AcDbEntity
  8
0
  6
Continuous
 62
     7
100
AcDbLine
 10
6496.4849330656
 20
5165.8424923492
 30
0.0
 11
6496.6907385908
 21
5165.8424923492
 31
0.0
  0
LINE
  5
331
330
1F
100
AcDbEntity
  8
0
  6
Continuous
 62
     7
100
AcDbLine
 10
6494.857711362
 20
5165.8424923492
 30
0.0
 11
6496.4849330656
 21
5165.8424923492
 31
0.0
  0
LINE
  5
332
330
1F
100
AcDbEntity
  8
0
  6
Continuous
 62
     7
100
AcDbLine
 10
6493.1135164745
 20
5165.8424923492
 30
0.0
 11
6494.857711362
 21
5165.8424923492
 31
0.0
  0
LINE
  5
333
330
1F
100
AcDbEntity
  8
0
  6
Continuous
 62
     7
100
AcDbLine
 10
6492.7907377652
 20
5165.8424923492
 30
0.0
 11
6493.1135164745
 21
5165.8424923492
 31
0.0
  0
LINE
  5
334
330
1F
100
AcDbEntity
  8
0
  6
Continuous
 62
     7
100
AcDbLine
 10
6482.8100461684
 20
5265.5424898088
 30
0.0
 11
6509.5080655239
 21
5265.5424898088
 31
0.0
  0
LINE
  5
335
330
1F
100
AcDbEntity
  8
0
  6
Continuous
 62
     7
100
AcDbLine
 10
6512.4058421872
 20
5263.318945986
 30
0.0
 11
6537.0571684263
 21
5171.3189495325
 31
0.0
  0
LINE
  5
336
330
1F
100
AcDbEntity
  8
0
  6
Continuous
 62
     7
100
AcDbLine
 10
6534.159391763
 20
5167.5424923718
 30
0.0
 11
6482.8100461684
 21
5167.5424923718
 31
0.0
  0
LINE
  5
337
330
1F
100
AcDbEntity
  8
0
  6
Continuous
 62
     7
100
AcDbLine
 10
6482.8100461684
 20
5167.5424923718
 30
0.0
 11
6482.8100461684
 21
5265.5424898088
 31
0.0
  0
LINE
  5
338
330
1F
100
AcDbEntity
  8
0
  6
Continuous
 62
     7
100
AcDbLine
 10
6482.8100461684
 20
5260.7424905121
 30
0.0
 11
6482.7407382192
 21
5260.7424905121
 31
0.0
  0
LWPOLYLINE
  5
339
330
1F
100
AcDbEntity
  8
0
  6
Continuous
 62
     7
100
AcDbPolyline
 90
        3
 70
   128
 43
0.0
 10
6293.4494018555
 20
5180.1713149592
 10
6293.392440478
 20
5180.2014237175
 10
6293.3680696085
 20
5180.2472950488
  0
LWPOLYLINE
  5
33A
330
1F
100
AcDbEntity
  8
0
  6
Continuous
 62
     7
100
AcDbPolyline
 90
        3
 70
   128
 43
0.0
 10
6295.036315918
 20
5180.2841996372
 10
6295.0237717126
 20
5180.2247821848
 10
6294.9929630056
 20
5180.1872349873
  0
LWPOLYLINE
  5
33B
330
1F
100
AcDbEntity
  8
0
  6
Continuous
 62
     7
100
AcDbPolyline
 90
        3
 70
   128
 43
0.0
 10
6295.0325012207
 20
5180.3008423716
 10
6295.0370803292
 20
5180.2917916862
 10
6295.0379123583
 20
5180.2841996372
  0
LWPOLYLINE
  5
33C
330
1F
100
AcDbEntity
  8
0
  6
Continuous
 62
     7
100
AcDbPolyline
 90
        3
 70
   128
 43
0.0
 10
6295.0325012207
 20
5180.3167623997
 10
6295.0341530812
 20
5180.3078393667
 10
6295.0334177956
 20
5180.3008423716
  0
LWPOLYLINE
  5
33D
330
1F
100
AcDbEntity
  8
0
  6
Continuous
 62
     7
100
AcDbPolyline
 90
        3
 70
   128
 43
0.0
 10
6294.9485778809
 20
5180.4028724849
 10
6295.008086954
 20
5180.364697036
 10
6295.0334177956
 20
5180.3167623997
  0
LWPOLYLINE
  5
33E
330
1F
100
AcDbEntity
  8
0
  6
Continuous
 62
     7
100
AcDbPolyline
 90
        3
 70
   128
 43
0.0
 10
6293.4608459473
 20
5183.5057450056
 10
6293.5378280049
 20
5183.4962096297
 10
6293.5913150802
 20
5183.4681158483
  0
LWPOLYLINE
  5
33F
330
1F
100
AcDbEntity
  8
0
  6
Continuous
 62
     7
100
AcDbPolyline
 90
        3
 70
   128
 43
0.0
 10
6293.3654785156
 20
5183.4297639847
 10
6293.4082168045
 20
5183.4860654299
 10
6293.4609634474
 20
5183.5057450056
  0
LWPOLYLINE
  5
340
330
1F
100
AcDbEntity
  8
0
  6
Continuous
 62
     7
100
AcDbPolyline
 90
        3
 70
   128
 43
0.0
 10
6295.9060668945
 20
5181.6959775582
 10
6296.0684725189
 20
5182.1242211768
 10
6296.3571549997
 20
5182.3537455469
  0
LWPOLYLINE
  5
341
330
1F
100
AcDbEntity
  8
0
  6
Continuous
 62
     7
100
AcDbPolyline
 90
        3
 70
   128
 43
0.0
 10
6296.1692810059
 20
5180.3507724374
 10
6295.9594107411
 20
5180.6676714798
 10
6295.9091664895
 20
5180.9607822046
  0
LWPOLYLINE
  5
342
330
1F
100
AcDbEntity
  8
0
  6
Continuous
 62
     7
100
AcDbPolyline
 90
        3
 70
   128
 43
0.0
 10
6296.760559082
 20
5180.1250040129
 10
6296.4066959038
 20
5180.1948955753
 10
6296.1728648886
 20
5180.3507724374
  0
LWPOLYLINE
  5
343
330
1F
100
AcDbEntity
  8
0
  6
Continuous
 62
     7
100
AcDbPolyline
 90
        3
 70
   128
 43
0.0
 10
6297.061920166
 20
5180.1828931615
 10
6296.8970673577
 20
5180.1368166536
 10
6296.7609429404
 20
5180.1250040129
  0
LWPOLYLINE
  5
344
330
1F
100
AcDbEntity
  8
0
  6
Continuous
 62
     7
100
AcDbPolyline
 90
        3
 70
   128
 43
0.0
 10
6297.5845336914
 20
5180.8601993665
 10
6297.395482668
 20
5180.4076156456
 10
6297.0643454835
 20
5180.1828931615
  0
LWPOLYLINE
  5
345
330
1F
100
AcDbEntity
  8
0
  6
Continuous
 62
     7
100
AcDbPolyline
 90
        3
 70
   128
 43
0.0
 10
6297.5196838379
 20
5181.9412832677
 10
6297.5726065759
 20
5181.7740637734
 10
6297.5872477189
 20
5181.6380874783
  0
LWPOLYLINE
  5
346
330
1F
100
AcDbEntity
  8
0
  6
Continuous
 62
     7
100
AcDbPolyline
 90
        3
 70
   128
 43
0.0
 10
6296.745300293
 20
5182.4405792698
 10
6297.2642467405
 20
5182.2733443319
 10
6297.5228225484
 20
5181.9412832677
  0
LWPOLYLINE
  5
347
330
1F
100
AcDbEntity
  8
0
  6
Continuous
 62
     7
100
AcDbPolyline
 90
        3
 70
   128
 43
0.0
 10
6296.3562011719
 20
5182.3537455469
 10
6296.5697864639
 20
5182.4251928256
 10
6296.7459598228
 20
5182.4405792698
  0
LWPOLYLINE
  5
348
330
1F
100
AcDbEntity
  8
0
  6
Continuous
 62
     7
100
AcDbPolyline
 90
        3
 70
   128
 43
0.0
 10
6300.9910583496
 20
5181.6959775582
 10
6301.1506642754
 20
5182.1242210145
 10
6301.4393468991
 20
5182.3537455469
  0
LWPOLYLINE
  5
349
330
1F
100
AcDbEntity
  8
0
  6
Continuous
 62
     7
100
AcDbPolyline
 90
        3
 70
   128
 43
0.0
 10
6301.2542724609
 20
5180.3507724374
 10
6301.0416009839
 20
5180.6676709296
 10
6300.991358389
 20
5180.9607822046
  0
LWPOLYLINE
  5
34A
330
1F
100
AcDbEntity
  8
0
  6
Continuous
 62
     7
100
AcDbPolyline
 90
        3
 70
   128
 43
0.0
 10
6301.8417358398
 20
5180.1250040129
 10
6301.4888878032
 20
5180.1948955753
 10
6301.255056788
 20
5180.3507724374
  0
LWPOLYLINE
  5
34B
330
1F
100
AcDbEntity
  8
0
  6
Continuous
 62
     7
100
AcDbPolyline
 90
        3
 70
   128
 43
0.0
 10
6302.1430969238
 20
5180.1828931615
 10
6301.9792592571
 20
5180.1368166536
 10
6301.8431348398
 20
5180.1250040129
  0
LWPOLYLINE
  5
34C
330
1F
100
AcDbEntity
  8
0
  6
Continuous
 62
     7
100
AcDbPolyline
 90
        3
 70
   128
 43
0.0
 10
6302.6657104492
 20
5180.8601993665
 10
6302.4776745674
 20
5180.4076156456
 10
6302.1465373829
 20
5180.1828931615
  0
LWPOLYLINE
  5
34D
330
1F
100
AcDbEntity
  8
0
  6
Continuous
 62
     7
100
AcDbPolyline
 90
        3
 70
   128
 43
0.0
 10
6302.604675293
 20
5181.9412832677
 10
6302.6547984753
 20
5181.7740637734
 10
6302.6694396183
 20
5181.6380874783
  0
LWPOLYLINE
  5
34E
330
1F
100
AcDbEntity
  8
0
  6
Continuous
 62
     7
100
AcDbPolyline
 90
        3
 70
   128
 43
0.0
 10
6301.8264770508
 20
5182.4405792698
 10
6302.3464386399
 20
5182.2733443319
 10
6302.6050144479
 20
5181.9412832677
  0
LWPOLYLINE
  5
34F
330
1F
100
AcDbEntity
  8
0
  6
Continuous
 62
     7
100
AcDbPolyline
 90
        3
 70
   128
 43
0.0
 10
6301.4373779297
 20
5182.3537455469
 10
6301.6519783633
 20
5182.4251928256
 10
6301.8281517222
 20
5182.4405792698
  0
LWPOLYLINE
  5
350
330
1F
100
AcDbEntity
  8
0
  6
Continuous
 62
     7
100
AcDbPolyline
 90
        3
 70
   128
 43
0.0
 10
6298.4466552734
 20
5181.7893240198
 10
6298.6305517749
 20
5182.2011174948
 10
6298.9394535914
 20
5182.3978855803
  0
LWPOLYLINE
  5
351
330
1F
100
AcDbEntity
  8
0
  6
Continuous
 62
     7
100
AcDbPolyline
 90
        3
 70
   128
 43
0.0
 10
6298.4619140625
 20
5180.7371837616
 10
6298.4527406868
 20
5180.8479446499
 10
6298.4502615079
 20
5180.9354548871
  0
LWPOLYLINE
  5
352
330
1F
100
AcDbEntity
  8
0
  6
Continuous
 62
     7
100
AcDbPolyline
 90
        3
 70
   128
 43
0.0
 10
6298.6907958984
 20
5180.3507724374
 10
6298.5325339578
 20
5180.5503286844
 10
6298.4652446255
 20
5180.7371837616
  0
LWPOLYLINE
  5
353
330
1F
100
AcDbEntity
  8
0
  6
Continuous
 62
     7
100
AcDbPolyline
 90
        3
 70
   128
 43
0.0
 10
6299.1142272949
 20
5180.1713149592
 10
6298.8594317588
 20
5180.2331619529
 10
6298.6914870933
 20
5180.3507724374
  0
LWPOLYLINE
  5
354
330
1F
100
AcDbEntity
  8
0
  6
Continuous
 62
     7
100
AcDbPolyline
 90
        3
 70
   128
 43
0.0
 10
6299.8886108398
 20
5179.999817495
 10
6299.8893634959
 20
5180.0585726272
 10
6299.8893672273
 20
5180.1047421589
  0
LWPOLYLINE
  5
355
330
1F
100
AcDbEntity
  8
0
  6
Continuous
 62
     7
100
AcDbPolyline
 90
        3
 70
   128
 43
0.0
 10
6299.8504638672
 20
5179.6662307873
 10
6299.8834453357
 20
5179.7929771988
 10
6299.8886184439
 20
5179.8948937625
  0
LWPOLYLINE
  5
356
330
1F
100
AcDbEntity
  8
0
  6
Continuous
 62
     7
100
AcDbPolyline
 90
        3
 70
   128
 43
0.0
 10
6299.4194030762
 20
5179.3377076804
 10
6299.7109052481
 20
5179.4655638569
 10
6299.854157646
 20
5179.6662307873
  0
LWPOLYLINE
  5
357
330
1F
100
AcDbEntity
  8
0
  6
Continuous
 62
     7
100
AcDbPolyline
 90
        3
 70
   128
 43
0.0
 10
6298.6335754395
 20
5179.1958793595
 10
6298.6461704259
 20
5179.2749195901
 10
6298.6877413139
 20
5179.3217885837
  0
LWPOLYLINE
  5
358
330
1F
100
AcDbEntity
  8
0
  6
Continuous
 62
     7
100
AcDbPolyline
 90
        3
 70
   128
 43
0.0
 10
6298.7174987793
 20
5179.1061501548
 10
6298.6539317938
 20
5179.1415587733
 10
6298.6338028356
 20
5179.1958793595
  0
LWPOLYLINE
  5
359
330
1F
100
AcDbEntity
  8
0
  6
Continuous
 62
     7
100
AcDbPolyline
 90
        3
 70
   128
 43
0.0
 10
6299.6063232422
 20
5179.1394365549
 10
6299.4472372556
 20
5179.1106807093
 10
6299.3185205057
 20
5179.1061501548
  0
LWPOLYLINE
  5
35A
330
1F
100
AcDbEntity
  8
0
  6
Continuous
 62
     7
100
AcDbPolyline
 90
        3
 70
   128
 43
0.0
 10
6300.1251220703
 20
5179.7479990467
 10
6299.9325608185
 20
5179.3305885509
 10
6299.6084393606
 20
5179.1394365549
  0
LWPOLYLINE
  5
35B
330
1F
100
AcDbEntity
  8
0
  6
Continuous
 62
     7
100
AcDbPolyline
 90
        3
 70
   128
 43
0.0
 10
6300.0450134277
 20
5182.4405792698
 10
6300.105709692
 20
5182.4132250416
 10
6300.1283445999
 20
5182.368941006
  0
LWPOLYLINE
  5
35C
330
1F
100
AcDbEntity
  8
0
  6
Continuous
 62
     7
100
AcDbPolyline
 90
        3
 70
   128
 43
0.0
 10
6298.9387512207
 20
5182.3978855803
 10
6299.0750334091
 20
5182.4308584353
 10
6299.1844230935
 20
5182.4405792698
  0
LWPOLYLINE
  5
35D
330
1F
100
AcDbEntity
  8
0
  6
Continuous
 62
     7
100
AcDbPolyline
 90
        3
 70
   128
 43
0.0
 10
6300.0450134277
 20
5182.4379911244
 10
6300.105709692
 20
5182.4106368961
 10
6300.1283445999
 20
5182.3663528606
  0
LWPOLYLINE
  5
35E
330
1F
100
AcDbEntity
  8
0
  6
Continuous
 62
     7
100
AcDbPolyline
 90
        3
 70
   128
 43
0.0
 10
6298.6335754395
 20
5179.1932912141
 10
6298.6461703844
 20
5179.2723313321
 10
6298.6877413139
 20
5179.3192004382
  0
LWPOLYLINE
  5
35F
330
1F
100
AcDbEntity
  8
0
  6
Continuous
 62
     7
100
AcDbPolyline
 90
        3
 70
   128
 43
0.0
 10
6299.4194030762
 20
5179.335119535
 10
6299.7109049504
 20
5179.4629754324
 10
6299.854157646
 20
5179.6636417106
  0
LWPOLYLINE
  5
360
330
1F
100
AcDbEntity
  8
0
  6
Continuous
 62
     7
100
AcDbPolyline
 90
        3
 70
   128
 43
0.0
 10
6299.8504638672
 20
5179.6636417106
 10
6299.883445288
 20
5179.7903886845
 10
6299.8886184439
 20
5179.892305617
  0
LWPOLYLINE
  5
361
330
1F
100
AcDbEntity
  8
0
  6
Continuous
 62
     7
100
AcDbPolyline
 90
        3
 70
   128
 43
0.0
 10
6299.8886108398
 20
5179.9972293496
 10
6299.8892674675
 20
5180.0412468887
 10
6299.889415656
 20
5180.0755107373
  0
LWPOLYLINE
  5
362
330
1F
100
AcDbEntity
  8
0
  6
Continuous
 62
     7
100
AcDbPolyline
 90
        3
 70
   128
 43
0.0
 10
6298.4466552734
 20
5181.7867358744
 10
6298.6305522346
 20
5182.1985297923
 10
6298.9394535914
 20
5182.3952974349
  0
LWPOLYLINE
  5
363
330
1F
100
AcDbEntity
  8
0
  6
Continuous
 62
     7
100
AcDbPolyline
 90
        3
 70
   128
 43
0.0
 10
6298.9387512207
 20
5182.3952974349
 10
6299.0750335496
 20
5182.4282693804
 10
6299.1844230935
 20
5182.4379911244
  0
LWPOLYLINE
  5
364
330
1F
100
AcDbEntity
  8
0
  6
Continuous
 62
     7
100
AcDbPolyline
 90
        3
 70
   128
 43
0.0
 10
6298.6869812012
 20
5180.8641230285
 10
6298.7125349756
 20
5180.7544000038
 10
6298.7431773588
 20
5180.6716410041
  0
LWPOLYLINE
  5
365
330
1F
100
AcDbEntity
  8
0
  6
Continuous
 62
     7
100
AcDbPolyline
 90
        3
 70
   128
 43
0.0
 10
6298.7403869629
 20
5180.6716410041
 10
6298.9297357432
 20
5180.4681222168
 10
6299.1394737408
 20
5180.4002843395
  0
LWPOLYLINE
  5
366
330
1F
100
AcDbEntity
  8
0
  6
Continuous
 62
     7
100
AcDbPolyline
 90
        3
 70
   128
 43
0.0
 10
6302.604675293
 20
5181.9386951223
 10
6302.6547984753
 20
5181.7714756279
 10
6302.6694396183
 20
5181.6354993328
  0
LWPOLYLINE
  5
367
330
1F
100
AcDbEntity
  8
0
  6
Continuous
 62
     7
100
AcDbPolyline
 90
        3
 70
   128
 43
0.0
 10
6300.9910583496
 20
5181.6933884814
 10
6301.150664035
 20
5182.1216325771
 10
6301.4393468991
 20
5182.3511574015
  0
LWPOLYLINE
  5
368
330
1F
100
AcDbEntity
  8
0
  6
Continuous
 62
     7
100
AcDbPolyline
 90
        3
 70
   128
 43
0.0
 10
6301.4373779297
 20
5182.3511574015
 10
6301.6519783633
 20
5182.4226046802
 10
6301.8281517222
 20
5182.4379911244
  0
LWPOLYLINE
  5
369
330
1F
100
AcDbEntity
  8
0
  6
Continuous
 62
     7
100
AcDbPolyline
 90
        3
 70
   128
 43
0.0
 10
6301.8264770508
 20
5182.4379911244
 10
6302.3464386399
 20
5182.2707561864
 10
6302.6050144479
 20
5181.9386951223
  0
LWPOLYLINE
  5
36A
330
1F
100
AcDbEntity
  8
0
  6
Continuous
 62
     7
100
AcDbPolyline
 90
        3
 70
   128
 43
0.0
 10
6301.2275695801
 20
5180.8995803416
 10
6301.3272023509
 20
5180.6171502024
 10
6301.5030232862
 20
5180.4523853183
  0
LWPOLYLINE
  5
36B
330
1F
100
AcDbEntity
  8
0
  6
Continuous
 62
     7
100
AcDbPolyline
 90
        3
 70
   128
 43
0.0
 10
6301.5022277832
 20
5180.4523853183
 10
6301.6776895273
 20
5180.3728575472
 10
6301.8281517222
 20
5180.3539733931
  0
LWPOLYLINE
  5
36C
330
1F
100
AcDbEntity
  8
0
  6
Continuous
 62
     7
100
AcDbPolyline
 90
        3
 70
   128
 43
0.0
 10
6301.8264770508
 20
5180.3539733931
 10
6302.2654855215
 20
5180.5378807946
 10
6302.4297134623
 20
5180.8662939414
  0
LWPOLYLINE
  5
36D
330
1F
100
AcDbEntity
  8
0
  6
Continuous
 62
     7
100
AcDbPolyline
 90
        3
 70
   128
 43
0.0
 10
6297.5196838379
 20
5181.9386951223
 10
6297.5726065759
 20
5181.7714756279
 10
6297.5872477189
 20
5181.6354993328
  0
LWPOLYLINE
  5
36E
330
1F
100
AcDbEntity
  8
0
  6
Continuous
 62
     7
100
AcDbPolyline
 90
        3
 70
   128
 43
0.0
 10
6295.9060668945
 20
5181.6933884814
 10
6296.0684722786
 20
5182.1216327394
 10
6296.3571549997
 20
5182.3511574015
  0
LWPOLYLINE
  5
36F
330
1F
100
AcDbEntity
  8
0
  6
Continuous
 62
     7
100
AcDbPolyline
 90
        3
 70
   128
 43
0.0
 10
6296.3562011719
 20
5182.3511574015
 10
6296.5697864639
 20
5182.4226046802
 10
6296.7459598228
 20
5182.4379911244
  0
LWPOLYLINE
  5
370
330
1F
100
AcDbEntity
  8
0
  6
Continuous
 62
     7
100
AcDbPolyline
 90
        3
 70
   128
 43
0.0
 10
6296.745300293
 20
5182.4379911244
 10
6297.2642467405
 20
5182.2707561864
 10
6297.5228225484
 20
5181.9386951223
  0
LWPOLYLINE
  5
371
330
1F
100
AcDbEntity
  8
0
  6
Continuous
 62
     7
100
AcDbPolyline
 90
        3
 70
   128
 43
0.0
 10
6296.1463928223
 20
5180.8995803416
 10
6296.2450104514
 20
5180.6171502024
 10
6296.4208313867
 20
5180.4523853183
  0
LWPOLYLINE
  5
372
330
1F
100
AcDbEntity
  8
0
  6
Continuous
 62
     7
100
AcDbPolyline
 90
        3
 70
   128
 43
0.0
 10
6296.4172363281
 20
5180.4523853183
 10
6296.5954976279
 20
5180.3728575472
 10
6296.7459598228
 20
5180.3539733931
  0
LWPOLYLINE
  5
373
330
1F
100
AcDbEntity
  8
0
  6
Continuous
 62
     7
100
AcDbPolyline
 90
        3
 70
   128
 43
0.0
 10
6296.745300293
 20
5180.3539733931
 10
6297.183293622
 20
5180.5378807946
 10
6297.3475215629
 20
5180.8662939414
  0
LWPOLYLINE
  5
374
330
1F
100
AcDbEntity
  8
0
  6
Continuous
 62
     7
100
AcDbPolyline
 90
        3
 70
   128
 43
0.0
 10
6294.9485778809
 20
5180.4002843395
 10
6295.008086954
 20
5180.3621088905
 10
6295.0334177956
 20
5180.3141742542
  0
LWPOLYLINE
  5
375
330
1F
100
AcDbEntity
  8
0
  6
Continuous
 62
     7
100
AcDbPolyline
 90
        3
 70
   128
 43
0.0
 10
6295.0325012207
 20
5180.2982542261
 10
6295.0370803291
 20
5180.2892035408
 10
6295.0379123583
 20
5180.2816114917
  0
LWPOLYLINE
  5
376
330
1F
100
AcDbEntity
  8
0
  6
Continuous
 62
     7
100
AcDbPolyline
 90
        3
 70
   128
 43
0.0
 10
6293.3654785156
 20
5183.4271767706
 10
6293.408217821
 20
5183.4834769985
 10
6293.4609634474
 20
5183.5031559288
  0
LWPOLYLINE
  5
377
330
1F
100
AcDbEntity
  8
0
  6
Continuous
 62
     7
100
AcDbPolyline
 90
        3
 70
   128
 43
0.0
 10
6293.4608459473
 20
5183.5031559288
 10
6293.5378280986
 20
5183.4936223829
 10
6293.5913150802
 20
5183.4655286342
  0
LWPOLYLINE
  5
378
330
1F
100
AcDbEntity
  8
0
  6
Continuous
 62
     7
100
AcDbPolyline
 90
        3
 70
   128
 43
0.0
 10
6301.8264770508
 20
5180.3565615386
 10
6302.265484982
 20
5180.5404683995
 10
6302.4297134623
 20
5180.8688820869
  0
LWPOLYLINE
  5
379
330
1F
100
AcDbEntity
  8
0
  6
Continuous
 62
     7
100
AcDbPolyline
 90
        3
 70
   128
 43
0.0
 10
6301.5022277832
 20
5180.4549734637
 10
6301.6776895273
 20
5180.3754456926
 10
6301.8281517222
 20
5180.3565615386
  0
LWPOLYLINE
  5
37A
330
1F
100
AcDbEntity
  8
0
  6
Continuous
 62
     7
100
AcDbPolyline
 90
        3
 70
   128
 43
0.0
 10
6301.2275695801
 20
5180.902168487
 10
6301.3272023509
 20
5180.6197383478
 10
6301.5030232862
 20
5180.4549734637
  0
LWPOLYLINE
  5
37B
330
1F
100
AcDbEntity
  8
0
  6
Continuous
 62
     7
100
AcDbPolyline
 90
        3
 70
   128
 43
0.0
 10
6301.586151123
 20
5182.1619862288
 10
6301.3184676155
 20
5181.9443237591
 10
6301.231084545
 20
5181.6872939065
  0
LWPOLYLINE
  5
37C
330
1F
100
AcDbEntity
  8
0
  6
Continuous
 62
     7
100
AcDbPolyline
 90
        3
 70
   128
 43
0.0
 10
6301.8226623535
 20
5182.2090217441
 10
6301.6896326426
 20
5182.1948402315
 10
6301.589923133
 20
5182.1619862288
  0
LWPOLYLINE
  5
37D
330
1F
100
AcDbEntity
  8
0
  6
Continuous
 62
     7
100
AcDbPolyline
 90
        3
 70
   128
 43
0.0
 10
6302.2499084473
 20
5182.0447606563
 10
6302.0264447636
 20
5182.1774680703
 10
6301.8229083762
 20
5182.2090217441
  0
LWPOLYLINE
  5
37E
330
1F
100
AcDbEntity
  8
0
  6
Continuous
 62
     7
100
AcDbPolyline
 90
        3
 70
   128
 43
0.0
 10
6302.4291992188
 20
5181.6916357323
 10
6302.3606021471
 20
5181.9051967761
 10
6302.2499197766
 20
5182.0447606563
  0
LWPOLYLINE
  5
37F
330
1F
100
AcDbEntity
  8
0
  6
Continuous
 62
     7
100
AcDbPolyline
 90
        3
 70
   128
 43
0.0
 10
6296.4172363281
 20
5180.4549734637
 10
6296.5954976279
 20
5180.3754456926
 10
6296.7459598228
 20
5180.3565615386
  0
LWPOLYLINE
  5
380
330
1F
100
AcDbEntity
  8
0
  6
Continuous
 62
     7
100
AcDbPolyline
 90
        3
 70
   128
 43
0.0
 10
6296.745300293
 20
5180.3565615386
 10
6297.1832930826
 20
5180.5404683995
 10
6297.3475215629
 20
5180.8688820869
  0
LWPOLYLINE
  5
381
330
1F
100
AcDbEntity
  8
0
  6
Continuous
 62
     7
100
AcDbPolyline
 90
        3
 70
   128
 43
0.0
 10
6296.1463928223
 20
5180.902168487
 10
6296.2450104514
 20
5180.6197383478
 10
6296.4208313867
 20
5180.4549734637
  0
LWPOLYLINE
  5
382
330
1F
100
AcDbEntity
  8
0
  6
Continuous
 62
     7
100
AcDbPolyline
 90
        3
 70
   128
 43
0.0
 10
6296.5049743652
 20
5182.1619862288
 10
6296.2362760741
 20
5181.9443243355
 10
6296.1488926455
 20
5181.6872939065
  0
LWPOLYLINE
  5
383
330
1F
100
AcDbEntity
  8
0
  6
Continuous
 62
     7
100
AcDbPolyline
 90
        3
 70
   128
 43
0.0
 10
6296.7376708984
 20
5182.2090217441
 10
6296.6074416983
 20
5182.1948404497
 10
6296.5077330962
 20
5182.1619862288
  0
LWPOLYLINE
  5
384
330
1F
100
AcDbEntity
  8
0
  6
Continuous
 62
     7
100
AcDbPolyline
 90
        3
 70
   128
 43
0.0
 10
6297.1649169922
 20
5182.0447606563
 10
6296.9442528641
 20
5182.1774680703
 10
6296.7407164767
 20
5182.2090217441
  0
LWPOLYLINE
  5
385
330
1F
100
AcDbEntity
  8
0
  6
Continuous
 62
     7
100
AcDbPolyline
 90
        3
 70
   128
 43
0.0
 10
6297.3442077637
 20
5181.6916357323
 10
6297.2784102477
 20
5181.9051967761
 10
6297.1677278772
 20
5182.0447606563
  0
LWPOLYLINE
  5
386
330
1F
100
AcDbEntity
  8
0
  6
Continuous
 62
     7
100
AcDbPolyline
 90
        3
 70
   128
 43
0.0
 10
6298.7403869629
 20
5180.6742291495
 10
6298.9297357432
 20
5180.4707103622
 10
6299.1394737408
 20
5180.4028724849
  0
LWPOLYLINE
  5
387
330
1F
100
AcDbEntity
  8
0
  6
Continuous
 62
     7
100
AcDbPolyline
 90
        3
 70
   128
 43
0.0
 10
6298.6869812012
 20
5180.8667111739
 10
6298.7125348615
 20
5180.7569885345
 10
6298.7431773588
 20
5180.6742291495
  0
LWPOLYLINE
  5
388
330
1F
100
AcDbEntity
  8
0
  6
Continuous
 62
     7
100
AcDbPolyline
 90
        3
 70
   128
 43
0.0
 10
6298.9387512207
 20
5182.1446198568
 10
6298.7543413106
 20
5181.9668728692
 10
6298.6899876639
 20
5181.7770221799
  0
LWPOLYLINE
  5
389
330
1F
100
AcDbEntity
  8
0
  6
Continuous
 62
     7
100
AcDbPolyline
 90
        3
 70
   128
 43
0.0
 10
6299.1676330566
 20
5182.2090217441
 10
6299.0381014191
 20
5182.1871535997
 10
6298.9424505874
 20
5182.1446198568
  0
LWPOLYLINE
  5
38A
330
1F
100
AcDbEntity
  8
0
  6
Continuous
 62
     7
100
AcDbPolyline
 90
        3
 70
   128
 43
0.0
 10
6253.2196044922
 20
5011.7724922199
 10
6253.6520145891
 20
5011.8776393657
 10
6253.9940831855
 20
5011.995704164
  0
LWPOLYLINE
  5
38B
330
1F
100
AcDbEntity
  8
0
  6
Continuous
 62
     7
100
AcDbPolyline
 90
        3
 70
   128
 43
0.0
 10
6255.7029724121
 20
5012.7388213475
 10
6255.8206462323
 20
5012.8280068683
 10
6255.9020986453
 20
5012.9140906681
  0
LWPOLYLINE
  5
38C
330
1F
100
AcDbEntity
  8
0
  6
Continuous
 62
     7
100
AcDbPolyline
 90
        3
 70
   128
 43
0.0
 10
6240.9934997559
 20
5021.0098878194
 10
6240.5855413055
 20
5016.3482014137
 10
6239.9989721969
 20
5013.410545205
  0
LWPOLYLINE
  5
38D
330
1F
100
AcDbEntity
  8
0
  6
Continuous
 62
     7
100
AcDbPolyline
 90
        3
 70
   128
 43
0.0
 10
6253.1471252441
 20
5011.0098880429
 10
6247.5585131665
 20
5014.6331348775
 10
6246.1595182911
 20
5021.0098878194
  0
LWPOLYLINE
  5
38E
330
1F
100
AcDbEntity
  8
0
  6
Continuous
 62
     7
100
AcDbPolyline
 90
        3
 70
   128
 43
0.0
 10
6262.1307373047
 20
5021.0098878194
 10
6258.6280169861
 20
5013.3122038085
 10
6253.1495673254
 20
5011.0098880429
  0
LWPOLYLINE
  5
38F
330
1F
100
AcDbEntity
  8
0
  6
Continuous
 62
     7
100
AcDbPolyline
 90
        3
 70
   128
 43
0.0
 10
6294.8875427246
 20
5011.0098880429
 10
6288.1759598158
 20
5014.6331338576
 10
6285.9052821666
 20
5021.0098878194
  0
LWPOLYLINE
  5
390
330
1F
100
AcDbEntity
  8
0
  6
Continuous
 62
     7
100
AcDbPolyline
 90
        3
 70
   128
 43
0.0
 10
6301.8760681152
 20
5021.0098878194
 10
6299.6040605026
 20
5013.3122040224
 10
6294.8879433468
 20
5011.0098880429
  0
LWPOLYLINE
  5
391
330
1F
100
AcDbEntity
  8
0
  6
Continuous
 62
     7
100
AcDbPolyline
 90
        3
 70
   128
 43
0.0
 10
6308.0368041992
 20
5013.410545205
 10
6307.3168546033
 20
5017.283905282
 10
6307.0403320387
 20
5021.0098878194
  0
LWPOLYLINE
  5
392
330
1F
100
AcDbEntity
  8
0
  6
Continuous
 62
     7
100
AcDbPolyline
 90
        3
 70
   128
 43
0.0
 10
6293.4494018555
 20
4944.0677438576
 10
6293.392440478
 20
4944.0758092394
 10
6293.3680696085
 20
4944.0881025691
  0
LWPOLYLINE
  5
393
330
1F
100
AcDbEntity
  8
0
  6
Continuous
 62
     7
100
AcDbPolyline
 90
        3
 70
   128
 43
0.0
 10
6295.036315918
 20
4944.0979894895
 10
6295.0237717126
 20
4944.0820677595
 10
6294.9929630056
 20
4944.072009315
  0
LWPOLYLINE
  5
394
330
1F
100
AcDbEntity
  8
0
  6
Continuous
 62
     7
100
AcDbPolyline
 90
        3
 70
   128
 43
0.0
 10
6295.0325012207
 20
4944.102448662
 10
6295.0370803292
 20
4944.1000249707
 10
6295.0379123583
 20
4944.0979894895
  0
LWPOLYLINE
  5
395
330
1F
100
AcDbEntity
  8
0
  6
Continuous
 62
     7
100
AcDbPolyline
 90
        3
 70
   128
 43
0.0
 10
6295.0325012207
 20
4944.1067141194
 10
6295.0341530812
 20
4944.1043244349
 10
6295.0334177956
 20
4944.102448662
  0
LWPOLYLINE
  5
396
330
1F
100
AcDbEntity
  8
0
  6
Continuous
 62
     7
100
AcDbPolyline
 90
        3
 70
   128
 43
0.0
 10
6294.9485778809
 20
4944.1297885675
 10
6295.008086954
 20
4944.1195573895
 10
6295.0334177956
 20
4944.1067141194
  0
LWPOLYLINE
  5
397
330
1F
100
AcDbEntity
  8
0
  6
Continuous
 62
     7
100
AcDbPolyline
 90
        3
 70
   128
 43
0.0
 10
6293.4608459473
 20
4944.9611988563
 10
6293.5378280049
 20
4944.9586447059
 10
6293.5913150802
 20
4944.9511182208
  0
LWPOLYLINE
  5
398
330
1F
100
AcDbEntity
  8
0
  6
Continuous
 62
     7
100
AcDbPolyline
 90
        3
 70
   128
 43
0.0
 10
6293.3654785156
 20
4944.9408401449
 10
6293.4082168045
 20
4944.955928798
 10
6293.4609634474
 20
4944.9611988563
  0
LWPOLYLINE
  5
399
330
1F
100
AcDbEntity
  8
0
  6
Continuous
 62
     7
100
AcDbPolyline
 90
        3
 70
   128
 43
0.0
 10
6295.9060668945
 20
4944.4762740929
 10
6296.0684725189
 20
4944.591022705
 10
6296.3571549997
 20
4944.6525213022
  0
LWPOLYLINE
  5
39A
330
1F
100
AcDbEntity
  8
0
  6
Continuous
 62
     7
100
AcDbPolyline
 90
        3
 70
   128
 43
0.0
 10
6296.1692810059
 20
4944.1158299048
 10
6295.9594107411
 20
4944.2007414052
 10
6295.9091664895
 20
4944.2792807419
  0
LWPOLYLINE
  5
39B
330
1F
100
AcDbEntity
  8
0
  6
Continuous
 62
     7
100
AcDbPolyline
 90
        3
 70
   128
 43
0.0
 10
6296.760559082
 20
4944.0553349156
 10
6296.4066959038
 20
4944.0740617717
 10
6296.1728648886
 20
4944.1158299048
  0
LWPOLYLINE
  5
39C
330
1F
100
AcDbEntity
  8
0
  6
Continuous
 62
     7
100
AcDbPolyline
 90
        3
 70
   128
 43
0.0
 10
6297.061920166
 20
4944.0708432991
 10
6296.8970673577
 20
4944.0584971199
 10
6296.7609429404
 20
4944.0553349156
  0
LWPOLYLINE
  5
39D
330
1F
100
AcDbEntity
  8
0
  6
Continuous
 62
     7
100
AcDbPolyline
 90
        3
 70
   128
 43
0.0
 10
6297.5845336914
 20
4944.2523282666
 10
6297.395482668
 20
4944.131060329
 10
6297.0643454835
 20
4944.0708432991
  0
LWPOLYLINE
  5
39E
330
1F
100
AcDbEntity
  8
0
  6
Continuous
 62
     7
100
AcDbPolyline
 90
        3
 70
   128
 43
0.0
 10
6297.5196838379
 20
4944.5420031149
 10
6297.5726065759
 20
4944.4971994606
 10
6297.5872477189
 20
4944.4607619841
  0
LWPOLYLINE
  5
39F
330
1F
100
AcDbEntity
  8
0
  6
Continuous
 62
     7
100
AcDbPolyline
 90
        3
 70
   128
 43
0.0
 10
6296.745300293
 20
4944.6757894654
 10
6297.2642467405
 20
4944.630979746
 10
6297.5228225484
 20
4944.5420031149
  0
LWPOLYLINE
  5
3A0
330
1F
100
AcDbEntity
  8
0
  6
Continuous
 62
     7
100
AcDbPolyline
 90
        3
 70
   128
 43
0.0
 10
6296.3562011719
 20
4944.6525213022
 10
6296.5697864639
 20
4944.6716665864
 10
6296.7459598228
 20
4944.6757894654
  0
LWPOLYLINE
  5
3A1
330
1F
100
AcDbEntity
  8
0
  6
Continuous
 62
     7
100
AcDbPolyline
 90
        3
 70
   128
 43
0.0
 10
6300.9910583496
 20
4944.4762740929
 10
6301.1506642754
 20
4944.5910226615
 10
6301.4393468991
 20
4944.6525213022
  0
LWPOLYLINE
  5
3A2
330
1F
100
AcDbEntity
  8
0
  6
Continuous
 62
     7
100
AcDbPolyline
 90
        3
 70
   128
 43
0.0
 10
6301.2542724609
 20
4944.1158299048
 10
6301.0416009839
 20
4944.2007412578
 10
6300.991358389
 20
4944.2792807419
  0
LWPOLYLINE
  5
3A3
330
1F
100
AcDbEntity
  8
0
  6
Continuous
 62
     7
100
AcDbPolyline
 90
        3
 70
   128
 43
0.0
 10
6301.8417358398
 20
4944.0553349156
 10
6301.4888878032
 20
4944.0740617717
 10
6301.255056788
 20
4944.1158299048
  0
LWPOLYLINE
  5
3A4
330
1F
100
AcDbEntity
  8
0
  6
Continuous
 62
     7
100
AcDbPolyline
 90
        3
 70
   128
 43
0.0
 10
6302.1430969238
 20
4944.0708432991
 10
6301.9792592571
 20
4944.0584971199
 10
6301.8431348398
 20
4944.0553349156
  0
LWPOLYLINE
  5
3A5
330
1F
100
AcDbEntity
  8
0
  6
Continuous
 62
     7
100
AcDbPolyline
 90
        3
 70
   128
 43
0.0
 10
6302.6657104492
 20
4944.2523282666
 10
6302.4776745674
 20
4944.131060329
 10
6302.1465373829
 20
4944.0708432991
  0
LWPOLYLINE
  5
3A6
330
1F
100
AcDbEntity
  8
0
  6
Continuous
 62
     7
100
AcDbPolyline
 90
        3
 70
   128
 43
0.0
 10
6302.604675293
 20
4944.5420031149
 10
6302.6547984753
 20
4944.4971994606
 10
6302.6694396183
 20
4944.4607619841
  0
LWPOLYLINE
  5
3A7
330
1F
100
AcDbEntity
  8
0
  6
Continuous
 62
     7
100
AcDbPolyline
 90
        3
 70
   128
 43
0.0
 10
6301.8264770508
 20
4944.6757894654
 10
6302.3464386399
 20
4944.630979746
 10
6302.6050144479
 20
4944.5420031149
  0
LWPOLYLINE
  5
3A8
330
1F
100
AcDbEntity
  8
0
  6
Continuous
 62
     7
100
AcDbPolyline
 90
        3
 70
   128
 43
0.0
 10
6301.4373779297
 20
4944.6525213022
 10
6301.6519783633
 20
4944.6716665864
 10
6301.8281517222
 20
4944.6757894654
  0
LWPOLYLINE
  5
3A9
330
1F
100
AcDbEntity
  8
0
  6
Continuous
 62
     7
100
AcDbPolyline
 90
        3
 70
   128
 43
0.0
 10
6298.4466552734
 20
4944.501285692
 10
6298.6305517749
 20
4944.6116284904
 10
6298.9394535914
 20
4944.6643490989
  0
LWPOLYLINE
  5
3AA
330
1F
100
AcDbEntity
  8
0
  6
Continuous
 62
     7
100
AcDbPolyline
 90
        3
 70
   128
 43
0.0
 10
6298.4619140625
 20
4944.2193668981
 10
6298.4527406868
 20
4944.2490464709
 10
6298.4502615079
 20
4944.272493263
  0
LWPOLYLINE
  5
3AB
330
1F
100
AcDbEntity
  8
0
  6
Continuous
 62
     7
100
AcDbPolyline
 90
        3
 70
   128
 43
0.0
 10
6298.6907958984
 20
4944.1158299048
 10
6298.5325339578
 20
4944.1693003235
 10
6298.4652446255
 20
4944.2193668981
  0
LWPOLYLINE
  5
3AC
330
1F
100
AcDbEntity
  8
0
  6
Continuous
 62
     7
100
AcDbPolyline
 90
        3
 70
   128
 43
0.0
 10
6299.1142272949
 20
4944.0677438576
 10
6298.8594317588
 20
4944.0843150194
 10
6298.6914870933
 20
4944.1158299048
  0
LWPOLYLINE
  5
3AD
330
1F
100
AcDbEntity
  8
0
  6
Continuous
 62
     7
100
AcDbPolyline
 90
        3
 70
   128
 43
0.0
 10
6299.8886108398
 20
4944.0217886765
 10
6299.8893634959
 20
4944.0375351898
 10
6299.8893672273
 20
4944.0499034424
  0
LWPOLYLINE
  5
3AE
330
1F
100
AcDbEntity
  8
0
  6
Continuous
 62
     7
100
AcDbPolyline
 90
        3
 70
   128
 43
0.0
 10
6299.8504638672
 20
4943.9324040611
 10
6299.8834453357
 20
4943.9663673889
 10
6299.8886184439
 20
4943.9936739106
  0
LWPOLYLINE
  5
3AF
330
1F
100
AcDbEntity
  8
0
  6
Continuous
 62
     7
100
AcDbPolyline
 90
        3
 70
   128
 43
0.0
 10
6299.4194030762
 20
4943.8443791766
 10
6299.7109052481
 20
4943.8786357525
 10
6299.854157646
 20
4943.9324040611
  0
LWPOLYLINE
  5
3B0
330
1F
100
AcDbEntity
  8
0
  6
Continuous
 62
     7
100
AcDbPolyline
 90
        3
 70
   128
 43
0.0
 10
6298.6335754395
 20
4943.806373765
 10
6298.6461704259
 20
4943.8275526375
 10
6298.6877413139
 20
4943.8401137192
  0
LWPOLYLINE
  5
3B1
330
1F
100
AcDbEntity
  8
0
  6
Continuous
 62
     7
100
AcDbPolyline
 90
        3
 70
   128
 43
0.0
 10
6298.7174987793
 20
4943.7823344667
 10
6298.6539317938
 20
4943.7918221403
 10
6298.6338028356
 20
4943.806373765
  0
LWPOLYLINE
  5
3B2
330
1F
100
AcDbEntity
  8
0
  6
Continuous
 62
     7
100
AcDbPolyline
 90
        3
 70
   128
 43
0.0
 10
6299.6063232422
 20
4943.7912528117
 10
6299.4472372556
 20
4943.7835448315
 10
6299.3185205057
 20
4943.7823344667
  0
LWPOLYLINE
  5
3B3
330
1F
100
AcDbEntity
  8
0
  6
Continuous
 62
     7
100
AcDbPolyline
 90
        3
 70
   128
 43
0.0
 10
6300.1251220703
 20
4943.9543162186
 10
6299.9325608185
 20
4943.8424715617
 10
6299.6084393606
 20
4943.7912528117
  0
LWPOLYLINE
  5
3B4
330
1F
100
AcDbEntity
  8
0
  6
Continuous
 62
     7
100
AcDbPolyline
 90
        3
 70
   128
 43
0.0
 10
6300.0450134277
 20
4944.6757894654
 10
6300.105709692
 20
4944.6684611592
 10
6300.1283445999
 20
4944.6565930445
  0
LWPOLYLINE
  5
3B5
330
1F
100
AcDbEntity
  8
0
  6
Continuous
 62
     7
100
AcDbPolyline
 90
        3
 70
   128
 43
0.0
 10
6298.9387512207
 20
4944.6643490989
 10
6299.0750334091
 20
4944.6731853212
 10
6299.1844230935
 20
4944.6757894654
  0
LWPOLYLINE
  5
3B6
330
1F
100
AcDbEntity
  8
0
  6
Continuous
 62
     7
100
AcDbPolyline
 90
        3
 70
   128
 43
0.0
 10
6295.0325012207
 20
4944.102448662
 10
6295.0196872962
 20
4944.0897593838
 10
6294.9929630056
 20
4944.0816689927
  0
LWPOLYLINE
  5
3B7
330
1F
100
AcDbEntity
  8
0
  6
Continuous
 62
     7
100
AcDbPolyline
 90
        3
 70
   128
 43
0.0
 10
6293.4494018555
 20
4944.0774035354
 10
6293.392440478
 20
4944.0854689171
 10
6293.3680696085
 20
4944.0977622468
  0
LWPOLYLINE
  5
3B8
330
1F
100
AcDbEntity
  8
0
  6
Continuous
 62
     7
100
AcDbPolyline
 90
        3
 70
   128
 43
0.0
 10
6302.6657104492
 20
4944.2619879444
 10
6302.4776746101
 20
4944.1407200038
 10
6302.1465373829
 20
4944.0805029769
  0
LWPOLYLINE
  5
3B9
330
1F
100
AcDbEntity
  8
0
  6
Continuous
 62
     7
100
AcDbPolyline
 90
        3
 70
   128
 43
0.0
 10
6302.1430969238
 20
4944.0805029769
 10
6301.9792592571
 20
4944.0681567976
 10
6301.8431348398
 20
4944.0649945934
  0
LWPOLYLINE
  5
3BA
330
1F
100
AcDbEntity
  8
0
  6
Continuous
 62
     7
100
AcDbPolyline
 90
        3
 70
   128
 43
0.0
 10
6301.8417358398
 20
4944.0649945934
 10
6301.4888880764
 20
4944.0837214144
 10
6301.255056788
 20
4944.1254858572
  0
LWPOLYLINE
  5
3BB
330
1F
100
AcDbEntity
  8
0
  6
Continuous
 62
     7
100
AcDbPolyline
 90
        3
 70
   128
 43
0.0
 10
6301.2542724609
 20
4944.1254858572
 10
6301.0416011021
 20
4944.2104008535
 10
6300.991358389
 20
4944.2889404197
  0
LWPOLYLINE
  5
3BC
330
1F
100
AcDbEntity
  8
0
  6
Continuous
 62
     7
100
AcDbPolyline
 90
        3
 70
   128
 43
0.0
 10
6302.4291992188
 20
4944.4847714801
 10
6302.3606021471
 20
4944.5419940772
 10
6302.2499197766
 20
4944.5793901284
  0
LWPOLYLINE
  5
3BD
330
1F
100
AcDbEntity
  8
0
  6
Continuous
 62
     7
100
AcDbPolyline
 90
        3
 70
   128
 43
0.0
 10
6302.2499084473
 20
4944.5793901284
 10
6302.0264447636
 20
4944.6149492913
 10
6301.8229083762
 20
4944.6234044332
  0
LWPOLYLINE
  5
3BE
330
1F
100
AcDbEntity
  8
0
  6
Continuous
 62
     7
100
AcDbPolyline
 90
        3
 70
   128
 43
0.0
 10
6301.8226623535
 20
4944.6234044332
 10
6301.6896326426
 20
4944.6196052972
 10
6301.589923133
 20
4944.6108017762
  0
LWPOLYLINE
  5
3BF
330
1F
100
AcDbEntity
  8
0
  6
Continuous
 62
     7
100
AcDbPolyline
 90
        3
 70
   128
 43
0.0
 10
6301.586151123
 20
4944.6108017762
 10
6301.3184673067
 20
4944.5524781541
 10
6301.231084545
 20
4944.4836054642
  0
LWPOLYLINE
  5
3C0
330
1F
100
AcDbEntity
  8
0
  6
Continuous
 62
     7
100
AcDbPolyline
 90
        3
 70
   128
 43
0.0
 10
6300.1251220703
 20
4943.9639758964
 10
6299.93256087
 20
4943.8521312307
 10
6299.6084393606
 20
4943.8009124894
  0
LWPOLYLINE
  5
3C1
330
1F
100
AcDbEntity
  8
0
  6
Continuous
 62
     7
100
AcDbPolyline
 90
        3
 70
   128
 43
0.0
 10
6299.6063232422
 20
4943.8009124894
 10
6299.4472372361
 20
4943.7932045061
 10
6299.3185205057
 20
4943.7919904191
  0
LWPOLYLINE
  5
3C2
330
1F
100
AcDbEntity
  8
0
  6
Continuous
 62
     7
100
AcDbPolyline
 90
        3
 70
   128
 43
0.0
 10
6298.7174987793
 20
4943.7919904191
 10
6298.6539314205
 20
4943.8014782578
 10
6298.6338028356
 20
4943.8160334427
  0
LWPOLYLINE
  5
3C3
330
1F
100
AcDbEntity
  8
0
  6
Continuous
 62
     7
100
AcDbPolyline
 90
        3
 70
   128
 43
0.0
 10
6299.1142272949
 20
4944.0774035354
 10
6298.8594320366
 20
4944.0939746542
 10
6298.6914870933
 20
4944.1254858572
  0
LWPOLYLINE
  5
3C4
330
1F
100
AcDbEntity
  8
0
  6
Continuous
 62
     7
100
AcDbPolyline
 90
        3
 70
   128
 43
0.0
 10
6298.6907958984
 20
4944.1254858572
 10
6298.53253411
 20
4944.1789599255
 10
6298.4652446255
 20
4944.2290265758
  0
LWPOLYLINE
  5
3C5
330
1F
100
AcDbEntity
  8
0
  6
Continuous
 62
     7
100
AcDbPolyline
 90
        3
 70
   128
 43
0.0
 10
6298.4619140625
 20
4944.2290265758
 10
6298.4527405696
 20
4944.2587029032
 10
6298.4502615079
 20
4944.2821529407
  0
LWPOLYLINE
  5
3C6
330
1F
100
AcDbEntity
  8
0
  6
Continuous
 62
     7
100
AcDbPolyline
 90
        3
 70
   128
 43
0.0
 10
6299.1676330566
 20
4944.6234044332
 10
6299.0381014191
 20
4944.6175458105
 10
6298.9424505874
 20
4944.6061488886
  0
LWPOLYLINE
  5
3C7
330
1F
100
AcDbEntity
  8
0
  6
Continuous
 62
     7
100
AcDbPolyline
 90
        3
 70
   128
 43
0.0
 10
6298.9387512207
 20
4944.6061488886
 10
6298.7543413106
 20
4944.5585198829
 10
6298.6899876639
 20
4944.5076484878
  0
LWPOLYLINE
  5
3C8
330
1F
100
AcDbEntity
  8
0
  6
Continuous
 62
     7
100
AcDbPolyline
 90
        3
 70
   128
 43
0.0
 10
6297.5845336914
 20
4944.2619879444
 10
6297.3954827106
 20
4944.1407200038
 10
6297.0643454835
 20
4944.0805029769
  0
LWPOLYLINE
  5
3C9
330
1F
100
AcDbEntity
  8
0
  6
Continuous
 62
     7
100
AcDbPolyline
 90
        3
 70
   128
 43
0.0
 10
6297.061920166
 20
4944.0805029769
 10
6296.8970673577
 20
4944.0681567976
 10
6296.7609429404
 20
4944.0649945934
  0
LWPOLYLINE
  5
3CA
330
1F
100
AcDbEntity
  8
0
  6
Continuous
 62
     7
100
AcDbPolyline
 90
        3
 70
   128
 43
0.0
 10
6296.760559082
 20
4944.0649945934
 10
6296.4066961769
 20
4944.0837214144
 10
6296.1728648886
 20
4944.1254858572
  0
LWPOLYLINE
  5
3CB
330
1F
100
AcDbEntity
  8
0
  6
Continuous
 62
     7
100
AcDbPolyline
 90
        3
 70
   128
 43
0.0
 10
6296.1692810059
 20
4944.1254858572
 10
6295.9594108593
 20
4944.2104010009
 10
6295.9091664895
 20
4944.2889404197
  0
LWPOLYLINE
  5
3CC
330
1F
100
AcDbEntity
  8
0
  6
Continuous
 62
     7
100
AcDbPolyline
 90
        3
 70
   128
 43
0.0
 10
6297.3442077637
 20
4944.4847714801
 10
6297.2784102477
 20
4944.5419940772
 10
6297.1677278772
 20
4944.5793901284
  0
LWPOLYLINE
  5
3CD
330
1F
100
AcDbEntity
  8
0
  6
Continuous
 62
     7
100
AcDbPolyline
 90
        3
 70
   128
 43
0.0
 10
6297.1649169922
 20
4944.5793901284
 10
6296.9442528641
 20
4944.6149492913
 10
6296.7407164767
 20
4944.6234044332
  0
LWPOLYLINE
  5
3CE
330
1F
100
AcDbEntity
  8
0
  6
Continuous
 62
     7
100
AcDbPolyline
 90
        3
 70
   128
 43
0.0
 10
6296.7376708984
 20
4944.6234044332
 10
6296.6074416983
 20
4944.6196053557
 10
6296.5077330962
 20
4944.6108017762
  0
LWPOLYLINE
  5
3CF
330
1F
100
AcDbEntity
  8
0
  6
Continuous
 62
     7
100
AcDbPolyline
 90
        3
 70
   128
 43
0.0
 10
6296.5049743652
 20
4944.6108017762
 10
6296.2362757654
 20
4944.5524783086
 10
6296.1488926455
 20
4944.4836054642
  0
LWPOLYLINE
  5
3D0
330
1F
100
AcDbEntity
  8
0
  6
Continuous
 62
     7
100
AcDbPolyline
 90
        3
 70
   128
 43
0.0
 10
6302.2499084473
 20
4944.5697304506
 10
6302.0264447636
 20
4944.6052896136
 10
6301.8229083762
 20
4944.6137447555
  0
LWPOLYLINE
  5
3D1
330
1F
100
AcDbEntity
  8
0
  6
Continuous
 62
     7
100
AcDbPolyline
 90
        3
 70
   128
 43
0.0
 10
6301.8226623535
 20
4944.6137447555
 10
6301.6896326426
 20
4944.6099456195
 10
6301.589923133
 20
4944.6011420984
  0
LWPOLYLINE
  5
3D2
330
1F
100
AcDbEntity
  8
0
  6
Continuous
 62
     7
100
AcDbPolyline
 90
        3
 70
   128
 43
0.0
 10
6301.8264770508
 20
4944.1173796256
 10
6302.265484982
 20
4944.1666588746
 10
6302.4297134623
 20
4944.254656573
  0
LWPOLYLINE
  5
3D3
330
1F
100
AcDbEntity
  8
0
  6
Continuous
 62
     7
100
AcDbPolyline
 90
        3
 70
   128
 43
0.0
 10
6301.5022277832
 20
4944.1437472303
 10
6301.6776895273
 20
4944.1224389426
 10
6301.8281517222
 20
4944.1173796256
  0
LWPOLYLINE
  5
3D4
330
1F
100
AcDbEntity
  8
0
  6
Continuous
 62
     7
100
AcDbPolyline
 90
        3
 70
   128
 43
0.0
 10
6301.2275695801
 20
4944.263574918
 10
6301.3272023509
 20
4944.1878972376
 10
6301.5030232862
 20
4944.1437472303
  0
LWPOLYLINE
  5
3D5
330
1F
100
AcDbEntity
  8
0
  6
Continuous
 62
     7
100
AcDbPolyline
 90
        3
 70
   128
 43
0.0
 10
6301.586151123
 20
4944.6011420984
 10
6301.3184676155
 20
4944.5428186244
 10
6301.231084545
 20
4944.4739495118
  0
LWPOLYLINE
  5
3D6
330
1F
100
AcDbEntity
  8
0
  6
Continuous
 62
     7
100
AcDbPolyline
 90
        3
 70
   128
 43
0.0
 10
6302.4291992188
 20
4944.4751118023
 10
6302.3606021471
 20
4944.5323343994
 10
6302.2499197766
 20
4944.5697304506
  0
LWPOLYLINE
  5
3D7
330
1F
100
AcDbEntity
  8
0
  6
Continuous
 62
     7
100
AcDbPolyline
 90
        3
 70
   128
 43
0.0
 10
6298.6869812012
 20
4944.2540754278
 10
6298.7125348615
 20
4944.2246727987
 10
6298.7431773588
 20
4944.2024987836
  0
LWPOLYLINE
  5
3D8
330
1F
100
AcDbEntity
  8
0
  6
Continuous
 62
     7
100
AcDbPolyline
 90
        3
 70
   128
 43
0.0
 10
6298.9387512207
 20
4944.5964892108
 10
6298.7543413106
 20
4944.5488602052
 10
6298.6899876639
 20
4944.4979888101
  0
LWPOLYLINE
  5
3D9
330
1F
100
AcDbEntity
  8
0
  6
Continuous
 62
     7
100
AcDbPolyline
 90
        3
 70
   128
 43
0.0
 10
6299.1676330566
 20
4944.6137447555
 10
6299.0381014191
 20
4944.6078861328
 10
6298.9424505874
 20
4944.5964892108
  0
LWPOLYLINE
  5
3DA
330
1F
100
AcDbEntity
  8
0
  6
Continuous
 62
     7
100
AcDbPolyline
 90
        3
 70
   128
 43
0.0
 10
6298.7403869629
 20
4944.2024987836
 10
6298.9297357432
 20
4944.1479667181
 10
6299.1394737408
 20
4944.1297885675
  0
LWPOLYLINE
  5
3DB
330
1F
100
AcDbEntity
  8
0
  6
Continuous
 62
     7
100
AcDbPolyline
 90
        3
 70
   128
 43
0.0
 10
6297.1649169922
 20
4944.5697304506
 10
6296.9442528641
 20
4944.6052896136
 10
6296.7407164767
 20
4944.6137447555
  0
LWPOLYLINE
  5
3DC
330
1F
100
AcDbEntity
  8
0
  6
Continuous
 62
     7
100
AcDbPolyline
 90
        3
 70
   128
 43
0.0
 10
6296.7376708984
 20
4944.6137447555
 10
6296.6074416983
 20
4944.609945678
 10
6296.5077330962
 20
4944.6011420984
  0
LWPOLYLINE
  5
3DD
330
1F
100
AcDbEntity
  8
0
  6
Continuous
 62
     7
100
AcDbPolyline
 90
        3
 70
   128
 43
0.0
 10
6296.745300293
 20
4944.1173796256
 10
6297.1832930826
 20
4944.1666588746
 10
6297.3475215629
 20
4944.254656573
  0
LWPOLYLINE
  5
3DE
330
1F
100
AcDbEntity
  8
0
  6
Continuous
 62
     7
100
AcDbPolyline
 90
        3
 70
   128
 43
0.0
 10
6296.4172363281
 20
4944.1437472303
 10
6296.5954976279
 20
4944.1224389426
 10
6296.7459598228
 20
4944.1173796256
  0
LWPOLYLINE
  5
3DF
330
1F
100
AcDbEntity
  8
0
  6
Continuous
 62
     7
100
AcDbPolyline
 90
        3
 70
   128
 43
0.0
 10
6296.1463928223
 20
4944.263574918
 10
6296.2450104514
 20
4944.1878972376
 10
6296.4208313867
 20
4944.1437472303
  0
LWPOLYLINE
  5
3E0
330
1F
100
AcDbEntity
  8
0
  6
Continuous
 62
     7
100
AcDbPolyline
 90
        3
 70
   128
 43
0.0
 10
6296.5049743652
 20
4944.6011420984
 10
6296.2362760741
 20
4944.5428187789
 10
6296.1488926455
 20
4944.4739495118
  0
LWPOLYLINE
  5
3E1
330
1F
100
AcDbEntity
  8
0
  6
Continuous
 62
     7
100
AcDbPolyline
 90
        3
 70
   128
 43
0.0
 10
6297.3442077637
 20
4944.4751118023
 10
6297.2784102477
 20
4944.5323343994
 10
6297.1677278772
 20
4944.5697304506
  0
LWPOLYLINE
  5
3E2
330
1F
100
AcDbEntity
  8
0
  6
Continuous
 62
     7
100
AcDbPolyline
 90
        3
 70
   128
 43
0.0
 10
6250.4920959473
 20
5013.9981315185
 10
6250.5401149414
 20
5013.9629868009
 10
6250.5599354997
 20
5013.917266642
  0
LWPOLYLINE
  5
3E3
330
1F
100
AcDbEntity
  8
0
  6
Continuous
 62
     7
100
AcDbPolyline
 90
        3
 70
   128
 43
0.0
 10
6250.3509521484
 20
5014.4662608106
 10
6250.2192814308
 20
5014.3804520126
 10
6250.1056456611
 20
5014.3372614582
  0
LWPOLYLINE
  5
3E4
330
1F
100
AcDbEntity
  8
0
  6
Continuous
 62
     7
100
AcDbPolyline
 90
        3
 70
   128
 43
0.0
 10
6250.3280639648
 20
5014.4979481299
 10
6250.1944468864
 20
5014.409727468
 10
6250.0787695542
 20
5014.3654190649
  0
LWPOLYLINE
  5
3E5
330
1F
100
AcDbEntity
  8
0
  6
Continuous
 62
     7
100
AcDbPolyline
 90
        3
 70
   128
 43
0.0
 10
6447.5288391113
 20
5171.1134338815
 10
6446.1301805434
 20
5171.6856918809
 10
6445.0307373128
 20
5172.1377548359
  0
LWPOLYLINE
  5
3E6
330
1F
100
AcDbEntity
  8
0
  6
Continuous
 62
     7
100
AcDbPolyline
 90
        3
 70
   128
 43
0.0
 10
6454.7386169434
 20
5172.0209143653
 10
6462.4388086828
 20
5170.9987629958
 10
6464.7407379172
 20
5170.3654111892
  0
LWPOLYLINE
  5
3E7
330
1F
100
AcDbEntity
  8
0
  6
Continuous
 62
     7
100
AcDbPolyline
 90
        3
 70
   128
 43
0.0
 10
6462.3374938965
 20
5198.5424918651
 10
6458.4667206731
 20
5195.7606187066
 10
6454.7407381407
 20
5195.0424922228
  0
LWPOLYLINE
  5
3E8
330
1F
100
AcDbEntity
  8
0
  6
Continuous
 62
     7
100
AcDbPolyline
 90
        3
 70
   128
 43
0.0
 10
6454.7462463379
 20
5215.0474406375
 10
6459.4082104078
 20
5213.8940980308
 10
6462.3458666166
 20
5211.5474409952
  0
LWPOLYLINE
  5
3E9
330
1F
100
AcDbEntity
  8
0
  6
Continuous
 62
     7
100
AcDbPolyline
 90
        3
 70
   128
 43
0.0
 10
6464.7369384766
 20
5232.7368383825
 10
6461.1174910826
 20
5227.3575746813
 10
6454.7407381407
 20
5225.3965487301
  0
LWPOLYLINE
  5
3EA
330
1F
100
AcDbEntity
  8
0
  6
Continuous
 62
     7
100
AcDbPolyline
 90
        4
 70
   128
 43
0.0
 10
6454.7386169434
 20
5237.4328499257
 10
6461.8071743538
 20
5236.3699912763
 10
6463.9714834376
 20
5234.8688653864
 10
6464.7407379172
 20
5232.7368383825
  0
ENDSEC
  0
SECTION
  2
OBJECTS
  0
DICTIONARY
  5
C
330
0
100
AcDbDictionary
281
     1
  3
ACAD_GROUP
350
D
  3
ACAD_LAYOUT
350
1A
  3
ACAD_MLINESTYLE
350
17
  3
ACAD_PLOTSETTINGS
350
19
  3
ACAD_PLOTSTYLENAME
350
E
  3
ACAD_SCALELIST
350
47
  3
DWGPROPS
350
3EB
  0
DICTIONARY
  5
D
102
{ACAD_REACTORS
330
C
102
}
330
C
100
AcDbDictionary
281
     1
  0
DICTIONARY
  5
1A
102
{ACAD_REACTORS
330
C
102
}
330
C
100
AcDbDictionary
281
     1
  3
Layout1
350
1E
  3
Layout2
350
26
  3
Model
350
22
  0
DICTIONARY
  5
17
102
{ACAD_REACTORS
330
C
102
}
330
C
100
AcDbDictionary
281
     1
  3
Standard
350
18
  0
DICTIONARY
  5
19
102
{ACAD_REACTORS
330
C
102
}
330
C
100
AcDbDictionary
281
     1
  0
ACDBDICTIONARYWDFLT
  5
E
102
{ACAD_REACTORS
330
C
102
}
330
C
100
AcDbDictionary
281
     1
  3
Normal
350
F
100
AcDbDictionaryWithDefault
340
F
  0
DICTIONARY
  5
47
102
{ACAD_REACTORS
330
C
102
}
330
C
100
AcDbDictionary
281
     1
  3
A0
350
48
  3
A1
350
49
  3
A2
350
4A
  3
A3
350
4B
  3
A4
350
4C
  3
A5
350
4D
  3
A6
350
4E
  3
A7
350
4F
  3
A8
350
50
  3
A9
350
51
  3
B0
350
52
  3
B1
350
53
  3
B2
350
54
  3
B3
350
55
  3
B4
350
56
  3
B5
350
57
  3
B6
350
58
  3
B7
350
59
  3
B8
350
5A
  3
B9
350
5B
  3
C0
350
5C
  3
C1
350
5D
  3
C2
350
5E
  3
C3
350
5F
  3
C4
350
60
  3
C5
350
61
  3
C6
350
62
  3
C7
350
63
  3
C8
350
64
  3
C9
350
65
  3
D0
350
66
  3
D1
350
67
  3
D2
350
68
  0
XRECORD
  5
3EB
102
{ACAD_REACTORS
330
C
102
}
330
C
100
AcDbXrecord
280
     1
  1
DWGPROPS COOKIE
  2

  3

  4

  6

  7

  8
radek.stransky
  9

300
=
301
=
302
=
303
=
304
=
305
=
306
=
307
=
308
=
309
=
 40
0.0
 41
2459103.451462673
 42
2459103.451494965
  1

 90
        0
  0
LAYOUT
  5
1E
102
{ACAD_REACTORS
330
1A
102
}
330
1A
100
AcDbPlotSettings
  1

  2
none_device
  4

  6

 40
0.0
 41
0.0
 42
0.0
 43
0.0
 44
0.0
 45
0.0
 46
0.0
 47
0.0
 48
0.0
 49
0.0
140
0.0
141
0.0
142
1.0
143
1.0
 70
   688
 72
     1
 73
     0
 74
     5
  7

 75
    16
147
1.0
148
0.0
149
0.0
100
AcDbLayout
  1
Layout1
 70
     1
 71
     1
 10
0.0
 20
0.0
 11
420.0
 21
297.0
 12
0.0
 22
0.0
 32
0.0
 14
1.0000000000E+20
 24
1.0000000000E+20
 34
1.0000000000E+20
 15
-1.0000000000E+20
 25
-1.0000000000E+20
 35
-1.0000000000E+20
146
0.0
 13
0.0
 23
0.0
 33
0.0
 16
1.0
 26
0.0
 36
0.0
 17
0.0
 27
1.0
 37
0.0
 76
     0
330
1B
  0
LAYOUT
  5
26
102
{ACAD_REACTORS
330
1A
102
}
330
1A
100
AcDbPlotSettings
  1

  2
none_device
  4

  6

 40
0.0
 41
0.0
 42
0.0
 43
0.0
 44
0.0
 45
0.0
 46
0.0
 47
0.0
 48
0.0
 49
0.0
140
0.0
141
0.0
142
1.0
143
1.0
 70
   688
 72
     1
 73
     0
 74
     5
  7

 75
    16
147
1.0
148
0.0
149
0.0
100
AcDbLayout
  1
Layout2
 70
     1
 71
     2
 10
0.0
 20
0.0
 11
0.0
 21
0.0
 12
0.0
 22
0.0
 32
0.0
 14
0.0
 24
0.0
 34
0.0
 15
0.0
 25
0.0
 35
0.0
146
0.0
 13
0.0
 23
0.0
 33
0.0
 16
1.0
 26
0.0
 36
0.0
 17
0.0
 27
1.0
 37
0.0
 76
     0
330
23
  0
LAYOUT
  5
22
102
{ACAD_REACTORS
330
1A
102
}
330
1A
100
AcDbPlotSettings
  1

  2
none_device
  4
ANSI_A_(11.00_x_8.50_Inches)
  6

 40
6.35
 41
19.05
 42
6.35000508
 43
19.05000254
 44
279.4
 45
215.9
 46
-4038.9727691837
 47
-3246.5234295426
 48
0.0
 49
0.0
140
0.0
141
0.0
142
0.0257377817
143
1.0
 70
  1696
 72
     0
 73
     0
 74
     0
  7

 75
     0
147
0.0179189148
148
-1300.4909072572
149
0.0
100
AcDbLayout
  1
Model
 70
     1
 71
     0
 10
0.0
 20
0.0
 11
420.0
 21
297.0
 12
0.0
 22
0.0
 32
0.0
 14
6227.3187545732
 24
4938.591235568
 34
0.0
 15
6537.1593909542
 25
5265.5424898088
 35
0.0
146
0.0
 13
0.0
 23
0.0
 33
0.0
 16
1.0
 26
0.0
 36
0.0
 17
0.0
 27
1.0
 37
0.0
 76
     0
330
1F
331
29
  0
MLINESTYLE
  5
18
102
{ACAD_REACTORS
330
17
102
}
330
17
100
AcDbMlineStyle
  2
Standard
 70
     0
  3

 62
   256
 51
90.0
 52
90.0
 71
     2
 49
0.5
 62
   256
  6
BYLAYER
 49
-0.5
 62
   256
  6
BYLAYER
  0
ACDBPLACEHOLDER
  5
F
102
{ACAD_REACTORS
330
E
102
}
330
E
  0
SCALE
  5
48
102
{ACAD_REACTORS
330
47
102
}
330
47
100
AcDbScale
 70
     0
300
1:1
140
1.0
141
1.0
290
     1
  0
SCALE
  5
49
102
{ACAD_REACTORS
330
47
102
}
330
47
100
AcDbScale
 70
     0
300
1:2
140
1.0
141
2.0
290
     0
  0
SCALE
  5
4A
102
{ACAD_REACTORS
330
47
102
}
330
47
100
AcDbScale
 70
     0
300
1:4
140
1.0
141
4.0
290
     0
  0
SCALE
  5
4B
102
{ACAD_REACTORS
330
47
102
}
330
47
100
AcDbScale
 70
     0
300
1:5
140
1.0
141
5.0
290
     0
  0
SCALE
  5
4C
102
{ACAD_REACTORS
330
47
102
}
330
47
100
AcDbScale
 70
     0
300
1:8
140
1.0
141
8.0
290
     0
  0
SCALE
  5
4D
102
{ACAD_REACTORS
330
47
102
}
330
47
100
AcDbScale
 70
     0
300
1:10
140
1.0
141
10.0
290
     0
  0
SCALE
  5
4E
102
{ACAD_REACTORS
330
47
102
}
330
47
100
AcDbScale
 70
     0
300
1:16
140
1.0
141
16.0
290
     0
  0
SCALE
  5
4F
102
{ACAD_REACTORS
330
47
102
}
330
47
100
AcDbScale
 70
     0
300
1:20
140
1.0
141
20.0
290
     0
  0
SCALE
  5
50
102
{ACAD_REACTORS
330
47
102
}
330
47
100
AcDbScale
 70
     0
300
1:30
140
1.0
141
30.0
290
     0
  0
SCALE
  5
51
102
{ACAD_REACTORS
330
47
102
}
330
47
100
AcDbScale
 70
     0
300
1:40
140
1.0
141
40.0
290
     0
  0
SCALE
  5
52
102
{ACAD_REACTORS
330
47
102
}
330
47
100
AcDbScale
 70
     0
300
1:50
140
1.0
141
50.0
290
     0
  0
SCALE
  5
53
102
{ACAD_REACTORS
330
47
102
}
330
47
100
AcDbScale
 70
     0
300
1:100
140
1.0
141
100.0
290
     0
  0
SCALE
  5
54
102
{ACAD_REACTORS
330
47
102
}
330
47
100
AcDbScale
 70
     0
300
2:1
140
2.0
141
1.0
290
     0
  0
SCALE
  5
55
102
{ACAD_REACTORS
330
47
102
}
330
47
100
AcDbScale
 70
     0
300
4:1
140
4.0
141
1.0
290
     0
  0
SCALE
  5
56
102
{ACAD_REACTORS
330
47
102
}
330
47
100
AcDbScale
 70
     0
300
8:1
140
8.0
141
1.0
290
     0
  0
SCALE
  5
57
102
{ACAD_REACTORS
330
47
102
}
330
47
100
AcDbScale
 70
     0
300
10:1
140
10.0
141
1.0
290
     0
  0
SCALE
  5
58
102
{ACAD_REACTORS
330
47
102
}
330
47
100
AcDbScale
 70
     0
300
100:1
140
100.0
141
1.0
290
     0
  0
SCALE
  5
59
102
{ACAD_REACTORS
330
47
102
}
330
47
100
AcDbScale
 70
     0
300
1/128" = 1'-0"
140
0.0078125
141
12.0
290
     0
  0
SCALE
  5
5A
102
{ACAD_REACTORS
330
47
102
}
330
47
100
AcDbScale
 70
     0
300
1/64" = 1'-0"
140
0.015625
141
12.0
290
     0
  0
SCALE
  5
5B
102
{ACAD_REACTORS
330
47
102
}
330
47
100
AcDbScale
 70
     0
300
1/32" = 1'-0"
140
0.03125
141
12.0
290
     0
  0
SCALE
  5
5C
102
{ACAD_REACTORS
330
47
102
}
330
47
100
AcDbScale
 70
     0
300
1/16" = 1'-0"
140
0.0625
141
12.0
290
     0
  0
SCALE
  5
5D
102
{ACAD_REACTORS
330
47
102
}
330
47
100
AcDbScale
 70
     0
300
3/32" = 1'-0"
140
0.09375
141
12.0
290
     0
  0
SCALE
  5
5E
102
{ACAD_REACTORS
330
47
102
}
330
47
100
AcDbScale
 70
     0
300
1/8" = 1'-0"
140
0.125
141
12.0
290
     0
  0
SCALE
  5
5F
102
{ACAD_REACTORS
330
47
102
}
330
47
100
AcDbScale
 70
     0
300
3/16" = 1'-0"
140
0.1875
141
12.0
290
     0
  0
SCALE
  5
60
102
{ACAD_REACTORS
330
47
102
}
330
47
100
AcDbScale
 70
     0
300
1/4" = 1'-0"
140
0.25
141
12.0
290
     0
  0
SCALE
  5
61
102
{ACAD_REACTORS
330
47
102
}
330
47
100
AcDbScale
 70
     0
300
3/8" = 1'-0"
140
0.375
141
12.0
290
     0
  0
SCALE
  5
62
102
{ACAD_REACTORS
330
47
102
}
330
47
100
AcDbScale
 70
     0
300
1/2" = 1'-0"
140
0.5
141
12.0
290
     0
  0
SCALE
  5
63
102
{ACAD_REACTORS
330
47
102
}
330
47
100
AcDbScale
 70
     0
300
3/4" = 1'-0"
140
0.75
141
12.0
290
     0
  0
SCALE
  5
64
102
{ACAD_REACTORS
330
47
102
}
330
47
100
AcDbScale
 70
     0
300
1" = 1'-0"
140
1.0
141
12.0
290
     0
  0
SCALE
  5
65
102
{ACAD_REACTORS
330
47
102
}
330
47
100
AcDbScale
 70
     0
300
1-1/2" = 1'-0"
140
1.5
141
12.0
290
     0
  0
SCALE
  5
66
102
{ACAD_REACTORS
330
47
102
}
330
47
100
AcDbScale
 70
     0
300
3" = 1'-0"
140
3.0
141
12.0
290
     0
  0
SCALE
  5
67
102
{ACAD_REACTORS
330
47
102
}
330
47
100
AcDbScale
 70
     0
300
6" = 1'-0"
140
6.0
141
12.0
290
     0
  0
SCALE
  5
68
102
{ACAD_REACTORS
330
47
102
}
330
47
100
AcDbScale
 70
     0
300
1'-0" = 1'-0"
140
12.0
141
12.0
290
     0
  0
ENDSEC
  0
EOF
