  0
SECTION
  2
HEADER
  9
$ACADVER
  1
AC1015
  9
$ACADMAINTVER
 70
     6
  9
$DWGCODEPAGE
  3
ANSI_1250
  9
$INSBASE
 10
0.0
 20
0.0
 30
0.0
  9
$EXTMIN
 10
6166.5036988022
 20
4785.6999495883
 30
0.0
  9
$EXTMAX
 10
6698.4060181567
 20
5312.6994537881
 30
0.0
  9
$LIMMIN
 10
0.0
 20
0.0
  9
$LIMMAX
 10
420.0
 20
297.0
  9
$ORTHOMODE
 70
     0
  9
$REGENMODE
 70
     1
  9
$FILLMODE
 70
     1
  9
$QTEXTMODE
 70
     0
  9
$MIRRTEXT
 70
     1
  9
$LTSCALE
 40
1.0
  9
$ATTMODE
 70
     1
  9
$TEXTSIZE
 40
3.5
  9
$TRACEWID
 40
1.0
  9
$TEXTSTYLE
  7
Standard
  9
$CLAYER
  8
0
  9
$CELTYPE
  6
ByLayer
  9
$CECOLOR
 62
   256
  9
$CELTSCALE
 40
1.0
  9
$DISPSILH
 70
     0
  9
$DIMSCALE
 40
1.0
  9
$DIMASZ
 40
3.302
  9
$DIMEXO
 40
0.0
  9
$DIMDLI
 40
3.75
  9
$DIMRND
 40
0.0
  9
$DIMDLE
 40
0.0
  9
$DIMEXE
 40
1.0
  9
$DIMTP
 40
0.0
  9
$DIMTM
 40
0.0
  9
$DIMTXT
 40
3.5
  9
$DIMCEN
 40
2.5
  9
$DIMTSZ
 40
0.0
  9
$DIMTOL
 70
     0
  9
$DIMLIM
 70
     0
  9
$DIMTIH
 70
     1
  9
$DIMTOH
 70
     1
  9
$DIMSE1
 70
     0
  9
$DIMSE2
 70
     0
  9
$DIMTAD
 70
     1
  9
$DIMZIN
 70
     0
  9
$DIMBLK
  1

  9
$DIMASO
 70
     1
  9
$DIMSHO
 70
     1
  9
$DIMPOST
  1

  9
$DIMAPOST
  1

  9
$DIMALT
 70
     0
  9
$DIMALTD
 70
     3
  9
$DIMALTF
 40
0.0393700787
  9
$DIMLFAC
 40
1.0
  9
$DIMTOFL
 70
     1
  9
$DIMTVP
 40
0.0
  9
$DIMTIX
 70
     0
  9
$DIMSOXD
 70
     0
  9
$DIMSAH
 70
     0
  9
$DIMBLK1
  1

  9
$DIMBLK2
  1

  9
$DIMSTYLE
  2
ISO-25
  9
$DIMCLRD
 70
     0
  9
$DIMCLRE
 70
     0
  9
$DIMCLRT
 70
     0
  9
$DIMTFAC
 40
1.0
  9
$DIMGAP
 40
1.524
  9
$DIMJUST
 70
     0
  9
$DIMSD1
 70
     0
  9
$DIMSD2
 70
     0
  9
$DIMTOLJ
 70
     0
  9
$DIMTZIN
 70
     0
  9
$DIMALTZ
 70
     0
  9
$DIMALTTZ
 70
     0
  9
$DIMUPT
 70
     0
  9
$DIMDEC
 70
     2
  9
$DIMTDEC
 70
     2
  9
$DIMALTU
 70
     2
  9
$DIMALTTD
 70
     3
  9
$DIMTXSTY
  7
Standard
  9
$DIMAUNIT
 70
     0
  9
$DIMADEC
 70
     2
  9
$DIMALTRND
 40
0.0
  9
$DIMAZIN
 70
     0
  9
$DIMDSEP
 70
    44
  9
$DIMATFIT
 70
     3
  9
$DIMFRAC
 70
     0
  9
$DIMLDRBLK
  1

  9
$DIMLUNIT
 70
     2
  9
$DIMLWD
 70
    -2
  9
$DIMLWE
 70
    -2
  9
$DIMTMOVE
 70
     0
  9
$LUNITS
 70
     2
  9
$LUPREC
 70
     2
  9
$SKETCHINC
 40
1.0
  9
$FILLETRAD
 40
10.0
  9
$AUNITS
 70
     0
  9
$AUPREC
 70
     2
  9
$MENU
  1
.
  9
$ELEVATION
 40
0.0
  9
$PELEVATION
 40
0.0
  9
$THICKNESS
 40
0.0
  9
$LIMCHECK
 70
     0
  9
$CHAMFERA
 40
0.0
  9
$CHAMFERB
 40
0.0
  9
$CHAMFERC
 40
0.0
  9
$CHAMFERD
 40
0.0
  9
$SKPOLY
 70
     0
  9
$TDCREATE
 40
2459103.461142986
  9
$TDUCREATE
 40
2459103.377809653
  9
$TDUPDATE
 40
2459103.461299467
  9
$TDUUPDATE
 40
2459103.377966134
  9
$TDINDWG
 40
0.0000000116
  9
$TDUSRTIMER
 40
0.0000000116
  9
$USRTIMER
 70
     1
  9
$ANGBASE
 50
0.0
  9
$ANGDIR
 70
     0
  9
$PDMODE
 70
     0
  9
$PDSIZE
 40
-1.0
  9
$PLINEWID
 40
0.0
  9
$SPLFRAME
 70
     0
  9
$SPLINETYPE
 70
     6
  9
$SPLINESEGS
 70
     8
  9
$HANDSEED
  5
51F
  9
$SURFTAB1
 70
     6
  9
$SURFTAB2
 70
     6
  9
$SURFTYPE
 70
     6
  9
$SURFU
 70
     6
  9
$SURFV
 70
     6
  9
$UCSBASE
  2

  9
$UCSNAME
  2

  9
$UCSORG
 10
0.0
 20
0.0
 30
0.0
  9
$UCSXDIR
 10
1.0
 20
0.0
 30
0.0
  9
$UCSYDIR
 10
0.0
 20
1.0
 30
0.0
  9
$UCSORTHOREF
  2

  9
$UCSORTHOVIEW
 70
     0
  9
$UCSORGTOP
 10
0.0
 20
0.0
 30
0.0
  9
$UCSORGBOTTOM
 10
0.0
 20
0.0
 30
0.0
  9
$UCSORGLEFT
 10
0.0
 20
0.0
 30
0.0
  9
$UCSORGRIGHT
 10
0.0
 20
0.0
 30
0.0
  9
$UCSORGFRONT
 10
0.0
 20
0.0
 30
0.0
  9
$UCSORGBACK
 10
0.0
 20
0.0
 30
0.0
  9
$PUCSBASE
  2

  9
$PUCSNAME
  2

  9
$PUCSORG
 10
0.0
 20
0.0
 30
0.0
  9
$PUCSXDIR
 10
1.0
 20
0.0
 30
0.0
  9
$PUCSYDIR
 10
0.0
 20
1.0
 30
0.0
  9
$PUCSORTHOREF
  2

  9
$PUCSORTHOVIEW
 70
     0
  9
$PUCSORGTOP
 10
0.0
 20
0.0
 30
0.0
  9
$PUCSORGBOTTOM
 10
0.0
 20
0.0
 30
0.0
  9
$PUCSORGLEFT
 10
0.0
 20
0.0
 30
0.0
  9
$PUCSORGRIGHT
 10
0.0
 20
0.0
 30
0.0
  9
$PUCSORGFRONT
 10
0.0
 20
0.0
 30
0.0
  9
$PUCSORGBACK
 10
0.0
 20
0.0
 30
0.0
  9
$USERI1
 70
     0
  9
$USERI2
 70
     0
  9
$USERI3
 70
     0
  9
$USERI4
 70
     0
  9
$USERI5
 70
     0
  9
$USERR1
 40
0.0
  9
$USERR2
 40
0.0
  9
$USERR3
 40
0.0
  9
$USERR4
 40
0.0
  9
$USERR5
 40
0.0
  9
$WORLDVIEW
 70
     1
  9
$SHADEDGE
 70
     3
  9
$SHADEDIF
 70
    70
  9
$TILEMODE
 70
     1
  9
$MAXACTVP
 70
    64
  9
$PINSBASE
 10
0.0
 20
0.0
 30
0.0
  9
$PLIMCHECK
 70
     0
  9
$PEXTMIN
 10
1.0000000000E+20
 20
1.0000000000E+20
 30
1.0000000000E+20
  9
$PEXTMAX
 10
-1.0000000000E+20
 20
-1.0000000000E+20
 30
-1.0000000000E+20
  9
$PLIMMIN
 10
0.0
 20
0.0
  9
$PLIMMAX
 10
420.0
 20
297.0
  9
$UNITMODE
 70
     0
  9
$VISRETAIN
 70
     1
  9
$PLINEGEN
 70
     0
  9
$PSLTSCALE
 70
     1
  9
$TREEDEPTH
 70
  3020
  9
$CMLSTYLE
  2
Standard
  9
$CMLJUST
 70
     0
  9
$CMLSCALE
 40
20.0
  9
$PROXYGRAPHICS
 70
     1
  9
$MEASUREMENT
 70
     1
  9
$CELWEIGHT
370
    -1
  9
$ENDCAPS
280
     0
  9
$JOINSTYLE
280
     0
  9
$LWDISPLAY
290
     1
  9
$INSUNITS
 70
     4
  9
$HYPERLINKBASE
  1

  9
$STYLESHEET
  1

  9
$XEDIT
290
     1
  9
$CEPSNTYPE
380
     0
  9
$PSTYLEMODE
290
     1
  9
$FINGERPRINTGUID
  2
{76f37123-e768-4485-b36a-fbdbaf88f508}
  9
$VERSIONGUID
  2
{FAEB1C32-E019-11D5-929B-00C0DF256EC4}
  9
$EXTNAMES
290
     1
  9
$PSVPSCALE
 40
0.0
  9
$OLESTARTUP
290
     0
  0
ENDSEC
  0
SECTION
  2
CLASSES
  0
CLASS
  1
ACDBDICTIONARYWDFLT
  2
AcDbDictionaryWithDefault
  3
ObjectDBX Classes
 90
        0
280
     0
281
     0
  0
CLASS
  1
VISUALSTYLE
  2
AcDbVisualStyle
  3
ObjectDBX Classes
 90
     4095
280
     0
281
     0
  0
CLASS
  1
MATERIAL
  2
AcDbMaterial
  3
ObjectDBX Classes
 90
     1153
280
     0
281
     0
  0
CLASS
  1
SCALE
  2
AcDbScale
  3
ObjectDBX Classes
 90
     1153
280
     0
281
     0
  0
CLASS
  1
TABLESTYLE
  2
AcDbTableStyle
  3
ObjectDBX Classes
 90
     4095
280
     0
281
     0
  0
CLASS
  1
MLEADERSTYLE
  2
AcDbMLeaderStyle
  3
ACDB_MLEADERSTYLE_CLASS
 90
     4095
280
     0
281
     0
  0
CLASS
  1
SUN
  2
AcDbSun
  3
SCENEOE
 90
     1153
280
     0
281
     0
  0
CLASS
  1
ACDBPLACEHOLDER
  2
AcDbPlaceHolder
  3
ObjectDBX Classes
 90
        0
280
     0
281
     0
  0
CLASS
  1
LAYOUT
  2
AcDbLayout
  3
ObjectDBX Classes
 90
        0
280
     0
281
     0
  0
ENDSEC
  0
SECTION
  2
TABLES
  0
TABLE
  2
VPORT
  5
8
330
0
100
AcDbSymbolTable
 70
     1
  0
VPORT
  5
29
330
8
100
AcDbSymbolTableRecord
100
AcDbViewportTableRecord
  2
*Active
 70
     0
 10
0.0
 20
0.0
 11
1.0
 21
1.0
 12
6432.4548584795
 22
5049.1997016882
 13
0.0
 23
0.0
 14
10.0
 24
10.0
 15
10.0
 25
10.0
 16
0.0
 26
0.0
 36
1.0
 17
0.0
 27
0.0
 37
0.0
 40
537.5394942838
 41
1.0093032633
 42
50.0
 43
0.0
 44
0.0
 50
0.0
 51
0.0
 71
     0
 72
   100
 73
     1
 74
     3
 75
     0
 76
     0
 77
     0
 78
     0
281
     0
 65
     1
110
0.0
120
0.0
130
0.0
111
1.0
121
0.0
131
0.0
112
0.0
122
1.0
132
0.0
 79
     0
146
0.0
  0
ENDTAB
  0
TABLE
  2
LTYPE
  5
5
330
0
100
AcDbSymbolTable
 70
     6
  0
LTYPE
  5
14
330
5
100
AcDbSymbolTableRecord
100
AcDbLinetypeTableRecord
  2
ByBlock
 70
     0
  3

 72
    65
 73
     0
 40
0.0
  0
LTYPE
  5
15
330
5
100
AcDbSymbolTableRecord
100
AcDbLinetypeTableRecord
  2
ByLayer
 70
     0
  3

 72
    65
 73
     0
 40
0.0
  0
LTYPE
  5
16
330
5
100
AcDbSymbolTableRecord
100
AcDbLinetypeTableRecord
  2
Continuous
 70
     0
  3
Solid line
 72
    65
 73
     0
 40
0.0
  0
LTYPE
  5
6E
330
5
100
AcDbSymbolTableRecord
100
AcDbLinetypeTableRecord
  2
HIDDEN
 70
     0
  3
Hidden __ __ __ __ __ __ __ __ __ __ __ __ __ __
 72
    65
 73
     2
 40
1.905
 49
1.27
 74
     0
 49
-0.635
 74
     0
  0
LTYPE
  5
6F
330
5
100
AcDbSymbolTableRecord
100
AcDbLinetypeTableRecord
  2
PHANTOM
 70
     0
  3
Phantom ______  __  __  ______  __  __  ______
 72
    65
 73
     6
 40
12.7
 49
6.35
 74
     0
 49
-1.27
 74
     0
 49
1.27
 74
     0
 49
-1.27
 74
     0
 49
1.27
 74
     0
 49
-1.27
 74
     0
  0
LTYPE
  5
70
330
5
100
AcDbSymbolTableRecord
100
AcDbLinetypeTableRecord
  2
CENTER
 70
     0
  3
Center ____ _ ____ _ ____ _ ____ _ ____ _ ____
 72
    65
 73
     4
 40
10.16
 49
6.35
 74
     0
 49
-1.27
 74
     0
 49
1.27
 74
     0
 49
-1.27
 74
     0
  0
LTYPE
  5
71
330
5
100
AcDbSymbolTableRecord
100
AcDbLinetypeTableRecord
  2
CENTERX2
 70
     0
  3
Center (2x) ________  __  ________  __  _____
 72
    65
 73
     4
 40
20.32
 49
12.7
 74
     0
 49
-2.54
 74
     0
 49
2.54
 74
     0
 49
-2.54
 74
     0
  0
LTYPE
  5
72
330
5
100
AcDbSymbolTableRecord
100
AcDbLinetypeTableRecord
  2
DOT2
 70
     0
  3
Dot (.5x) ........................................
 72
    65
 73
     2
 40
0.635
 49
0.0
 74
     0
 49
-0.635
 74
     0
  0
ENDTAB
  0
TABLE
  2
LAYER
  5
2
330
0
100
AcDbSymbolTable
 70
     1
  0
LAYER
  5
10
330
2
100
AcDbSymbolTableRecord
100
AcDbLayerTableRecord
  2
0
 70
     0
 62
     7
  6
Continuous
370
    -3
390
F
  0
ENDTAB
  0
TABLE
  2
STYLE
  5
3
330
0
100
AcDbSymbolTable
 70
     1
  0
STYLE
  5
11
330
3
100
AcDbSymbolTableRecord
100
AcDbTextStyleTableRecord
  2
Standard
 70
     0
 40
0.0
 41
1.0
 50
0.0
 71
     0
 42
3.5
  3
txt
  4

  0
ENDTAB
  0
TABLE
  2
VIEW
  5
6
330
0
100
AcDbSymbolTable
 70
     0
  0
ENDTAB
  0
TABLE
  2
UCS
  5
7
330
0
100
AcDbSymbolTable
 70
     0
  0
ENDTAB
  0
TABLE
  2
APPID
  5
9
330
0
100
AcDbSymbolTable
 70
     1
  0
APPID
  5
12
330
9
100
AcDbSymbolTableRecord
100
AcDbRegAppTableRecord
  2
ACAD
 70
     0
  0
ENDTAB
  0
TABLE
  2
DIMSTYLE
  5
A
330
0
100
AcDbSymbolTable
 70
     1
100
AcDbDimStyleTable
  0
DIMSTYLE
105
27
330
A
100
AcDbSymbolTableRecord
100
AcDbDimStyleTableRecord
  2
ISO-25
 70
     0
 41
2.5
 42
0.625
 43
3.75
 44
1.25
 73
     0
 74
     0
 77
     1
 78
     8
140
2.5
141
2.5
143
0.0393700787
147
0.625
171
     3
172
     1
178
     0
271
     2
272
     2
274
     3
278
    44
283
     0
284
     8
340
11
  0
ENDTAB
  0
TABLE
  2
BLOCK_RECORD
  5
1
330
0
100
AcDbSymbolTable
 70
     1
  0
BLOCK_RECORD
  5
1F
330
1
100
AcDbSymbolTableRecord
100
AcDbBlockTableRecord
  2
*Model_Space
340
22
  0
BLOCK_RECORD
  5
1B
330
1
100
AcDbSymbolTableRecord
100
AcDbBlockTableRecord
  2
*Paper_Space
340
1E
  0
BLOCK_RECORD
  5
23
330
1
100
AcDbSymbolTableRecord
100
AcDbBlockTableRecord
  2
*Paper_Space0
340
26
  0
ENDTAB
  0
ENDSEC
  0
SECTION
  2
BLOCKS
  0
BLOCK
  5
20
330
1F
100
AcDbEntity
  8
0
100
AcDbBlockBegin
  2
*Model_Space
 70
     0
 10
0.0
 20
0.0
 30
0.0
  3
*Model_Space
  1

  0
ENDBLK
  5
21
330
1F
100
AcDbEntity
  8
0
100
AcDbBlockEnd
  0
BLOCK
  5
1C
330
1B
100
AcDbEntity
 67
     1
  8
0
100
AcDbBlockBegin
  2
*Paper_Space
 70
     0
 10
0.0
 20
0.0
 30
0.0
  3
*Paper_Space
  1

  0
ENDBLK
  5
1D
330
1B
100
AcDbEntity
 67
     1
  8
0
100
AcDbBlockEnd
  0
BLOCK
  5
24
330
23
100
AcDbEntity
  8
0
100
AcDbBlockBegin
  2
*Paper_Space0
 70
     0
 10
0.0
 20
0.0
 30
0.0
  3
*Paper_Space0
  1

  0
ENDBLK
  5
25
330
23
100
AcDbEntity
  8
0
100
AcDbBlockEnd
  0
ENDSEC
  0
SECTION
  2
ENTITIES
  0
ARC
  5
73
330
1F
100
AcDbEntity
  8
0
  6
Continuous
 62
     7
100
AcDbCircle
 10
6256.0036949279
 20
5257.7731200589
 30
0.0
 40
0.4999999999992789
100
AcDbArc
 50
0.0001882476
 51
76.6578818953
  0
ARC
  5
74
330
1F
100
AcDbEntity
  8
0
  6
Continuous
 62
     7
100
AcDbCircle
 10
6247.0036895635
 20
5257.7731197762
 30
0.0
 40
0.5000000000009789
100
AcDbArc
 50
103.3419777227
 51
179.9997793573
  0
ARC
  5
75
330
1F
100
AcDbEntity
  8
0
  6
Continuous
 62
     7
100
AcDbCircle
 10
6251.5036928417
 20
5238.7994545927
 30
0.0
 40
20.00000000000011
100
AcDbArc
 50
76.6576362029
 51
103.3423637971
  0
CIRCLE
  5
76
330
1F
100
AcDbEntity
  8
0
  6
Continuous
 62
     7
100
AcDbCircle
 10
6310.9236308417
 20
5152.8858906927
 30
0.0
 40
0.505037099999754
  0
CIRCLE
  5
77
330
1F
100
AcDbEntity
  8
0
  6
Continuous
 62
     7
100
AcDbCircle
 10
6310.9236308417
 20
5152.8858906927
 30
0.0
 40
0.5814415000004374
  0
ARC
  5
78
330
1F
100
AcDbEntity
  8
0
  6
Continuous
 62
     7
100
AcDbCircle
 10
6176.5036988022
 20
5286.6994544251
 30
0.0
 40
10.0
100
AcDbArc
 50
90.0000546413
 51
179.9999987195
  0
ARC
  5
79
330
1F
100
AcDbEntity
  8
0
  6
Continuous
 62
     7
100
AcDbCircle
 10
6176.5036988022
 20
5136.6994605532
 30
0.0
 40
10.00000000000091
100
AcDbArc
 50
180.0000546418
 51
269.9999453588
  0
ARC
  5
7A
330
1F
100
AcDbEntity
  8
0
  6
Continuous
 62
     7
100
AcDbCircle
 10
6326.5036926741
 20
5136.6994605532
 30
0.0
 40
10.00000000000091
100
AcDbArc
 50
270.0000012805
 51
359.9999453582
  0
ARC
  5
7B
330
1F
100
AcDbEntity
  8
0
  6
Continuous
 62
     7
100
AcDbCircle
 10
6326.5036926741
 20
5286.6994544251
 30
0.0
 40
9.999999999999094
100
AcDbArc
 50
0.0000012806
 51
89.9999987194
  0
ARC
  5
7C
330
1F
100
AcDbEntity
  8
0
  6
Continuous
 62
     7
100
AcDbCircle
 10
6251.503690383
 20
5234.6994491829
 30
0.0
 40
18.10000000000136
100
AcDbArc
 50
343.2536421595
 51
196.7463578405
  0
ARC
  5
7D
330
1F
100
AcDbEntity
  8
0
  6
Continuous
 62
     7
100
AcDbCircle
 10
6251.503695971
 20
5216.9994535302
 30
0.0
 40
13.00000000000004
100
AcDbArc
 50
196.7463742117
 51
343.2536257883
  0
ARC
  5
7E
330
1F
100
AcDbEntity
  8
0
  6
Continuous
 62
     7
100
AcDbCircle
 10
6251.503695971
 20
5216.9994535302
 30
0.0
 40
15.00000036478615
100
AcDbArc
 50
196.7463788413
 51
343.2536211586
  0
ARC
  5
7F
330
1F
100
AcDbEntity
  8
0
  6
Continuous
 62
     7
100
AcDbCircle
 10
6251.503690383
 20
5234.6994491829
 30
0.0
 40
20.09999929130063
100
AcDbArc
 50
343.2536472443
 51
196.7463527557
  0
ARC
  5
80
330
1F
100
AcDbEntity
  8
0
  6
Continuous
 62
     7
100
AcDbCircle
 10
6251.503690383
 20
5234.6994491829
 30
0.0
 40
23.49999954664509
100
AcDbArc
 50
102.2844851928
 51
228.1316894346
  0
ARC
  5
81
330
1F
100
AcDbEntity
  8
0
  6
Continuous
 62
     7
100
AcDbCircle
 10
6251.503690383
 20
5234.6994491829
 30
0.0
 40
23.50000171928568
100
AcDbArc
 50
312.048654586
 51
77.7155030928
  0
ARC
  5
82
330
1F
100
AcDbEntity
  8
0
  6
Continuous
 62
     7
100
AcDbCircle
 10
6251.503690383
 20
5234.6994491829
 30
0.0
 40
28.49999570497053
100
AcDbArc
 50
296.7987286049
 51
309.044692359
  0
ARC
  5
83
330
1F
100
AcDbEntity
  8
0
  6
Continuous
 62
     7
100
AcDbCircle
 10
6251.503690383
 20
5234.6994491829
 30
0.0
 40
28.49999570497053
100
AcDbArc
 50
309.044692359
 51
243.201280219
  0
ARC
  5
84
330
1F
100
AcDbEntity
  8
0
  6
Continuous
 62
     7
100
AcDbCircle
 10
6251.503690383
 20
5234.6994491829
 30
0.0
 40
23.24999956194704
100
AcDbArc
 50
102.4186727216
 51
226.9188655414
  0
ARC
  5
85
330
1F
100
AcDbEntity
  8
0
  6
Continuous
 62
     7
100
AcDbCircle
 10
6251.503690383
 20
5234.6994491829
 30
0.0
 40
23.25000177002965
100
AcDbArc
 50
313.0811433094
 51
77.581315444
  0
ARC
  5
86
330
1F
100
AcDbEntity
  8
0
  6
Continuous
 62
     7
100
AcDbCircle
 10
6251.503690383
 20
5234.6994491829
 30
0.0
 40
28.29999570650071
100
AcDbArc
 50
297.4312122875
 51
309.0446924345
  0
ARC
  5
87
330
1F
100
AcDbEntity
  8
0
  6
Continuous
 62
     7
100
AcDbCircle
 10
6251.503690383
 20
5234.6994491829
 30
0.0
 40
28.29999570650071
100
AcDbArc
 50
309.0446924345
 51
242.5687965487
  0
ARC
  5
88
330
1F
100
AcDbEntity
  8
0
  6
Continuous
 62
     7
100
AcDbCircle
 10
6696.4060181567
 20
5252.7994534245
 30
0.0
 40
1.999999999999559
100
AcDbArc
 50
359.9999906062
 51
90.0001161128
  0
ARC
  5
89
330
1F
100
AcDbEntity
  8
0
  6
Continuous
 62
     7
100
AcDbCircle
 10
6690.2060172507
 20
5211.599450933
 30
0.0
 40
3.000000000000413
100
AcDbArc
 50
0.0000698951
 51
90.000072399
  0
ARC
  5
8A
330
1F
100
AcDbEntity
  8
0
  6
Continuous
 62
     7
100
AcDbCircle
 10
6693.7060195396
 20
5202.4994537106
 30
0.0
 40
0.5000000000001174
100
AcDbArc
 50
179.9998838795
 51
269.9992623399
  0
ARC
  5
8B
330
1F
100
AcDbEntity
  8
0
  6
Continuous
 62
     7
100
AcDbCircle
 10
6696.4060181567
 20
5203.9994537106
 30
0.0
 40
2.000000000000469
100
AcDbArc
 50
269.9998838871
 51
0.0001161129
  0
ARC
  5
8C
330
1F
100
AcDbEntity
  8
0
  6
Continuous
 62
     7
100
AcDbCircle
 10
6689.9060168454
 20
5257.7731206498
 30
0.0
 40
0.5000000000001968
100
AcDbArc
 50
0.0001205347
 51
76.6575884701
  0
ARC
  5
8D
330
1F
100
AcDbEntity
  8
0
  6
Continuous
 62
     7
100
AcDbCircle
 10
6680.906011481
 20
5257.7731191853
 30
0.0
 40
0.5000000000017846
100
AcDbArc
 50
103.3416842983
 51
179.9997116465
  0
ARC
  5
8E
330
1F
100
AcDbEntity
  8
0
  6
Continuous
 62
     7
100
AcDbCircle
 10
6685.4060172507
 20
5238.7994545927
 30
0.0
 40
20.00000000000032
100
AcDbArc
 50
76.6576362029
 51
103.3423637971
  0
ARC
  5
8F
330
1F
100
AcDbEntity
  8
0
  6
Continuous
 62
     7
100
AcDbCircle
 10
6644.6060172508
 20
5206.3994577518
 30
0.0
 40
0.19999999999974
100
AcDbArc
 50
180.0009050149
 51
269.9997609408
  0
ARC
  5
90
330
1F
100
AcDbEntity
  8
0
  6
Continuous
 62
     7
100
AcDbCircle
 10
6644.6060172508
 20
5262.9994540563
 30
0.0
 40
0.2000000000014469
100
AcDbArc
 50
90.0002390665
 51
179.999846333
  0
ARC
  5
91
330
1F
100
AcDbEntity
  8
0
  6
Continuous
 62
     7
100
AcDbCircle
 10
6647.2060191104
 20
5206.3994577518
 30
0.0
 40
0.2000000000002785
100
AcDbArc
 50
269.9990301139
 51
359.9988354432
  0
ARC
  5
92
330
1F
100
AcDbEntity
  8
0
  6
Continuous
 62
     7
100
AcDbCircle
 10
6647.2060191104
 20
5262.9994540563
 30
0.0
 40
0.2000000000010161
100
AcDbArc
 50
0.0000973088
 51
90.0009698741
  0
ARC
  5
93
330
1F
100
AcDbEntity
  8
0
  6
Continuous
 62
     7
100
AcDbCircle
 10
6632.8763384364
 20
5235.8994545922
 30
0.0
 40
0.5000000000000083
100
AcDbArc
 50
147.7243556854
 51
262.563050278
  0
ARC
  5
94
330
1F
100
AcDbEntity
  8
0
  6
Continuous
 62
     7
100
AcDbCircle
 10
6633.3560186813
 20
5173.9294573536
 30
0.0
 40
0.5000000000005115
100
AcDbArc
 50
180.0007376601
 51
270.0001161088
  0
ARC
  5
95
330
1F
100
AcDbEntity
  8
0
  6
Continuous
 62
     7
100
AcDbCircle
 10
6631.7060172507
 20
5191.1794545927
 30
0.0
 40
1.150000000000543
100
AcDbArc
 50
290.3544063982
 51
69.6455936018
  0
ARC
  5
96
330
1F
100
AcDbEntity
  8
0
  6
Continuous
 62
     7
100
AcDbCircle
 10
6631.7060186813
 20
5180.879454062
 30
0.0
 40
1.15000000000152
100
AcDbArc
 50
0.0001366749
 51
69.6456696249
  0
ARC
  5
97
330
1F
100
AcDbEntity
  8
0
  6
Continuous
 62
     7
100
AcDbCircle
 10
6629.2560172507
 20
5289.3994545927
 30
0.0
 40
0.1999999999998239
100
AcDbArc
 50
270.0
 51
32.7790806675
  0
ARC
  5
98
330
1F
100
AcDbEntity
  8
0
  6
Continuous
 62
     7
100
AcDbCircle
 10
6622.9560172507
 20
5289.3994545927
 30
0.0
 40
0.2000000000005886
100
AcDbArc
 50
147.2209193326
 51
270.0
  0
ARC
  5
99
330
1F
100
AcDbEntity
  8
0
  6
Continuous
 62
     7
100
AcDbCircle
 10
6627.6060172484
 20
5288.3369545963
 30
0.0
 40
2.162500000000775
100
AcDbArc
 50
32.7790805545
 51
89.9999478226
  0
ARC
  5
9A
330
1F
100
AcDbEntity
  8
0
  6
Continuous
 62
     7
100
AcDbCircle
 10
6624.606017253
 20
5288.3369545963
 30
0.0
 40
2.162500000000555
100
AcDbArc
 50
89.9999116233
 51
147.2209194455
  0
ARC
  5
9B
330
1F
100
AcDbEntity
  8
0
  6
Continuous
 62
     7
100
AcDbCircle
 10
6622.9560172507
 20
5133.9994545927
 30
0.0
 40
0.1999999999998181
100
AcDbArc
 50
89.9999999995
 51
212.7790806686
  0
ARC
  5
9C
330
1F
100
AcDbEntity
  8
0
  6
Continuous
 62
     7
100
AcDbCircle
 10
6629.2560172507
 20
5133.9994545927
 30
0.0
 40
0.2000000000007276
100
AcDbArc
 50
327.2209193319
 51
89.9999999997
  0
ARC
  5
9D
330
1F
100
AcDbEntity
  8
0
  6
Continuous
 62
     7
100
AcDbCircle
 10
6624.606012998
 20
5135.0619611969
 30
0.0
 40
2.162500000000043
100
AcDbArc
 50
212.7792887873
 51
270.0002011145
  0
ARC
  5
9E
330
1F
100
AcDbEntity
  8
0
  6
Continuous
 62
     7
100
AcDbCircle
 10
6627.6060215034
 20
5135.0619611969
 30
0.0
 40
2.162500000000662
100
AcDbArc
 50
269.9999394395
 51
327.2207112123
  0
ARC
  5
9F
330
1F
100
AcDbEntity
  8
0
  6
Continuous
 62
     7
100
AcDbCircle
 10
6634.4060204813
 20
5136.6994605532
 30
0.0
 40
10.00000000000091
100
AcDbArc
 50
269.9999692642
 51
359.9999453582
  0
ARC
  5
A0
330
1F
100
AcDbEntity
  8
0
  6
Continuous
 62
     7
100
AcDbCircle
 10
6634.4060204813
 20
5286.6994544251
 30
0.0
 40
10.0
100
AcDbArc
 50
0.0000012805
 51
90.0000307358
  0
ARC
  5
A1
330
1F
100
AcDbEntity
  8
0
  6
Continuous
 62
     7
100
AcDbCircle
 10
6632.6618103804
 20
5235.5632616666
 30
0.0
 40
0.5009424738374266
100
AcDbArc
 50
153.7832378272
 51
266.9488188906
  0
ARC
  5
A2
330
1F
100
AcDbEntity
  8
0
  6
Continuous
 62
     7
100
AcDbCircle
 10
6632.6060154626
 20
5237.3441293513
 30
0.0
 40
0.5000000000003544
100
AcDbArc
 50
327.7244583221
 51
359.9999475845
  0
ARC
  5
A3
330
1F
100
AcDbEntity
  8
0
  6
Continuous
 62
     7
100
AcDbCircle
 10
6633.4069571031
 20
5236.8398471233
 30
0.0
 40
0.4464724293294857
100
AcDbArc
 50
147.8952014693
 51
183.8153464714
  0
ARC
  5
A4
330
1F
100
AcDbEntity
  8
0
  6
Continuous
 62
     7
100
AcDbCircle
 10
6633.4825458589
 20
5236.9920708555
 30
0.0
 40
0.4445920270029044
100
AcDbArc
 50
158.1466085658
 51
182.7169445732
  0
CIRCLE
  5
A5
330
1F
100
AcDbEntity
  8
0
  6
Continuous
 62
     7
100
AcDbCircle
 10
6582.1060172507
 20
5269.1994545927
 30
0.0
 40
5.0
  0
CIRCLE
  5
A6
330
1F
100
AcDbEntity
  8
0
  6
Continuous
 62
     7
100
AcDbCircle
 10
6582.1060172507
 20
5154.1994545927
 30
0.0
 40
5.0
  0
ARC
  5
A7
330
1F
100
AcDbEntity
  8
0
  6
Continuous
 62
     7
100
AcDbCircle
 10
6632.1060172507
 20
5137.2065613739
 30
0.0
 40
0.8000000000010914
100
AcDbArc
 50
270.0
 51
0.0
  0
ARC
  5
A8
330
1F
100
AcDbEntity
  8
0
  6
Continuous
 62
     7
100
AcDbCircle
 10
6632.1060172507
 20
5137.2065613739
 30
0.0
 40
1.799995780106519
100
AcDbArc
 50
270.0001157346
 51
0.0001897226
  0
ARC
  5
A9
330
1F
100
AcDbEntity
  8
0
  6
Continuous
 62
     7
100
AcDbCircle
 10
6632.1060141036
 20
5286.192347846
 30
0.0
 40
1.800000000001139
100
AcDbArc
 50
0.0
 51
89.9997840904
  0
ARC
  5
AA
330
1F
100
AcDbEntity
  8
0
  6
Continuous
 62
     7
100
AcDbCircle
 10
6632.1060141036
 20
5286.192347846
 30
0.0
 40
0.8000015562984125
100
AcDbArc
 50
359.9999975284
 51
89.9997746056
  0
ARC
  5
AB
330
1F
100
AcDbEntity
  8
0
  6
Continuous
 62
     7
100
AcDbCircle
 10
6269.6036934914
 20
4787.6999495883
 30
0.0
 40
2.000000000001378
100
AcDbArc
 50
269.9999906091
 51
0.0001161127
  0
ARC
  5
AC
330
1F
100
AcDbEntity
  8
0
  6
Continuous
 62
     7
100
AcDbCircle
 10
6233.4036947252
 20
4787.6999495883
 30
0.0
 40
2.000000000000469
100
AcDbArc
 50
179.9998838872
 51
269.9999026717
  0
ARC
  5
AD
330
1F
100
AcDbEntity
  8
0
  6
Continuous
 62
     7
100
AcDbCircle
 10
6223.2036940934
 20
4839.4999504942
 30
0.0
 40
0.200000000000097
100
AcDbArc
 50
90.0003585849
 51
179.9997609343
  0
ARC
  5
AE
330
1F
100
AcDbEntity
  8
0
  6
Continuous
 62
     7
100
AcDbCircle
 10
6279.8036941232
 20
4839.4999504942
 30
0.0
 40
0.1999999999993763
100
AcDbArc
 50
0.0002390655
 51
90.0003671237
  0
ARC
  5
AF
330
1F
100
AcDbEntity
  8
0
  6
Continuous
 62
     7
100
AcDbCircle
 10
6223.2036940934
 20
4836.8999486346
 30
0.0
 40
0.2000000000002785
100
AcDbArc
 50
179.9990301139
 51
269.9988354716
  0
ARC
  5
B0
330
1F
100
AcDbEntity
  8
0
  6
Continuous
 62
     7
100
AcDbCircle
 10
6279.8036941232
 20
4836.8999486346
 30
0.0
 40
0.2000000000001067
100
AcDbArc
 50
270.0000973372
 51
0.0009698741
  0
ARC
  5
B1
330
1F
100
AcDbEntity
  8
0
  6
Continuous
 62
     7
100
AcDbCircle
 10
6208.2142768724
 20
4851.4999530051
 30
0.0
 40
0.5000000000014454
100
AcDbArc
 50
269.9991227701
 51
322.6488179313
  0
ARC
  5
B2
330
1F
100
AcDbEntity
  8
0
  6
Continuous
 62
     7
100
AcDbCircle
 10
6229.5036915711
 20
4852.6974455152
 30
0.0
 40
2.000000000001375
100
AcDbArc
 50
272.8660553084
 51
339.5892736158
  0
ARC
  5
B3
330
1F
100
AcDbEntity
  8
0
  6
Continuous
 62
     7
100
AcDbCircle
 10
6329.9036928643
 20
4896.1999513645
 30
0.0
 40
0.8000000000004267
100
AcDbArc
 50
269.9999972784
 51
359.9999026687
  0
ARC
  5
B4
330
1F
100
AcDbEntity
  8
0
  6
Continuous
 62
     7
100
AcDbCircle
 10
6329.9036928643
 20
4907.799951293
 30
0.0
 40
0.8000000000003404
100
AcDbArc
 50
359.9999639251
 51
90.0000027215
  0
CIRCLE
  5
B5
330
1F
100
AcDbEntity
  8
0
  6
Continuous
 62
     7
100
AcDbCircle
 10
6186.0036928417
 20
4857.9999504943
 30
0.0
 40
3.349999999998545
  0
CIRCLE
  5
B6
330
1F
100
AcDbEntity
  8
0
  6
Continuous
 62
     7
100
AcDbCircle
 10
6317.0036928417
 20
4857.9999504943
 30
0.0
 40
3.349999999999454
  0
ARC
  5
B7
330
1F
100
AcDbEntity
  8
0
  6
Continuous
 62
     7
100
AcDbCircle
 10
6326.5036926741
 20
4849.6999472637
 30
0.0
 40
10.00000000000091
100
AcDbArc
 50
270.0000012806
 51
0.0000307357
  0
ARC
  5
B8
330
1F
100
AcDbEntity
  8
0
  6
Continuous
 62
     7
100
AcDbCircle
 10
6176.5036988022
 20
4849.6999472637
 30
0.0
 40
10.00000000000182
100
AcDbArc
 50
179.9999692642
 51
269.9999453587
  0
CIRCLE
  5
B9
330
1F
100
AcDbEntity
  8
0
  6
Continuous
 62
     7
100
AcDbCircle
 10
6251.5036928417
 20
4798.6999504943
 30
0.0
 40
4.615384615384755
  0
CIRCLE
  5
BA
330
1F
100
AcDbEntity
  8
0
  6
Continuous
 62
     7
100
AcDbCircle
 10
6251.5036928417
 20
4798.6999504943
 30
0.0
 40
5.0
  0
ARC
  5
BB
330
1F
100
AcDbEntity
  8
0
  6
Continuous
 62
     7
100
AcDbCircle
 10
6251.5036903394
 20
4917.9999488581
 30
0.0
 40
13.2204999999998
100
AcDbArc
 50
33.1797476096
 51
123.1797239496
  0
CIRCLE
  5
BC
330
1F
100
AcDbEntity
  8
0
  6
Continuous
 62
     7
100
AcDbCircle
 10
6251.5036903394
 20
4917.9999488581
 30
0.0
 40
11.72050250229597
  0
CIRCLE
  5
BD
330
1F
100
AcDbEntity
  8
0
  6
Continuous
 62
     7
100
AcDbCircle
 10
6251.5036903394
 20
4917.9999488581
 30
0.0
 40
9.750002502296548
  0
ARC
  5
BE
330
1F
100
AcDbEntity
  8
0
  6
Continuous
 62
     7
100
AcDbCircle
 10
6196.5039063321
 20
4858.2490500905
 30
0.0
 40
6.999099928077515
100
AcDbArc
 50
270.4083003749
 51
296.767259549
  0
ARC
  5
BF
330
1F
100
AcDbEntity
  8
0
  6
Continuous
 62
     7
100
AcDbCircle
 10
6196.5036928417
 20
4858.2499504943
 30
0.0
 40
6.999999999999725
100
AcDbArc
 50
263.3432961074
 51
296.7655005768
  0
ARC
  5
C0
330
1F
100
AcDbEntity
  8
0
  6
Continuous
 62
     7
100
AcDbCircle
 10
6203.7645518109
 20
4851.6459126381
 30
0.0
 40
1.000000000001388
100
AcDbArc
 50
287.7122510717
 51
347.7122871558
  0
ARC
  5
C1
330
1F
100
AcDbEntity
  8
0
  6
Continuous
 62
     7
100
AcDbCircle
 10
6208.1881142093
 20
4851.4763824394
 30
0.0
 40
0.4771468224968244
100
AcDbArc
 50
273.1422676996
 51
2.8312078182
  0
CIRCLE
  5
C2
330
1F
100
AcDbEntity
  8
0
  6
Continuous
 62
     7
100
AcDbCircle
 10
6251.5036903394
 20
4917.9999488581
 30
0.0
 40
9.500002502296551
  0
CIRCLE
  5
C3
330
1F
100
AcDbEntity
  8
0
  6
Continuous
 62
     7
100
AcDbCircle
 10
6251.5036903394
 20
4917.9999488581
 30
0.0
 40
7.500002502297499
  0
CIRCLE
  5
C4
330
1F
100
AcDbEntity
  8
0
  6
Continuous
 62
     7
100
AcDbCircle
 10
6251.5036903394
 20
4917.9999488581
 30
0.0
 40
4.500002502295799
  0
CIRCLE
  5
C5
330
1F
100
AcDbEntity
  8
0
  6
Continuous
 62
     7
100
AcDbCircle
 10
6186.0036928417
 20
4857.9999504943
 30
0.0
 40
1.500000000000909
  0
CIRCLE
  5
C6
330
1F
100
AcDbEntity
  8
0
  6
Continuous
 62
     7
100
AcDbCircle
 10
6186.0036928417
 20
4857.9999504943
 30
0.0
 40
3.31815286624078
  0
CIRCLE
  5
C7
330
1F
100
AcDbEntity
  8
0
  6
Continuous
 62
     7
100
AcDbCircle
 10
6186.0036928417
 20
4857.9999504943
 30
0.0
 40
1.249999999998181
  0
CIRCLE
  5
C8
330
1F
100
AcDbEntity
  8
0
  6
Continuous
 62
     7
100
AcDbCircle
 10
6186.0036928417
 20
4857.9999504943
 30
0.0
 40
1.049999999999272
  0
CIRCLE
  5
C9
330
1F
100
AcDbEntity
  8
0
  6
Continuous
 62
     7
100
AcDbCircle
 10
6317.0036928417
 20
4857.9999504943
 30
0.0
 40
1.500000000000909
  0
CIRCLE
  5
CA
330
1F
100
AcDbEntity
  8
0
  6
Continuous
 62
     7
100
AcDbCircle
 10
6317.0036928417
 20
4857.9999504943
 30
0.0
 40
3.318152866242599
  0
CIRCLE
  5
CB
330
1F
100
AcDbEntity
  8
0
  6
Continuous
 62
     7
100
AcDbCircle
 10
6317.0036928417
 20
4857.9999504943
 30
0.0
 40
1.250000000000909
  0
CIRCLE
  5
CC
330
1F
100
AcDbEntity
  8
0
  6
Continuous
 62
     7
100
AcDbCircle
 10
6317.0036928417
 20
4857.9999504943
 30
0.0
 40
1.050000000001091
  0
CIRCLE
  5
CD
330
1F
100
AcDbEntity
  8
0
  6
Continuous
 62
     7
100
AcDbCircle
 10
6274.0036928417
 20
4901.9999504943
 30
0.0
 40
5.0
  0
CIRCLE
  5
CE
330
1F
100
AcDbEntity
  8
0
  6
Continuous
 62
     7
100
AcDbCircle
 10
6229.0036928417
 20
4901.9999504943
 30
0.0
 40
5.0
  0
ARC
  5
CF
330
1F
100
AcDbEntity
  8
0
  6
Continuous
 62
     7
100
AcDbCircle
 10
6327.2036928417
 20
4851.9999536414
 30
0.0
 40
1.800000000000229
100
AcDbArc
 50
270.0
 51
359.9997840904
  0
ARC
  5
D0
330
1F
100
AcDbEntity
  8
0
  6
Continuous
 62
     7
100
AcDbCircle
 10
6327.2036928417
 20
4851.9999536414
 30
0.0
 40
0.799999952516373
100
AcDbArc
 50
269.9999999991
 51
359.9995142034
  0
ARC
  5
D1
330
1F
100
AcDbEntity
  8
0
  6
Continuous
 62
     7
100
AcDbCircle
 10
6175.8036910894
 20
4851.9999504943
 30
0.0
 40
0.7999974132030534
100
AcDbArc
 50
180.0002604026
 51
269.9999402339
  0
ARC
  5
D2
330
1F
100
AcDbEntity
  8
0
  6
Continuous
 62
     7
100
AcDbCircle
 10
6175.8036910894
 20
4851.9999504943
 30
0.0
 40
1.799999439698299
100
AcDbArc
 50
180.0001157341
 51
269.9999567419
  0
ARC
  5
D3
330
1F
100
AcDbEntity
  8
0
  6
Continuous
 62
     7
100
AcDbCircle
 10
6208.3283662669
 20
4851.4023467651
 30
0.0
 40
0.3501892234289415
100
AcDbArc
 50
324.0187907745
 51
16.1836589764
  0
ELLIPSE
  5
D4
330
1F
100
AcDbEntity
  8
0
  6
Continuous
 62
     7
100
AcDbEllipse
 10
6625.8560172507
 20
5205.6994545922
 30
0.0
 11
0.0
 21
86.99999999999909
 31
0.0
210
0.0
220
0.0
230
1.0
 40
0.0833333333
 41
4.82276622409689
 42
4.885668616802253
  0
ELLIPSE
  5
D5
330
1F
100
AcDbEntity
  8
0
  6
Continuous
 62
     7
100
AcDbEllipse
 10
6625.8560172507
 20
5212.2827879256
 30
0.0
 11
0.0
 21
12.42857142857247
 31
0.0
210
0.0
220
0.0
230
1.0
 40
0.5833333333
 41
4.712388980384625
 42
4.956175918853043
  0
ELLIPSE
  5
D6
330
1F
100
AcDbEntity
  8
0
  6
Continuous
 62
     7
100
AcDbEllipse
 10
6625.8560172507
 20
5212.2827879256
 30
0.0
 11
0.0
 21
12.77142857142826
 31
0.0
210
0.0
220
0.0
230
1.0
 40
0.5833333333
 41
4.712388980384698
 42
4.944624290647567
  0
ELLIPSE
  5
D7
330
1F
100
AcDbEntity
  8
0
  6
Continuous
 62
     7
100
AcDbEllipse
 10
6625.8560172507
 20
5205.6994545922
 30
0.0
 11
0.0
 21
89.39999999999964
 31
0.0
210
0.0
220
0.0
230
1.0
 40
0.0833333333
 41
4.813230946486223
 42
4.880971603876489
  0
ELLIPSE
  5
D8
330
1F
100
AcDbEntity
  8
0
  6
Continuous
 62
     7
100
AcDbEllipse
 10
6625.8560172478
 20
5214.2619545917
 30
0.0
 11
7.449999999998908
 21
0.0
 31
0.0
210
0.0
220
0.0
230
1.0
 40
0.5833333333
 41
0.100841966222377
 42
0.2322353102630242
  0
ELLIPSE
  5
D9
330
1F
100
AcDbEntity
  8
0
  6
Continuous
 62
     7
100
AcDbEllipse
 10
6196.5036935643
 20
4855.0650085578
 30
0.0
 11
13.5
 21
0.0
 31
0.0
210
0.0
220
0.0
230
1.0
 40
0.6081871345
 41
5.834028881449118
 42
5.900612677494912
  0
LINE
  5
DA
330
1F
100
AcDbEntity
  8
0
  6
Continuous
 62
     7
100
AcDbLine
 10
6256.5036949279
 20
5254.1743757894
 30
0.0
 11
6256.5036949279
 21
5257.7731217017
 31
0.0
  0
LINE
  5
DB
330
1F
100
AcDbEntity
  8
0
  6
Continuous
 62
     7
100
AcDbLine
 10
6246.5036895635
 20
5257.7731217017
 30
0.0
 11
6246.5036895635
 21
5254.1826533845
 31
0.0
  0
LINE
  5
DC
330
1F
100
AcDbEntity
  8
0
  6
Continuous
 62
     7
100
AcDbLine
 10
6264.0383627774
 20
5311.885287868
 30
0.0
 11
6263.2241931321
 21
5312.6994537881
 31
0.0
  0
LINE
  5
DD
330
1F
100
AcDbEntity
  8
0
  6
Continuous
 62
     7
100
AcDbLine
 10
6239.7831913593
 20
5312.6994537881
 30
0.0
 11
6238.4430852296
 21
5311.3593495211
 31
0.0
  0
LINE
  5
DE
330
1F
100
AcDbEntity
  8
0
  6
Continuous
 62
     7
100
AcDbLine
 10
6264.724196172
 20
5310.6572980752
 30
0.0
 11
6264.724196172
 21
5311.0543730428
 31
0.0
  0
LINE
  5
DF
330
1F
100
AcDbEntity
  8
0
  6
Continuous
 62
     7
100
AcDbLine
 10
6264.724196172
 20
5309.0697972795
 30
0.0
 11
6264.724196172
 21
5309.4668722471
 31
0.0
  0
LINE
  5
E0
330
1F
100
AcDbEntity
  8
0
  6
Continuous
 62
     7
100
AcDbLine
 10
6264.724196172
 20
5307.4822983464
 30
0.0
 11
6264.724196172
 21
5307.8793714514
 31
0.0
  0
LINE
  5
E1
330
1F
100
AcDbEntity
  8
0
  6
Continuous
 62
     7
100
AcDbLine
 10
6264.724196172
 20
5305.8947975507
 30
0.0
 11
6264.724196172
 21
5306.2918725183
 31
0.0
  0
LINE
  5
E2
330
1F
100
AcDbEntity
  8
0
  6
Continuous
 62
     7
100
AcDbLine
 10
6264.724196172
 20
5304.3072976863
 30
0.0
 11
6264.724196172
 21
5304.7043726539
 31
0.0
  0
LINE
  5
E3
330
1F
100
AcDbEntity
  8
0
  6
Continuous
 62
     7
100
AcDbLine
 10
6238.28319577
 20
5303.9105226045
 30
0.0
 11
6238.28319577
 21
5303.6994541755
 31
0.0
  0
LINE
  5
E4
330
1F
100
AcDbEntity
  8
0
  6
Continuous
 62
     7
100
AcDbLine
 10
6238.28319577
 20
5305.4980224689
 30
0.0
 11
6238.28319577
 21
5305.1010424962
 31
0.0
  0
LINE
  5
E5
330
1F
100
AcDbEntity
  8
0
  6
Continuous
 62
     7
100
AcDbLine
 10
6238.28319577
 20
5307.0855232647
 30
0.0
 11
6238.28319577
 21
5306.6885432919
 31
0.0
  0
LINE
  5
E6
330
1F
100
AcDbEntity
  8
0
  6
Continuous
 62
     7
100
AcDbLine
 10
6238.28319577
 20
5308.6730221977
 30
0.0
 11
6238.28319577
 21
5308.276042225
 31
0.0
  0
LINE
  5
E7
330
1F
100
AcDbEntity
  8
0
  6
Continuous
 62
     7
100
AcDbLine
 10
6238.28319577
 20
5310.2605229935
 30
0.0
 11
6238.28319577
 21
5309.8635430207
 31
0.0
  0
LINE
  5
E8
330
1F
100
AcDbEntity
  8
0
  6
Continuous
 62
     7
100
AcDbLine
 10
6263.8570677998
 20
5311.7397314629
 30
0.0
 11
6264.0286472203
 21
5311.8388558498
 31
0.0
  0
LINE
  5
E9
330
1F
100
AcDbEntity
  8
0
  6
Continuous
 62
     7
100
AcDbLine
 10
6239.1424786808
 20
5309.3681818565
 30
0.0
 11
6239.1424786808
 21
5309.1738502255
 31
0.0
  0
LINE
  5
EA
330
1F
100
AcDbEntity
  8
0
  6
Continuous
 62
     7
100
AcDbLine
 10
6239.1424786808
 20
5307.7806810608
 30
0.0
 11
6239.1424786808
 21
5307.5863512924
 31
0.0
  0
LINE
  5
EB
330
1F
100
AcDbEntity
  8
0
  6
Continuous
 62
     7
100
AcDbLine
 10
6239.1424786808
 20
5306.1931821277
 30
0.0
 11
6239.1424786808
 21
5305.9988504967
 31
0.0
  0
LINE
  5
EC
330
1F
100
AcDbEntity
  8
0
  6
Continuous
 62
     7
100
AcDbLine
 10
6239.1424786808
 20
5304.605681332
 30
0.0
 11
6239.1424786808
 21
5304.4113506323
 31
0.0
  0
LINE
  5
ED
330
1F
100
AcDbEntity
  8
0
  6
Continuous
 62
     7
100
AcDbLine
 10
6263.8649058106
 20
5309.9634944221
 30
0.0
 11
6263.8649058106
 21
5310.1567606201
 31
0.0
  0
LINE
  5
EE
330
1F
100
AcDbEntity
  8
0
  6
Continuous
 62
     7
100
AcDbLine
 10
6263.8649058106
 20
5308.3759936264
 30
0.0
 11
6263.8649058106
 21
5308.5692616871
 31
0.0
  0
LINE
  5
EF
330
1F
100
AcDbEntity
  8
0
  6
Continuous
 62
     7
100
AcDbLine
 10
6263.8649058106
 20
5306.7884946933
 30
0.0
 11
6263.8649058106
 21
5306.9817608913
 31
0.0
  0
LINE
  5
F0
330
1F
100
AcDbEntity
  8
0
  6
Continuous
 62
     7
100
AcDbLine
 10
6263.8649058106
 20
5305.2009938976
 30
0.0
 11
6263.8649058106
 21
5305.3942619583
 31
0.0
  0
LINE
  5
F1
330
1F
100
AcDbEntity
  8
0
  6
Continuous
 62
     7
100
AcDbLine
 10
6263.8649058106
 20
5303.6994541755
 30
0.0
 11
6263.8649058106
 21
5303.8067611625
 31
0.0
  0
LINE
  5
F2
330
1F
100
AcDbEntity
  8
0
  6
Continuous
 62
     7
100
AcDbLine
 10
6263.8649058106
 20
5311.5509933552
 30
0.0
 11
6263.8649058106
 21
5311.7442614159
 31
0.0
  0
LINE
  5
F3
330
1F
100
AcDbEntity
  8
0
  6
Continuous
 62
     7
100
AcDbLine
 10
6239.1424786808
 20
5310.9556807896
 30
0.0
 11
6239.1424786808
 21
5310.7613510212
 31
0.0
  0
LINE
  5
F4
330
1F
100
AcDbEntity
  8
0
  6
Continuous
 62
     7
100
AcDbLine
 10
6191.1199998619
 20
5115.8626506796
 30
0.0
 11
6192.2831994059
 21
5114.6994511357
 31
0.0
  0
LINE
  5
F5
330
1F
100
AcDbEntity
  8
0
  6
Continuous
 62
     7
100
AcDbLine
 10
6216.9345554473
 20
5115.9098128548
 30
0.0
 11
6217.2241893174
 21
5116.1994616261
 31
0.0
  0
LINE
  5
F6
330
1F
100
AcDbEntity
  8
0
  6
Continuous
 62
     7
100
AcDbLine
 10
6215.7241937278
 20
5114.6994511357
 30
0.0
 11
6216.375054097
 21
5115.3503189553
 31
0.0
  0
LINE
  5
F7
330
1F
100
AcDbEntity
  8
0
  6
Continuous
 62
     7
100
AcDbLine
 10
6190.9086417916
 20
5123.6994544735
 30
0.0
 11
6190.7896560194
 21
5123.6307154169
 31
0.0
  0
LINE
  5
F8
330
1F
100
AcDbEntity
  8
0
  6
Continuous
 62
     7
100
AcDbLine
 10
6216.3580220701
 20
5123.5159019699
 30
0.0
 11
6216.6441392662
 21
5123.6811856499
 31
0.0
  0
LINE
  5
F9
330
1F
100
AcDbEntity
  8
0
  6
Continuous
 62
     7
100
AcDbLine
 10
6190.7831889155
 20
5117.2732244005
 30
0.0
 11
6190.7831889155
 21
5116.8762723675
 31
0.0
  0
LINE
  5
FA
330
1F
100
AcDbEntity
  8
0
  6
Continuous
 62
     7
100
AcDbLine
 10
6190.7831889155
 20
5118.8607196083
 30
0.0
 11
6190.7831889155
 21
5118.4637824764
 31
0.0
  0
LINE
  5
FB
330
1F
100
AcDbEntity
  8
0
  6
Continuous
 62
     7
100
AcDbLine
 10
6190.7831889155
 20
5120.4482148161
 30
0.0
 11
6190.7831889155
 21
5120.0512776842
 31
0.0
  0
LINE
  5
FC
330
1F
100
AcDbEntity
  8
0
  6
Continuous
 62
     7
100
AcDbLine
 10
6190.7831889155
 20
5122.0357249251
 30
0.0
 11
6190.7831889155
 21
5121.638772892
 31
0.0
  0
LINE
  5
FD
330
1F
100
AcDbEntity
  8
0
  6
Continuous
 62
     7
100
AcDbLine
 10
6190.7831889155
 20
5123.6994544735
 30
0.0
 11
6190.7831889155
 21
5123.226283001
 31
0.0
  0
LINE
  5
FE
330
1F
100
AcDbEntity
  8
0
  6
Continuous
 62
     7
100
AcDbLine
 10
6217.2241893174
 20
5122.4324236384
 30
0.0
 11
6217.2241893174
 21
5122.8292862644
 31
0.0
  0
LINE
  5
FF
330
1F
100
AcDbEntity
  8
0
  6
Continuous
 62
     7
100
AcDbLine
 10
6217.2241893174
 20
5120.8449135294
 30
0.0
 11
6217.2241893174
 21
5121.2417910566
 31
0.0
  0
LINE
  5
100
330
1F
100
AcDbEntity
  8
0
  6
Continuous
 62
     7
100
AcDbLine
 10
6217.2241893174
 20
5119.2574183216
 30
0.0
 11
6217.2241893174
 21
5119.6542958489
 31
0.0
  0
LINE
  5
101
330
1F
100
AcDbEntity
  8
0
  6
Continuous
 62
     7
100
AcDbLine
 10
6217.2241893174
 20
5117.6699231138
 30
0.0
 11
6217.2241893174
 21
5118.0667857399
 31
0.0
  0
LINE
  5
102
330
1F
100
AcDbEntity
  8
0
  6
Continuous
 62
     7
100
AcDbLine
 10
6217.2241893174
 20
5116.1994616261
 30
0.0
 11
6217.2241893174
 21
5116.4792905321
 31
0.0
  0
LINE
  5
103
330
1F
100
AcDbEntity
  8
0
  6
Continuous
 62
     7
100
AcDbLine
 10
6216.3649362089
 20
5116.9754842987
 30
0.0
 11
6216.3649362089
 21
5117.1698848477
 31
0.0
  0
LINE
  5
104
330
1F
100
AcDbEntity
  8
0
  6
Continuous
 62
     7
100
AcDbLine
 10
6216.3649362089
 20
5118.5629795065
 30
0.0
 11
6216.3649362089
 21
5118.7573949566
 31
0.0
  0
LINE
  5
105
330
1F
100
AcDbEntity
  8
0
  6
Continuous
 62
     7
100
AcDbLine
 10
6216.3649362089
 20
5120.1504747143
 30
0.0
 11
6216.3649362089
 21
5120.3448901644
 31
0.0
  0
LINE
  5
106
330
1F
100
AcDbEntity
  8
0
  6
Continuous
 62
     7
100
AcDbLine
 10
6216.3649362089
 20
5121.7379848232
 30
0.0
 11
6216.3649362089
 21
5121.9323853722
 31
0.0
  0
LINE
  5
107
330
1F
100
AcDbEntity
  8
0
  6
Continuous
 62
     7
100
AcDbLine
 10
6216.3649362089
 20
5123.325480031
 30
0.0
 11
6216.3649362089
 21
5123.5198954811
 31
0.0
  0
LINE
  5
108
330
1F
100
AcDbEntity
  8
0
  6
Continuous
 62
     7
100
AcDbLine
 10
6191.6424494745
 20
5117.9676632157
 30
0.0
 11
6191.6424494745
 21
5117.7733520737
 31
0.0
  0
LINE
  5
109
330
1F
100
AcDbEntity
  8
0
  6
Continuous
 62
     7
100
AcDbLine
 10
6191.6424494745
 20
5119.5551733246
 30
0.0
 11
6191.6424494745
 21
5119.3608472815
 31
0.0
  0
LINE
  5
10A
330
1F
100
AcDbEntity
  8
0
  6
Continuous
 62
     7
100
AcDbLine
 10
6191.6424494745
 20
5121.1426685324
 30
0.0
 11
6191.6424494745
 21
5120.9483573904
 31
0.0
  0
LINE
  5
10B
330
1F
100
AcDbEntity
  8
0
  6
Continuous
 62
     7
100
AcDbLine
 10
6191.6424494745
 20
5122.7301637402
 30
0.0
 11
6191.6424494745
 21
5122.5358525982
 31
0.0
  0
LINE
  5
10C
330
1F
100
AcDbEntity
  8
0
  6
Continuous
 62
     7
100
AcDbLine
 10
6191.6424494745
 20
5116.3801680079
 30
0.0
 11
6191.6424494745
 21
5116.1858568659
 31
0.0
  0
LINE
  5
10D
330
1F
100
AcDbEntity
  8
0
  6
Continuous
 62
     7
100
AcDbLine
 10
6216.3649362089
 20
5115.3879741898
 30
0.0
 11
6216.3649362089
 21
5115.5823896399
 31
0.0
  0
LINE
  5
10E
330
1F
100
AcDbEntity
  8
0
  6
Continuous
 62
     7
100
AcDbLine
 10
6286.2963986161
 20
5115.6862507334
 30
0.0
 11
6287.2831944885
 21
5114.6994511357
 31
0.0
  0
LINE
  5
10F
330
1F
100
AcDbEntity
  8
0
  6
Continuous
 62
     7
100
AcDbLine
 10
6310.7241925361
 20
5114.6994511357
 30
0.0
 11
6312.2241937133
 21
5116.1994616261
 31
0.0
  0
LINE
  5
110
330
1F
100
AcDbEntity
  8
0
  6
Continuous
 62
     7
100
AcDbLine
 10
6286.6502937438
 20
5115.9271876087
 30
0.0
 11
6286.2919096412
 21
5115.7201508751
 31
0.0
  0
LINE
  5
111
330
1F
100
AcDbEntity
  8
0
  6
Continuous
 62
     7
100
AcDbLine
 10
6285.7831914487
 20
5117.0092354288
 30
0.0
 11
6285.7831914487
 21
5116.6125516167
 31
0.0
  0
LINE
  5
112
330
1F
100
AcDbEntity
  8
0
  6
Continuous
 62
     7
100
AcDbLine
 10
6285.7831914487
 20
5118.5967306366
 30
0.0
 11
6285.7831914487
 21
5118.2000468245
 31
0.0
  0
LINE
  5
113
330
1F
100
AcDbEntity
  8
0
  6
Continuous
 62
     7
100
AcDbLine
 10
6285.7831914487
 20
5120.1842407456
 30
0.0
 11
6285.7831914487
 21
5119.7875569334
 31
0.0
  0
LINE
  5
114
330
1F
100
AcDbEntity
  8
0
  6
Continuous
 62
     7
100
AcDbLine
 10
6285.7831914487
 20
5121.7717359533
 30
0.0
 11
6285.7831914487
 21
5121.3750521412
 31
0.0
  0
LINE
  5
115
330
1F
100
AcDbEntity
  8
0
  6
Continuous
 62
     7
100
AcDbLine
 10
6285.7831914487
 20
5123.3592311611
 30
0.0
 11
6285.7831914487
 21
5122.962547349
 31
0.0
  0
LINE
  5
116
330
1F
100
AcDbEntity
  8
0
  6
Continuous
 62
     7
100
AcDbLine
 10
6312.2241937133
 20
5122.1687624922
 30
0.0
 11
6312.2241937133
 21
5122.5656400194
 31
0.0
  0
LINE
  5
117
330
1F
100
AcDbEntity
  8
0
  6
Continuous
 62
     7
100
AcDbLine
 10
6312.2241937133
 20
5120.5812672844
 30
0.0
 11
6312.2241937133
 21
5120.9781448116
 31
0.0
  0
LINE
  5
118
330
1F
100
AcDbEntity
  8
0
  6
Continuous
 62
     7
100
AcDbLine
 10
6312.2241937133
 20
5118.9937720766
 30
0.0
 11
6312.2241937133
 21
5119.3906347027
 31
0.0
  0
LINE
  5
119
330
1F
100
AcDbEntity
  8
0
  6
Continuous
 62
     7
100
AcDbLine
 10
6312.2241937133
 20
5117.4062619677
 30
0.0
 11
6312.2241937133
 21
5117.8031394949
 31
0.0
  0
LINE
  5
11A
330
1F
100
AcDbEntity
  8
0
  6
Continuous
 62
     7
100
AcDbLine
 10
6311.2769678744
 20
5116.7421470156
 30
0.0
 11
6311.2769678744
 21
5116.9405857792
 31
0.0
  0
LINE
  5
11B
330
1F
100
AcDbEntity
  8
0
  6
Continuous
 62
     7
100
AcDbLine
 10
6311.2769678744
 20
5118.3296422234
 30
0.0
 11
6311.2769678744
 21
5118.528080987
 31
0.0
  0
LINE
  5
11C
330
1F
100
AcDbEntity
  8
0
  6
Continuous
 62
     7
100
AcDbLine
 10
6311.2769678744
 20
5119.9171523323
 30
0.0
 11
6311.2769678744
 21
5120.1155910959
 31
0.0
  0
LINE
  5
11D
330
1F
100
AcDbEntity
  8
0
  6
Continuous
 62
     7
100
AcDbLine
 10
6311.2769678744
 20
5121.5046475401
 30
0.0
 11
6311.2769678744
 21
5121.7030863037
 31
0.0
  0
LINE
  5
11E
330
1F
100
AcDbEntity
  8
0
  6
Continuous
 62
     7
100
AcDbLine
 10
6311.2769678744
 20
5123.0921427479
 30
0.0
 11
6311.2769678744
 21
5123.2905815115
 31
0.0
  0
LINE
  5
11F
330
1F
100
AcDbEntity
  8
0
  6
Continuous
 62
     7
100
AcDbLine
 10
6286.6424780848
 20
5117.7045236101
 30
0.0
 11
6286.6424780848
 21
5117.5101826658
 31
0.0
  0
LINE
  5
120
330
1F
100
AcDbEntity
  8
0
  6
Continuous
 62
     7
100
AcDbLine
 10
6286.6424780848
 20
5119.2920337191
 30
0.0
 11
6286.6424780848
 21
5119.0976778736
 31
0.0
  0
LINE
  5
121
330
1F
100
AcDbEntity
  8
0
  6
Continuous
 62
     7
100
AcDbLine
 10
6286.6424780848
 20
5120.8795289269
 30
0.0
 11
6286.6424780848
 21
5120.6851730814
 31
0.0
  0
LINE
  5
122
330
1F
100
AcDbEntity
  8
0
  6
Continuous
 62
     7
100
AcDbLine
 10
6286.6424780848
 20
5122.4670241347
 30
0.0
 11
6286.6424780848
 21
5122.2726831904
 31
0.0
  0
LINE
  5
123
330
1F
100
AcDbEntity
  8
0
  6
Continuous
 62
     7
100
AcDbLine
 10
6286.6424780848
 20
5116.1170284023
 30
0.0
 11
6286.6424780848
 21
5115.9226725569
 31
0.0
  0
LINE
  5
124
330
1F
100
AcDbEntity
  8
0
  6
Continuous
 62
     7
100
AcDbLine
 10
6292.5635848703
 20
5150.2448449602
 30
0.0
 11
6292.5635848703
 21
5146.3194618693
 31
0.0
  0
LINE
  5
125
330
1F
100
AcDbEntity
  8
0
  6
Continuous
 62
     7
100
AcDbLine
 10
6292.5635848703
 20
5146.3194618693
 30
0.0
 11
6291.863971627
 21
5146.3194618693
 31
0.0
  0
LINE
  5
126
330
1F
100
AcDbEntity
  8
0
  6
Continuous
 62
     7
100
AcDbLine
 10
6291.863971627
 20
5146.3194618693
 30
0.0
 11
6291.863971627
 21
5148.6265490523
 31
0.0
  0
LINE
  5
127
330
1F
100
AcDbEntity
  8
0
  6
Continuous
 62
     7
100
AcDbLine
 10
6291.863971627
 20
5148.6265490523
 30
0.0
 11
6290.7461423936
 21
5148.6265490523
 31
0.0
  0
LINE
  5
128
330
1F
100
AcDbEntity
  8
0
  6
Continuous
 62
     7
100
AcDbLine
 10
6290.7461423936
 20
5148.6265490523
 30
0.0
 11
6290.7458927991
 21
5146.3194618693
 31
0.0
  0
LINE
  5
129
330
1F
100
AcDbEntity
  8
0
  6
Continuous
 62
     7
100
AcDbLine
 10
6290.7458927991
 20
5146.3194618693
 30
0.0
 11
6290.0599066677
 21
5146.3194618693
 31
0.0
  0
LINE
  5
12A
330
1F
100
AcDbEntity
  8
0
  6
Continuous
 62
     7
100
AcDbLine
 10
6291.863971627
 20
5149.3590156307
 30
0.0
 11
6291.863971627
 21
5149.6333311072
 31
0.0
  0
LINE
  5
12B
330
1F
100
AcDbEntity
  8
0
  6
Continuous
 62
     7
100
AcDbLine
 10
6291.4399330082
 20
5150.8368829956
 30
0.0
 11
6291.1694024267
 21
5150.8368829956
 31
0.0
  0
LINE
  5
12C
330
1F
100
AcDbEntity
  8
0
  6
Continuous
 62
     7
100
AcDbLine
 10
6291.1694024267
 20
5151.5414396992
 30
0.0
 11
6291.4399330082
 21
5151.5414396992
 31
0.0
  0
LINE
  5
12D
330
1F
100
AcDbEntity
  8
0
  6
Continuous
 62
     7
100
AcDbLine
 10
6290.7458927991
 20
5149.6267745962
 30
0.0
 11
6290.7458927991
 21
5149.3590156307
 31
0.0
  0
LINE
  5
12E
330
1F
100
AcDbEntity
  8
0
  6
Continuous
 62
     7
100
AcDbLine
 10
6290.7458927991
 20
5149.3590156307
 30
0.0
 11
6291.863971627
 21
5149.3590156307
 31
0.0
  0
LINE
  5
12F
330
1F
100
AcDbEntity
  8
0
  6
Continuous
 62
     7
100
AcDbLine
 10
6290.0599066677
 20
5146.3194618693
 30
0.0
 11
6290.0599066677
 21
5148.6265490523
 31
0.0
  0
LINE
  5
130
330
1F
100
AcDbEntity
  8
0
  6
Continuous
 62
     7
100
AcDbLine
 10
6290.0599066677
 20
5148.6265490523
 30
0.0
 11
6289.7593874993
 21
5148.6265490523
 31
0.0
  0
LINE
  5
131
330
1F
100
AcDbEntity
  8
0
  6
Continuous
 62
     7
100
AcDbLine
 10
6289.7593874993
 20
5148.6265490523
 30
0.0
 11
6289.5171952011
 21
5149.3588368168
 31
0.0
  0
LINE
  5
132
330
1F
100
AcDbEntity
  8
0
  6
Continuous
 62
     7
100
AcDbLine
 10
6290.0599066677
 20
5149.3588368168
 30
0.0
 11
6290.0599066677
 21
5150.2543071976
 31
0.0
  0
LINE
  5
133
330
1F
100
AcDbEntity
  8
0
  6
Continuous
 62
     7
100
AcDbLine
 10
6289.5171952011
 20
5149.3588368168
 30
0.0
 11
6290.0599066677
 21
5149.3588368168
 31
0.0
  0
LINE
  5
134
330
1F
100
AcDbEntity
  8
0
  6
Continuous
 62
     7
100
AcDbLine
 10
6287.3309117319
 20
5149.7700492611
 30
0.0
 11
6288.2752467456
 21
5148.7014720907
 31
0.0
  0
LINE
  5
135
330
1F
100
AcDbEntity
  8
0
  6
Continuous
 62
     7
100
AcDbLine
 10
6304.7989041122
 20
5152.7185718289
 30
0.0
 11
6288.4407576682
 21
5152.7184973231
 31
0.0
  0
LINE
  5
136
330
1F
100
AcDbEntity
  8
0
  6
Continuous
 62
     7
100
AcDbLine
 10
6304.7989041122
 20
5151.953620719
 30
0.0
 11
6304.7989041122
 21
5152.7185718289
 31
0.0
  0
LINE
  5
137
330
1F
100
AcDbEntity
  8
0
  6
Continuous
 62
     7
100
AcDbLine
 10
6288.4913098576
 20
5151.953620719
 30
0.0
 11
6304.7989041122
 21
5151.953620719
 31
0.0
  0
LINE
  5
138
330
1F
100
AcDbEntity
  8
0
  6
Continuous
 62
     7
100
AcDbLine
 10
6289.0140165152
 20
5149.0450332632
 30
0.0
 11
6288.3213807406
 21
5149.8359421959
 31
0.0
  0
LINE
  5
139
330
1F
100
AcDbEntity
  8
0
  6
Continuous
 62
     7
100
AcDbLine
 10
6286.510766721
 20
5146.3194618693
 30
0.0
 11
6288.0729187789
 21
5146.3194618693
 31
0.0
  0
LINE
  5
13A
330
1F
100
AcDbEntity
  8
0
  6
Continuous
 62
     7
100
AcDbLine
 10
6286.510766721
 20
5147.0972577801
 30
0.0
 11
6286.510766721
 21
5146.3194618693
 31
0.0
  0
LINE
  5
13B
330
1F
100
AcDbEntity
  8
0
  6
Continuous
 62
     7
100
AcDbLine
 10
6288.0075809123
 20
5147.0972577801
 30
0.0
 11
6286.510766721
 21
5147.0972577801
 31
0.0
  0
LINE
  5
13C
330
1F
100
AcDbEntity
  8
0
  6
Continuous
 62
     7
100
AcDbLine
 10
6295.4395164313
 20
5149.6986876002
 30
0.0
 11
6295.4395164313
 21
5151.4504979124
 31
0.0
  0
LINE
  5
13D
330
1F
100
AcDbEntity
  8
0
  6
Continuous
 62
     7
100
AcDbLine
 10
6295.4395164313
 20
5151.4504979124
 30
0.0
 11
6296.2305930021
 21
5151.4506022206
 31
0.0
  0
LINE
  5
13E
330
1F
100
AcDbEntity
  8
0
  6
Continuous
 62
     7
100
AcDbLine
 10
6296.2305930021
 20
5151.4506022206
 30
0.0
 11
6296.2305930021
 21
5149.3590156307
 31
0.0
  0
LINE
  5
13F
330
1F
100
AcDbEntity
  8
0
  6
Continuous
 62
     7
100
AcDbLine
 10
6296.8251120808
 20
5149.3590156307
 30
0.0
 11
6296.8251120808
 21
5151.4506022206
 31
0.0
  0
LINE
  5
140
330
1F
100
AcDbEntity
  8
0
  6
Continuous
 62
     7
100
AcDbLine
 10
6296.8251120808
 20
5151.4506022206
 30
0.0
 11
6298.7861738118
 21
5151.4506022206
 31
0.0
  0
LINE
  5
141
330
1F
100
AcDbEntity
  8
0
  6
Continuous
 62
     7
100
AcDbLine
 10
6298.7861738118
 20
5151.4506022206
 30
0.0
 11
6298.7861738118
 21
5150.8368829956
 31
0.0
  0
LINE
  5
142
330
1F
100
AcDbEntity
  8
0
  6
Continuous
 62
     7
100
AcDbLine
 10
6298.7861738118
 20
5150.8368829956
 30
0.0
 11
6297.4661153319
 21
5150.8368829956
 31
0.0
  0
LINE
  5
143
330
1F
100
AcDbEntity
  8
0
  6
Continuous
 62
     7
100
AcDbLine
 10
6297.4661153319
 20
5150.8368829956
 30
0.0
 11
6297.4661153319
 21
5149.3590156307
 31
0.0
  0
LINE
  5
144
330
1F
100
AcDbEntity
  8
0
  6
Continuous
 62
     7
100
AcDbLine
 10
6297.4661153319
 20
5149.3590156307
 30
0.0
 11
6298.7962898376
 21
5149.3590156307
 31
0.0
  0
LINE
  5
145
330
1F
100
AcDbEntity
  8
0
  6
Continuous
 62
     7
100
AcDbLine
 10
6298.7962898376
 20
5149.3590156307
 30
0.0
 11
6299.0380034359
 21
5148.6265490523
 31
0.0
  0
LINE
  5
146
330
1F
100
AcDbEntity
  8
0
  6
Continuous
 62
     7
100
AcDbLine
 10
6299.0380034359
 20
5148.6265490523
 30
0.0
 11
6297.4658657374
 21
5148.6265490523
 31
0.0
  0
LINE
  5
147
330
1F
100
AcDbEntity
  8
0
  6
Continuous
 62
     7
100
AcDbLine
 10
6297.4658657374
 20
5148.6265490523
 30
0.0
 11
6297.4661153319
 21
5146.9797621241
 31
0.0
  0
LINE
  5
148
330
1F
100
AcDbEntity
  8
0
  6
Continuous
 62
     7
100
AcDbLine
 10
6297.4661153319
 20
5146.9797621241
 30
0.0
 11
6298.7861738118
 21
5146.9797621241
 31
0.0
  0
LINE
  5
149
330
1F
100
AcDbEntity
  8
0
  6
Continuous
 62
     7
100
AcDbLine
 10
6298.7861738118
 20
5146.9797621241
 30
0.0
 11
6298.7861738118
 21
5146.3194618693
 31
0.0
  0
LINE
  5
14A
330
1F
100
AcDbEntity
  8
0
  6
Continuous
 62
     7
100
AcDbLine
 10
6298.7861738118
 20
5146.3194618693
 30
0.0
 11
6296.8251120808
 21
5146.3194618693
 31
0.0
  0
LINE
  5
14B
330
1F
100
AcDbEntity
  8
0
  6
Continuous
 62
     7
100
AcDbLine
 10
6296.8251120808
 20
5146.3194618693
 30
0.0
 11
6296.8251865866
 21
5148.6265490523
 31
0.0
  0
LINE
  5
14C
330
1F
100
AcDbEntity
  8
0
  6
Continuous
 62
     7
100
AcDbLine
 10
6296.8251865866
 20
5148.6265490523
 30
0.0
 11
6296.2305930021
 21
5148.6265490523
 31
0.0
  0
LINE
  5
14D
330
1F
100
AcDbEntity
  8
0
  6
Continuous
 62
     7
100
AcDbLine
 10
6296.2305930021
 20
5148.6265490523
 30
0.0
 11
6296.2305930021
 21
5146.3194618693
 31
0.0
  0
LINE
  5
14E
330
1F
100
AcDbEntity
  8
0
  6
Continuous
 62
     7
100
AcDbLine
 10
6293.1582790377
 20
5146.3194618693
 30
0.0
 11
6293.1583535435
 21
5151.5414396992
 31
0.0
  0
LINE
  5
14F
330
1F
100
AcDbEntity
  8
0
  6
Continuous
 62
     7
100
AcDbLine
 10
6293.1583535435
 20
5151.5414396992
 30
0.0
 11
6295.4395164313
 21
5149.6986876002
 31
0.0
  0
LINE
  5
150
330
1F
100
AcDbEntity
  8
0
  6
Continuous
 62
     7
100
AcDbLine
 10
6296.2305930021
 20
5146.3194618693
 30
0.0
 11
6295.4395164313
 21
5146.3194618693
 31
0.0
  0
LINE
  5
151
330
1F
100
AcDbEntity
  8
0
  6
Continuous
 62
     7
100
AcDbLine
 10
6295.4395164313
 20
5146.3194618693
 30
0.0
 11
6295.4395164313
 21
5148.6265490523
 31
0.0
  0
LINE
  5
152
330
1F
100
AcDbEntity
  8
0
  6
Continuous
 62
     7
100
AcDbLine
 10
6295.4395164313
 20
5148.6265490523
 30
0.0
 11
6293.8901197674
 21
5149.8032639494
 31
0.0
  0
LINE
  5
153
330
1F
100
AcDbEntity
  8
0
  6
Continuous
 62
     7
100
AcDbLine
 10
6296.2305930021
 20
5149.3590156307
 30
0.0
 11
6296.8251120808
 21
5149.3590156307
 31
0.0
  0
LINE
  5
154
330
1F
100
AcDbEntity
  8
0
  6
Continuous
 62
     7
100
AcDbLine
 10
6293.8901197674
 20
5149.8032639494
 30
0.0
 11
6293.8903954389
 21
5146.3194618693
 31
0.0
  0
LINE
  5
155
330
1F
100
AcDbEntity
  8
0
  6
Continuous
 62
     7
100
AcDbLine
 10
6293.8903954389
 20
5146.3194618693
 30
0.0
 11
6293.1582790377
 21
5146.3194618693
 31
0.0
  0
LINE
  5
156
330
1F
100
AcDbEntity
  8
0
  6
Continuous
 62
     7
100
AcDbLine
 10
6306.0335994276
 20
5151.8625597229
 30
0.0
 11
6306.0868114742
 21
5151.9380192032
 31
0.0
  0
LINE
  5
157
330
1F
100
AcDbEntity
  8
0
  6
Continuous
 62
     7
100
AcDbLine
 10
6307.9539996149
 20
5150.6694833508
 30
0.0
 11
6307.5458735736
 21
5150.6694833508
 31
0.0
  0
LINE
  5
158
330
1F
100
AcDbEntity
  8
0
  6
Continuous
 62
     7
100
AcDbLine
 10
6307.5458735736
 20
5150.5630592575
 30
0.0
 11
6307.6434631409
 21
5150.5630592575
 31
0.0
  0
LINE
  5
159
330
1F
100
AcDbEntity
  8
0
  6
Continuous
 62
     7
100
AcDbLine
 10
6307.851993716
 20
5150.5630592575
 30
0.0
 11
6307.9539996149
 21
5150.5630592575
 31
0.0
  0
LINE
  5
15A
330
1F
100
AcDbEntity
  8
0
  6
Continuous
 62
     7
100
AcDbLine
 10
6310.8136926355
 20
5153.1583497992
 30
0.0
 11
6310.8981542798
 21
5153.1583497992
 31
0.0
  0
LINE
  5
15B
330
1F
100
AcDbEntity
  8
0
  6
Continuous
 62
     7
100
AcDbLine
 10
6311.1973472448
 20
5152.5472978821
 30
0.0
 11
6311.0152215274
 21
5152.8497020474
 31
0.0
  0
LINE
  5
15C
330
1F
100
AcDbEntity
  8
0
  6
Continuous
 62
     7
100
AcDbLine
 10
6311.1044012519
 20
5152.5472978821
 30
0.0
 11
6311.1973472448
 21
5152.5472978821
 31
0.0
  0
LINE
  5
15D
330
1F
100
AcDbEntity
  8
0
  6
Continuous
 62
     7
100
AcDbLine
 10
6310.942807472
 20
5152.8245488873
 30
0.0
 11
6311.1044012519
 21
5152.5472978821
 31
0.0
  0
LINE
  5
15E
330
1F
100
AcDbEntity
  8
0
  6
Continuous
 62
     7
100
AcDbLine
 10
6310.8136926355
 20
5152.8245488873
 30
0.0
 11
6310.942807472
 21
5152.8245488873
 31
0.0
  0
LINE
  5
15F
330
1F
100
AcDbEntity
  8
0
  6
Continuous
 62
     7
100
AcDbLine
 10
6310.8136926355
 20
5152.5472978821
 30
0.0
 11
6310.8136926355
 21
5152.8245488873
 31
0.0
  0
LINE
  5
160
330
1F
100
AcDbEntity
  8
0
  6
Continuous
 62
     7
100
AcDbLine
 10
6310.7360594483
 20
5152.5472978821
 30
0.0
 11
6310.8136926355
 21
5152.5472978821
 31
0.0
  0
LINE
  5
161
330
1F
100
AcDbEntity
  8
0
  6
Continuous
 62
     7
100
AcDbLine
 10
6310.7360594483
 20
5153.2245109549
 30
0.0
 11
6310.7360594483
 21
5152.5472978821
 31
0.0
  0
LINE
  5
162
330
1F
100
AcDbEntity
  8
0
  6
Continuous
 62
     7
100
AcDbLine
 10
6310.8981542798
 20
5153.2245109549
 30
0.0
 11
6310.7360594483
 21
5153.2245109549
 31
0.0
  0
LINE
  5
163
330
1F
100
AcDbEntity
  8
0
  6
Continuous
 62
     7
100
AcDbLine
 10
6310.8136926355
 20
5152.8859118691
 30
0.0
 11
6310.8136926355
 21
5153.1583497992
 31
0.0
  0
LINE
  5
164
330
1F
100
AcDbEntity
  8
0
  6
Continuous
 62
     7
100
AcDbLine
 10
6310.8997598799
 20
5152.8859118691
 30
0.0
 11
6310.8136926355
 21
5152.8859118691
 31
0.0
  0
LINE
  5
165
330
1F
100
AcDbEntity
  8
0
  6
Continuous
 62
     7
100
AcDbLine
 10
6299.3804917248
 20
5151.4506022206
 30
0.0
 11
6300.1253355803
 21
5151.4506022206
 31
0.0
  0
LINE
  5
166
330
1F
100
AcDbEntity
  8
0
  6
Continuous
 62
     7
100
AcDbLine
 10
6300.1253355803
 20
5151.4506022206
 30
0.0
 11
6300.1253355803
 21
5146.9797621241
 31
0.0
  0
LINE
  5
167
330
1F
100
AcDbEntity
  8
0
  6
Continuous
 62
     7
100
AcDbLine
 10
6300.1253355803
 20
5146.9797621241
 30
0.0
 11
6301.7005112531
 21
5146.9797621241
 31
0.0
  0
LINE
  5
168
330
1F
100
AcDbEntity
  8
0
  6
Continuous
 62
     7
100
AcDbLine
 10
6301.7005112531
 20
5146.9797621241
 30
0.0
 11
6301.7005112531
 21
5146.3194618693
 31
0.0
  0
LINE
  5
169
330
1F
100
AcDbEntity
  8
0
  6
Continuous
 62
     7
100
AcDbLine
 10
6301.7005112531
 20
5146.3194618693
 30
0.0
 11
6299.3804917248
 21
5146.3194618693
 31
0.0
  0
LINE
  5
16A
330
1F
100
AcDbEntity
  8
0
  6
Continuous
 62
     7
100
AcDbLine
 10
6299.3804917248
 20
5146.3194618693
 30
0.0
 11
6299.3804917248
 21
5151.4506022206
 31
0.0
  0
LINE
  5
16B
330
1F
100
AcDbEntity
  8
0
  6
Continuous
 62
     7
100
AcDbLine
 10
6302.295129052
 20
5146.3194618693
 30
0.0
 11
6302.295129052
 21
5148.6265490523
 31
0.0
  0
LINE
  5
16C
330
1F
100
AcDbEntity
  8
0
  6
Continuous
 62
     7
100
AcDbLine
 10
6302.295129052
 20
5148.6265490523
 30
0.0
 11
6301.9946825268
 21
5148.6265490523
 31
0.0
  0
LINE
  5
16D
330
1F
100
AcDbEntity
  8
0
  6
Continuous
 62
     7
100
AcDbLine
 10
6301.9946825268
 20
5148.6265490523
 30
0.0
 11
6301.7525181683
 21
5149.3588368168
 31
0.0
  0
LINE
  5
16E
330
1F
100
AcDbEntity
  8
0
  6
Continuous
 62
     7
100
AcDbLine
 10
6301.7525181683
 20
5149.3588368168
 30
0.0
 11
6302.295129052
 21
5149.3588368168
 31
0.0
  0
LINE
  5
16F
330
1F
100
AcDbEntity
  8
0
  6
Continuous
 62
     7
100
AcDbLine
 10
6302.295129052
 20
5149.3588368168
 30
0.0
 11
6302.295129052
 21
5150.2543071976
 31
0.0
  0
LINE
  5
170
330
1F
100
AcDbEntity
  8
0
  6
Continuous
 62
     7
100
AcDbLine
 10
6302.9811114582
 20
5149.6267745962
 30
0.0
 11
6302.9811114582
 21
5149.3590156307
 31
0.0
  0
LINE
  5
171
330
1F
100
AcDbEntity
  8
0
  6
Continuous
 62
     7
100
AcDbLine
 10
6302.9811114582
 20
5149.3590156307
 30
0.0
 11
6304.0991660716
 21
5149.3590156307
 31
0.0
  0
LINE
  5
172
330
1F
100
AcDbEntity
  8
0
  6
Continuous
 62
     7
100
AcDbLine
 10
6304.0991660716
 20
5149.3590156307
 30
0.0
 11
6304.0991660716
 21
5149.6333311072
 31
0.0
  0
LINE
  5
173
330
1F
100
AcDbEntity
  8
0
  6
Continuous
 62
     7
100
AcDbLine
 10
6303.6751274528
 20
5150.8368829956
 30
0.0
 11
6303.404624811
 21
5150.8368829956
 31
0.0
  0
LINE
  5
174
330
1F
100
AcDbEntity
  8
0
  6
Continuous
 62
     7
100
AcDbLine
 10
6303.404624811
 20
5151.5414396992
 30
0.0
 11
6303.6751274528
 21
5151.5414396992
 31
0.0
  0
LINE
  5
175
330
1F
100
AcDbEntity
  8
0
  6
Continuous
 62
     7
100
AcDbLine
 10
6304.7988798978
 20
5150.2448449602
 30
0.0
 11
6304.7988798978
 21
5146.3194618693
 31
0.0
  0
LINE
  5
176
330
1F
100
AcDbEntity
  8
0
  6
Continuous
 62
     7
100
AcDbLine
 10
6302.9813629153
 20
5148.6265490523
 30
0.0
 11
6302.9811114582
 21
5146.3194618693
 31
0.0
  0
LINE
  5
177
330
1F
100
AcDbEntity
  8
0
  6
Continuous
 62
     7
100
AcDbLine
 10
6304.7988798978
 20
5146.3194618693
 30
0.0
 11
6304.0991660716
 21
5146.3194618693
 31
0.0
  0
LINE
  5
178
330
1F
100
AcDbEntity
  8
0
  6
Continuous
 62
     7
100
AcDbLine
 10
6302.9811114582
 20
5146.3194618693
 30
0.0
 11
6302.295129052
 21
5146.3194618693
 31
0.0
  0
LINE
  5
179
330
1F
100
AcDbEntity
  8
0
  6
Continuous
 62
     7
100
AcDbLine
 10
6304.0991660716
 20
5146.3194618693
 30
0.0
 11
6304.0991660716
 21
5148.6265490523
 31
0.0
  0
LINE
  5
17A
330
1F
100
AcDbEntity
  8
0
  6
Continuous
 62
     7
100
AcDbLine
 10
6304.0991660716
 20
5148.6265490523
 30
0.0
 11
6302.9813629153
 21
5148.6265490523
 31
0.0
  0
LINE
  5
17B
330
1F
100
AcDbEntity
  8
0
  6
Continuous
 62
     7
100
AcDbLine
 10
6326.5036926741
 20
5136.6994605532
 30
0.0
 11
6326.5036926741
 21
5286.6994544251
 31
0.0
  0
LINE
  5
17C
330
1F
100
AcDbEntity
  8
0
  6
Continuous
 62
     7
100
AcDbLine
 10
6326.5036926741
 20
5286.6994544251
 30
0.0
 11
6336.5036926741
 21
5286.6994546486
 31
0.0
  0
LINE
  5
17D
330
1F
100
AcDbEntity
  8
0
  6
Continuous
 62
     7
100
AcDbLine
 10
6336.5036926741
 20
5136.6994510164
 30
0.0
 11
6336.5036926741
 21
5286.6994546486
 31
0.0
  0
LINE
  5
17E
330
1F
100
AcDbEntity
  8
0
  6
Continuous
 62
     7
100
AcDbLine
 10
6326.5036926741
 20
5136.6994605532
 30
0.0
 11
6336.5036926741
 21
5136.6994510164
 31
0.0
  0
LINE
  5
17F
330
1F
100
AcDbEntity
  8
0
  6
Continuous
 62
     7
100
AcDbLine
 10
6176.5036988022
 20
5136.6994605532
 30
0.0
 11
6326.5036926741
 21
5136.6994605532
 31
0.0
  0
LINE
  5
180
330
1F
100
AcDbEntity
  8
0
  6
Continuous
 62
     7
100
AcDbLine
 10
6326.5036926741
 20
5136.6994605532
 30
0.0
 11
6326.5036928976
 21
5126.6994605532
 31
0.0
  0
LINE
  5
181
330
1F
100
AcDbEntity
  8
0
  6
Continuous
 62
     7
100
AcDbLine
 10
6176.5036892655
 20
5126.6994605532
 30
0.0
 11
6326.5036928976
 21
5126.6994605532
 31
0.0
  0
LINE
  5
182
330
1F
100
AcDbEntity
  8
0
  6
Continuous
 62
     7
100
AcDbLine
 10
6176.5036988022
 20
5136.6994605532
 30
0.0
 11
6176.5036892655
 21
5126.6994605532
 31
0.0
  0
LINE
  5
183
330
1F
100
AcDbEntity
  8
0
  6
Continuous
 62
     7
100
AcDbLine
 10
6176.5036892655
 20
5296.6994544251
 30
0.0
 11
6176.5036988022
 21
5286.6994544251
 31
0.0
  0
LINE
  5
184
330
1F
100
AcDbEntity
  8
0
  6
Continuous
 62
     7
100
AcDbLine
 10
6166.5036988022
 20
5286.6994546486
 30
0.0
 11
6176.5036988022
 21
5286.6994544251
 31
0.0
  0
LINE
  5
185
330
1F
100
AcDbEntity
  8
0
  6
Continuous
 62
     7
100
AcDbLine
 10
6166.5036988022
 20
5136.6994510164
 30
0.0
 11
6176.5036988022
 21
5136.6994605532
 31
0.0
  0
LINE
  5
186
330
1F
100
AcDbEntity
  8
0
  6
Continuous
 62
     7
100
AcDbLine
 10
6176.5036988022
 20
5286.6994544251
 30
0.0
 11
6176.5036988022
 21
5136.6994605532
 31
0.0
  0
LINE
  5
187
330
1F
100
AcDbEntity
  8
0
  6
Continuous
 62
     7
100
AcDbLine
 10
6326.5036926741
 20
5286.6994544251
 30
0.0
 11
6176.5036988022
 21
5286.6994544251
 31
0.0
  0
LINE
  5
188
330
1F
100
AcDbEntity
  8
0
  6
Continuous
 62
     7
100
AcDbLine
 10
6326.5036928976
 20
5296.6994544251
 30
0.0
 11
6176.5036892655
 21
5296.6994544251
 31
0.0
  0
LINE
  5
189
330
1F
100
AcDbEntity
  8
0
  6
Continuous
 62
     7
100
AcDbLine
 10
6326.5036928976
 20
5296.6994544251
 30
0.0
 11
6326.5036926741
 21
5286.6994544251
 31
0.0
  0
LINE
  5
18A
330
1F
100
AcDbEntity
  8
0
  6
Continuous
 62
     7
100
AcDbLine
 10
6166.5036988022
 20
5286.6994546486
 30
0.0
 11
6166.5036988022
 21
5136.6994510164
 31
0.0
  0
LINE
  5
18B
330
1F
100
AcDbEntity
  8
0
  6
Continuous
 62
     7
100
AcDbLine
 10
6234.1713171961
 20
5229.4841984978
 30
0.0
 11
6239.0550312164
 21
5213.2536898127
 31
0.0
  0
LINE
  5
18C
330
1F
100
AcDbEntity
  8
0
  6
Continuous
 62
     7
100
AcDbLine
 10
6263.9523607256
 20
5213.2536898127
 30
0.0
 11
6268.83606357
 21
5229.4841984978
 31
0.0
  0
LINE
  5
18D
330
1F
100
AcDbEntity
  8
0
  6
Continuous
 62
     7
100
AcDbLine
 10
6263.9523607256
 20
5213.2536898127
 30
0.0
 11
6264.3259924414
 21
5213.141268002
 31
0.0
  0
LINE
  5
18E
330
1F
100
AcDbEntity
  8
0
  6
Continuous
 62
     7
100
AcDbLine
 10
6264.3259924414
 20
5213.141268002
 30
0.0
 11
6264.6852668884
 21
5213.0331600776
 31
0.0
  0
LINE
  5
18F
330
1F
100
AcDbEntity
  8
0
  6
Continuous
 62
     7
100
AcDbLine
 10
6264.6852668884
 20
5213.0331600776
 30
0.0
 11
6265.0163781407
 21
5212.9335309138
 31
0.0
  0
LINE
  5
190
330
1F
100
AcDbEntity
  8
0
  6
Continuous
 62
     7
100
AcDbLine
 10
6265.0163781407
 20
5212.9335309138
 30
0.0
 11
6265.3065931561
 21
5212.8462101092
 31
0.0
  0
LINE
  5
191
330
1F
100
AcDbEntity
  8
0
  6
Continuous
 62
     7
100
AcDbLine
 10
6265.3065931561
 20
5212.8462101092
 30
0.0
 11
6265.5447733166
 21
5212.7745429745
 31
0.0
  0
LINE
  5
192
330
1F
100
AcDbEntity
  8
0
  6
Continuous
 62
     7
100
AcDbLine
 10
6265.5447733166
 20
5212.7745429745
 30
0.0
 11
6265.7217544081
 21
5212.7212862244
 31
0.0
  0
LINE
  5
193
330
1F
100
AcDbEntity
  8
0
  6
Continuous
 62
     7
100
AcDbLine
 10
6265.7217544081
 20
5212.7212862244
 30
0.0
 11
6265.8307340505
 21
5212.6884962192
 31
0.0
  0
LINE
  5
194
330
1F
100
AcDbEntity
  8
0
  6
Continuous
 62
     7
100
AcDbLine
 10
6265.8307340505
 20
5212.6884962192
 30
0.0
 11
6265.8675399187
 21
5212.6774172058
 31
0.0
  0
LINE
  5
195
330
1F
100
AcDbEntity
  8
0
  6
Continuous
 62
     7
100
AcDbLine
 10
6239.0550312164
 20
5213.2536898127
 30
0.0
 11
6238.68139205
 21
5213.141268002
 31
0.0
  0
LINE
  5
196
330
1F
100
AcDbEntity
  8
0
  6
Continuous
 62
     7
100
AcDbLine
 10
6238.68139205
 20
5213.141268002
 30
0.0
 11
6238.322117603
 21
5213.0331600776
 31
0.0
  0
LINE
  5
197
330
1F
100
AcDbEntity
  8
0
  6
Continuous
 62
     7
100
AcDbLine
 10
6238.322117603
 20
5213.0331600776
 30
0.0
 11
6237.9910138013
 21
5212.9335309138
 31
0.0
  0
LINE
  5
198
330
1F
100
AcDbEntity
  8
0
  6
Continuous
 62
     7
100
AcDbLine
 10
6237.9910138013
 20
5212.9335309138
 30
0.0
 11
6237.7007913353
 21
5212.8462101092
 31
0.0
  0
LINE
  5
199
330
1F
100
AcDbEntity
  8
0
  6
Continuous
 62
     7
100
AcDbLine
 10
6237.7007913353
 20
5212.8462101092
 30
0.0
 11
6237.4626111748
 21
5212.7745429745
 31
0.0
  0
LINE
  5
19A
330
1F
100
AcDbEntity
  8
0
  6
Continuous
 62
     7
100
AcDbLine
 10
6237.4626111748
 20
5212.7745429745
 30
0.0
 11
6237.2856300833
 21
5212.7212862244
 31
0.0
  0
LINE
  5
19B
330
1F
100
AcDbEntity
  8
0
  6
Continuous
 62
     7
100
AcDbLine
 10
6237.2856300833
 20
5212.7212862244
 30
0.0
 11
6237.1766504409
 21
5212.6884962192
 31
0.0
  0
LINE
  5
19C
330
1F
100
AcDbEntity
  8
0
  6
Continuous
 62
     7
100
AcDbLine
 10
6237.1766504409
 20
5212.6884962192
 30
0.0
 11
6237.1398520233
 21
5212.6774172058
 31
0.0
  0
LINE
  5
19D
330
1F
100
AcDbEntity
  8
0
  6
Continuous
 62
     7
100
AcDbLine
 10
6237.1398520233
 20
5212.6774172058
 30
0.0
 11
6232.2561380031
 21
5228.9079296162
 31
0.0
  0
LINE
  5
19E
330
1F
100
AcDbEntity
  8
0
  6
Continuous
 62
     7
100
AcDbLine
 10
6232.2561380031
 20
5228.9079296162
 30
0.0
 11
6232.2929438712
 21
5228.919001179
 31
0.0
  0
LINE
  5
19F
330
1F
100
AcDbEntity
  8
0
  6
Continuous
 62
     7
100
AcDbLine
 10
6232.2929438712
 20
5228.919001179
 30
0.0
 11
6232.4019235136
 21
5228.9517949095
 31
0.0
  0
LINE
  5
1A0
330
1F
100
AcDbEntity
  8
0
  6
Continuous
 62
     7
100
AcDbLine
 10
6232.4019235136
 20
5228.9517949095
 30
0.0
 11
6232.5789046051
 21
5229.0050479343
 31
0.0
  0
LINE
  5
1A1
330
1F
100
AcDbEntity
  8
0
  6
Continuous
 62
     7
100
AcDbLine
 10
6232.5789046051
 20
5229.0050479343
 30
0.0
 11
6232.8170847656
 21
5229.0767150691
 31
0.0
  0
LINE
  5
1A2
330
1F
100
AcDbEntity
  8
0
  6
Continuous
 62
     7
100
AcDbLine
 10
6232.8170847656
 20
5229.0767150691
 30
0.0
 11
6233.1073072316
 21
5229.164039599
 31
0.0
  0
LINE
  5
1A3
330
1F
100
AcDbEntity
  8
0
  6
Continuous
 62
     7
100
AcDbLine
 10
6233.1073072316
 20
5229.164039599
 30
0.0
 11
6233.4384110334
 21
5229.263672488
 31
0.0
  0
LINE
  5
1A4
330
1F
100
AcDbEntity
  8
0
  6
Continuous
 62
     7
100
AcDbLine
 10
6233.4384110334
 20
5229.263672488
 30
0.0
 11
6233.7976854803
 21
5229.3717766872
 31
0.0
  0
LINE
  5
1A5
330
1F
100
AcDbEntity
  8
0
  6
Continuous
 62
     7
100
AcDbLine
 10
6233.7976854803
 20
5229.3717766872
 30
0.0
 11
6234.1713171961
 21
5229.4841984978
 31
0.0
  0
LINE
  5
1A6
330
1F
100
AcDbEntity
  8
0
  6
Continuous
 62
     7
100
AcDbLine
 10
6270.751242763
 20
5228.9079296162
 30
0.0
 11
6270.7144443454
 21
5228.919001179
 31
0.0
  0
LINE
  5
1A7
330
1F
100
AcDbEntity
  8
0
  6
Continuous
 62
     7
100
AcDbLine
 10
6270.7144443454
 20
5228.919001179
 30
0.0
 11
6270.6054609778
 21
5228.9517949095
 31
0.0
  0
LINE
  5
1A8
330
1F
100
AcDbEntity
  8
0
  6
Continuous
 62
     7
100
AcDbLine
 10
6270.6054609778
 20
5228.9517949095
 30
0.0
 11
6270.4284798863
 21
5229.0050479343
 31
0.0
  0
LINE
  5
1A9
330
1F
100
AcDbEntity
  8
0
  6
Continuous
 62
     7
100
AcDbLine
 10
6270.4284798863
 20
5229.0050479343
 30
0.0
 11
6270.1902997257
 21
5229.0767150691
 31
0.0
  0
LINE
  5
1AA
330
1F
100
AcDbEntity
  8
0
  6
Continuous
 62
     7
100
AcDbLine
 10
6270.1902997257
 20
5229.0767150691
 30
0.0
 11
6269.900080985
 21
5229.164039599
 31
0.0
  0
LINE
  5
1AB
330
1F
100
AcDbEntity
  8
0
  6
Continuous
 62
     7
100
AcDbLine
 10
6269.900080985
 20
5229.164039599
 30
0.0
 11
6269.568973458
 21
5229.263672488
 31
0.0
  0
LINE
  5
1AC
330
1F
100
AcDbEntity
  8
0
  6
Continuous
 62
     7
100
AcDbLine
 10
6269.568973458
 20
5229.263672488
 30
0.0
 11
6269.2096990111
 21
5229.3717766872
 31
0.0
  0
LINE
  5
1AD
330
1F
100
AcDbEntity
  8
0
  6
Continuous
 62
     7
100
AcDbLine
 10
6269.2096990111
 20
5229.3717766872
 30
0.0
 11
6268.83606357
 21
5229.4841984978
 31
0.0
  0
LINE
  5
1AE
330
1F
100
AcDbEntity
  8
0
  6
Continuous
 62
     7
100
AcDbLine
 10
6270.751242763
 20
5228.9079296162
 30
0.0
 11
6265.8675399187
 21
5212.6774172058
 31
0.0
  0
LINE
  5
1AF
330
1F
100
AcDbEntity
  8
0
  6
Continuous
 62
     7
100
AcDbLine
 10
6243.7094610693
 20
5303.6994541755
 30
0.0
 11
6259.2979234221
 21
5303.6994541755
 31
0.0
  0
LINE
  5
1B0
330
1F
100
AcDbEntity
  8
0
  6
Continuous
 62
     7
100
AcDbLine
 10
6259.2979234221
 20
5303.6994541755
 30
0.0
 11
6259.2979234221
 21
5296.6994544251
 31
0.0
  0
LINE
  5
1B1
330
1F
100
AcDbEntity
  8
0
  6
Continuous
 62
     7
100
AcDbLine
 10
6243.7094610693
 20
5303.6994541755
 30
0.0
 11
6243.7094610693
 21
5296.6994544251
 31
0.0
  0
LINE
  5
1B2
330
1F
100
AcDbEntity
  8
0
  6
Continuous
 62
     7
100
AcDbLine
 10
6239.7831913593
 20
5312.6994537881
 30
0.0
 11
6263.2241931321
 21
5312.6994537881
 31
0.0
  0
LINE
  5
1B3
330
1F
100
AcDbEntity
  8
0
  6
Continuous
 62
     7
100
AcDbLine
 10
6267.0921508732
 20
5303.6994541755
 30
0.0
 11
6267.0921508732
 21
5296.6994544251
 31
0.0
  0
LINE
  5
1B4
330
1F
100
AcDbEntity
  8
0
  6
Continuous
 62
     7
100
AcDbLine
 10
6259.2979234221
 20
5303.6994541755
 30
0.0
 11
6267.0921508732
 21
5303.6994541755
 31
0.0
  0
LINE
  5
1B5
330
1F
100
AcDbEntity
  8
0
  6
Continuous
 62
     7
100
AcDbLine
 10
6235.9152373435
 20
5303.6994541755
 30
0.0
 11
6235.9152373435
 21
5296.6994544251
 31
0.0
  0
LINE
  5
1B6
330
1F
100
AcDbEntity
  8
0
  6
Continuous
 62
     7
100
AcDbLine
 10
6235.9152373435
 20
5303.6994541755
 30
0.0
 11
6243.7094610693
 21
5303.6994541755
 31
0.0
  0
LINE
  5
1B7
330
1F
100
AcDbEntity
  8
0
  6
Continuous
 62
     7
100
AcDbLine
 10
6209.878341532
 20
5116.1994616261
 30
0.0
 11
6217.2241893174
 21
5116.1994616261
 31
0.0
  0
LINE
  5
1B8
330
1F
100
AcDbEntity
  8
0
  6
Continuous
 62
     7
100
AcDbLine
 10
6203.9141070602
 20
5114.6994511357
 30
0.0
 11
6192.2831994059
 21
5114.6994511357
 31
0.0
  0
LINE
  5
1B9
330
1F
100
AcDbEntity
  8
0
  6
Continuous
 62
     7
100
AcDbLine
 10
6215.7241937278
 20
5114.6994511357
 30
0.0
 11
6203.9141070602
 21
5114.6994511357
 31
0.0
  0
LINE
  5
1BA
330
1F
100
AcDbEntity
  8
0
  6
Continuous
 62
     7
100
AcDbLine
 10
6210.8560737731
 20
5123.6994544735
 30
0.0
 11
6210.8560737731
 21
5126.6994605532
 31
0.0
  0
LINE
  5
1BB
330
1F
100
AcDbEntity
  8
0
  6
Continuous
 62
     7
100
AcDbLine
 10
6218.7532645228
 20
5123.6994544735
 30
0.0
 11
6218.7532645228
 21
5126.6994605532
 31
0.0
  0
LINE
  5
1BC
330
1F
100
AcDbEntity
  8
0
  6
Continuous
 62
     7
100
AcDbLine
 10
6218.7532645228
 20
5123.6994544735
 30
0.0
 11
6215.7250877979
 21
5123.6994544735
 31
0.0
  0
LINE
  5
1BD
330
1F
100
AcDbEntity
  8
0
  6
Continuous
 62
     7
100
AcDbLine
 10
6213.8604384424
 20
5123.6994544735
 30
0.0
 11
6210.8560737731
 21
5123.6994544735
 31
0.0
  0
LINE
  5
1BE
330
1F
100
AcDbEntity
  8
0
  6
Continuous
 62
     7
100
AcDbLine
 10
6196.9449382784
 20
5123.6994544735
 30
0.0
 11
6196.9449382784
 21
5126.6994605532
 31
0.0
  0
LINE
  5
1BF
330
1F
100
AcDbEntity
  8
0
  6
Continuous
 62
     7
100
AcDbLine
 10
6210.8560737731
 20
5123.6994544735
 30
0.0
 11
6196.9449382784
 21
5123.6994544735
 31
0.0
  0
LINE
  5
1C0
330
1F
100
AcDbEntity
  8
0
  6
Continuous
 62
     7
100
AcDbLine
 10
6189.2541211607
 20
5123.6994544735
 30
0.0
 11
6189.2541211607
 21
5126.6994605532
 31
0.0
  0
LINE
  5
1C1
330
1F
100
AcDbEntity
  8
0
  6
Continuous
 62
     7
100
AcDbLine
 10
6191.2486564877
 20
5123.6994544735
 30
0.0
 11
6189.2541211607
 21
5123.6994544735
 31
0.0
  0
LINE
  5
1C2
330
1F
100
AcDbEntity
  8
0
  6
Continuous
 62
     7
100
AcDbLine
 10
6196.9449382784
 20
5123.6994544735
 30
0.0
 11
6194.5737463
 21
5123.6994544735
 31
0.0
  0
LINE
  5
1C3
330
1F
100
AcDbEntity
  8
0
  6
Continuous
 62
     7
100
AcDbLine
 10
6191.3878482344
 20
5123.6994544735
 30
0.0
 11
6191.2486564877
 21
5123.6994544735
 31
0.0
  0
LINE
  5
1C4
330
1F
100
AcDbEntity
  8
0
  6
Continuous
 62
     7
100
AcDbLine
 10
6194.5737463
 20
5123.6994544735
 30
0.0
 11
6191.3878482344
 21
5123.6994544735
 31
0.0
  0
LINE
  5
1C5
330
1F
100
AcDbEntity
  8
0
  6
Continuous
 62
     7
100
AcDbLine
 10
6291.531273401
 20
5123.6994544735
 30
0.0
 11
6291.531273401
 21
5126.6994605532
 31
0.0
  0
LINE
  5
1C6
330
1F
100
AcDbEntity
  8
0
  6
Continuous
 62
     7
100
AcDbLine
 10
6307.1192738178
 20
5123.6994544735
 30
0.0
 11
6307.1192738178
 21
5126.6994605532
 31
0.0
  0
LINE
  5
1C7
330
1F
100
AcDbEntity
  8
0
  6
Continuous
 62
     7
100
AcDbLine
 10
6307.1192738178
 20
5123.6994544735
 30
0.0
 11
6302.3132656278
 21
5123.6994544735
 31
0.0
  0
LINE
  5
1C8
330
1F
100
AcDbEntity
  8
0
  6
Continuous
 62
     7
100
AcDbLine
 10
6295.5738541248
 20
5123.6994544735
 30
0.0
 11
6291.531273401
 21
5123.6994544735
 31
0.0
  0
LINE
  5
1C9
330
1F
100
AcDbEntity
  8
0
  6
Continuous
 62
     7
100
AcDbLine
 10
6312.1978484603
 20
5116.1994616261
 30
0.0
 11
6312.2241937133
 21
5116.1994616261
 31
0.0
  0
LINE
  5
1CA
330
1F
100
AcDbEntity
  8
0
  6
Continuous
 62
     7
100
AcDbLine
 10
6309.1088545086
 20
5114.6994511357
 30
0.0
 11
6287.2831944885
 21
5114.6994511357
 31
0.0
  0
LINE
  5
1CB
330
1F
100
AcDbEntity
  8
0
  6
Continuous
 62
     7
100
AcDbLine
 10
6310.7241925361
 20
5114.6994511357
 30
0.0
 11
6309.1088545086
 21
5114.6994511357
 31
0.0
  0
LINE
  5
1CC
330
1F
100
AcDbEntity
  8
0
  6
Continuous
 62
     7
100
AcDbLine
 10
6296.1187039079
 20
5123.6994544735
 30
0.0
 11
6295.5738541248
 21
5123.6994544735
 31
0.0
  0
LINE
  5
1CD
330
1F
100
AcDbEntity
  8
0
  6
Continuous
 62
     7
100
AcDbLine
 10
6302.3132656278
 20
5123.6994544735
 30
0.0
 11
6296.1187039079
 21
5123.6994544735
 31
0.0
  0
LINE
  5
1CE
330
1F
100
AcDbEntity
  8
0
  6
Continuous
 62
     7
100
AcDbLine
 10
6314.1669279473
 20
5123.6994544735
 30
0.0
 11
6314.1669279473
 21
5126.6994605532
 31
0.0
  0
LINE
  5
1CF
330
1F
100
AcDbEntity
  8
0
  6
Continuous
 62
     7
100
AcDbLine
 10
6314.1669279473
 20
5123.6994544735
 30
0.0
 11
6307.1192738178
 21
5123.6994544735
 31
0.0
  0
LINE
  5
1D0
330
1F
100
AcDbEntity
  8
0
  6
Continuous
 62
     7
100
AcDbLine
 10
6283.8404562833
 20
5123.6994544735
 30
0.0
 11
6283.8404562833
 21
5126.6994605532
 31
0.0
  0
LINE
  5
1D1
330
1F
100
AcDbEntity
  8
0
  6
Continuous
 62
     7
100
AcDbLine
 10
6287.3683881523
 20
5123.6994544735
 30
0.0
 11
6283.8404562833
 21
5123.6994544735
 31
0.0
  0
LINE
  5
1D2
330
1F
100
AcDbEntity
  8
0
  6
Continuous
 62
     7
100
AcDbLine
 10
6291.531273401
 20
5123.6994544735
 30
0.0
 11
6288.8578001919
 21
5123.6994544735
 31
0.0
  0
LINE
  5
1D3
330
1F
100
AcDbEntity
  8
0
  6
Continuous
 62
     7
100
AcDbLine
 10
6256.5036949279
 20
5257.7731217017
 30
0.0
 11
6246.5036895635
 21
5257.7731217017
 31
0.0
  0
LINE
  5
1D4
330
1F
100
AcDbEntity
  8
0
  6
Continuous
 62
     7
100
AcDbLine
 10
6246.8883082263
 20
5258.2596248091
 30
0.0
 11
6256.1190774571
 21
5258.2596248091
 31
0.0
  0
LINE
  5
1D5
330
1F
100
AcDbEntity
  8
0
  6
Continuous
 62
     7
100
AcDbLine
 10
6657.4060170242
 20
5214.599450933
 30
0.0
 11
6690.2060134599
 21
5214.599450933
 31
0.0
  0
LINE
  5
1D6
330
1F
100
AcDbEntity
  8
0
  6
Continuous
 62
     7
100
AcDbLine
 10
6680.406011481
 20
5254.7994534245
 30
0.0
 11
6657.4060170242
 21
5254.7994534245
 31
0.0
  0
LINE
  5
1D7
330
1F
100
AcDbEntity
  8
0
  6
Continuous
 62
     7
100
AcDbLine
 10
6696.4060141036
 20
5254.7994534245
 30
0.0
 11
6690.3394086549
 21
5254.7994534245
 31
0.0
  0
LINE
  5
1D8
330
1F
100
AcDbEntity
  8
0
  6
Continuous
 62
     7
100
AcDbLine
 10
6693.7060131023
 20
5201.9994537106
 30
0.0
 11
6696.4060141036
 21
5201.9994537106
 31
0.0
  0
LINE
  5
1D9
330
1F
100
AcDbEntity
  8
0
  6
Continuous
 62
     7
100
AcDbLine
 10
6690.4060168454
 20
5254.7830174437
 30
0.0
 11
6690.4060168454
 21
5257.7731217017
 31
0.0
  0
LINE
  5
1DA
330
1F
100
AcDbEntity
  8
0
  6
Continuous
 62
     7
100
AcDbLine
 10
6680.406011481
 20
5257.7731217017
 30
0.0
 11
6680.406011481
 21
5254.7994534245
 31
0.0
  0
LINE
  5
1DB
330
1F
100
AcDbEntity
  8
0
  6
Continuous
 62
     7
100
AcDbLine
 10
6644.6060164163
 20
5206.1994577518
 30
0.0
 11
6647.2060157249
 21
5206.1994577518
 31
0.0
  0
LINE
  5
1DC
330
1F
100
AcDbEntity
  8
0
  6
Continuous
 62
     7
100
AcDbLine
 10
6647.2060157249
 20
5263.1994540563
 30
0.0
 11
6644.6060164163
 21
5263.1994540563
 31
0.0
  0
LINE
  5
1DD
330
1F
100
AcDbEntity
  8
0
  6
Continuous
 62
     7
100
AcDbLine
 10
6578.8982862869
 20
5311.6276859065
 30
0.0
 11
6577.8265165428
 21
5312.6994537881
 31
0.0
  0
LINE
  5
1DE
330
1F
100
AcDbEntity
  8
0
  6
Continuous
 62
     7
100
AcDbLine
 10
6553.5026855214
 20
5311.8166233173
 30
0.0
 11
6552.8855172452
 21
5311.1994544735
 31
0.0
  0
LINE
  5
1DF
330
1F
100
AcDbEntity
  8
0
  6
Continuous
 62
     7
100
AcDbLine
 10
6554.3855172146
 20
5312.6994537881
 30
0.0
 11
6553.7500085339
 21
5312.0639453402
 31
0.0
  0
LINE
  5
1E0
330
1F
100
AcDbEntity
  8
0
  6
Continuous
 62
     7
100
AcDbLine
 10
6579.32651772
 20
5310.2604037842
 30
0.0
 11
6579.32651772
 21
5310.6574526748
 31
0.0
  0
LINE
  5
1E1
330
1F
100
AcDbEntity
  8
0
  6
Continuous
 62
     7
100
AcDbLine
 10
6579.32651772
 20
5308.6729029884
 30
0.0
 11
6579.32651772
 21
5309.0699537417
 31
0.0
  0
LINE
  5
1E2
330
1F
100
AcDbEntity
  8
0
  6
Continuous
 62
     7
100
AcDbLine
 10
6579.32651772
 20
5307.0854021927
 30
0.0
 11
6579.32651772
 21
5307.482452946
 31
0.0
  0
LINE
  5
1E3
330
1F
100
AcDbEntity
  8
0
  6
Continuous
 62
     7
100
AcDbLine
 10
6579.32651772
 20
5305.4979032597
 30
0.0
 11
6579.32651772
 21
5305.8949540129
 31
0.0
  0
LINE
  5
1E4
330
1F
100
AcDbEntity
  8
0
  6
Continuous
 62
     7
100
AcDbLine
 10
6579.32651772
 20
5303.9104024639
 30
0.0
 11
6579.32651772
 21
5304.3074532172
 31
0.0
  0
LINE
  5
1E5
330
1F
100
AcDbEntity
  8
0
  6
Continuous
 62
     7
100
AcDbLine
 10
6552.8855172452
 20
5305.101090925
 30
0.0
 11
6552.8855172452
 21
5304.704217123
 31
0.0
  0
LINE
  5
1E6
330
1F
100
AcDbEntity
  8
0
  6
Continuous
 62
     7
100
AcDbLine
 10
6552.8855172452
 20
5306.6885917207
 30
0.0
 11
6552.8855172452
 21
5306.2917160561
 31
0.0
  0
LINE
  5
1E7
330
1F
100
AcDbEntity
  8
0
  6
Continuous
 62
     7
100
AcDbLine
 10
6552.8855172452
 20
5308.2760925164
 30
0.0
 11
6552.8855172452
 21
5307.8792168518
 31
0.0
  0
LINE
  5
1E8
330
1F
100
AcDbEntity
  8
0
  6
Continuous
 62
     7
100
AcDbLine
 10
6552.8855172452
 20
5309.8635914495
 30
0.0
 11
6552.8855172452
 21
5309.4667157849
 31
0.0
  0
LINE
  5
1E9
330
1F
100
AcDbEntity
  8
0
  6
Continuous
 62
     7
100
AcDbLine
 10
6552.8855172452
 20
5311.1994544735
 30
0.0
 11
6552.8855172452
 21
5311.0542165806
 31
0.0
  0
LINE
  5
1EA
330
1F
100
AcDbEntity
  8
0
  6
Continuous
 62
     7
100
AcDbLine
 10
6578.9684670308
 20
5303.6994541755
 30
0.0
 11
6579.3191733101
 21
5303.9020540884
 31
0.0
  0
LINE
  5
1EB
330
1F
100
AcDbEntity
  8
0
  6
Continuous
 62
     7
100
AcDbLine
 10
6553.7526192639
 20
5311.9564930668
 30
0.0
 11
6553.5442629917
 21
5311.8361233493
 31
0.0
  0
LINE
  5
1EC
330
1F
100
AcDbEntity
  8
0
  6
Continuous
 62
     7
100
AcDbLine
 10
6553.7448011601
 20
5310.5588069877
 30
0.0
 11
6553.7448011601
 21
5310.3644753566
 31
0.0
  0
LINE
  5
1ED
330
1F
100
AcDbEntity
  8
0
  6
Continuous
 62
     7
100
AcDbLine
 10
6553.7448011601
 20
5308.9713061919
 30
0.0
 11
6553.7448011601
 21
5308.7769764235
 31
0.0
  0
LINE
  5
1EE
330
1F
100
AcDbEntity
  8
0
  6
Continuous
 62
     7
100
AcDbLine
 10
6553.7448011601
 20
5307.3838072589
 30
0.0
 11
6553.7448011601
 21
5307.1894756278
 31
0.0
  0
LINE
  5
1EF
330
1F
100
AcDbEntity
  8
0
  6
Continuous
 62
     7
100
AcDbLine
 10
6553.7448011601
 20
5305.7963064631
 30
0.0
 11
6553.7448011601
 21
5305.6019766947
 31
0.0
  0
LINE
  5
1F0
330
1F
100
AcDbEntity
  8
0
  6
Continuous
 62
     7
100
AcDbLine
 10
6553.7448011601
 20
5304.2088065987
 30
0.0
 11
6553.7448011601
 21
5304.014475899
 31
0.0
  0
LINE
  5
1F1
330
1F
100
AcDbEntity
  8
0
  6
Continuous
 62
     7
100
AcDbLine
 10
6578.4672329465
 20
5309.5666187575
 30
0.0
 11
6578.4672329465
 21
5309.7598868182
 31
0.0
  0
LINE
  5
1F2
330
1F
100
AcDbEntity
  8
0
  6
Continuous
 62
     7
100
AcDbLine
 10
6578.4672329465
 20
5307.9791179618
 30
0.0
 11
6578.4672329465
 21
5308.1723860225
 31
0.0
  0
LINE
  5
1F3
330
1F
100
AcDbEntity
  8
0
  6
Continuous
 62
     7
100
AcDbLine
 10
6578.4672329465
 20
5306.3916190287
 30
0.0
 11
6578.4672329465
 21
5306.5848852267
 31
0.0
  0
LINE
  5
1F4
330
1F
100
AcDbEntity
  8
0
  6
Continuous
 62
     7
100
AcDbLine
 10
6578.4672329465
 20
5304.8041191643
 30
0.0
 11
6578.4672329465
 21
5304.9973862937
 31
0.0
  0
LINE
  5
1F5
330
1F
100
AcDbEntity
  8
0
  6
Continuous
 62
     7
100
AcDbLine
 10
6578.4672329465
 20
5311.1541195532
 30
0.0
 11
6578.4672329465
 21
5311.3473857513
 31
0.0
  0
LINE
  5
1F6
330
1F
100
AcDbEntity
  8
0
  6
Continuous
 62
     7
100
AcDbLine
 10
6553.7448011601
 20
5312.1463059207
 30
0.0
 11
6553.7448011601
 21
5311.9519761523
 31
0.0
  0
LINE
  5
1F7
330
1F
100
AcDbEntity
  8
0
  6
Continuous
 62
     7
100
AcDbLine
 10
6622.9221819231
 20
5287.992347846
 30
0.0
 11
6622.0277099201
 21
5288.1994545452
 31
0.0
  0
LINE
  5
1F8
330
1F
100
AcDbEntity
  8
0
  6
Continuous
 62
     7
100
AcDbLine
 10
6609.9060176203
 20
5135.29945712
 30
0.0
 11
6609.9060176203
 21
5135.1994554272
 31
0.0
  0
LINE
  5
1F9
330
1F
100
AcDbEntity
  8
0
  6
Continuous
 62
     7
100
AcDbLine
 10
6617.9060189316
 20
5135.1994554272
 30
0.0
 11
6617.9060189316
 21
5135.29945712
 31
0.0
  0
LINE
  5
1FA
330
1F
100
AcDbEntity
  8
0
  6
Continuous
 62
     7
100
AcDbLine
 10
6634.4060151169
 20
5233.3877513876
 30
0.0
 11
6634.3829704711
 21
5233.4271463325
 31
0.0
  0
LINE
  5
1FB
330
1F
100
AcDbEntity
  8
0
  6
Continuous
 62
     7
100
AcDbLine
 10
6633.3060172503
 20
5212.2827879256
 30
0.0
 11
6633.3060188481
 21
5220.6994573345
 31
0.0
  0
LINE
  5
1FC
330
1F
100
AcDbEntity
  8
0
  6
Continuous
 62
     7
100
AcDbLine
 10
6632.1060208866
 20
5227.999454247
 30
0.0
 11
6634.4060151169
 21
5227.999454247
 31
0.0
  0
LINE
  5
1FD
330
1F
100
AcDbEntity
  8
0
  6
Continuous
 62
     7
100
AcDbLine
 10
6634.4060151169
 20
5235.3994528523
 30
0.0
 11
6632.8763364145
 21
5235.3994528523
 31
0.0
  0
LINE
  5
1FE
330
1F
100
AcDbEntity
  8
0
  6
Continuous
 62
     7
100
AcDbLine
 10
6633.7935177872
 20
5205.6588287225
 30
0.0
 11
6633.1978885719
 21
5206.0758898726
 31
0.0
  0
LINE
  5
1FF
330
1F
100
AcDbEntity
  8
0
  6
Continuous
 62
     7
100
AcDbLine
 10
6633.1978885719
 20
5205.2417601218
 30
0.0
 11
6633.7935177872
 21
5205.6588287225
 31
0.0
  0
LINE
  5
200
330
1F
100
AcDbEntity
  8
0
  6
Continuous
 62
     7
100
AcDbLine
 10
6633.7935177872
 20
5204.3362091055
 30
0.0
 11
6633.1978885719
 21
5204.7532777062
 31
0.0
  0
LINE
  5
201
330
1F
100
AcDbEntity
  8
0
  6
Continuous
 62
     7
100
AcDbLine
 10
6633.1978885719
 20
5206.5643722882
 30
0.0
 11
6633.7935177872
 21
5206.9814408889
 31
0.0
  0
LINE
  5
202
330
1F
100
AcDbEntity
  8
0
  6
Continuous
 62
     7
100
AcDbLine
 10
6633.7935177872
 20
5206.9814408889
 30
0.0
 11
6633.1978885719
 21
5207.398502039
 31
0.0
  0
LINE
  5
203
330
1F
100
AcDbEntity
  8
0
  6
Continuous
 62
     7
100
AcDbLine
 10
6633.7935177872
 20
5208.3040530553
 30
0.0
 11
6633.7935177872
 21
5208.3294520846
 31
0.0
  0
LINE
  5
204
330
1F
100
AcDbEntity
  8
0
  6
Continuous
 62
     7
100
AcDbLine
 10
6633.1978885719
 20
5207.8869919052
 30
0.0
 11
6633.7935177872
 21
5208.3040530553
 31
0.0
  0
LINE
  5
205
330
1F
100
AcDbEntity
  8
0
  6
Continuous
 62
     7
100
AcDbLine
 10
6633.7838692853
 20
5204.3294514289
 30
0.0
 11
6633.7935177872
 21
5204.3362091055
 31
0.0
  0
LINE
  5
206
330
1F
100
AcDbEntity
  8
0
  6
Continuous
 62
     7
100
AcDbLine
 10
6633.1978885719
 20
5204.7532777062
 30
0.0
 11
6633.1978885719
 21
5205.2417601218
 31
0.0
  0
LINE
  5
207
330
1F
100
AcDbEntity
  8
0
  6
Continuous
 62
     7
100
AcDbLine
 10
6633.1978885719
 20
5206.0758898726
 30
0.0
 11
6633.1978885719
 21
5206.5643722882
 31
0.0
  0
LINE
  5
208
330
1F
100
AcDbEntity
  8
0
  6
Continuous
 62
     7
100
AcDbLine
 10
6633.1978885719
 20
5207.398502039
 30
0.0
 11
6633.1978885719
 21
5207.8869919052
 31
0.0
  0
LINE
  5
209
330
1F
100
AcDbEntity
  8
0
  6
Continuous
 62
     7
100
AcDbLine
 10
6633.1060154626
 20
5245.6781807115
 30
0.0
 11
6633.1060154626
 21
5247.8294539025
 31
0.0
  0
LINE
  5
20A
330
1F
100
AcDbEntity
  8
0
  6
Continuous
 62
     7
100
AcDbLine
 10
6633.1060154626
 20
5208.3294520846
 30
0.0
 11
6633.1060172503
 21
5212.2827879256
 31
0.0
  0
LINE
  5
20B
330
1F
100
AcDbEntity
  8
0
  6
Continuous
 62
     7
100
AcDbLine
 10
6633.1060154626
 20
5220.6994573345
 30
0.0
 11
6633.1060154626
 21
5227.999454247
 31
0.0
  0
LINE
  5
20C
330
1F
100
AcDbEntity
  8
0
  6
Continuous
 62
     7
100
AcDbLine
 10
6633.1060154626
 20
5235.3994528523
 30
0.0
 11
6633.1060154626
 21
5237.2452000847
 31
0.0
  0
LINE
  5
20D
330
1F
100
AcDbEntity
  8
0
  6
Continuous
 62
     7
100
AcDbLine
 10
6633.1060154626
 20
5244.6717860868
 30
0.0
 11
6633.1097780058
 21
5244.9695932439
 31
0.0
  0
LINE
  5
20E
330
1F
100
AcDbEntity
  8
0
  6
Continuous
 62
     7
100
AcDbLine
 10
6647.4060191104
 20
5211.4494572153
 30
0.0
 11
6657.4060170242
 21
5211.4494572153
 31
0.0
  0
LINE
  5
20F
330
1F
100
AcDbEntity
  8
0
  6
Continuous
 62
     7
100
AcDbLine
 10
6657.4060170242
 20
5257.9494545927
 30
0.0
 11
6647.4060191104
 21
5257.9494545927
 31
0.0
  0
LINE
  5
210
330
1F
100
AcDbEntity
  8
0
  6
Continuous
 62
     7
100
AcDbLine
 10
6633.9060141036
 20
5224.6994579902
 30
0.0
 11
6633.1060154626
 21
5224.6994579902
 31
0.0
  0
LINE
  5
211
330
1F
100
AcDbEntity
  8
0
  6
Continuous
 62
     7
100
AcDbLine
 10
6633.3060188481
 20
5214.6994526258
 30
0.0
 11
6633.9060141036
 21
5214.6994526258
 31
0.0
  0
LINE
  5
212
330
1F
100
AcDbEntity
  8
0
  6
Continuous
 62
     7
100
AcDbLine
 10
6633.9060141036
 20
5214.6994526258
 30
0.0
 11
6634.4060151169
 21
5215.199453639
 31
0.0
  0
LINE
  5
213
330
1F
100
AcDbEntity
  8
0
  6
Continuous
 62
     7
100
AcDbLine
 10
6634.4060151169
 20
5224.1994569769
 30
0.0
 11
6633.9060141036
 21
5224.6994579902
 31
0.0
  0
LINE
  5
214
330
1F
100
AcDbEntity
  8
0
  6
Continuous
 62
     7
100
AcDbLine
 10
6555.6060171949
 20
5288.1994545452
 30
0.0
 11
6555.6060171949
 21
5287.492347764
 31
0.0
  0
LINE
  5
215
330
1F
100
AcDbEntity
  8
0
  6
Continuous
 62
     7
100
AcDbLine
 10
6576.6060164461
 20
5287.492347764
 30
0.0
 11
6576.6060164461
 21
5288.1994545452
 31
0.0
  0
LINE
  5
216
330
1F
100
AcDbEntity
  8
0
  6
Continuous
 62
     7
100
AcDbLine
 10
6632.8560186813
 20
5173.9294509163
 30
0.0
 11
6632.8560186813
 21
5180.8794568052
 31
0.0
  0
LINE
  5
217
330
1F
100
AcDbEntity
  8
0
  6
Continuous
 62
     7
100
AcDbLine
 10
6553.4840154724
 20
5115.6009564867
 30
0.0
 11
6554.3855172146
 21
5114.6994511357
 31
0.0
  0
LINE
  5
218
330
1F
100
AcDbEntity
  8
0
  6
Continuous
 62
     7
100
AcDbLine
 10
6577.8261756787
 20
5114.6994511357
 30
0.0
 11
6579.2407037953
 21
5116.1136458388
 31
0.0
  0
LINE
  5
219
330
1F
100
AcDbEntity
  8
0
  6
Continuous
 62
     7
100
AcDbLine
 10
6552.8855172452
 20
5116.8762127628
 30
0.0
 11
6552.8855172452
 21
5116.4794991484
 31
0.0
  0
LINE
  5
21A
330
1F
100
AcDbEntity
  8
0
  6
Continuous
 62
     7
100
AcDbLine
 10
6552.8855172452
 20
5118.4637079706
 30
0.0
 11
6552.8855172452
 21
5118.0669943562
 31
0.0
  0
LINE
  5
21B
330
1F
100
AcDbEntity
  8
0
  6
Continuous
 62
     7
100
AcDbLine
 10
6552.8855172452
 20
5120.0512031784
 30
0.0
 11
6552.8855172452
 21
5119.6545044651
 31
0.0
  0
LINE
  5
21C
330
1F
100
AcDbEntity
  8
0
  6
Continuous
 62
     7
100
AcDbLine
 10
6552.8855172452
 20
5121.6387132874
 30
0.0
 11
6552.8855172452
 21
5121.2419996729
 31
0.0
  0
LINE
  5
21D
330
1F
100
AcDbEntity
  8
0
  6
Continuous
 62
     7
100
AcDbLine
 10
6552.8855172452
 20
5123.2262084952
 30
0.0
 11
6552.8855172452
 21
5122.8294948807
 31
0.0
  0
LINE
  5
21E
330
1F
100
AcDbEntity
  8
0
  6
Continuous
 62
     7
100
AcDbLine
 10
6579.32651772
 20
5122.0355759134
 30
0.0
 11
6579.32651772
 21
5122.4327216616
 31
0.0
  0
LINE
  5
21F
330
1F
100
AcDbEntity
  8
0
  6
Continuous
 62
     7
100
AcDbLine
 10
6579.32651772
 20
5120.4480807057
 30
0.0
 11
6579.32651772
 21
5120.8452264538
 31
0.0
  0
LINE
  5
220
330
1F
100
AcDbEntity
  8
0
  6
Continuous
 62
     7
100
AcDbLine
 10
6579.32651772
 20
5118.8605705967
 30
0.0
 11
6579.32651772
 21
5119.2577163448
 31
0.0
  0
LINE
  5
221
330
1F
100
AcDbEntity
  8
0
  6
Continuous
 62
     7
100
AcDbLine
 10
6579.32651772
 20
5117.2730753889
 30
0.0
 11
6579.32651772
 21
5117.6702211371
 31
0.0
  0
LINE
  5
222
330
1F
100
AcDbEntity
  8
0
  6
Continuous
 62
     7
100
AcDbLine
 10
6553.7516966725
 20
5115.7929728499
 30
0.0
 11
6553.4859686887
 21
5115.6394759884
 31
0.0
  0
LINE
  5
223
330
1F
100
AcDbEntity
  8
0
  6
Continuous
 62
     7
100
AcDbLine
 10
6578.4672310838
 20
5118.1656400433
 30
0.0
 11
6578.4672310838
 21
5118.3605025282
 31
0.0
  0
LINE
  5
224
330
1F
100
AcDbEntity
  8
0
  6
Continuous
 62
     7
100
AcDbLine
 10
6578.4672310838
 20
5119.7531352511
 30
0.0
 11
6578.4672310838
 21
5119.947997736
 31
0.0
  0
LINE
  5
225
330
1F
100
AcDbEntity
  8
0
  6
Continuous
 62
     7
100
AcDbLine
 10
6578.4672310838
 20
5121.3406304588
 30
0.0
 11
6578.4672310838
 21
5121.5355078449
 31
0.0
  0
LINE
  5
226
330
1F
100
AcDbEntity
  8
0
  6
Continuous
 62
     7
100
AcDbLine
 10
6578.4672310838
 20
5122.9281405678
 30
0.0
 11
6578.4672310838
 21
5123.1230030527
 31
0.0
  0
LINE
  5
227
330
1F
100
AcDbEntity
  8
0
  6
Continuous
 62
     7
100
AcDbLine
 10
6553.7447768875
 20
5117.5707856884
 30
0.0
 11
6553.7447768875
 21
5117.3764745464
 31
0.0
  0
LINE
  5
228
330
1F
100
AcDbEntity
  8
0
  6
Continuous
 62
     7
100
AcDbLine
 10
6553.7447768875
 20
5119.1582957974
 30
0.0
 11
6553.7447768875
 21
5118.9639846554
 31
0.0
  0
LINE
  5
229
330
1F
100
AcDbEntity
  8
0
  6
Continuous
 62
     7
100
AcDbLine
 10
6553.7447768875
 20
5120.7457910051
 30
0.0
 11
6553.7447768875
 21
5120.5514798632
 31
0.0
  0
LINE
  5
22A
330
1F
100
AcDbEntity
  8
0
  6
Continuous
 62
     7
100
AcDbLine
 10
6553.7447768875
 20
5122.3332862129
 30
0.0
 11
6553.7447768875
 21
5122.138975071
 31
0.0
  0
LINE
  5
22B
330
1F
100
AcDbEntity
  8
0
  6
Continuous
 62
     7
100
AcDbLine
 10
6553.7447768875
 20
5115.9832904806
 30
0.0
 11
6553.7447768875
 21
5115.7889793387
 31
0.0
  0
LINE
  5
22C
330
1F
100
AcDbEntity
  8
0
  6
Continuous
 62
     7
100
AcDbLine
 10
6578.4672310838
 20
5116.5781299343
 30
0.0
 11
6578.4672310838
 21
5116.7730073204
 31
0.0
  0
LINE
  5
22D
330
1F
100
AcDbEntity
  8
0
  6
Continuous
 62
     7
100
AcDbLine
 10
6552.8855172452
 20
5116.4794991484
 30
0.0
 11
6552.8855172452
 21
5116.1994616261
 31
0.0
  0
LINE
  5
22E
330
1F
100
AcDbEntity
  8
0
  6
Continuous
 62
     7
100
AcDbLine
 10
6552.8855172452
 20
5118.0669943562
 30
0.0
 11
6552.8855172452
 21
5117.8031692972
 31
0.0
  0
LINE
  5
22F
330
1F
100
AcDbEntity
  8
0
  6
Continuous
 62
     7
100
AcDbLine
 10
6552.8855172452
 20
5119.6545044651
 30
0.0
 11
6552.8855172452
 21
5119.390664505
 31
0.0
  0
LINE
  5
230
330
1F
100
AcDbEntity
  8
0
  6
Continuous
 62
     7
100
AcDbLine
 10
6552.8855172452
 20
5121.2419996729
 30
0.0
 11
6552.8855172452
 21
5120.9781597128
 31
0.0
  0
LINE
  5
231
330
1F
100
AcDbEntity
  8
0
  6
Continuous
 62
     7
100
AcDbLine
 10
6552.8855172452
 20
5122.8294948807
 30
0.0
 11
6552.8855172452
 21
5122.5656549206
 31
0.0
  0
LINE
  5
232
330
1F
100
AcDbEntity
  8
0
  6
Continuous
 62
     7
100
AcDbLine
 10
6579.32651772
 20
5123.3594695797
 30
0.0
 11
6579.32651772
 21
5123.6994544735
 31
0.0
  0
LINE
  5
233
330
1F
100
AcDbEntity
  8
0
  6
Continuous
 62
     7
100
AcDbLine
 10
6579.32651772
 20
5121.7719743719
 30
0.0
 11
6579.32651772
 21
5122.0355759134
 31
0.0
  0
LINE
  5
234
330
1F
100
AcDbEntity
  8
0
  6
Continuous
 62
     7
100
AcDbLine
 10
6579.32651772
 20
5120.184464263
 30
0.0
 11
6579.32651772
 21
5120.4480807057
 31
0.0
  0
LINE
  5
235
330
1F
100
AcDbEntity
  8
0
  6
Continuous
 62
     7
100
AcDbLine
 10
6579.32651772
 20
5118.5969690552
 30
0.0
 11
6579.32651772
 21
5118.8605705967
 31
0.0
  0
LINE
  5
236
330
1F
100
AcDbEntity
  8
0
  6
Continuous
 62
     7
100
AcDbLine
 10
6579.32651772
 20
5117.0094738474
 30
0.0
 11
6579.32651772
 21
5117.2730753889
 31
0.0
  0
LINE
  5
237
330
1F
100
AcDbEntity
  8
0
  6
Continuous
 62
     7
100
AcDbLine
 10
6627.7060209105
 20
5287.992347846
 30
0.0
 11
6627.7060209105
 21
5288.1994545452
 31
0.0
  0
LINE
  5
238
330
1F
100
AcDbEntity
  8
0
  6
Continuous
 62
     7
100
AcDbLine
 10
6624.5060188958
 20
5288.1994545452
 30
0.0
 11
6624.5060188958
 21
5287.992347846
 31
0.0
  0
LINE
  5
239
330
1F
100
AcDbEntity
  8
0
  6
Continuous
 62
     7
100
AcDbLine
 10
6624.5060188958
 20
5135.4065666666
 30
0.0
 11
6624.5060188958
 21
5135.1994554272
 31
0.0
  0
LINE
  5
23A
330
1F
100
AcDbEntity
  8
0
  6
Continuous
 62
     7
100
AcDbLine
 10
6627.7060209105
 20
5135.1994554272
 30
0.0
 11
6627.7060209105
 21
5135.4065666666
 31
0.0
  0
LINE
  5
23B
330
1F
100
AcDbEntity
  8
0
  6
Continuous
 62
     7
100
AcDbLine
 10
6634.4060151169
 20
5149.1994539967
 30
0.0
 11
6633.9060141036
 21
5148.699460434
 31
0.0
  0
LINE
  5
23C
330
1F
100
AcDbEntity
  8
0
  6
Continuous
 62
     7
100
AcDbLine
 10
6633.9060141036
 20
5141.6994611492
 30
0.0
 11
6634.4060151169
 21
5141.1994526854
 31
0.0
  0
LINE
  5
23D
330
1F
100
AcDbEntity
  8
0
  6
Continuous
 62
     7
100
AcDbLine
 10
6634.4060151169
 20
5282.1994543767
 30
0.0
 11
6633.9060141036
 21
5281.6994547604
 31
0.0
  0
LINE
  5
23E
330
1F
100
AcDbEntity
  8
0
  6
Continuous
 62
     7
100
AcDbLine
 10
6633.9060141036
 20
5274.69945501
 30
0.0
 11
6634.4060151169
 21
5274.199454928
 31
0.0
  0
LINE
  5
23F
330
1F
100
AcDbEntity
  8
0
  6
Continuous
 62
     7
100
AcDbLine
 10
6634.4060151169
 20
5148.9994506111
 30
0.0
 11
6634.1060174892
 21
5148.699460434
 31
0.0
  0
LINE
  5
240
330
1F
100
AcDbEntity
  8
0
  6
Continuous
 62
     7
100
AcDbLine
 10
6634.1060174892
 20
5141.6994611492
 30
0.0
 11
6634.4060151169
 21
5141.3994560709
 31
0.0
  0
LINE
  5
241
330
1F
100
AcDbEntity
  8
0
  6
Continuous
 62
     7
100
AcDbLine
 10
6634.1060174892
 20
5148.699460434
 30
0.0
 11
6633.9060141036
 21
5148.699460434
 31
0.0
  0
LINE
  5
242
330
1F
100
AcDbEntity
  8
0
  6
Continuous
 62
     7
100
AcDbLine
 10
6633.9060141036
 20
5141.6994611492
 30
0.0
 11
6634.1060174892
 21
5141.6994611492
 31
0.0
  0
LINE
  5
243
330
1F
100
AcDbEntity
  8
0
  6
Continuous
 62
     7
100
AcDbLine
 10
6644.4310171792
 20
5148.6265490523
 30
0.0
 11
6644.4310171792
 21
5148.7014720907
 31
0.0
  0
LINE
  5
244
330
1F
100
AcDbEntity
  8
0
  6
Continuous
 62
     7
100
AcDbLine
 10
6644.4310171792
 20
5147.0972577801
 30
0.0
 11
6644.4310171792
 21
5146.3194618693
 31
0.0
  0
LINE
  5
245
330
1F
100
AcDbEntity
  8
0
  6
Continuous
 62
     7
100
AcDbLine
 10
6644.4310171792
 20
5146.3194618693
 30
0.0
 11
6644.4060204813
 21
5146.3194618693
 31
0.0
  0
LINE
  5
246
330
1F
100
AcDbEntity
  8
0
  6
Continuous
 62
     7
100
AcDbLine
 10
6644.4310171792
 20
5147.0972577801
 30
0.0
 11
6644.4060204813
 21
5147.0972577801
 31
0.0
  0
LINE
  5
247
330
1F
100
AcDbEntity
  8
0
  6
Continuous
 62
     7
100
AcDbLine
 10
6644.4310171792
 20
5151.2870470753
 30
0.0
 11
6644.4060204813
 21
5151.2870470753
 31
0.0
  0
LINE
  5
248
330
1F
100
AcDbEntity
  8
0
  6
Continuous
 62
     7
100
AcDbLine
 10
6644.4310171792
 20
5149.7700492611
 30
0.0
 11
6644.4060204813
 21
5149.7700492611
 31
0.0
  0
LINE
  5
249
330
1F
100
AcDbEntity
  8
0
  6
Continuous
 62
     7
100
AcDbLine
 10
6644.4310171792
 20
5152.7184973231
 30
0.0
 11
6644.4060204813
 21
5152.7184973231
 31
0.0
  0
LINE
  5
24A
330
1F
100
AcDbEntity
  8
0
  6
Continuous
 62
     7
100
AcDbLine
 10
6644.4310171792
 20
5148.7014720907
 30
0.0
 11
6644.4060204813
 21
5148.7014720907
 31
0.0
  0
LINE
  5
24B
330
1F
100
AcDbEntity
  8
0
  6
Continuous
 62
     7
100
AcDbLine
 10
6644.4310171792
 20
5149.7700492611
 30
0.0
 11
6644.4310171792
 21
5148.7014720907
 31
0.0
  0
LINE
  5
24C
330
1F
100
AcDbEntity
  8
0
  6
Continuous
 62
     7
100
AcDbLine
 10
6644.4310171792
 20
5147.6738731136
 30
0.0
 11
6644.4060204813
 21
5147.6738731136
 31
0.0
  0
LINE
  5
24D
330
1F
100
AcDbEntity
  8
0
  6
Continuous
 62
     7
100
AcDbLine
 10
6644.4310171792
 20
5152.7184973231
 30
0.0
 11
6644.4060204813
 21
5152.7184973231
 31
0.0
  0
LINE
  5
24E
330
1F
100
AcDbEntity
  8
0
  6
Continuous
 62
     7
100
AcDbLine
 10
6644.4310171792
 20
5153.4548382034
 30
0.0
 11
6644.4060204813
 21
5153.4548382034
 31
0.0
  0
LINE
  5
24F
330
1F
100
AcDbEntity
  8
0
  6
Continuous
 62
     7
100
AcDbLine
 10
6644.4310171792
 20
5153.4636894932
 30
0.0
 11
6644.4060204813
 21
5153.4636894932
 31
0.0
  0
LINE
  5
250
330
1F
100
AcDbEntity
  8
0
  6
Continuous
 62
     7
100
AcDbLine
 10
6634.4060204813
 20
5136.6994605532
 30
0.0
 11
6634.4060151169
 21
5126.6994605532
 31
0.0
  0
LINE
  5
251
330
1F
100
AcDbEntity
  8
0
  6
Continuous
 62
     7
100
AcDbLine
 10
6634.4060204813
 20
5136.6994605532
 30
0.0
 11
6644.4060204813
 21
5136.6994510164
 31
0.0
  0
LINE
  5
252
330
1F
100
AcDbEntity
  8
0
  6
Continuous
 62
     7
100
AcDbLine
 10
6634.4060204813
 20
5286.6994544251
 30
0.0
 11
6644.4060204813
 21
5286.6994546486
 31
0.0
  0
LINE
  5
253
330
1F
100
AcDbEntity
  8
0
  6
Continuous
 62
     7
100
AcDbLine
 10
6644.4060204813
 20
5286.6994546486
 30
0.0
 11
6644.4060204813
 21
5136.6994510164
 31
0.0
  0
LINE
  5
254
330
1F
100
AcDbEntity
  8
0
  6
Continuous
 62
     7
100
AcDbLine
 10
6634.4060204813
 20
5286.6994544251
 30
0.0
 11
6634.4060204813
 21
5136.6994605532
 31
0.0
  0
LINE
  5
255
330
1F
100
AcDbEntity
  8
0
  6
Continuous
 62
     7
100
AcDbLine
 10
6634.4060151169
 20
5296.6994544251
 30
0.0
 11
6634.4060204813
 21
5286.6994544251
 31
0.0
  0
LINE
  5
256
330
1F
100
AcDbEntity
  8
0
  6
Continuous
 62
     7
100
AcDbLine
 10
6693.7060131023
 20
5217.2014171949
 30
0.0
 11
6693.7060131023
 21
5212.6774172058
 31
0.0
  0
LINE
  5
257
330
1F
100
AcDbEntity
  8
0
  6
Continuous
 62
     7
100
AcDbLine
 10
6690.2060134599
 20
5228.9079296162
 30
0.0
 11
6696.4060141036
 21
5228.9079296162
 31
0.0
  0
LINE
  5
258
330
1F
100
AcDbEntity
  8
0
  6
Continuous
 62
     7
100
AcDbLine
 10
6696.4060141036
 20
5212.6774172058
 30
0.0
 11
6696.4060141036
 21
5228.9079296162
 31
0.0
  0
LINE
  5
259
330
1F
100
AcDbEntity
  8
0
  6
Continuous
 62
     7
100
AcDbLine
 10
6693.7060131023
 20
5212.6774172058
 30
0.0
 11
6696.4060141036
 21
5212.6774172058
 31
0.0
  0
LINE
  5
25A
330
1F
100
AcDbEntity
  8
0
  6
Continuous
 62
     7
100
AcDbLine
 10
6693.2060195396
 20
5217.3454890719
 30
0.0
 11
6693.2156307885
 21
5217.3173854818
 31
0.0
  0
LINE
  5
25B
330
1F
100
AcDbEntity
  8
0
  6
Continuous
 62
     7
100
AcDbLine
 10
6693.2156307885
 20
5217.3173854818
 30
0.0
 11
6693.2440771052
 21
5217.2903547754
 31
0.0
  0
LINE
  5
25C
330
1F
100
AcDbEntity
  8
0
  6
Continuous
 62
     7
100
AcDbLine
 10
6693.2440771052
 20
5217.2903547754
 30
0.0
 11
6693.2902856061
 21
5217.2654474845
 31
0.0
  0
LINE
  5
25D
330
1F
100
AcDbEntity
  8
0
  6
Continuous
 62
     7
100
AcDbLine
 10
6693.2902856061
 20
5217.2654474845
 30
0.0
 11
6693.3524681518
 21
5217.2436172834
 31
0.0
  0
LINE
  5
25E
330
1F
100
AcDbEntity
  8
0
  6
Continuous
 62
     7
100
AcDbLine
 10
6693.3524681518
 20
5217.2436172834
 30
0.0
 11
6693.4282256553
 21
5217.225698637
 31
0.0
  0
LINE
  5
25F
330
1F
100
AcDbEntity
  8
0
  6
Continuous
 62
     7
100
AcDbLine
 10
6693.4282256553
 20
5217.225698637
 30
0.0
 11
6693.5146821925
 21
5217.2123844495
 31
0.0
  0
LINE
  5
260
330
1F
100
AcDbEntity
  8
0
  6
Continuous
 62
     7
100
AcDbLine
 10
6693.5146821925
 20
5217.2123844495
 30
0.0
 11
6693.6084701011
 21
5217.2041888108
 31
0.0
  0
LINE
  5
261
330
1F
100
AcDbEntity
  8
0
  6
Continuous
 62
     7
100
AcDbLine
 10
6693.6084701011
 20
5217.2041888108
 30
0.0
 11
6693.7060131023
 21
5217.2014171949
 31
0.0
  0
LINE
  5
262
330
1F
100
AcDbEntity
  8
0
  6
Continuous
 62
     7
100
AcDbLine
 10
6698.4060181567
 20
5252.7994530966
 30
0.0
 11
6698.4060181567
 21
5229.4841984978
 31
0.0
  0
LINE
  5
263
330
1F
100
AcDbEntity
  8
0
  6
Continuous
 62
     7
100
AcDbLine
 10
6696.4060141036
 20
5228.9079296162
 30
0.0
 11
6696.7962010095
 21
5228.919001179
 31
0.0
  0
LINE
  5
264
330
1F
100
AcDbEntity
  8
0
  6
Continuous
 62
     7
100
AcDbLine
 10
6696.7962010095
 20
5228.919001179
 30
0.0
 11
6697.171382446
 21
5228.9517949095
 31
0.0
  0
LINE
  5
265
330
1F
100
AcDbEntity
  8
0
  6
Continuous
 62
     7
100
AcDbLine
 10
6697.171382446
 20
5228.9517949095
 30
0.0
 11
6697.5171638915
 21
5229.0050479343
 31
0.0
  0
LINE
  5
266
330
1F
100
AcDbEntity
  8
0
  6
Continuous
 62
     7
100
AcDbLine
 10
6697.5171638915
 20
5229.0050479343
 30
0.0
 11
6697.8202237079
 21
5229.0767150691
 31
0.0
  0
LINE
  5
267
330
1F
100
AcDbEntity
  8
0
  6
Continuous
 62
     7
100
AcDbLine
 10
6697.8202237079
 20
5229.0767150691
 30
0.0
 11
6698.0689538905
 21
5229.164039599
 31
0.0
  0
LINE
  5
268
330
1F
100
AcDbEntity
  8
0
  6
Continuous
 62
     7
100
AcDbLine
 10
6698.0689538905
 20
5229.164039599
 30
0.0
 11
6698.2537729928
 21
5229.263672488
 31
0.0
  0
LINE
  5
269
330
1F
100
AcDbEntity
  8
0
  6
Continuous
 62
     7
100
AcDbLine
 10
6698.2537729928
 20
5229.263672488
 30
0.0
 11
6698.367588062
 21
5229.3717766872
 31
0.0
  0
LINE
  5
26A
330
1F
100
AcDbEntity
  8
0
  6
Continuous
 62
     7
100
AcDbLine
 10
6698.367588062
 20
5229.3717766872
 30
0.0
 11
6698.4060181567
 21
5229.4841984978
 31
0.0
  0
LINE
  5
26B
330
1F
100
AcDbEntity
  8
0
  6
Continuous
 62
     7
100
AcDbLine
 10
6698.4060181567
 20
5229.4841984978
 30
0.0
 11
6698.4060181567
 21
5213.2536898127
 31
0.0
  0
LINE
  5
26C
330
1F
100
AcDbEntity
  8
0
  6
Continuous
 62
     7
100
AcDbLine
 10
6698.4060181567
 20
5213.2536898127
 30
0.0
 11
6698.367588062
 21
5213.141268002
 31
0.0
  0
LINE
  5
26D
330
1F
100
AcDbEntity
  8
0
  6
Continuous
 62
     7
100
AcDbLine
 10
6698.367588062
 20
5213.141268002
 30
0.0
 11
6698.2537729928
 21
5213.0331600776
 31
0.0
  0
LINE
  5
26E
330
1F
100
AcDbEntity
  8
0
  6
Continuous
 62
     7
100
AcDbLine
 10
6698.2537729928
 20
5213.0331600776
 30
0.0
 11
6698.0689538905
 21
5212.9335309138
 31
0.0
  0
LINE
  5
26F
330
1F
100
AcDbEntity
  8
0
  6
Continuous
 62
     7
100
AcDbLine
 10
6698.0689538905
 20
5212.9335309138
 30
0.0
 11
6697.8202237079
 21
5212.8462101092
 31
0.0
  0
LINE
  5
270
330
1F
100
AcDbEntity
  8
0
  6
Continuous
 62
     7
100
AcDbLine
 10
6697.8202237079
 20
5212.8462101092
 30
0.0
 11
6697.5171638915
 21
5212.7745429745
 31
0.0
  0
LINE
  5
271
330
1F
100
AcDbEntity
  8
0
  6
Continuous
 62
     7
100
AcDbLine
 10
6697.5171638915
 20
5212.7745429745
 30
0.0
 11
6697.171382446
 21
5212.7212862244
 31
0.0
  0
LINE
  5
272
330
1F
100
AcDbEntity
  8
0
  6
Continuous
 62
     7
100
AcDbLine
 10
6697.171382446
 20
5212.7212862244
 30
0.0
 11
6696.7962010095
 21
5212.6884962192
 31
0.0
  0
LINE
  5
273
330
1F
100
AcDbEntity
  8
0
  6
Continuous
 62
     7
100
AcDbLine
 10
6696.7962010095
 20
5212.6884962192
 30
0.0
 11
6696.4060141036
 21
5212.6774172058
 31
0.0
  0
LINE
  5
274
330
1F
100
AcDbEntity
  8
0
  6
Continuous
 62
     7
100
AcDbLine
 10
6693.2060195396
 20
5212.8214890828
 30
0.0
 11
6693.2060195396
 21
5217.3454890719
 31
0.0
  0
LINE
  5
275
330
1F
100
AcDbEntity
  8
0
  6
Continuous
 62
     7
100
AcDbLine
 10
6693.2060195396
 20
5212.8214890828
 30
0.0
 11
6693.2156307885
 21
5212.7933854928
 31
0.0
  0
LINE
  5
276
330
1F
100
AcDbEntity
  8
0
  6
Continuous
 62
     7
100
AcDbLine
 10
6693.2156307885
 20
5212.7933854928
 30
0.0
 11
6693.2440771052
 21
5212.7663547864
 31
0.0
  0
LINE
  5
277
330
1F
100
AcDbEntity
  8
0
  6
Continuous
 62
     7
100
AcDbLine
 10
6693.2440771052
 20
5212.7663547864
 30
0.0
 11
6693.2902856061
 21
5212.7414474955
 31
0.0
  0
LINE
  5
278
330
1F
100
AcDbEntity
  8
0
  6
Continuous
 62
     7
100
AcDbLine
 10
6693.2902856061
 20
5212.7414474955
 30
0.0
 11
6693.3524681518
 21
5212.7196172943
 31
0.0
  0
LINE
  5
279
330
1F
100
AcDbEntity
  8
0
  6
Continuous
 62
     7
100
AcDbLine
 10
6693.3524681518
 20
5212.7196172943
 30
0.0
 11
6693.4282256553
 21
5212.701698648
 31
0.0
  0
LINE
  5
27A
330
1F
100
AcDbEntity
  8
0
  6
Continuous
 62
     7
100
AcDbLine
 10
6693.4282256553
 20
5212.701698648
 30
0.0
 11
6693.5146821925
 21
5212.6883844605
 31
0.0
  0
LINE
  5
27B
330
1F
100
AcDbEntity
  8
0
  6
Continuous
 62
     7
100
AcDbLine
 10
6693.5146821925
 20
5212.6883844605
 30
0.0
 11
6693.6084701011
 21
5212.6801888218
 31
0.0
  0
LINE
  5
27C
330
1F
100
AcDbEntity
  8
0
  6
Continuous
 62
     7
100
AcDbLine
 10
6693.6084701011
 20
5212.6801888218
 30
0.0
 11
6693.7060131023
 21
5212.6774172058
 31
0.0
  0
LINE
  5
27D
330
1F
100
AcDbEntity
  8
0
  6
Continuous
 62
     7
100
AcDbLine
 10
6693.2060195396
 20
5202.4994547239
 30
0.0
 11
6693.2060195396
 21
5212.8214890828
 31
0.0
  0
LINE
  5
27E
330
1F
100
AcDbEntity
  8
0
  6
Continuous
 62
     7
100
AcDbLine
 10
6698.4060181567
 20
5213.2536898127
 30
0.0
 11
6698.4060181567
 21
5203.9994577637
 31
0.0
  0
LINE
  5
27F
330
1F
100
AcDbEntity
  8
0
  6
Continuous
 62
     7
100
AcDbLine
 10
6647.4060191104
 20
5206.3994536867
 30
0.0
 11
6647.4060191104
 21
5262.999454396
 31
0.0
  0
LINE
  5
280
330
1F
100
AcDbEntity
  8
0
  6
Continuous
 62
     7
100
AcDbLine
 10
6566.106017519
 20
5303.6994541755
 30
0.0
 11
6579.6060169378
 21
5303.6994541755
 31
0.0
  0
LINE
  5
281
330
1F
100
AcDbEntity
  8
0
  6
Continuous
 62
     7
100
AcDbLine
 10
6579.6060169378
 20
5303.6994541755
 30
0.0
 11
6579.6060169378
 21
5293.1994547827
 31
0.0
  0
LINE
  5
282
330
1F
100
AcDbEntity
  8
0
  6
Continuous
 62
     7
100
AcDbLine
 10
6566.106017519
 20
5293.1994547827
 30
0.0
 11
6579.6060169378
 21
5293.1994547827
 31
0.0
  0
LINE
  5
283
330
1F
100
AcDbEntity
  8
0
  6
Continuous
 62
     7
100
AcDbLine
 10
6566.106017519
 20
5303.6994541755
 30
0.0
 11
6566.106017519
 21
5293.1994547827
 31
0.0
  0
LINE
  5
284
330
1F
100
AcDbEntity
  8
0
  6
Continuous
 62
     7
100
AcDbLine
 10
6555.041015221
 20
5311.1994544735
 30
0.0
 11
6552.8855172452
 21
5311.1994544735
 31
0.0
  0
LINE
  5
285
330
1F
100
AcDbEntity
  8
0
  6
Continuous
 62
     7
100
AcDbLine
 10
6560.2457670757
 20
5312.6994537881
 30
0.0
 11
6577.8265165428
 21
5312.6994537881
 31
0.0
  0
LINE
  5
286
330
1F
100
AcDbEntity
  8
0
  6
Continuous
 62
     7
100
AcDbLine
 10
6554.3855172146
 20
5312.6994537881
 30
0.0
 11
6560.2457670757
 21
5312.6994537881
 31
0.0
  0
LINE
  5
287
330
1F
100
AcDbEntity
  8
0
  6
Continuous
 62
     7
100
AcDbLine
 10
6552.606017227
 20
5303.6994541755
 30
0.0
 11
6552.606017227
 21
5293.1994547827
 31
0.0
  0
LINE
  5
288
330
1F
100
AcDbEntity
  8
0
  6
Continuous
 62
     7
100
AcDbLine
 10
6552.606017227
 20
5303.6994541755
 30
0.0
 11
6566.106017519
 21
5303.6994541755
 31
0.0
  0
LINE
  5
289
330
1F
100
AcDbEntity
  8
0
  6
Continuous
 62
     7
100
AcDbLine
 10
6552.606017227
 20
5293.1994547827
 30
0.0
 11
6566.106017519
 21
5293.1994547827
 31
0.0
  0
LINE
  5
28A
330
1F
100
AcDbEntity
  8
0
  6
Continuous
 62
     7
100
AcDbLine
 10
6617.9060189316
 20
5135.29945712
 30
0.0
 11
6609.9060176203
 21
5135.29945712
 31
0.0
  0
LINE
  5
28B
330
1F
100
AcDbEntity
  8
0
  6
Continuous
 62
     7
100
AcDbLine
 10
6632.1060208866
 20
5260.3294550201
 30
0.0
 11
6634.4060151169
 21
5260.3294550201
 31
0.0
  0
LINE
  5
28C
330
1F
100
AcDbEntity
  8
0
  6
Continuous
 62
     7
100
AcDbLine
 10
6632.1060208866
 20
5247.8294539025
 30
0.0
 11
6634.4060151169
 21
5247.8294539025
 31
0.0
  0
LINE
  5
28D
330
1F
100
AcDbEntity
  8
0
  6
Continuous
 62
     7
100
AcDbLine
 10
6633.3060172503
 20
5212.2827879256
 30
0.0
 11
6633.1060172503
 21
5212.2827879256
 31
0.0
  0
LINE
  5
28E
330
1F
100
AcDbEntity
  8
0
  6
Continuous
 62
     7
100
AcDbLine
 10
6632.89164089
 20
5215.2827879256
 30
0.0
 11
6633.1060154626
 21
5215.282788383
 31
0.0
  0
LINE
  5
28F
330
1F
100
AcDbEntity
  8
0
  6
Continuous
 62
     7
100
AcDbLine
 10
6633.1060154626
 20
5215.282788383
 30
0.0
 11
6633.1060172503
 21
5215.2221756169
 31
0.0
  0
LINE
  5
290
330
1F
100
AcDbEntity
  8
0
  6
Continuous
 62
     7
100
AcDbLine
 10
6633.3060188481
 20
5220.6994573345
 30
0.0
 11
6633.2004028586
 21
5220.6994545922
 31
0.0
  0
LINE
  5
291
330
1F
100
AcDbEntity
  8
0
  6
Continuous
 62
     7
100
AcDbLine
 10
6633.2004028586
 20
5220.6994545922
 30
0.0
 11
6632.9974456764
 21
5220.6994545922
 31
0.0
  0
LINE
  5
292
330
1F
100
AcDbEntity
  8
0
  6
Continuous
 62
     7
100
AcDbLine
 10
6632.6060144493
 20
5237.5612313619
 30
0.0
 11
6632.703229625
 21
5237.5059108009
 31
0.0
  0
LINE
  5
293
330
1F
100
AcDbEntity
  8
0
  6
Continuous
 62
     7
100
AcDbLine
 10
6632.703229625
 20
5237.5059108009
 30
0.0
 11
6632.7955125162
 21
5237.4423871508
 31
0.0
  0
LINE
  5
294
330
1F
100
AcDbEntity
  8
0
  6
Continuous
 62
     7
100
AcDbLine
 10
6632.7955125162
 20
5237.4423871508
 30
0.0
 11
6632.8781990597
 21
5237.3738865128
 31
0.0
  0
LINE
  5
295
330
1F
100
AcDbEntity
  8
0
  6
Continuous
 62
     7
100
AcDbLine
 10
6632.8781990597
 20
5237.3738865128
 30
0.0
 11
6632.9470871279
 21
5237.3038771322
 31
0.0
  0
LINE
  5
296
330
1F
100
AcDbEntity
  8
0
  6
Continuous
 62
     7
100
AcDbLine
 10
6632.9470871279
 20
5237.3038771322
 30
0.0
 11
6632.9986898491
 21
5237.2359054854
 31
0.0
  0
LINE
  5
297
330
1F
100
AcDbEntity
  8
0
  6
Continuous
 62
     7
100
AcDbLine
 10
6632.9986898491
 20
5237.2359054854
 30
0.0
 11
6633.0303920695
 21
5237.1734211912
 31
0.0
  0
LINE
  5
298
330
1F
100
AcDbEntity
  8
0
  6
Continuous
 62
     7
100
AcDbLine
 10
6633.0303920695
 20
5237.1734211912
 30
0.0
 11
6633.0405919144
 21
5237.1195870211
 31
0.0
  0
LINE
  5
299
330
1F
100
AcDbEntity
  8
0
  6
Continuous
 62
     7
100
AcDbLine
 10
6633.0405919144
 20
5237.1195870211
 30
0.0
 11
6633.0287603924
 21
5237.0771336129
 31
0.0
  0
LINE
  5
29A
330
1F
100
AcDbEntity
  8
0
  6
Continuous
 62
     7
100
AcDbLine
 10
6633.0287603924
 20
5237.0771336129
 30
0.0
 11
6632.7607779095
 21
5236.6528304985
 31
0.0
  0
LINE
  5
29B
330
1F
100
AcDbEntity
  8
0
  6
Continuous
 62
     7
100
AcDbLine
 10
6632.7607779095
 20
5236.6528304985
 30
0.0
 11
6632.4885411451
 21
5236.2217883339
 31
0.0
  0
LINE
  5
29C
330
1F
100
AcDbEntity
  8
0
  6
Continuous
 62
     7
100
AcDbLine
 10
6632.4885411451
 20
5236.2217883339
 30
0.0
 11
6632.2124002764
 21
5235.7845621874
 31
0.0
  0
LINE
  5
29D
330
1F
100
AcDbEntity
  8
0
  6
Continuous
 62
     7
100
AcDbLine
 10
6632.6060144493
 20
5237.5612313619
 30
0.0
 11
6632.6060144493
 21
5244.69049822
 31
0.0
  0
LINE
  5
29E
330
1F
100
AcDbEntity
  8
0
  6
Continuous
 62
     7
100
AcDbLine
 10
6632.6060144493
 20
5237.5612313619
 30
0.0
 11
6632.7035649011
 21
5237.557062762
 31
0.0
  0
LINE
  5
29F
330
1F
100
AcDbEntity
  8
0
  6
Continuous
 62
     7
100
AcDbLine
 10
6632.7035649011
 20
5237.557062762
 30
0.0
 11
6632.7973602602
 21
5237.5447059741
 31
0.0
  0
LINE
  5
2A0
330
1F
100
AcDbEntity
  8
0
  6
Continuous
 62
     7
100
AcDbLine
 10
6632.7973602602
 20
5237.5447059741
 30
0.0
 11
6632.8838018963
 21
5237.5246452859
 31
0.0
  0
LINE
  5
2A1
330
1F
100
AcDbEntity
  8
0
  6
Continuous
 62
     7
100
AcDbLine
 10
6632.8838018963
 20
5237.5246452859
 30
0.0
 11
6632.959574301
 21
5237.4976443818
 31
0.0
  0
LINE
  5
2A2
330
1F
100
AcDbEntity
  8
0
  6
Continuous
 62
     7
100
AcDbLine
 10
6632.959574301
 20
5237.4976443818
 30
0.0
 11
6633.0217493961
 21
5237.4647463432
 31
0.0
  0
LINE
  5
2A3
330
1F
100
AcDbEntity
  8
0
  6
Continuous
 62
     7
100
AcDbLine
 10
6633.0217493961
 20
5237.4647463432
 30
0.0
 11
6633.0679578969
 21
5237.4272103181
 31
0.0
  0
LINE
  5
2A4
330
1F
100
AcDbEntity
  8
0
  6
Continuous
 62
     7
100
AcDbLine
 10
6633.0679578969
 20
5237.4272103181
 30
0.0
 11
6633.0964116642
 21
5237.3864854446
 31
0.0
  0
LINE
  5
2A5
330
1F
100
AcDbEntity
  8
0
  6
Continuous
 62
     7
100
AcDbLine
 10
6633.0964116642
 20
5237.3864854446
 30
0.0
 11
6633.1060154626
 21
5237.3441288939
 31
0.0
  0
LINE
  5
2A6
330
1F
100
AcDbEntity
  8
0
  6
Continuous
 62
     7
100
AcDbLine
 10
6633.1060154626
 20
5244.2093471756
 30
0.0
 11
6633.1060154626
 21
5237.3441288939
 31
0.0
  0
LINE
  5
2A7
330
1F
100
AcDbEntity
  8
0
  6
Continuous
 62
     7
100
AcDbLine
 10
6632.1060208866
 20
5206.0758898726
 30
0.0
 11
6633.1978885719
 21
5206.0758898726
 31
0.0
  0
LINE
  5
2A8
330
1F
100
AcDbEntity
  8
0
  6
Continuous
 62
     7
100
AcDbLine
 10
6632.1060208866
 20
5205.6588287225
 30
0.0
 11
6633.7935177872
 21
5205.6588287225
 31
0.0
  0
LINE
  5
2A9
330
1F
100
AcDbEntity
  8
0
  6
Continuous
 62
     7
100
AcDbLine
 10
6632.1060208866
 20
5205.2417601218
 30
0.0
 11
6633.1978885719
 21
5205.2417601218
 31
0.0
  0
LINE
  5
2AA
330
1F
100
AcDbEntity
  8
0
  6
Continuous
 62
     7
100
AcDbLine
 10
6632.1060208866
 20
5204.7532777062
 30
0.0
 11
6633.1978885719
 21
5204.7532777062
 31
0.0
  0
LINE
  5
2AB
330
1F
100
AcDbEntity
  8
0
  6
Continuous
 62
     7
100
AcDbLine
 10
6632.1060208866
 20
5204.3362091055
 30
0.0
 11
6633.7935177872
 21
5204.3362091055
 31
0.0
  0
LINE
  5
2AC
330
1F
100
AcDbEntity
  8
0
  6
Continuous
 62
     7
100
AcDbLine
 10
6632.1060208866
 20
5206.9814408889
 30
0.0
 11
6633.7935177872
 21
5206.9814408889
 31
0.0
  0
LINE
  5
2AD
330
1F
100
AcDbEntity
  8
0
  6
Continuous
 62
     7
100
AcDbLine
 10
6632.1060208866
 20
5206.5643722882
 30
0.0
 11
6633.1978885719
 21
5206.5643722882
 31
0.0
  0
LINE
  5
2AE
330
1F
100
AcDbEntity
  8
0
  6
Continuous
 62
     7
100
AcDbLine
 10
6632.1060208866
 20
5207.398502039
 30
0.0
 11
6633.1978885719
 21
5207.398502039
 31
0.0
  0
LINE
  5
2AF
330
1F
100
AcDbEntity
  8
0
  6
Continuous
 62
     7
100
AcDbLine
 10
6633.7935177872
 20
5208.3040530553
 30
0.0
 11
6632.1060208866
 21
5208.3040530553
 31
0.0
  0
LINE
  5
2B0
330
1F
100
AcDbEntity
  8
0
  6
Continuous
 62
     7
100
AcDbLine
 10
6633.7935177872
 20
5208.3294520846
 30
0.0
 11
6632.1060208866
 21
5208.3294520846
 31
0.0
  0
LINE
  5
2B1
330
1F
100
AcDbEntity
  8
0
  6
Continuous
 62
     7
100
AcDbLine
 10
6633.1978885719
 20
5207.8869919052
 30
0.0
 11
6632.1060208866
 21
5207.8869919052
 31
0.0
  0
LINE
  5
2B2
330
1F
100
AcDbEntity
  8
0
  6
Continuous
 62
     7
100
AcDbLine
 10
6633.0384535978
 20
5236.970996367
 30
0.0
 11
6632.961474199
 21
5236.8101383319
 31
0.0
  0
LINE
  5
2B3
330
1F
100
AcDbEntity
  8
0
  6
Continuous
 62
     7
100
AcDbLine
 10
6657.4060170242
 20
5217.2279114595
 30
0.0
 11
6657.4060170242
 21
5257.9494545927
 31
0.0
  0
LINE
  5
2B4
330
1F
100
AcDbEntity
  8
0
  6
Continuous
 62
     7
100
AcDbLine
 10
6657.4060170242
 20
5211.4494572153
 30
0.0
 11
6657.4060170242
 21
5217.2279114595
 31
0.0
  0
LINE
  5
2B5
330
1F
100
AcDbEntity
  8
0
  6
Continuous
 62
     7
100
AcDbLine
 10
6633.9060141036
 20
5223.9922563305
 30
0.0
 11
6633.9060141036
 21
5214.6994526258
 31
0.0
  0
LINE
  5
2B6
330
1F
100
AcDbEntity
  8
0
  6
Continuous
 62
     7
100
AcDbLine
 10
6633.9060141036
 20
5224.6994579902
 30
0.0
 11
6633.9060141036
 21
5223.9922563305
 31
0.0
  0
LINE
  5
2B7
330
1F
100
AcDbEntity
  8
0
  6
Continuous
 62
     7
100
AcDbLine
 10
6633.4060205409
 20
5213.0073289147
 30
0.0
 11
6634.4060151169
 21
5212.984619545
 31
0.0
  0
LINE
  5
2B8
330
1F
100
AcDbEntity
  8
0
  6
Continuous
 62
     7
100
AcDbLine
 10
6633.4060205409
 20
5247.8294539025
 30
0.0
 11
6633.4060205409
 21
5235.3994528523
 31
0.0
  0
LINE
  5
2B9
330
1F
100
AcDbEntity
  8
0
  6
Continuous
 62
     7
100
AcDbLine
 10
6633.4060205409
 20
5227.999454247
 30
0.0
 11
6633.4060205409
 21
5224.6994579902
 31
0.0
  0
LINE
  5
2BA
330
1F
100
AcDbEntity
  8
0
  6
Continuous
 62
     7
100
AcDbLine
 10
6633.4060205409
 20
5214.6994526258
 30
0.0
 11
6633.4060205409
 21
5213.0073289147
 31
0.0
  0
LINE
  5
2BB
330
1F
100
AcDbEntity
  8
0
  6
Continuous
 62
     7
100
AcDbLine
 10
6633.3745492885
 20
5213.2908235064
 30
0.0
 11
6633.4060205409
 21
5213.0073289147
 31
0.0
  0
LINE
  5
2BC
330
1F
100
AcDbEntity
  8
0
  6
Continuous
 62
     7
100
AcDbLine
 10
6633.3060188481
 20
5213.5449032059
 30
0.0
 11
6633.3745492885
 21
5213.2908235064
 31
0.0
  0
LINE
  5
2BD
330
1F
100
AcDbEntity
  8
0
  6
Continuous
 62
     7
100
AcDbLine
 10
6634.4060151169
 20
5212.1064866653
 30
0.0
 11
6634.309977133
 21
5212.0521197786
 31
0.0
  0
LINE
  5
2BE
330
1F
100
AcDbEntity
  8
0
  6
Continuous
 62
     7
100
AcDbLine
 10
6634.309977133
 20
5212.0521197786
 30
0.0
 11
6633.1745757053
 21
5211.4093656411
 31
0.0
  0
LINE
  5
2BF
330
1F
100
AcDbEntity
  8
0
  6
Continuous
 62
     7
100
AcDbLine
 10
6633.1745757053
 20
5211.4093656411
 30
0.0
 11
6633.1060154626
 21
5211.3705555668
 31
0.0
  0
LINE
  5
2C0
330
1F
100
AcDbEntity
  8
0
  6
Continuous
 62
     7
100
AcDbLine
 10
6566.106017519
 20
5289.1994545927
 30
0.0
 11
6566.106017519
 21
5293.1994547827
 31
0.0
  0
LINE
  5
2C1
330
1F
100
AcDbEntity
  8
0
  6
Continuous
 62
     7
100
AcDbLine
 10
6555.6060171949
 20
5289.1994545927
 30
0.0
 11
6555.6060171949
 21
5293.1994547827
 31
0.0
  0
LINE
  5
2C2
330
1F
100
AcDbEntity
  8
0
  6
Continuous
 62
     7
100
AcDbLine
 10
6576.6060164461
 20
5289.1994545927
 30
0.0
 11
6576.6060164461
 21
5293.1994547827
 31
0.0
  0
LINE
  5
2C3
330
1F
100
AcDbEntity
  8
0
  6
Continuous
 62
     7
100
AcDbLine
 10
6632.1060208866
 20
5192.3294569125
 30
0.0
 11
6634.4060151169
 21
5192.3294569125
 31
0.0
  0
LINE
  5
2C4
330
1F
100
AcDbEntity
  8
0
  6
Continuous
 62
     7
100
AcDbLine
 10
6632.1060208866
 20
5204.3294514289
 30
0.0
 11
6634.4060151169
 21
5204.3294514289
 31
0.0
  0
LINE
  5
2C5
330
1F
100
AcDbEntity
  8
0
  6
Continuous
 62
     7
100
AcDbLine
 10
6632.1060208866
 20
5173.4294573536
 30
0.0
 11
6633.3560196945
 21
5173.4294573536
 31
0.0
  0
LINE
  5
2C6
330
1F
100
AcDbEntity
  8
0
  6
Continuous
 62
     7
100
AcDbLine
 10
6632.3559729645
 20
5173.4075079432
 30
0.0
 11
6632.3559804151
 21
5173.4076942077
 31
0.0
  0
LINE
  5
2C7
330
1F
100
AcDbEntity
  8
0
  6
Continuous
 62
     7
100
AcDbLine
 10
6632.3559804151
 20
5173.4076942077
 30
0.0
 11
6632.3493493983
 21
5173.4294573536
 31
0.0
  0
LINE
  5
2C8
330
1F
100
AcDbEntity
  8
0
  6
Continuous
 62
     7
100
AcDbLine
 10
6561.6627436394
 20
5135.1994554272
 30
0.0
 11
6561.6627436394
 21
5135.9065602293
 31
0.0
  0
LINE
  5
2C9
330
1F
100
AcDbEntity
  8
0
  6
Continuous
 62
     7
100
AcDbLine
 10
6556.4175879845
 20
5135.1994554272
 30
0.0
 11
6556.4175879845
 21
5135.9065602293
 31
0.0
  0
LINE
  5
2CA
330
1F
100
AcDbEntity
  8
0
  6
Continuous
 62
     7
100
AcDbLine
 10
6571.3511741051
 20
5135.1994554272
 30
0.0
 11
6571.3511741051
 21
5135.9065602293
 31
0.0
  0
LINE
  5
2CB
330
1F
100
AcDbEntity
  8
0
  6
Continuous
 62
     7
100
AcDbLine
 10
6575.7944470534
 20
5135.1994554272
 30
0.0
 11
6575.7944470534
 21
5135.9065602293
 31
0.0
  0
LINE
  5
2CC
330
1F
100
AcDbEntity
  8
0
  6
Continuous
 62
     7
100
AcDbLine
 10
6565.993277196
 20
5123.6994544735
 30
0.0
 11
6565.993277196
 21
5134.1994534006
 31
0.0
  0
LINE
  5
2CD
330
1F
100
AcDbEntity
  8
0
  6
Continuous
 62
     7
100
AcDbLine
 10
6579.5524565766
 20
5123.6994544735
 30
0.0
 11
6579.5524565766
 21
5134.1994534006
 31
0.0
  0
LINE
  5
2CE
330
1F
100
AcDbEntity
  8
0
  6
Continuous
 62
     7
100
AcDbLine
 10
6579.5524565766
 20
5123.6994544735
 30
0.0
 11
6575.3719637433
 21
5123.6994544735
 31
0.0
  0
LINE
  5
2CF
330
1F
100
AcDbEntity
  8
0
  6
Continuous
 62
     7
100
AcDbLine
 10
6569.509703506
 20
5123.6994544735
 30
0.0
 11
6565.993277196
 21
5123.6994544735
 31
0.0
  0
LINE
  5
2D0
330
1F
100
AcDbEntity
  8
0
  6
Continuous
 62
     7
100
AcDbLine
 10
6552.5532456959
 20
5123.6994544735
 30
0.0
 11
6552.5532456959
 21
5134.1994534006
 31
0.0
  0
LINE
  5
2D1
330
1F
100
AcDbEntity
  8
0
  6
Continuous
 62
     7
100
AcDbLine
 10
6558.7184581237
 20
5123.6994544735
 30
0.0
 11
6552.5532456959
 21
5123.6994544735
 31
0.0
  0
LINE
  5
2D2
330
1F
100
AcDbEntity
  8
0
  6
Continuous
 62
     7
100
AcDbLine
 10
6565.993277196
 20
5123.6994544735
 30
0.0
 11
6561.3212676981
 21
5123.6994544735
 31
0.0
  0
LINE
  5
2D3
330
1F
100
AcDbEntity
  8
0
  6
Continuous
 62
     7
100
AcDbLine
 10
6553.9060172305
 20
5134.1994534006
 30
0.0
 11
6552.5532456959
 21
5134.1994534006
 31
0.0
  0
LINE
  5
2D4
330
1F
100
AcDbEntity
  8
0
  6
Continuous
 62
     7
100
AcDbLine
 10
6577.8261756787
 20
5114.6994511357
 30
0.0
 11
6554.3855172146
 21
5114.6994511357
 31
0.0
  0
LINE
  5
2D5
330
1F
100
AcDbEntity
  8
0
  6
Continuous
 62
     7
100
AcDbLine
 10
6575.3719637433
 20
5123.6994544735
 30
0.0
 11
6570.0584816078
 21
5123.6994544735
 31
0.0
  0
LINE
  5
2D6
330
1F
100
AcDbEntity
  8
0
  6
Continuous
 62
     7
100
AcDbLine
 10
6570.0584816078
 20
5123.6994544735
 30
0.0
 11
6569.509703506
 21
5123.6994544735
 31
0.0
  0
LINE
  5
2D7
330
1F
100
AcDbEntity
  8
0
  6
Continuous
 62
     7
100
AcDbLine
 10
6579.6587894002
 20
5123.6994544735
 30
0.0
 11
6579.6587894002
 21
5134.1994534006
 31
0.0
  0
LINE
  5
2D8
330
1F
100
AcDbEntity
  8
0
  6
Continuous
 62
     7
100
AcDbLine
 10
6579.6587894002
 20
5123.6994544735
 30
0.0
 11
6579.5524565766
 21
5123.6994544735
 31
0.0
  0
LINE
  5
2D9
330
1F
100
AcDbEntity
  8
0
  6
Continuous
 62
     7
100
AcDbLine
 10
6627.428792257
 20
5290.4994545963
 30
0.0
 11
6624.6060205886
 21
5290.4994545963
 31
0.0
  0
LINE
  5
2DA
330
1F
100
AcDbEntity
  8
0
  6
Continuous
 62
     7
100
AcDbLine
 10
6627.6060192177
 20
5290.4994545963
 30
0.0
 11
6627.428792257
 21
5290.4994545963
 31
0.0
  0
LINE
  5
2DB
330
1F
100
AcDbEntity
  8
0
  6
Continuous
 62
     7
100
AcDbLine
 10
6626.0244099686
 20
5132.8994611969
 30
0.0
 11
6627.6060192177
 21
5132.8994611969
 31
0.0
  0
LINE
  5
2DC
330
1F
100
AcDbEntity
  8
0
  6
Continuous
 62
     7
100
AcDbLine
 10
6624.6060205886
 20
5132.8994611969
 30
0.0
 11
6626.0244099686
 21
5132.8994611969
 31
0.0
  0
LINE
  5
2DD
330
1F
100
AcDbEntity
  8
0
  6
Continuous
 62
     7
100
AcDbLine
 10
6634.1060174892
 20
5148.699460434
 30
0.0
 11
6634.1060174892
 21
5141.6994611492
 31
0.0
  0
LINE
  5
2DE
330
1F
100
AcDbEntity
  8
0
  6
Continuous
 62
     7
100
AcDbLine
 10
6553.9060172305
 20
5287.492347764
 30
0.0
 11
6632.1060208866
 21
5287.492347764
 31
0.0
  0
LINE
  5
2DF
330
1F
100
AcDbEntity
  8
0
  6
Continuous
 62
     7
100
AcDbLine
 10
6632.1060141036
 20
5286.192347846
 30
0.0
 11
6632.1060208866
 21
5287.492347764
 31
0.0
  0
LINE
  5
2E0
330
1F
100
AcDbEntity
  8
0
  6
Continuous
 62
     7
100
AcDbLine
 10
6632.1060208866
 20
5269.1994550398
 30
0.0
 11
6632.1060141036
 21
5286.192347846
 31
0.0
  0
LINE
  5
2E1
330
1F
100
AcDbEntity
  8
0
  6
Continuous
 62
     7
100
AcDbLine
 10
6632.1060208866
 20
5269.1994550398
 30
0.0
 11
6632.1060208866
 21
5154.1994492283
 31
0.0
  0
LINE
  5
2E2
330
1F
100
AcDbEntity
  8
0
  6
Continuous
 62
     7
100
AcDbLine
 10
6632.1060172507
 20
5137.2065613739
 30
0.0
 11
6632.1060208866
 21
5154.1994492283
 31
0.0
  0
LINE
  5
2E3
330
1F
100
AcDbEntity
  8
0
  6
Continuous
 62
     7
100
AcDbLine
 10
6632.1060208866
 20
5135.9065602293
 30
0.0
 11
6632.1060172507
 21
5137.2065613739
 31
0.0
  0
LINE
  5
2E4
330
1F
100
AcDbEntity
  8
0
  6
Continuous
 62
     7
100
AcDbLine
 10
6553.9060172305
 20
5135.9065602293
 30
0.0
 11
6632.1060208866
 21
5135.9065602293
 31
0.0
  0
LINE
  5
2E5
330
1F
100
AcDbEntity
  8
0
  6
Continuous
 62
     7
100
AcDbLine
 10
6553.9060172305
 20
5135.9065602293
 30
0.0
 11
6553.9060172305
 21
5287.492347764
 31
0.0
  0
LINE
  5
2E6
330
1F
100
AcDbEntity
  8
0
  6
Continuous
 62
     7
100
AcDbLine
 10
6633.9060130308
 20
5154.1994492283
 30
0.0
 11
6633.9060130308
 21
5137.2065673342
 31
0.0
  0
LINE
  5
2E7
330
1F
100
AcDbEntity
  8
0
  6
Continuous
 62
     7
100
AcDbLine
 10
6633.9060130308
 20
5137.2065673342
 30
0.0
 11
6632.1060172507
 21
5137.2065613739
 31
0.0
  0
LINE
  5
2E8
330
1F
100
AcDbEntity
  8
0
  6
Continuous
 62
     7
100
AcDbLine
 10
6632.1060208866
 20
5154.1994492283
 30
0.0
 11
6633.9060130308
 21
5154.1994492283
 31
0.0
  0
LINE
  5
2E9
330
1F
100
AcDbEntity
  8
0
  6
Continuous
 62
     7
100
AcDbLine
 10
6632.1060141036
 20
5286.192347846
 30
0.0
 11
6633.9060141036
 21
5286.192347846
 31
0.0
  0
LINE
  5
2EA
330
1F
100
AcDbEntity
  8
0
  6
Continuous
 62
     7
100
AcDbLine
 10
6633.9060141036
 20
5286.192347846
 30
0.0
 11
6633.9060141036
 21
5269.1994550398
 31
0.0
  0
LINE
  5
2EB
330
1F
100
AcDbEntity
  8
0
  6
Continuous
 62
     7
100
AcDbLine
 10
6633.9060141036
 20
5269.1994550398
 30
0.0
 11
6632.1060208866
 21
5269.1994550398
 31
0.0
  0
LINE
  5
2EC
330
1F
100
AcDbEntity
  8
0
  6
Continuous
 62
     7
100
AcDbLine
 10
6552.1060172032
 20
5135.9994540682
 30
0.0
 11
6552.1060172032
 21
5287.3994546236
 31
0.0
  0
LINE
  5
2ED
330
1F
100
AcDbEntity
  8
0
  6
Continuous
 62
     7
100
AcDbLine
 10
6553.9060172305
 20
5134.1994534006
 30
0.0
 11
6553.9060172305
 21
5135.1994554272
 31
0.0
  0
LINE
  5
2EE
330
1F
100
AcDbEntity
  8
0
  6
Continuous
 62
     7
100
AcDbLine
 10
6632.1060208866
 20
5134.1994534006
 30
0.0
 11
6632.1060208866
 21
5135.1994554272
 31
0.0
  0
LINE
  5
2EF
330
1F
100
AcDbEntity
  8
0
  6
Continuous
 62
     7
100
AcDbLine
 10
6553.9060172305
 20
5134.1994534006
 30
0.0
 11
6632.1060208866
 21
5134.1994534006
 31
0.0
  0
LINE
  5
2F0
330
1F
100
AcDbEntity
  8
0
  6
Continuous
 62
     7
100
AcDbLine
 10
6553.9060172305
 20
5135.1994554272
 30
0.0
 11
6632.1060208866
 21
5135.1994554272
 31
0.0
  0
LINE
  5
2F1
330
1F
100
AcDbEntity
  8
0
  6
Continuous
 62
     7
100
AcDbLine
 10
6553.9060172305
 20
5289.1994545927
 30
0.0
 11
6553.9060172305
 21
5288.1994545452
 31
0.0
  0
LINE
  5
2F2
330
1F
100
AcDbEntity
  8
0
  6
Continuous
 62
     7
100
AcDbLine
 10
6632.1060208866
 20
5289.1994545927
 30
0.0
 11
6632.1060208866
 21
5288.1994545452
 31
0.0
  0
LINE
  5
2F3
330
1F
100
AcDbEntity
  8
0
  6
Continuous
 62
     7
100
AcDbLine
 10
6553.9060172305
 20
5289.1994545927
 30
0.0
 11
6632.1060208866
 21
5289.1994545927
 31
0.0
  0
LINE
  5
2F4
330
1F
100
AcDbEntity
  8
0
  6
Continuous
 62
     7
100
AcDbLine
 10
6553.9060172305
 20
5288.1994545452
 30
0.0
 11
6632.1060208866
 21
5288.1994545452
 31
0.0
  0
LINE
  5
2F5
330
1F
100
AcDbEntity
  8
0
  6
Continuous
 62
     7
100
AcDbLine
 10
6613.9060182759
 20
5287.992347846
 30
0.0
 11
6613.9060182759
 21
5287.492347764
 31
0.0
  0
LINE
  5
2F6
330
1F
100
AcDbEntity
  8
0
  6
Continuous
 62
     7
100
AcDbLine
 10
6632.1060208866
 20
5287.992347846
 30
0.0
 11
6613.9060182759
 21
5287.992347846
 31
0.0
  0
LINE
  5
2F7
330
1F
100
AcDbEntity
  8
0
  6
Continuous
 62
     7
100
AcDbLine
 10
6613.9060182759
 20
5135.4065655938
 30
0.0
 11
6613.9060182759
 21
5135.9065591565
 31
0.0
  0
LINE
  5
2F8
330
1F
100
AcDbEntity
  8
0
  6
Continuous
 62
     7
100
AcDbLine
 10
6613.9060182759
 20
5135.4065655938
 30
0.0
 11
6632.1060208866
 21
5135.4065655938
 31
0.0
  0
LINE
  5
2F9
330
1F
100
AcDbEntity
  8
0
  6
Continuous
 62
     7
100
AcDbLine
 10
6690.2060134599
 20
5214.599450933
 30
0.0
 11
6690.2060134599
 21
5228.9079296162
 31
0.0
  0
LINE
  5
2FA
330
1F
100
AcDbEntity
  8
0
  6
Continuous
 62
     7
100
AcDbLine
 10
6696.4060141036
 20
5228.9079296162
 30
0.0
 11
6696.4060141036
 21
5254.7994534245
 31
0.0
  0
LINE
  5
2FB
330
1F
100
AcDbEntity
  8
0
  6
Continuous
 62
     7
100
AcDbLine
 10
6693.7060131023
 20
5212.6774172058
 30
0.0
 11
6693.7060131023
 21
5201.9994537106
 31
0.0
  0
LINE
  5
2FC
330
1F
100
AcDbEntity
  8
0
  6
Continuous
 62
     7
100
AcDbLine
 10
6696.4060141036
 20
5201.9994537106
 30
0.0
 11
6696.4060141036
 21
5212.6774172058
 31
0.0
  0
LINE
  5
2FD
330
1F
100
AcDbEntity
  8
0
  6
Continuous
 62
     7
100
AcDbLine
 10
6690.4060168454
 20
5257.7731217017
 30
0.0
 11
6680.406011481
 21
5257.7731217017
 31
0.0
  0
LINE
  5
2FE
330
1F
100
AcDbEntity
  8
0
  6
Continuous
 62
     7
100
AcDbLine
 10
6680.7906326353
 20
5258.2596248091
 30
0.0
 11
6690.0214018661
 21
5258.2596248091
 31
0.0
  0
LINE
  5
2FF
330
1F
100
AcDbEntity
  8
0
  6
Continuous
 62
     7
100
AcDbLine
 10
6647.2060157249
 20
5206.1994577518
 30
0.0
 11
6647.2060157249
 21
5263.1994540563
 31
0.0
  0
LINE
  5
300
330
1F
100
AcDbEntity
  8
0
  6
Continuous
 62
     7
100
AcDbLine
 10
6644.6060164163
 20
5206.1994577518
 30
0.0
 11
6644.6060164163
 21
5263.1994540563
 31
0.0
  0
LINE
  5
301
330
1F
100
AcDbEntity
  8
0
  6
Continuous
 62
     7
100
AcDbLine
 10
6634.4060151169
 20
5259.3294548562
 30
0.0
 11
6632.1060208866
 21
5259.3294548562
 31
0.0
  0
LINE
  5
302
330
1F
100
AcDbEntity
  8
0
  6
Continuous
 62
     7
100
AcDbLine
 10
6632.8763364145
 20
5235.3994528523
 30
0.0
 11
6632.8687889764
 21
5235.3889251819
 31
0.0
  0
LINE
  5
303
330
1F
100
AcDbEntity
  8
0
  6
Continuous
 62
     7
100
AcDbLine
 10
6632.8687889764
 20
5235.3889251819
 30
0.0
 11
6632.792159755
 21
5235.2820354273
 31
0.0
  0
LINE
  5
304
330
1F
100
AcDbEntity
  8
0
  6
Continuous
 62
     7
100
AcDbLine
 10
6632.792159755
 20
5235.2820354273
 30
0.0
 11
6632.6351462195
 21
5235.063029336
 31
0.0
  0
LINE
  5
305
330
1F
100
AcDbEntity
  8
0
  6
Continuous
 62
     7
100
AcDbLine
 10
6632.1060208866
 20
5235.6417941621
 30
0.0
 11
6632.2124002764
 21
5235.7845621874
 31
0.0
  0
LINE
  5
306
330
1F
100
AcDbEntity
  8
0
  6
Continuous
 62
     7
100
AcDbLine
 10
6632.1060208866
 20
5236.7391156724
 30
0.0
 11
6632.6060144493
 21
5237.5612313619
 31
0.0
  0
LINE
  5
307
330
1F
100
AcDbEntity
  8
0
  6
Continuous
 62
     7
100
AcDbLine
 10
6632.6060144493
 20
5244.69049822
 30
0.0
 11
6632.1060208866
 21
5244.4565574398
 31
0.0
  0
LINE
  5
308
330
1F
100
AcDbEntity
  8
0
  6
Continuous
 62
     7
100
AcDbLine
 10
6632.961474199
 20
5236.8101383319
 30
0.0
 11
6632.6662449429
 21
5236.3104539683
 31
0.0
  0
LINE
  5
309
330
1F
100
AcDbEntity
  8
0
  6
Continuous
 62
     7
100
AcDbLine
 10
6632.6662449429
 20
5236.3104539683
 30
0.0
 11
6632.3814166972
 21
5235.8283716014
 31
0.0
  0
LINE
  5
30A
330
1F
100
AcDbEntity
  8
0
  6
Continuous
 62
     7
100
AcDbLine
 10
6632.1060208866
 20
5173.9294509163
 30
0.0
 11
6632.8560186813
 21
5173.9294509163
 31
0.0
  0
LINE
  5
30B
330
1F
100
AcDbEntity
  8
0
  6
Continuous
 62
     7
100
AcDbLine
 10
6632.1060208866
 20
5180.8794568052
 30
0.0
 11
6632.8560186813
 21
5180.8794568052
 31
0.0
  0
LINE
  5
30C
330
1F
100
AcDbEntity
  8
0
  6
Continuous
 62
     7
100
AcDbLine
 10
6629.0321348498
 20
5289.5077348475
 30
0.0
 11
6622.7878643845
 21
5289.5077348475
 31
0.0
  0
LINE
  5
30D
330
1F
100
AcDbEntity
  8
0
  6
Continuous
 62
     7
100
AcDbLine
 10
6629.4241701169
 20
5289.5077348475
 30
0.0
 11
6629.0321348498
 21
5289.5077348475
 31
0.0
  0
LINE
  5
30E
330
1F
100
AcDbEntity
  8
0
  6
Continuous
 62
     7
100
AcDbLine
 10
6625.9255035112
 20
5133.8911781778
 30
0.0
 11
6629.4241701169
 21
5133.8911743379
 31
0.0
  0
LINE
  5
30F
330
1F
100
AcDbEntity
  8
0
  6
Continuous
 62
     7
100
AcDbLine
 10
6622.7878643845
 20
5133.8911743379
 30
0.0
 11
6625.9255035112
 21
5133.8911781778
 31
0.0
  0
LINE
  5
310
330
1F
100
AcDbEntity
  8
0
  6
Continuous
 62
     7
100
AcDbLine
 10
6632.1060208866
 20
5287.492347764
 30
0.0
 11
6632.1060208866
 21
5287.992347846
 31
0.0
  0
LINE
  5
311
330
1F
100
AcDbEntity
  8
0
  6
Continuous
 62
     7
100
AcDbLine
 10
6632.1060208866
 20
5135.9065602293
 30
0.0
 11
6632.1060208866
 21
5135.4065655938
 31
0.0
  0
LINE
  5
312
330
1F
100
AcDbEntity
  8
0
  6
Continuous
 62
     7
100
AcDbLine
 10
6328.0036927942
 20
4904.1859796155
 30
0.0
 11
6327.2965860131
 21
4904.139454465
 31
0.0
  0
LINE
  5
313
330
1F
100
AcDbEntity
  8
0
  6
Continuous
 62
     7
100
AcDbLine
 10
6231.4036947252
 20
4826.6999507208
 30
0.0
 11
6231.4036947252
 21
4787.6999536414
 31
0.0
  0
LINE
  5
314
330
1F
100
AcDbEntity
  8
0
  6
Continuous
 62
     7
100
AcDbLine
 10
6271.6036934914
 20
4787.6999536414
 30
0.0
 11
6271.6036934914
 21
4826.6999507208
 31
0.0
  0
LINE
  5
315
330
1F
100
AcDbEntity
  8
0
  6
Continuous
 62
     7
100
AcDbLine
 10
6223.0036940934
 20
4839.4999513287
 30
0.0
 11
6223.0036940934
 21
4836.8999520201
 31
0.0
  0
LINE
  5
316
330
1F
100
AcDbEntity
  8
0
  6
Continuous
 62
     7
100
AcDbLine
 10
6280.0036941232
 20
4836.8999520201
 30
0.0
 11
6280.0036941232
 21
4839.4999513287
 31
0.0
  0
LINE
  5
317
330
1F
100
AcDbEntity
  8
0
  6
Continuous
 62
     7
100
AcDbLine
 10
6203.3036958935
 20
4850.4489669461
 30
0.0
 11
6203.3036958935
 21
4849.6999526281
 31
0.0
  0
LINE
  5
318
330
1F
100
AcDbEntity
  8
0
  6
Continuous
 62
     7
100
AcDbLine
 10
6210.7036944988
 20
4849.6999526281
 30
0.0
 11
6210.7036944988
 21
4851.9999468584
 31
0.0
  0
LINE
  5
319
330
1F
100
AcDbEntity
  8
0
  6
Continuous
 62
     7
100
AcDbLine
 10
6189.7036891939
 20
4849.6999526281
 30
0.0
 11
6189.7036891939
 21
4850.1999536414
 31
0.0
  0
LINE
  5
31A
330
1F
100
AcDbEntity
  8
0
  6
Continuous
 62
     7
100
AcDbLine
 10
6228.253693557
 20
4836.6999486346
 30
0.0
 11
6228.253693557
 21
4826.6999507208
 31
0.0
  0
LINE
  5
31B
330
1F
100
AcDbEntity
  8
0
  6
Continuous
 62
     7
100
AcDbLine
 10
6274.7536946597
 20
4826.6999507208
 30
0.0
 11
6274.7536946597
 21
4836.6999486346
 31
0.0
  0
LINE
  5
31C
330
1F
100
AcDbEntity
  8
0
  6
Continuous
 62
     7
100
AcDbLine
 10
6281.5036934378
 20
4850.1999536414
 30
0.0
 11
6281.5036934378
 21
4851.9999468584
 31
0.0
  0
LINE
  5
31D
330
1F
100
AcDbEntity
  8
0
  6
Continuous
 62
     7
100
AcDbLine
 10
6271.5036917987
 20
4851.9999468584
 30
0.0
 11
6271.5036917987
 21
4850.1999536414
 31
0.0
  0
LINE
  5
31E
330
1F
100
AcDbEntity
  8
0
  6
Continuous
 62
     7
100
AcDbLine
 10
6271.5036917987
 20
4850.1999536414
 30
0.0
 11
6272.0036928119
 21
4849.6999526281
 31
0.0
  0
LINE
  5
31F
330
1F
100
AcDbEntity
  8
0
  6
Continuous
 62
     7
100
AcDbLine
 10
6281.0036924245
 20
4849.6999526281
 30
0.0
 11
6281.5036934378
 21
4850.1999536414
 31
0.0
  0
LINE
  5
320
330
1F
100
AcDbEntity
  8
0
  6
Continuous
 62
     7
100
AcDbLine
 10
6221.5036910536
 20
4851.9999468584
 30
0.0
 11
6221.5036910536
 21
4850.1999536414
 31
0.0
  0
LINE
  5
321
330
1F
100
AcDbEntity
  8
0
  6
Continuous
 62
     7
100
AcDbLine
 10
6221.5036910536
 20
4850.1999536414
 30
0.0
 11
6222.0036920669
 21
4849.6999526281
 31
0.0
  0
LINE
  5
322
330
1F
100
AcDbEntity
  8
0
  6
Continuous
 62
     7
100
AcDbLine
 10
6229.6036940577
 20
4850.6999472041
 30
0.0
 11
6229.6036940577
 21
4849.6999526281
 31
0.0
  0
LINE
  5
323
330
1F
100
AcDbEntity
  8
0
  6
Continuous
 62
     7
100
AcDbLine
 10
6329.0036928417
 20
4895.3999513645
 30
0.0
 11
6329.9036928263
 21
4895.3999513645
 31
0.0
  0
LINE
  5
324
330
1F
100
AcDbEntity
  8
0
  6
Continuous
 62
     7
100
AcDbLine
 10
6329.9036928263
 20
4908.599951293
 30
0.0
 11
6329.0036928417
 21
4908.599951293
 31
0.0
  0
LINE
  5
325
330
1F
100
AcDbEntity
  8
0
  6
Continuous
 62
     7
100
AcDbLine
 10
6327.2965860131
 20
4897.2499491532
 30
0.0
 11
6328.0036927942
 21
4897.2499491532
 31
0.0
  0
LINE
  5
326
330
1F
100
AcDbEntity
  8
0
  6
Continuous
 62
     7
100
AcDbLine
 10
6328.0036927942
 20
4906.749949779
 30
0.0
 11
6327.2965860131
 21
4906.749949779
 31
0.0
  0
LINE
  5
327
330
1F
100
AcDbEntity
  8
0
  6
Continuous
 62
     7
100
AcDbLine
 10
6322.0036926257
 20
4849.6999526281
 30
0.0
 11
6321.5036930094
 21
4850.1999536414
 31
0.0
  0
LINE
  5
328
330
1F
100
AcDbEntity
  8
0
  6
Continuous
 62
     7
100
AcDbLine
 10
6314.503693259
 20
4850.1999536414
 30
0.0
 11
6314.003693177
 21
4849.6999526281
 31
0.0
  0
LINE
  5
329
330
1F
100
AcDbEntity
  8
0
  6
Continuous
 62
     7
100
AcDbLine
 10
6189.0036922457
 20
4849.6999526281
 30
0.0
 11
6188.503698683
 21
4850.1999536414
 31
0.0
  0
LINE
  5
32A
330
1F
100
AcDbEntity
  8
0
  6
Continuous
 62
     7
100
AcDbLine
 10
6181.5036993983
 20
4850.1999536414
 30
0.0
 11
6181.0036909344
 21
4849.6999526281
 31
0.0
  0
LINE
  5
32B
330
1F
100
AcDbEntity
  8
0
  6
Continuous
 62
     7
100
AcDbLine
 10
6304.7989041122
 20
4839.6749505658
 30
0.0
 11
6304.7989041122
 21
4839.6999472637
 31
0.0
  0
LINE
  5
32C
330
1F
100
AcDbEntity
  8
0
  6
Continuous
 62
     7
100
AcDbLine
 10
6304.7989041122
 20
4839.6749505658
 30
0.0
 11
6288.4407576682
 21
4839.6749505658
 31
0.0
  0
LINE
  5
32D
330
1F
100
AcDbEntity
  8
0
  6
Continuous
 62
     7
100
AcDbLine
 10
6288.4407576682
 20
4839.6749505658
 30
0.0
 11
6288.4407576682
 21
4839.6999472637
 31
0.0
  0
LINE
  5
32E
330
1F
100
AcDbEntity
  8
0
  6
Continuous
 62
     7
100
AcDbLine
 10
6286.778711951
 20
4839.6749505658
 30
0.0
 11
6286.778711951
 21
4839.6999472637
 31
0.0
  0
LINE
  5
32F
330
1F
100
AcDbEntity
  8
0
  6
Continuous
 62
     7
100
AcDbLine
 10
6286.510766721
 20
4839.6749505658
 30
0.0
 11
6286.510766721
 21
4839.6999472637
 31
0.0
  0
LINE
  5
330
330
1F
100
AcDbEntity
  8
0
  6
Continuous
 62
     7
100
AcDbLine
 10
6286.6649974646
 20
4839.6749505658
 30
0.0
 11
6286.510766721
 21
4839.6749505658
 31
0.0
  0
LINE
  5
331
330
1F
100
AcDbEntity
  8
0
  6
Continuous
 62
     7
100
AcDbLine
 10
6309.8920967939
 20
4839.6749505658
 30
0.0
 11
6309.8920967939
 21
4839.6999472637
 31
0.0
  0
LINE
  5
332
330
1F
100
AcDbEntity
  8
0
  6
Continuous
 62
     7
100
AcDbLine
 10
6308.0205649646
 20
4839.6749505658
 30
0.0
 11
6308.0205649646
 21
4839.6999472637
 31
0.0
  0
LINE
  5
333
330
1F
100
AcDbEntity
  8
0
  6
Continuous
 62
     7
100
AcDbLine
 10
6305.5501722308
 20
4839.6749505658
 30
0.0
 11
6305.5501722308
 21
4839.6999472637
 31
0.0
  0
LINE
  5
334
330
1F
100
AcDbEntity
  8
0
  6
Continuous
 62
     7
100
AcDbLine
 10
6307.3152799668
 20
4839.6749505658
 30
0.0
 11
6307.3152799668
 21
4839.6999472637
 31
0.0
  0
LINE
  5
335
330
1F
100
AcDbEntity
  8
0
  6
Continuous
 62
     7
100
AcDbLine
 10
6310.8981542798
 20
4839.6749505658
 30
0.0
 11
6310.8981542798
 21
4839.6999472637
 31
0.0
  0
LINE
  5
336
330
1F
100
AcDbEntity
  8
0
  6
Continuous
 62
     7
100
AcDbLine
 10
6310.7360594483
 20
4839.6749505658
 30
0.0
 11
6310.7360594483
 21
4839.6999472637
 31
0.0
  0
LINE
  5
337
330
1F
100
AcDbEntity
  8
0
  6
Continuous
 62
     7
100
AcDbLine
 10
6311.0690854999
 20
4839.6749505658
 30
0.0
 11
6311.0690854999
 21
4839.6999472637
 31
0.0
  0
LINE
  5
338
330
1F
100
AcDbEntity
  8
0
  6
Continuous
 62
     7
100
AcDbLine
 10
6311.1295506867
 20
4839.6749505658
 30
0.0
 11
6311.1295506867
 21
4839.6999472637
 31
0.0
  0
LINE
  5
339
330
1F
100
AcDbEntity
  8
0
  6
Continuous
 62
     7
100
AcDbLine
 10
6311.1973472448
 20
4839.6749505658
 30
0.0
 11
6311.1973472448
 21
4839.6999472637
 31
0.0
  0
LINE
  5
33A
330
1F
100
AcDbEntity
  8
0
  6
Continuous
 62
     7
100
AcDbLine
 10
6310.9236315402
 20
4839.6749505658
 30
0.0
 11
6310.342190093
 21
4839.6749505658
 31
0.0
  0
LINE
  5
33B
330
1F
100
AcDbEntity
  8
0
  6
Continuous
 62
     7
100
AcDbLine
 10
6310.9236315402
 20
4839.6749505658
 30
0.0
 11
6311.5050729873
 21
4839.6749505658
 31
0.0
  0
LINE
  5
33C
330
1F
100
AcDbEntity
  8
0
  6
Continuous
 62
     7
100
AcDbLine
 10
6326.5036926741
 20
4849.6999472637
 30
0.0
 11
6176.5036988022
 21
4849.6999472637
 31
0.0
  0
LINE
  5
33D
330
1F
100
AcDbEntity
  8
0
  6
Continuous
 62
     7
100
AcDbLine
 10
6326.5036926741
 20
4849.6999472637
 30
0.0
 11
6326.5036928976
 21
4839.6999472637
 31
0.0
  0
LINE
  5
33E
330
1F
100
AcDbEntity
  8
0
  6
Continuous
 62
     7
100
AcDbLine
 10
6326.5036928976
 20
4839.6999472637
 30
0.0
 11
6176.5036892655
 21
4839.6999472637
 31
0.0
  0
LINE
  5
33F
330
1F
100
AcDbEntity
  8
0
  6
Continuous
 62
     7
100
AcDbLine
 10
6176.5036988022
 20
4849.6999472637
 30
0.0
 11
6176.5036892655
 21
4839.6999472637
 31
0.0
  0
LINE
  5
340
330
1F
100
AcDbEntity
  8
0
  6
Continuous
 62
     7
100
AcDbLine
 10
6336.5036926741
 20
4849.6999526281
 30
0.0
 11
6326.5036926741
 21
4849.6999472637
 31
0.0
  0
LINE
  5
341
330
1F
100
AcDbEntity
  8
0
  6
Continuous
 62
     7
100
AcDbLine
 10
6176.5036988022
 20
4849.6999472637
 30
0.0
 11
6166.5036988022
 21
4849.6999526281
 31
0.0
  0
LINE
  5
342
330
1F
100
AcDbEntity
  8
0
  6
Continuous
 62
     7
100
AcDbLine
 10
6269.6036931636
 20
4785.6999495883
 30
0.0
 11
6233.4036913278
 21
4785.6999495883
 31
0.0
  0
LINE
  5
343
330
1F
100
AcDbEntity
  8
0
  6
Continuous
 62
     7
100
AcDbLine
 10
6223.2036900284
 20
4836.6999486346
 30
0.0
 11
6279.803694463
 21
4836.6999486346
 31
0.0
  0
LINE
  5
344
330
1F
100
AcDbEntity
  8
0
  6
Continuous
 62
     7
100
AcDbLine
 10
6267.0921508732
 20
4917.999950226
 30
0.0
 11
6259.2979234221
 21
4931.499950518
 31
0.0
  0
LINE
  5
345
330
1F
100
AcDbEntity
  8
0
  6
Continuous
 62
     7
100
AcDbLine
 10
6259.2979234221
 20
4904.4999508072
 30
0.0
 11
6267.0921508732
 21
4917.999950226
 31
0.0
  0
LINE
  5
346
330
1F
100
AcDbEntity
  8
0
  6
Continuous
 62
     7
100
AcDbLine
 10
6243.7094610693
 20
4904.4999508072
 30
0.0
 11
6259.2979234221
 21
4904.4999508072
 31
0.0
  0
LINE
  5
347
330
1F
100
AcDbEntity
  8
0
  6
Continuous
 62
     7
100
AcDbLine
 10
6235.9152373435
 20
4917.999950226
 30
0.0
 11
6243.7094610693
 21
4904.4999508072
 31
0.0
  0
LINE
  5
348
330
1F
100
AcDbEntity
  8
0
  6
Continuous
 62
     7
100
AcDbLine
 10
6243.7094610693
 20
4931.499950518
 30
0.0
 11
6235.9152373435
 21
4917.999950226
 31
0.0
  0
LINE
  5
349
330
1F
100
AcDbEntity
  8
0
  6
Continuous
 62
     7
100
AcDbLine
 10
6259.2979234221
 20
4931.499950518
 30
0.0
 11
6243.7094610693
 21
4931.499950518
 31
0.0
  0
LINE
  5
34A
330
1F
100
AcDbEntity
  8
0
  6
Continuous
 62
     7
100
AcDbLine
 10
6204.8651066186
 20
4851.9999468584
 30
0.0
 11
6204.7416430475
 21
4851.4330917854
 31
0.0
  0
LINE
  5
34B
330
1F
100
AcDbEntity
  8
0
  6
Continuous
 62
     7
100
AcDbLine
 10
6204.7416430475
 20
4851.4330917854
 30
0.0
 11
6204.7228675844
 21
4851.4371821542
 31
0.0
  0
LINE
  5
34C
330
1F
100
AcDbEntity
  8
0
  6
Continuous
 62
     7
100
AcDbLine
 10
6204.7228675844
 20
4851.4371821542
 30
0.0
 11
6204.6672639014
 21
4851.4492893476
 31
0.0
  0
LINE
  5
34D
330
1F
100
AcDbEntity
  8
0
  6
Continuous
 62
     7
100
AcDbLine
 10
6204.6672639014
 20
4851.4492893476
 30
0.0
 11
6204.5769703152
 21
4851.4689588804
 31
0.0
  0
LINE
  5
34E
330
1F
100
AcDbEntity
  8
0
  6
Continuous
 62
     7
100
AcDbLine
 10
6204.5769703152
 20
4851.4689588804
 30
0.0
 11
6204.4554587962
 21
4851.4954233427
 31
0.0
  0
LINE
  5
34F
330
1F
100
AcDbEntity
  8
0
  6
Continuous
 62
     7
100
AcDbLine
 10
6204.4554587962
 20
4851.4954233427
 30
0.0
 11
6204.307393408
 21
4851.5276769061
 31
0.0
  0
LINE
  5
350
330
1F
100
AcDbEntity
  8
0
  6
Continuous
 62
     7
100
AcDbLine
 10
6204.307393408
 20
4851.5276769061
 30
0.0
 11
6204.1384663942
 21
4851.5644678731
 31
0.0
  0
LINE
  5
351
330
1F
100
AcDbEntity
  8
0
  6
Continuous
 62
     7
100
AcDbLine
 10
6204.1384663942
 20
4851.5644678731
 30
0.0
 11
6203.9551746609
 21
4851.6043955345
 31
0.0
  0
LINE
  5
352
330
1F
100
AcDbEntity
  8
0
  6
Continuous
 62
     7
100
AcDbLine
 10
6203.9551746609
 20
4851.6043955345
 30
0.0
 11
6203.7645518109
 21
4851.6459126381
 31
0.0
  0
LINE
  5
353
330
1F
100
AcDbEntity
  8
0
  6
Continuous
 62
     7
100
AcDbLine
 10
6191.7850982907
 20
4849.6999526281
 30
0.0
 11
6191.2353795531
 21
4850.1999536414
 31
0.0
  0
LINE
  5
354
330
1F
100
AcDbEntity
  8
0
  6
Continuous
 62
     7
100
AcDbLine
 10
6204.0687885644
 20
4850.6933161874
 30
0.0
 11
6204.0629398586
 21
4850.7116222639
 31
0.0
  0
LINE
  5
355
330
1F
100
AcDbEntity
  8
0
  6
Continuous
 62
     7
100
AcDbLine
 10
6204.0629398586
 20
4850.7116222639
 30
0.0
 11
6204.0456247093
 21
4850.7658326883
 31
0.0
  0
LINE
  5
356
330
1F
100
AcDbEntity
  8
0
  6
Continuous
 62
     7
100
AcDbLine
 10
6204.0456247093
 20
4850.7658326883
 30
0.0
 11
6204.0175136688
 21
4850.8538612981
 31
0.0
  0
LINE
  5
357
330
1F
100
AcDbEntity
  8
0
  6
Continuous
 62
     7
100
AcDbLine
 10
6204.0175136688
 20
4850.8538612981
 30
0.0
 11
6203.9796721699
 21
4850.9723255295
 31
0.0
  0
LINE
  5
358
330
1F
100
AcDbEntity
  8
0
  6
Continuous
 62
     7
100
AcDbLine
 10
6203.9796721699
 20
4850.9723255295
 30
0.0
 11
6203.9335679772
 21
4851.1166805286
 31
0.0
  0
LINE
  5
359
330
1F
100
AcDbEntity
  8
0
  6
Continuous
 62
     7
100
AcDbLine
 10
6203.9335679772
 20
4851.1166805286
 30
0.0
 11
6203.8809817793
 21
4851.2813681621
 31
0.0
  0
LINE
  5
35A
330
1F
100
AcDbEntity
  8
0
  6
Continuous
 62
     7
100
AcDbLine
 10
6203.8809817793
 20
4851.2813681621
 30
0.0
 11
6203.8239103319
 21
4851.4600703377
 31
0.0
  0
LINE
  5
35B
330
1F
100
AcDbEntity
  8
0
  6
Continuous
 62
     7
100
AcDbLine
 10
6203.8239103319
 20
4851.4600703377
 30
0.0
 11
6203.7645518109
 21
4851.6459126381
 31
0.0
  0
LINE
  5
35C
330
1F
100
AcDbEntity
  8
0
  6
Continuous
 62
     7
100
AcDbLine
 10
6204.0687885644
 20
4850.6933161874
 30
0.0
 11
6200.9584468367
 21
4849.6999526281
 31
0.0
  0
LINE
  5
35D
330
1F
100
AcDbEntity
  8
0
  6
Continuous
 62
     7
100
AcDbLine
 10
6208.2142692171
 20
4850.9999530052
 30
0.0
 11
6204.5279156528
 21
4850.9999530052
 31
0.0
  0
LINE
  5
35E
330
1F
100
AcDbEntity
  8
0
  6
Continuous
 62
     7
100
AcDbLine
 10
6228.253693557
 20
4826.6999507208
 30
0.0
 11
6274.7536946597
 21
4826.6999507208
 31
0.0
  0
LINE
  5
35F
330
1F
100
AcDbEntity
  8
0
  6
Continuous
 62
     7
100
AcDbLine
 10
6271.9715435567
 20
4850.1999536414
 30
0.0
 11
6271.5036917987
 21
4850.1999536414
 31
0.0
  0
LINE
  5
360
330
1F
100
AcDbEntity
  8
0
  6
Continuous
 62
     7
100
AcDbLine
 10
6281.5036934378
 20
4850.1999536414
 30
0.0
 11
6271.9715435567
 21
4850.1999536414
 31
0.0
  0
LINE
  5
361
330
1F
100
AcDbEntity
  8
0
  6
Continuous
 62
     7
100
AcDbLine
 10
6223.9401277663
 20
4850.1999536414
 30
0.0
 11
6221.5036910536
 21
4850.1999536414
 31
0.0
  0
LINE
  5
362
330
1F
100
AcDbEntity
  8
0
  6
Continuous
 62
     7
100
AcDbLine
 10
6229.6036940577
 20
4850.1999536414
 30
0.0
 11
6223.9401277663
 21
4850.1999536414
 31
0.0
  0
LINE
  5
363
330
1F
100
AcDbEntity
  8
0
  6
Continuous
 62
     7
100
AcDbLine
 10
6271.5036917987
 20
4850.6999472041
 30
0.0
 11
6229.6036940577
 21
4850.6999472041
 31
0.0
  0
LINE
  5
364
330
1F
100
AcDbEntity
  8
0
  6
Continuous
 62
     7
100
AcDbLine
 10
6330.7036928643
 20
4896.1999500055
 30
0.0
 11
6330.7036928643
 21
4907.7999507893
 31
0.0
  0
LINE
  5
365
330
1F
100
AcDbEntity
  8
0
  6
Continuous
 62
     7
100
AcDbLine
 10
6328.0036927942
 20
4903.84995098
 30
0.0
 11
6327.2965860131
 21
4903.84995098
 31
0.0
  0
LINE
  5
366
330
1F
100
AcDbEntity
  8
0
  6
Continuous
 62
     7
100
AcDbLine
 10
6327.2965860131
 20
4902.5999503095
 30
0.0
 11
6328.0036927942
 21
4902.5999503095
 31
0.0
  0
LINE
  5
367
330
1F
100
AcDbEntity
  8
0
  6
Continuous
 62
     7
100
AcDbLine
 10
6327.2965860131
 20
4900.1499498148
 30
0.0
 11
6328.0036927942
 21
4900.1499498148
 31
0.0
  0
LINE
  5
368
330
1F
100
AcDbEntity
  8
0
  6
Continuous
 62
     7
100
AcDbLine
 10
6328.0036927942
 20
4901.3999504853
 30
0.0
 11
6327.2965860131
 21
4901.3999504853
 31
0.0
  0
LINE
  5
369
330
1F
100
AcDbEntity
  8
0
  6
Continuous
 62
     7
100
AcDbLine
 10
6327.2965860131
 20
4904.849951144
 30
0.0
 11
6328.0036927942
 21
4904.849951144
 31
0.0
  0
LINE
  5
36A
330
1F
100
AcDbEntity
  8
0
  6
Continuous
 62
     7
100
AcDbLine
 10
6328.0036927942
 20
4899.1499515135
 30
0.0
 11
6327.2965860131
 21
4899.1499515135
 31
0.0
  0
LINE
  5
36B
330
1F
100
AcDbEntity
  8
0
  6
Continuous
 62
     7
100
AcDbLine
 10
6202.4792742493
 20
4849.6999526281
 30
0.0
 11
6202.8230887415
 21
4850.2954700846
 31
0.0
  0
LINE
  5
36C
330
1F
100
AcDbEntity
  8
0
  6
Continuous
 62
     7
100
AcDbLine
 10
6190.2394455435
 20
4850.1999536414
 30
0.0
 11
6190.5281108381
 21
4849.6999526281
 31
0.0
  0
LINE
  5
36D
330
1F
100
AcDbEntity
  8
0
  6
Continuous
 62
     7
100
AcDbLine
 10
6327.2965860131
 20
4930.1999505145
 30
0.0
 11
6327.2965860131
 21
4851.9999468584
 31
0.0
  0
LINE
  5
36E
330
1F
100
AcDbEntity
  8
0
  6
Continuous
 62
     7
100
AcDbLine
 10
6175.7107984783
 20
4851.9999468584
 30
0.0
 11
6327.2965860131
 21
4851.9999468584
 31
0.0
  0
LINE
  5
36F
330
1F
100
AcDbEntity
  8
0
  6
Continuous
 62
     7
100
AcDbLine
 10
6175.7107984783
 20
4930.1999505145
 30
0.0
 11
6175.7107984783
 21
4851.9999468584
 31
0.0
  0
LINE
  5
370
330
1F
100
AcDbEntity
  8
0
  6
Continuous
 62
     7
100
AcDbLine
 10
6175.8036923172
 20
4931.9999505418
 30
0.0
 11
6327.2036928727
 21
4931.9999505418
 31
0.0
  0
LINE
  5
371
330
1F
100
AcDbEntity
  8
0
  6
Continuous
 62
     7
100
AcDbLine
 10
6175.8036897304
 20
4850.1999510546
 30
0.0
 11
6175.8036910894
 21
4851.9999504943
 31
0.0
  0
LINE
  5
372
330
1F
100
AcDbEntity
  8
0
  6
Continuous
 62
     7
100
AcDbLine
 10
6194.0036848905
 20
4851.9999442716
 30
0.0
 11
6194.0036848905
 21
4850.1999510546
 31
0.0
  0
LINE
  5
373
330
1F
100
AcDbEntity
  8
0
  6
Continuous
 62
     7
100
AcDbLine
 10
6175.8036897304
 20
4850.1999510546
 30
0.0
 11
6194.0036848905
 21
4850.1999510546
 31
0.0
  0
LINE
  5
374
330
1F
100
AcDbEntity
  8
0
  6
Continuous
 62
     7
100
AcDbLine
 10
6327.2036928417
 20
4851.9999536414
 30
0.0
 11
6327.2036928417
 21
4850.1999536414
 31
0.0
  0
LINE
  5
375
330
1F
100
AcDbEntity
  8
0
  6
Continuous
 62
     7
100
AcDbLine
 10
6309.0036932578
 20
4850.1999536414
 30
0.0
 11
6327.2036928417
 21
4850.1999536414
 31
0.0
  0
LINE
  5
376
330
1F
100
AcDbEntity
  8
0
  6
Continuous
 62
     7
100
AcDbLine
 10
6309.0036932578
 20
4850.1999536414
 30
0.0
 11
6309.0036932578
 21
4851.9999468584
 31
0.0
  0
LINE
  5
377
330
1F
100
AcDbEntity
  8
0
  6
Continuous
 62
     7
100
AcDbLine
 10
6174.0036916497
 20
4930.1999505145
 30
0.0
 11
6175.0036936762
 21
4930.1999505145
 31
0.0
  0
LINE
  5
378
330
1F
100
AcDbEntity
  8
0
  6
Continuous
 62
     7
100
AcDbLine
 10
6329.0036928417
 20
4930.1999505145
 30
0.0
 11
6328.0036927942
 21
4930.1999505145
 31
0.0
  0
LINE
  5
379
330
1F
100
AcDbEntity
  8
0
  6
Continuous
 62
     7
100
AcDbLine
 10
6328.0036927942
 20
4930.1999505145
 30
0.0
 11
6328.0036927942
 21
4851.9999468584
 31
0.0
  0
LINE
  5
37A
330
1F
100
AcDbEntity
  8
0
  6
Continuous
 62
     7
100
AcDbLine
 10
6329.0036928417
 20
4851.9999468584
 30
0.0
 11
6328.0036927942
 21
4851.9999468584
 31
0.0
  0
LINE
  5
37B
330
1F
100
AcDbEntity
  8
0
  6
Continuous
 62
     7
100
AcDbLine
 10
6329.0036928417
 20
4930.1999505145
 30
0.0
 11
6329.0036928417
 21
4851.9999468584
 31
0.0
  0
LINE
  5
37C
330
1F
100
AcDbEntity
  8
0
  6
Continuous
 62
     7
100
AcDbLine
 10
6175.0036936762
 20
4930.1999505145
 30
0.0
 11
6175.0036936762
 21
4851.9999468584
 31
0.0
  0
LINE
  5
37D
330
1F
100
AcDbEntity
  8
0
  6
Continuous
 62
     7
100
AcDbLine
 10
6174.0036916497
 20
4851.9999468584
 30
0.0
 11
6175.0036936762
 21
4851.9999468584
 31
0.0
  0
LINE
  5
37E
330
1F
100
AcDbEntity
  8
0
  6
Continuous
 62
     7
100
AcDbLine
 10
6174.0036916497
 20
4930.1999505145
 30
0.0
 11
6174.0036916497
 21
4851.9999468584
 31
0.0
  0
LINE
  5
37F
330
1F
100
AcDbEntity
  8
0
  6
Continuous
 62
     7
100
AcDbLine
 10
6231.4036947252
 20
4787.6999536414
 30
0.0
 11
6271.6036934914
 21
4787.6999536414
 31
0.0
  0
LINE
  5
380
330
1F
100
AcDbEntity
  8
0
  6
Continuous
 62
     7
100
AcDbLine
 10
6223.0036940934
 20
4836.8999520201
 30
0.0
 11
6280.0036941232
 21
4836.8999520201
 31
0.0
  0
LINE
  5
381
330
1F
100
AcDbEntity
  8
0
  6
Continuous
 62
     7
100
AcDbLine
 10
6223.0036940934
 20
4839.4999513287
 30
0.0
 11
6280.0036941232
 21
4839.4999513287
 31
0.0
  0
LINE
  5
382
330
1F
100
AcDbEntity
  8
0
  6
Continuous
 62
     7
100
AcDbLine
 10
6203.7645518109
 20
4851.6459126381
 30
0.0
 11
6203.8416576149
 21
4851.9999468584
 31
0.0
  0
LINE
  5
383
330
1F
100
AcDbEntity
  8
0
  6
Continuous
 62
     7
100
AcDbLine
 10
6197.6715337994
 20
4849.6999526281
 30
0.0
 11
6203.7645518109
 21
4851.6459126381
 31
0.0
  0
LINE
  5
384
330
1F
100
AcDbEntity
  8
0
  6
Continuous
 62
     7
100
AcDbLine
 10
6192.721576667
 20
4850.1999536414
 30
0.0
 11
6193.2713103058
 21
4849.6999526281
 31
0.0
  0
LINE
  5
385
330
1F
100
AcDbEntity
  8
0
  6
Continuous
 62
     7
100
AcDbLine
 10
6204.756202205
 20
4851.4999533315
 30
0.0
 11
6208.6646786176
 21
4851.49995053
 31
0.0
  0
LINE
  5
386
330
1F
100
AcDbEntity
  8
0
  6
Continuous
 62
     7
100
AcDbLine
 10
6329.9036928263
 20
4895.3999513645
 30
0.0
 11
6329.9036928263
 21
4908.599951293
 31
0.0
  0
LINE
  5
387
330
1F
100
AcDbEntity
  8
0
  6
Continuous
 62
     7
100
AcDbLine
 10
6273.8741945984
 20
4897.0016287524
 30
0.0
 11
6273.8747310402
 21
4897.008565243
 31
0.0
  0
LINE
  5
388
330
1F
100
AcDbEntity
  8
0
  6
Continuous
 62
     7
100
AcDbLine
 10
6273.4750371935
 20
4897.0279777307
 30
0.0
 11
6273.4759200873
 21
4897.0393882949
 31
0.0
  0
LINE
  5
389
330
1F
100
AcDbEntity
  8
0
  6
Continuous
 62
     7
100
AcDbLine
 10
6175.7107984783
 20
4930.1999505145
 30
0.0
 11
6242.9589119317
 21
4930.1999505145
 31
0.0
  0
LINE
  5
38A
330
1F
100
AcDbEntity
  8
0
  6
Continuous
 62
     7
100
AcDbLine
 10
6260.0484800102
 20
4930.1999505145
 30
0.0
 11
6327.2965860131
 21
4930.1999505145
 31
0.0
  0
LWPOLYLINE
  5
38B
330
1F
100
AcDbEntity
  8
0
  6
Continuous
 62
     7
100
AcDbPolyline
 90
        3
 70
   128
 43
0.0
 10
6238.2888793945
 20
5309.855179744
 10
6238.7676245721
 20
5309.5795677462
 10
6239.1424786808
 20
5309.3630111536
  0
LWPOLYLINE
  5
38C
330
1F
100
AcDbEntity
  8
0
  6
Continuous
 62
     7
100
AcDbPolyline
 90
        3
 70
   128
 43
0.0
 10
6238.2888793945
 20
5308.2676789483
 10
6238.7676245721
 20
5307.9920669505
 10
6239.1424786808
 20
5307.7755103579
  0
LWPOLYLINE
  5
38D
330
1F
100
AcDbEntity
  8
0
  6
Continuous
 62
     7
100
AcDbPolyline
 90
        3
 70
   128
 43
0.0
 10
6238.2888793945
 20
5306.6801800152
 10
6238.7676245721
 20
5306.4045680174
 10
6239.1424786808
 20
5306.1880114248
  0
LWPOLYLINE
  5
38E
330
1F
100
AcDbEntity
  8
0
  6
Continuous
 62
     7
100
AcDbPolyline
 90
        3
 70
   128
 43
0.0
 10
6238.2888793945
 20
5305.0926792195
 10
6238.7676244216
 20
5304.8170674827
 10
6239.1424786808
 20
5304.6005115604
  0
LWPOLYLINE
  5
38F
330
1F
100
AcDbEntity
  8
0
  6
Continuous
 62
     7
100
AcDbPolyline
 90
        3
 70
   128
 43
0.0
 10
6263.8549804688
 20
5310.1522325298
 10
6264.3385444755
 20
5310.4303851016
 10
6264.7168498995
 20
5310.6489292106
  0
LWPOLYLINE
  5
390
330
1F
100
AcDbEntity
  8
0
  6
Continuous
 62
     7
100
AcDbPolyline
 90
        3
 70
   128
 43
0.0
 10
6263.8549804688
 20
5308.5647317341
 10
6264.3385447737
 20
5308.8428848328
 10
6264.7168498995
 20
5309.0614302775
  0
LWPOLYLINE
  5
391
330
1F
100
AcDbEntity
  8
0
  6
Continuous
 62
     7
100
AcDbPolyline
 90
        3
 70
   128
 43
0.0
 10
6263.8549804688
 20
5306.977232801
 10
6264.3385444755
 20
5307.2553853728
 10
6264.7168498995
 20
5307.4739294818
  0
LWPOLYLINE
  5
392
330
1F
100
AcDbEntity
  8
0
  6
Continuous
 62
     7
100
AcDbPolyline
 90
        3
 70
   128
 43
0.0
 10
6263.8549804688
 20
5305.3897320053
 10
6264.3385444755
 20
5305.6678845771
 10
6264.7168498995
 20
5305.886428686
  0
LWPOLYLINE
  5
393
330
1F
100
AcDbEntity
  8
0
  6
Continuous
 62
     7
100
AcDbPolyline
 90
        3
 70
   128
 43
0.0
 10
6263.8549804688
 20
5303.8022321409
 10
6264.3385446246
 20
5304.0803849761
 10
6264.7168498995
 20
5304.298929753
  0
LWPOLYLINE
  5
394
330
1F
100
AcDbEntity
  8
0
  6
Continuous
 62
     7
100
AcDbPolyline
 90
        3
 70
   128
 43
0.0
 10
6238.4643554688
 20
5311.3407770863
 10
6238.8452393996
 20
5311.1222289946
 10
6239.1424786808
 20
5310.9505119493
  0
LWPOLYLINE
  5
395
330
1F
100
AcDbEntity
  8
0
  6
Continuous
 62
     7
100
AcDbPolyline
 90
        3
 70
   128
 43
0.0
 10
6239.1471862793
 20
5309.17836714
 10
6238.668822866
 20
5308.9002180991
 10
6238.2905196907
 20
5308.6816797724
  0
LWPOLYLINE
  5
396
330
1F
100
AcDbEntity
  8
0
  6
Continuous
 62
     7
100
AcDbPolyline
 90
        3
 70
   128
 43
0.0
 10
6239.1471862793
 20
5307.5908682069
 10
6238.6688225678
 20
5307.3127186391
 10
6238.2905196907
 20
5307.0941789767
  0
LWPOLYLINE
  5
397
330
1F
100
AcDbEntity
  8
0
  6
Continuous
 62
     7
100
AcDbPolyline
 90
        3
 70
   128
 43
0.0
 10
6239.1471862793
 20
5306.0033674112
 10
6238.668822866
 20
5305.7252183703
 10
6238.2905196907
 20
5305.5066800436
  0
LWPOLYLINE
  5
398
330
1F
100
AcDbEntity
  8
0
  6
Continuous
 62
     7
100
AcDbPolyline
 90
        3
 70
   128
 43
0.0
 10
6239.1471862793
 20
5304.4158675468
 10
6238.6688227169
 20
5304.1377182424
 10
6238.2905196907
 20
5303.9191792479
  0
LWPOLYLINE
  5
399
330
1F
100
AcDbEntity
  8
0
  6
Continuous
 62
     7
100
AcDbPolyline
 90
        3
 70
   128
 43
0.0
 10
6264.7132873535
 20
5309.4754292389
 10
6264.2397660297
 20
5309.7510426478
 10
6263.8649058106
 20
5309.9676015546
  0
LWPOLYLINE
  5
39A
330
1F
100
AcDbEntity
  8
0
  6
Continuous
 62
     7
100
AcDbPolyline
 90
        3
 70
   128
 43
0.0
 10
6264.7132873535
 20
5307.8879284432
 10
6264.2397660297
 20
5308.1635418521
 10
6263.8649058106
 20
5308.3801007589
  0
LWPOLYLINE
  5
39B
330
1F
100
AcDbEntity
  8
0
  6
Continuous
 62
     7
100
AcDbPolyline
 90
        3
 70
   128
 43
0.0
 10
6264.7132873535
 20
5306.3004295101
 10
6264.2397663308
 20
5306.5760423971
 10
6263.8649058106
 20
5306.7925999632
  0
LWPOLYLINE
  5
39C
330
1F
100
AcDbEntity
  8
0
  6
Continuous
 62
     7
100
AcDbPolyline
 90
        3
 70
   128
 43
0.0
 10
6264.7132873535
 20
5304.7129287144
 10
6264.2397660297
 20
5304.9885421233
 10
6263.8649058106
 20
5305.2051010301
  0
LWPOLYLINE
  5
39D
330
1F
100
AcDbEntity
  8
0
  6
Continuous
 62
     7
100
AcDbPolyline
 90
        3
 70
   128
 43
0.0
 10
6264.7132873535
 20
5311.0629300347
 10
6264.2397657341
 20
5311.3385418888
 10
6263.8649058106
 20
5311.5551004877
  0
LWPOLYLINE
  5
39E
330
1F
100
AcDbEntity
  8
0
  6
Continuous
 62
     7
100
AcDbPolyline
 90
        3
 70
   128
 43
0.0
 10
6239.1471862793
 20
5310.7658679357
 10
6238.6688225678
 20
5310.4877183679
 10
6238.2905196907
 20
5310.2691787055
  0
LWPOLYLINE
  5
39F
330
1F
100
AcDbEntity
  8
0
  6
Continuous
 62
     7
100
AcDbPolyline
 90
        3
 70
   128
 43
0.0
 10
6217.2164916992
 20
5116.4869646301
 10
6216.7401713401
 20
5116.7628432358
 10
6216.3649362089
 20
5116.9795970192
  0
LWPOLYLINE
  5
3A0
330
1F
100
AcDbEntity
  8
0
  6
Continuous
 62
     7
100
AcDbPolyline
 90
        3
 70
   128
 43
0.0
 10
6217.2164916992
 20
5118.0744747391
 10
6216.7401665673
 20
5118.3503450825
 10
6216.3649362089
 20
5118.5671071282
  0
LWPOLYLINE
  5
3A1
330
1F
100
AcDbEntity
  8
0
  6
Continuous
 62
     7
100
AcDbPolyline
 90
        3
 70
   128
 43
0.0
 10
6217.2164916992
 20
5119.6619699469
 10
6216.7401665673
 20
5119.9378402903
 10
6216.3649362089
 20
5120.1546023359
  0
LWPOLYLINE
  5
3A2
330
1F
100
AcDbEntity
  8
0
  6
Continuous
 62
     7
100
AcDbPolyline
 90
        3
 70
   128
 43
0.0
 10
6217.2164916992
 20
5121.2494651547
 10
6216.7401665673
 20
5121.5253354981
 10
6216.3649362089
 20
5121.7420975437
  0
LWPOLYLINE
  5
3A3
330
1F
100
AcDbEntity
  8
0
  6
Continuous
 62
     7
100
AcDbPolyline
 90
        3
 70
   128
 43
0.0
 10
6217.2164916992
 20
5122.8369752636
 10
6216.7401665673
 20
5123.112845607
 10
6216.3649362089
 20
5123.3296076527
  0
LWPOLYLINE
  5
3A4
330
1F
100
AcDbEntity
  8
0
  6
Continuous
 62
     7
100
AcDbPolyline
 90
        3
 70
   128
 43
0.0
 10
6191.6465759277
 20
5117.7773455849
 10
6191.1679351803
 20
5117.4992326289
 10
6190.7896560194
 20
5117.2807196846
  0
LWPOLYLINE
  5
3A5
330
1F
100
AcDbEntity
  8
0
  6
Continuous
 62
     7
100
AcDbPolyline
 90
        3
 70
   128
 43
0.0
 10
6191.6465759277
 20
5119.3648556938
 10
6191.1679327949
 20
5119.0867385226
 10
6190.7896560194
 20
5118.8682148924
  0
LWPOLYLINE
  5
3A6
330
1F
100
AcDbEntity
  8
0
  6
Continuous
 62
     7
100
AcDbPolyline
 90
        3
 70
   128
 43
0.0
 10
6191.6465759277
 20
5120.9523509016
 10
6191.1679351803
 20
5120.6742379456
 10
6190.7896560194
 20
5120.4557250014
  0
LWPOLYLINE
  5
3A7
330
1F
100
AcDbEntity
  8
0
  6
Continuous
 62
     7
100
AcDbPolyline
 90
        3
 70
   128
 43
0.0
 10
6191.6465759277
 20
5122.5398461094
 10
6191.1679351803
 20
5122.2617331534
 10
6190.7896560194
 20
5122.0432202091
  0
LWPOLYLINE
  5
3A8
330
1F
100
AcDbEntity
  8
0
  6
Continuous
 62
     7
100
AcDbPolyline
 90
        3
 70
   128
 43
0.0
 10
6191.6465759277
 20
5116.1898503771
 10
6191.3515891732
 20
5116.0178289669
 10
6191.1176156761
 20
5115.8826629391
  0
LWPOLYLINE
  5
3A9
330
1F
100
AcDbEntity
  8
0
  6
Continuous
 62
     7
100
AcDbPolyline
 90
        3
 70
   128
 43
0.0
 10
6216.3543701172
 20
5117.1658913365
 10
6216.839460483
 20
5117.4440054505
 10
6217.2177371146
 20
5117.6625172367
  0
LWPOLYLINE
  5
3AA
330
1F
100
AcDbEntity
  8
0
  6
Continuous
 62
     7
100
AcDbPolyline
 90
        3
 70
   128
 43
0.0
 10
6216.3543701172
 20
5118.7534014454
 10
6216.839460483
 20
5119.0315155594
 10
6217.2177371146
 20
5119.2500273457
  0
LWPOLYLINE
  5
3AB
330
1F
100
AcDbEntity
  8
0
  6
Continuous
 62
     7
100
AcDbPolyline
 90
        3
 70
   128
 43
0.0
 10
6216.3543701172
 20
5120.3408966532
 10
6216.839460483
 20
5120.6190107672
 10
6217.2177371146
 20
5120.8375225535
  0
LWPOLYLINE
  5
3AC
330
1F
100
AcDbEntity
  8
0
  6
Continuous
 62
     7
100
AcDbPolyline
 90
        3
 70
   128
 43
0.0
 10
6216.3543701172
 20
5121.928391861
 10
6216.839460483
 20
5122.206505975
 10
6217.2177371146
 20
5122.4250177612
  0
LWPOLYLINE
  5
3AD
330
1F
100
AcDbEntity
  8
0
  6
Continuous
 62
     7
100
AcDbPolyline
 90
        3
 70
   128
 43
0.0
 10
6190.788269043
 20
5118.4562722912
 10
6191.2672203914
 20
5118.1803983437
 10
6191.6424494745
 20
5117.9636399021
  0
LWPOLYLINE
  5
3AE
330
1F
100
AcDbEntity
  8
0
  6
Continuous
 62
     7
100
AcDbPolyline
 90
        3
 70
   128
 43
0.0
 10
6190.788269043
 20
5120.043767499
 10
6191.2672203914
 20
5119.7678935514
 10
6191.6424494745
 20
5119.5511351099
  0
LWPOLYLINE
  5
3AF
330
1F
100
AcDbEntity
  8
0
  6
Continuous
 62
     7
100
AcDbPolyline
 90
        3
 70
   128
 43
0.0
 10
6190.788269043
 20
5121.6312776079
 10
6191.2672203914
 20
5121.3554036604
 10
6191.6424494745
 20
5121.1386452189
  0
LWPOLYLINE
  5
3B0
330
1F
100
AcDbEntity
  8
0
  6
Continuous
 62
     7
100
AcDbPolyline
 90
        3
 70
   128
 43
0.0
 10
6190.788269043
 20
5123.2187728157
 10
6191.2672203914
 20
5122.9428988682
 10
6191.6424494745
 20
5122.7261404267
  0
LWPOLYLINE
  5
3B1
330
1F
100
AcDbEntity
  8
0
  6
Continuous
 62
     7
100
AcDbPolyline
 90
        3
 70
   128
 43
0.0
 10
6190.788269043
 20
5116.8687770834
 10
6191.2672203914
 20
5116.5929031359
 10
6191.6424494745
 20
5116.3761446943
  0
LWPOLYLINE
  5
3B2
330
1F
100
AcDbEntity
  8
0
  6
Continuous
 62
     7
100
AcDbPolyline
 90
        3
 70
   128
 43
0.0
 10
6216.3543701172
 20
5115.5783961287
 10
6216.6567927216
 20
5115.7509906999
 10
6216.8915432455
 20
5115.8865968456
  0
LWPOLYLINE
  5
3B3
330
1F
100
AcDbEntity
  8
0
  6
Continuous
 62
     7
100
AcDbPolyline
 90
        3
 70
   128
 43
0.0
 10
6312.2138977051
 20
5117.8117523661
 10
6311.7353917895
 20
5118.0898935461
 10
6311.3570932808
 20
5118.308437871
  0
LWPOLYLINE
  5
3B4
330
1F
100
AcDbEntity
  8
0
  6
Continuous
 62
     7
100
AcDbPolyline
 90
        3
 70
   128
 43
0.0
 10
6312.2138977051
 20
5119.399262475
 10
6311.7353917895
 20
5119.677403655
 10
6311.3570932808
 20
5119.8959479799
  0
LWPOLYLINE
  5
3B5
330
1F
100
AcDbEntity
  8
0
  6
Continuous
 62
     7
100
AcDbPolyline
 90
        3
 70
   128
 43
0.0
 10
6312.2138977051
 20
5120.9867576828
 10
6311.7353917895
 20
5121.2648988628
 10
6311.3570932808
 20
5121.4834431877
  0
LWPOLYLINE
  5
3B6
330
1F
100
AcDbEntity
  8
0
  6
Continuous
 62
     7
100
AcDbPolyline
 90
        3
 70
   128
 43
0.0
 10
6312.2138977051
 20
5122.5742528906
 10
6311.7353917895
 20
5122.8523940706
 10
6311.3570932808
 20
5123.0709383955
  0
LWPOLYLINE
  5
3B7
330
1F
100
AcDbEntity
  8
0
  6
Continuous
 62
     7
100
AcDbPolyline
 90
        3
 70
   128
 43
0.0
 10
6286.6477966309
 20
5117.5146232119
 10
6286.1688217222
 20
5117.2365506494
 10
6285.7905190947
 20
5117.0180122128
  0
LWPOLYLINE
  5
3B8
330
1F
100
AcDbEntity
  8
0
  6
Continuous
 62
     7
100
AcDbPolyline
 90
        3
 70
   128
 43
0.0
 10
6286.6477966309
 20
5119.1021184197
 10
6286.1688217222
 20
5118.8240458572
 10
6285.7905190947
 20
5118.6055074206
  0
LWPOLYLINE
  5
3B9
330
1F
100
AcDbEntity
  8
0
  6
Continuous
 62
     7
100
AcDbPolyline
 90
        3
 70
   128
 43
0.0
 10
6286.6477966309
 20
5120.6896285286
 10
6286.1688217222
 20
5120.411541065
 10
6285.7905190947
 20
5120.1930026283
  0
LWPOLYLINE
  5
3BA
330
1F
100
AcDbEntity
  8
0
  6
Continuous
 62
     7
100
AcDbPolyline
 90
        3
 70
   128
 43
0.0
 10
6286.6477966309
 20
5122.2771237364
 10
6286.1688217222
 20
5121.9990511739
 10
6285.7905190947
 20
5121.7805127373
  0
LWPOLYLINE
  5
3BB
330
1F
100
AcDbEntity
  8
0
  6
Continuous
 62
     7
100
AcDbPolyline
 90
        3
 70
   128
 43
0.0
 10
6286.3616943359
 20
5123.6994544735
 10
6286.0429686063
 20
5123.5138428224
 10
6285.7905190947
 20
5123.3680079451
  0
LWPOLYLINE
  5
3BC
330
1F
100
AcDbEntity
  8
0
  6
Continuous
 62
     7
100
AcDbPolyline
 90
        3
 70
   128
 43
0.0
 10
6312.2138977051
 20
5116.2242571583
 10
6311.7353917895
 20
5116.5023983383
 10
6311.3570932808
 20
5116.7209426632
  0
LWPOLYLINE
  5
3BD
330
1F
100
AcDbEntity
  8
0
  6
Continuous
 62
     7
100
AcDbPolyline
 90
        3
 70
   128
 43
0.0
 10
6311.3632202148
 20
5116.9125715962
 10
6311.8455202455
 20
5117.1905494379
 10
6312.2235119852
 20
5117.4089590779
  0
LWPOLYLINE
  5
3BE
330
1F
100
AcDbEntity
  8
0
  6
Continuous
 62
     7
100
AcDbPolyline
 90
        3
 70
   128
 43
0.0
 10
6311.3632202148
 20
5118.5000817051
 10
6311.84552263
 20
5118.7780470724
 10
6312.2235119852
 20
5118.9964542856
  0
LWPOLYLINE
  5
3BF
330
1F
100
AcDbEntity
  8
0
  6
Continuous
 62
     7
100
AcDbPolyline
 90
        3
 70
   128
 43
0.0
 10
6311.3632202148
 20
5120.0875769129
 10
6311.8455202455
 20
5120.3655547546
 10
6312.2235119852
 20
5120.5839643946
  0
LWPOLYLINE
  5
3C0
330
1F
100
AcDbEntity
  8
0
  6
Continuous
 62
     7
100
AcDbPolyline
 90
        3
 70
   128
 43
0.0
 10
6311.3632202148
 20
5121.6750721207
 10
6311.8455202455
 20
5121.9530499624
 10
6312.2235119852
 20
5122.1714596024
  0
LWPOLYLINE
  5
3C1
330
1F
100
AcDbEntity
  8
0
  6
Continuous
 62
     7
100
AcDbPolyline
 90
        3
 70
   128
 43
0.0
 10
6311.3632202148
 20
5123.2625822296
 10
6311.7703463426
 20
5123.4971081128
 10
6312.089261836
 20
5123.6813942661
  0
LWPOLYLINE
  5
3C2
330
1F
100
AcDbEntity
  8
0
  6
Continuous
 62
     7
100
AcDbPolyline
 90
        3
 70
   128
 43
0.0
 10
6285.7894897461
 20
5118.1915233603
 10
6286.2676293093
 20
5117.9159166765
 10
6286.6424780848
 20
5117.6993529072
  0
LWPOLYLINE
  5
3C3
330
1F
100
AcDbEntity
  8
0
  6
Continuous
 62
     7
100
AcDbPolyline
 90
        3
 70
   128
 43
0.0
 10
6285.7894897461
 20
5119.7790185681
 10
6286.2676256767
 20
5119.5034139062
 10
6286.6424780848
 20
5119.2868630161
  0
LWPOLYLINE
  5
3C4
330
1F
100
AcDbEntity
  8
0
  6
Continuous
 62
     7
100
AcDbPolyline
 90
        3
 70
   128
 43
0.0
 10
6285.7894897461
 20
5121.366528677
 10
6286.2676233121
 20
5121.0909115774
 10
6286.6424780848
 20
5120.8743582239
  0
LWPOLYLINE
  5
3C5
330
1F
100
AcDbEntity
  8
0
  6
Continuous
 62
     7
100
AcDbPolyline
 90
        3
 70
   128
 43
0.0
 10
6285.7894897461
 20
5122.9540238848
 10
6286.2676293093
 20
5122.678417201
 10
6286.6424780848
 20
5122.4618534317
  0
LWPOLYLINE
  5
3C6
330
1F
100
AcDbEntity
  8
0
  6
Continuous
 62
     7
100
AcDbPolyline
 90
        3
 70
   128
 43
0.0
 10
6285.7894897461
 20
5116.6040281525
 10
6286.2676233121
 20
5116.3284110529
 10
6286.6424780848
 20
5116.1118576994
  0
LWPOLYLINE
  5
3C7
330
1F
100
AcDbEntity
  8
0
  6
Continuous
 62
     7
100
AcDbPolyline
 90
        3
 70
   128
 43
0.0
 10
6291.4390563965
 20
5151.5414396992
 10
6292.3374522783
 20
5151.0395288264
 10
6292.5635848703
 20
5150.2448449602
  0
LWPOLYLINE
  5
3C8
330
1F
100
AcDbEntity
  8
0
  6
Continuous
 62
     7
100
AcDbPolyline
 90
        4
 70
   128
 43
0.0
 10
6291.862487793
 20
5149.6333311072
 10
6291.8367080267
 20
5150.3371398499
 10
6291.7323706634
 20
5150.6707183041
 10
6291.4399330082
 20
5150.8368829956
  0
LWPOLYLINE
  5
3C9
330
1F
100
AcDbEntity
  8
0
  6
Continuous
 62
     7
100
AcDbPolyline
 90
        4
 70
   128
 43
0.0
 10
6291.1682128906
 20
5150.8368829956
 10
6290.8770664532
 20
5150.6682501773
 10
6290.7732121536
 20
5150.3331350593
 10
6290.7458927991
 20
5149.6267745962
  0
LWPOLYLINE
  5
3CA
330
1F
100
AcDbEntity
  8
0
  6
Continuous
 62
     7
100
AcDbPolyline
 90
        3
 70
   128
 43
0.0
 10
6290.0581359863
 20
5150.2543071976
 10
6290.4238747985
 20
5151.2230796391
 10
6291.1694024267
 20
5151.5414396992
  0
LWPOLYLINE
  5
3CB
330
1F
100
AcDbEntity
  8
0
  6
Continuous
 62
     7
100
AcDbPolyline
 90
        3
 70
   128
 43
0.0
 10
6286.7774963379
 20
5151.2870470753
 10
6286.9072339314
 20
5150.3685737209
 10
6287.3309117319
 20
5149.7700492611
  0
LWPOLYLINE
  5
3CC
330
1F
100
AcDbEntity
  8
0
  6
Continuous
 62
     7
100
AcDbPolyline
 90
        3
 70
   128
 43
0.0
 10
6288.4407043457
 20
5152.7184973231
 10
6287.1928476508
 20
5152.2507594004
 10
6286.778711951
 20
5151.2870470753
  0
LWPOLYLINE
  5
3CD
330
1F
100
AcDbEntity
  8
0
  6
Continuous
 62
     7
100
AcDbPolyline
 90
        3
 70
   128
 43
0.0
 10
6287.5823974609
 20
5151.234788703
 10
6287.9317328578
 20
5151.8353830063
 10
6288.4913098576
 20
5151.953620719
  0
LWPOLYLINE
  5
3CE
330
1F
100
AcDbEntity
  8
0
  6
Continuous
 62
     7
100
AcDbPolyline
 90
        3
 70
   128
 43
0.0
 10
6288.3186340332
 20
5149.8359421959
 10
6287.7408664991
 20
5150.5423095316
 10
6287.5827376308
 20
5151.234788703
  0
LWPOLYLINE
  5
3CF
330
1F
100
AcDbEntity
  8
0
  6
Continuous
 62
     7
100
AcDbPolyline
 90
        3
 70
   128
 43
0.0
 10
6289.4821166992
 20
5147.5220898857
 10
6289.401652272
 20
5148.4348205414
 10
6289.0140165152
 20
5149.0450332632
  0
LWPOLYLINE
  5
3D0
330
1F
100
AcDbEntity
  8
0
  6
Continuous
 62
     7
100
AcDbPolyline
 90
        3
 70
   128
 43
0.0
 10
6288.0706787109
 20
5146.3194618693
 10
6289.1375031305
 20
5146.6919127401
 10
6289.4848410549
 20
5147.5220898857
  0
LWPOLYLINE
  5
3D1
330
1F
100
AcDbEntity
  8
0
  6
Continuous
 62
     7
100
AcDbPolyline
 90
        3
 70
   128
 43
0.0
 10
6288.6848449707
 20
5147.6738731136
 10
6288.4304291506
 20
5147.1957175671
 10
6288.0075809123
 20
5147.0972577801
  0
LWPOLYLINE
  5
3D2
330
1F
100
AcDbEntity
  8
0
  6
Continuous
 62
     7
100
AcDbPolyline
 90
        3
 70
   128
 43
0.0
 10
6288.272857666
 20
5148.7014720907
 10
6288.6486068503
 20
5148.1755563996
 10
6288.6857588353
 20
5147.6738731136
  0
LWPOLYLINE
  5
3D3
330
1F
100
AcDbEntity
  8
0
  6
Continuous
 62
     7
100
AcDbPolyline
 90
        3
 70
   128
 43
0.0
 10
6307.544708252
 20
5150.6694833508
 10
6307.5021402203
 20
5150.6491979054
 10
6307.483800924
 20
5150.6162713041
  0
LWPOLYLINE
  5
3D4
330
1F
100
AcDbEntity
  8
0
  6
Continuous
 62
     7
100
AcDbPolyline
 90
        3
 70
   128
 43
0.0
 10
6306.9725036621
 20
5152.6165435782
 10
6306.5010327413
 20
5153.0578071295
 10
6306.0512945565
 20
5153.2951722613
  0
LWPOLYLINE
  5
3D5
330
1F
100
AcDbEntity
  8
0
  6
Continuous
 62
     7
100
AcDbPolyline
 90
        3
 70
   128
 43
0.0
 10
6308.6166381836
 20
5149.9434987774
 10
6308.9170748064
 20
5149.9402130509
 10
6309.1457479211
 20
5149.9920169583
  0
LWPOLYLINE
  5
3D6
330
1F
100
AcDbEntity
  8
0
  6
Continuous
 62
     7
100
AcDbPolyline
 90
        3
 70
   128
 43
0.0
 10
6308.479309082
 20
5149.4822482338
 10
6308.552838165
 20
5149.7421141442
 10
6308.618723652
 20
5149.9434987774
  0
LWPOLYLINE
  5
3D7
330
1F
100
AcDbEntity
  8
0
  6
Continuous
 62
     7
100
AcDbPolyline
 90
        3
 70
   128
 43
0.0
 10
6309.8297119141
 20
5148.3719776144
 10
6308.971009305
 20
5148.203936398
 10
6308.2975179466
 20
5148.3337263336
  0
LWPOLYLINE
  5
3D8
330
1F
100
AcDbEntity
  8
0
  6
Continuous
 62
     7
100
AcDbPolyline
 90
        3
 70
   128
 43
0.0
 10
6308.5632324219
 20
5150.4853049984
 10
6308.635657234
 20
5150.4229213426
 10
6308.6918399247
 20
5150.3746340742
  0
LWPOLYLINE
  5
3D9
330
1F
100
AcDbEntity
  8
0
  6
Continuous
 62
     7
100
AcDbPolyline
 90
        3
 70
   128
 43
0.0
 10
6308.6891174316
 20
5150.3746340742
 10
6308.7389611757
 20
5150.4538797768
 10
6308.7789614262
 20
5150.5142728558
  0
LWPOLYLINE
  5
3DA
330
1F
100
AcDbEntity
  8
0
  6
Continuous
 62
     7
100
AcDbPolyline
 90
        3
 70
   128
 43
0.0
 10
6308.7768554688
 20
5150.5142728558
 10
6309.7614059616
 20
5149.1371857106
 10
6309.9302474918
 20
5147.8169391623
  0
LWPOLYLINE
  5
3DB
330
1F
100
AcDbEntity
  8
0
  6
Continuous
 62
     7
100
AcDbPolyline
 90
        3
 70
   128
 43
0.0
 10
6309.928894043
 20
5147.8169391623
 10
6309.1068976586
 20
5146.1851412703
 10
6307.74996174
 20
5145.694715785
  0
LWPOLYLINE
  5
3DC
330
1F
100
AcDbEntity
  8
0
  6
Continuous
 62
     7
100
AcDbPolyline
 90
        3
 70
   128
 43
0.0
 10
6307.746887207
 20
5145.694715785
 10
6306.1709770981
 20
5146.5277135769
 10
6305.9802607211
 20
5147.9507217875
  0
LWPOLYLINE
  5
3DD
330
1F
100
AcDbEntity
  8
0
  6
Continuous
 62
     7
100
AcDbPolyline
 90
        3
 70
   128
 43
0.0
 10
6308.2389831543
 20
5149.8356590738
 10
6308.0578019604
 20
5147.5931636971
 10
6308.1223454835
 20
5145.8264122477
  0
LWPOLYLINE
  5
3DE
330
1F
100
AcDbEntity
  8
0
  6
Continuous
 62
     7
100
AcDbPolyline
 90
        3
 70
   128
 43
0.0
 10
6308.1207275391
 20
5145.8264122477
 10
6308.1378877627
 20
5145.8279545136
 10
6308.1500802698
 20
5145.8293477764
  0
LWPOLYLINE
  5
3DF
330
1F
100
AcDbEntity
  8
0
  6
Continuous
 62
     7
100
AcDbPolyline
 90
        3
 70
   128
 43
0.0
 10
6308.1474304199
 20
5145.8293477764
 10
6309.3699921588
 20
5146.6245951735
 10
6309.813081524
 20
5147.6942579022
  0
LWPOLYLINE
  5
3E0
330
1F
100
AcDbEntity
  8
0
  6
Continuous
 62
     7
100
AcDbPolyline
 90
        3
 70
   128
 43
0.0
 10
6309.8106384277
 20
5147.6942579022
 10
6308.9462297254
 20
5147.5653890075
 10
6308.2684774461
 20
5147.6816813221
  0
LWPOLYLINE
  5
3E1
330
1F
100
AcDbEntity
  8
0
  6
Continuous
 62
     7
100
AcDbPolyline
 90
        3
 70
   128
 43
0.0
 10
6308.2656860352
 20
5147.6816813221
 10
6308.2958285947
 20
5146.9553890853
 10
6308.3264578643
 20
5146.385161089
  0
LWPOLYLINE
  5
3E2
330
1F
100
AcDbEntity
  8
0
  6
Continuous
 62
     7
100
AcDbPolyline
 90
        3
 70
   128
 43
0.0
 10
6308.3229064941
 20
5146.385161089
 10
6308.2185413239
 20
5148.622282705
 10
6308.6637270214
 20
5150.3233740797
  0
LWPOLYLINE
  5
3E3
330
1F
100
AcDbEntity
  8
0
  6
Continuous
 62
     7
100
AcDbPolyline
 90
        3
 70
   128
 43
0.0
 10
6308.6624145508
 20
5150.3233740797
 10
6308.5870378859
 20
5150.388885586
 10
6308.5275602104
 20
5150.4412571659
  0
LWPOLYLINE
  5
3E4
330
1F
100
AcDbEntity
  8
0
  6
Continuous
 62
     7
100
AcDbPolyline
 90
        3
 70
   128
 43
0.0
 10
6308.0635070801
 20
5145.8129863014
 10
6308.0020697652
 20
5148.5758596886
 10
6308.57936596
 20
5150.6251821985
  0
LWPOLYLINE
  5
3E5
330
1F
100
AcDbEntity
  8
0
  6
Continuous
 62
     7
100
AcDbPolyline
 90
        3
 70
   128
 43
0.0
 10
6308.5784912109
 20
5150.6251821985
 10
6308.1271539442
 20
5150.3382051199
 10
6307.732240534
 20
5150.20377736
  0
LWPOLYLINE
  5
3E6
330
1F
100
AcDbEntity
  8
0
  6
Continuous
 62
     7
100
AcDbPolyline
 90
        3
 70
   128
 43
0.0
 10
6307.731628418
 20
5150.20377736
 10
6307.2202874777
 20
5150.4200033323
 10
6306.8407394501
 20
5150.642884778
  0
LWPOLYLINE
  5
3E7
330
1F
100
AcDbEntity
  8
0
  6
Continuous
 62
     7
100
AcDbPolyline
 90
        3
 70
   128
 43
0.0
 10
6307.430267334
 20
5151.3347903958
 10
6307.3741704333
 20
5151.4475194371
 10
6307.2798133405
 20
5151.481149601
  0
LWPOLYLINE
  5
3E8
330
1F
100
AcDbEntity
  8
0
  6
Continuous
 62
     7
100
AcDbPolyline
 90
        3
 70
   128
 43
0.0
 10
6307.2776794434
 20
5151.481149601
 10
6307.1650558707
 20
5151.4280398006
 10
6307.1290135892
 20
5151.3347903958
  0
LWPOLYLINE
  5
3E9
330
1F
100
AcDbEntity
  8
0
  6
Continuous
 62
     7
100
AcDbPolyline
 90
        3
 70
   128
 43
0.0
 10
6308.2809448242
 20
5151.4855603447
 10
6308.1685424081
 20
5151.4298842455
 10
6308.1357993694
 20
5151.3347903958
  0
LWPOLYLINE
  5
3EA
330
1F
100
AcDbEntity
  8
0
  6
Continuous
 62
     7
100
AcDbPolyline
 90
        3
 70
   128
 43
0.0
 10
6308.1321716309
 20
5151.3347903958
 10
6308.1881324373
 20
5151.219224283
 10
6308.282156712
 20
5151.1839906445
  0
LWPOLYLINE
  5
3EB
330
1F
100
AcDbEntity
  8
0
  6
Continuous
 62
     7
100
AcDbPolyline
 90
        3
 70
   128
 43
0.0
 10
6306.0836791992
 20
5151.9380192032
 10
6305.8092358873
 20
5152.6496987295
 10
6305.745274997
 20
5153.2463709583
  0
LWPOLYLINE
  5
3EC
330
1F
100
AcDbEntity
  8
0
  6
Continuous
 62
     7
100
AcDbPolyline
 90
        3
 70
   128
 43
0.0
 10
6305.7441711426
 20
5153.2463709583
 10
6306.3655157543
 20
5152.8990893268
 10
6306.7830347033
 20
5152.5278071633
  0
LWPOLYLINE
  5
3ED
330
1F
100
AcDbEntity
  8
0
  6
Continuous
 62
     7
100
AcDbPolyline
 90
        3
 70
   128
 43
0.0
 10
6306.7817687988
 20
5152.5278071633
 10
6306.8640687982
 20
5152.567185206
 10
6306.929418123
 20
5152.5944004526
  0
LWPOLYLINE
  5
3EE
330
1F
100
AcDbEntity
  8
0
  6
Continuous
 62
     7
100
AcDbPolyline
 90
        3
 70
   128
 43
0.0
 10
6306.9267272949
 20
5152.5944004526
 10
6306.2662548358
 20
5153.145109588
 10
6305.6299157949
 20
5153.3705274334
  0
LWPOLYLINE
  5
3EF
330
1F
100
AcDbEntity
  8
0
  6
Continuous
 62
     7
100
AcDbPolyline
 90
        3
 70
   128
 43
0.0
 10
6305.6297302246
 20
5153.3705274334
 10
6305.7549440968
 20
5152.4982291009
 10
6306.0335994276
 20
5151.8625597229
  0
LWPOLYLINE
  5
3F0
330
1F
100
AcDbEntity
  8
0
  6
Continuous
 62
     7
100
AcDbPolyline
 90
        3
 70
   128
 43
0.0
 10
6309.3528747559
 20
5151.8891433945
 10
6309.7340425488
 20
5152.6947051322
 10
6309.8433774473
 20
5153.3838192692
  0
LWPOLYLINE
  5
3F1
330
1F
100
AcDbEntity
  8
0
  6
Continuous
 62
     7
100
AcDbPolyline
 90
        3
 70
   128
 43
0.0
 10
6309.8411560059
 20
5153.3838192692
 10
6308.9726261694
 20
5153.0613342036
 10
6308.401909894
 20
5152.6077071896
  0
LWPOLYLINE
  5
3F2
330
1F
100
AcDbEntity
  8
0
  6
Continuous
 62
     7
100
AcDbPolyline
 90
        3
 70
   128
 43
0.0
 10
6309.5550537109
 20
5150.9977410307
 10
6308.8081526008
 20
5150.8331695978
 10
6308.286749995
 20
5150.5364010801
  0
ARC
  5
3F3
330
1F
100
AcDbEntity
  8
0
  6
Continuous
 62
     7
100
AcDbCircle
 10
6308.153859627
 20
5150.4410363375
 30
0.0
 40
1.589557150885273
100
AcDbArc
 50
20.0997026929
 51
78.7476431701
  0
LWPOLYLINE
  5
3F4
330
1F
100
AcDbEntity
  8
0
  6
Continuous
 62
     7
100
AcDbPolyline
 90
        3
 70
   128
 43
0.0
 10
6308.3992004395
 20
5152.6077071896
 10
6308.4794181764
 20
5152.5739958623
 10
6308.5394327106
 20
5152.5455544462
  0
LWPOLYLINE
  5
3F5
330
1F
100
AcDbEntity
  8
0
  6
Continuous
 62
     7
100
AcDbPolyline
 90
        3
 70
   128
 43
0.0
 10
6308.2809448242
 20
5151.1839906445
 10
6308.3988617791
 20
5151.2384545057
 10
6308.432958326
 20
5151.3347903958
  0
LWPOLYLINE
  5
3F6
330
1F
100
AcDbEntity
  8
0
  6
Continuous
 62
     7
100
AcDbPolyline
 90
        3
 70
   128
 43
0.0
 10
6307.2776794434
 20
5151.1839906445
 10
6307.3948035465
 20
5151.2399779461
 10
6307.4305888774
 20
5151.3347903958
  0
LWPOLYLINE
  5
3F7
330
1F
100
AcDbEntity
  8
0
  6
Continuous
 62
     7
100
AcDbPolyline
 90
        3
 70
   128
 43
0.0
 10
6307.2814941406
 20
5145.8307335844
 10
6307.2740605665
 20
5148.347841375
 10
6306.9649592551
 20
5150.301394867
  0
LWPOLYLINE
  5
3F8
330
1F
100
AcDbEntity
  8
0
  6
Continuous
 62
     7
100
AcDbPolyline
 90
        3
 70
   128
 43
0.0
 10
6306.8389892578
 20
5150.642884778
 10
6307.374873392
 20
5147.9811471024
 10
6307.3597077789
 20
5145.8173225393
  0
LWPOLYLINE
  5
3F9
330
1F
100
AcDbEntity
  8
0
  6
Continuous
 62
     7
100
AcDbPolyline
 90
        3
 70
   128
 43
0.0
 10
6308.5250854492
 20
5150.4412571659
 10
6308.3335637231
 20
5150.1176981796
 10
6308.2422476771
 20
5149.8356590738
  0
LWPOLYLINE
  5
3FA
330
1F
100
AcDbEntity
  8
0
  6
Continuous
 62
     7
100
AcDbPolyline
 90
        3
 70
   128
 43
0.0
 10
6309.6885681152
 20
5150.9286741486
 10
6309.0074444963
 20
5150.8048844534
 10
6308.5649583997
 20
5150.4853049984
  0
LWPOLYLINE
  5
3FB
330
1F
100
AcDbEntity
  8
0
  6
Continuous
 62
     7
100
AcDbPolyline
 90
        3
 70
   128
 43
0.0
 10
6309.7114562988
 20
5148.9431093207
 10
6309.7929429524
 20
5148.6261992337
 10
6309.8310784014
 20
5148.3719776144
  0
LWPOLYLINE
  5
3FC
330
1F
100
AcDbEntity
  8
0
  6
Continuous
 62
     7
100
AcDbPolyline
 90
        3
 70
   128
 43
0.0
 10
6306.0493469238
 20
5153.2951722613
 10
6306.753760326
 20
5153.0101327427
 10
6307.2621927174
 20
5152.6964138022
  0
LWPOLYLINE
  5
3FD
330
1F
100
AcDbEntity
  8
0
  6
Continuous
 62
     7
100
AcDbPolyline
 90
        3
 70
   128
 43
0.0
 10
6307.689666748
 20
5152.6742259731
 10
6308.9134244757
 20
5152.2521794393
 10
6309.506208873
 20
5151.4234821072
  0
LWPOLYLINE
  5
3FE
330
1F
100
AcDbEntity
  8
0
  6
Continuous
 62
     7
100
AcDbPolyline
 90
        3
 70
   128
 43
0.0
 10
6308.0940246582
 20
5152.7052948942
 10
6308.6502265252
 20
5153.0713584686
 10
6309.142609364
 20
5153.241990017
  0
LWPOLYLINE
  5
3FF
330
1F
100
AcDbEntity
  8
0
  6
Continuous
 62
     7
100
AcDbPolyline
 90
       11
 70
   128
 43
0.0
 10
6308.4602355957
 20
5152.0000378361
 10
6307.9339997181
 20
5151.7362504306
 10
6307.350284721
 20
5151.8208209017
 10
6307.1774542683
 20
5151.9196518525
 10
6307.0982035921
 20
5151.9797213393
 10
6307.060190084
 20
5152.0122398886
 10
6307.0417697629
 20
5152.0292655038
 10
6307.0334487937
 20
5152.0385165727
 10
6307.0297257384
 20
5152.0434848292
 10
6307.0280007498
 20
5152.0460746194
 10
6307.0270058276
 20
5152.0488987436
  0
LWPOLYLINE
  5
400
330
1F
100
AcDbEntity
  8
0
  6
Continuous
 62
     7
100
AcDbPolyline
 90
        3
 70
   128
 43
0.0
 10
6307.0259094238
 20
5152.0488987436
 10
6306.2637776668
 20
5151.568402304
 10
6305.7678651573
 20
5151.0755995979
  0
LWPOLYLINE
  5
401
330
1F
100
AcDbEntity
  8
0
  6
Continuous
 62
     7
100
AcDbPolyline
 90
        3
 70
   128
 43
0.0
 10
6305.7670593262
 20
5151.0755995979
 10
6306.8417687878
 20
5151.5120839494
 10
6307.7499114486
 20
5151.6009400358
  0
LWPOLYLINE
  5
402
330
1F
100
AcDbEntity
  8
0
  6
Continuous
 62
     7
100
AcDbPolyline
 90
        3
 70
   128
 43
0.0
 10
6307.746887207
 20
5151.6009400358
 10
6308.8717620994
 20
5151.4130166662
 10
6309.648727304
 20
5150.9872953167
  0
LWPOLYLINE
  5
403
330
1F
100
AcDbEntity
  8
0
  6
Continuous
 62
     7
100
AcDbPolyline
 90
        3
 70
   128
 43
0.0
 10
6308.536529541
 20
5152.5455544462
 10
6309.1371947954
 20
5153.0042648115
 10
6309.6882340076
 20
5153.2197425833
  0
LWPOLYLINE
  5
404
330
1F
100
AcDbEntity
  8
0
  6
Continuous
 62
     7
100
AcDbPolyline
 90
        3
 70
   128
 43
0.0
 10
6309.684753418
 20
5153.2197425833
 10
6309.5302393589
 20
5152.5207579971
 10
6309.266829169
 20
5152.0222554674
  0
LWPOLYLINE
  5
405
330
1F
100
AcDbEntity
  8
0
  6
Continuous
 62
     7
100
AcDbPolyline
 90
        3
 70
   128
 43
0.0
 10
6309.2651367188
 20
5152.0222554674
 10
6309.3198858716
 20
5151.94995547
 10
6309.3554575505
 20
5151.8891433945
  0
LWPOLYLINE
  5
406
330
1F
100
AcDbEntity
  8
0
  6
Continuous
 62
     7
100
AcDbPolyline
 90
        3
 70
   128
 43
0.0
 10
6308.2962036133
 20
5148.3337263336
 10
6308.3286574044
 20
5148.6452715301
 10
6308.3619002762
 20
5148.8890181055
  0
LWPOLYLINE
  5
407
330
1F
100
AcDbEntity
  8
0
  6
Continuous
 62
     7
100
AcDbPolyline
 90
        3
 70
   128
 43
0.0
 10
6309.4367980957
 20
5149.5621184578
 10
6308.9068904471
 20
5149.4313324174
 10
6308.4807482126
 20
5149.4822482338
  0
LWPOLYLINE
  5
408
330
1F
100
AcDbEntity
  8
0
  6
Continuous
 62
     7
100
AcDbPolyline
 90
        3
 70
   128
 43
0.0
 10
6308.4297180176
 20
5151.3347903958
 10
6308.3784819737
 20
5151.4514748074
 10
6308.282156712
 20
5151.4855603447
  0
LWPOLYLINE
  5
409
330
1F
100
AcDbEntity
  8
0
  6
Continuous
 62
     7
100
AcDbPolyline
 90
        3
 70
   128
 43
0.0
 10
6307.258605957
 20
5152.6964138022
 10
6307.0983412628
 20
5152.6598720567
 10
6306.973793781
 20
5152.6165435782
  0
LWPOLYLINE
  5
40A
330
1F
100
AcDbEntity
  8
0
  6
Continuous
 62
     7
100
AcDbPolyline
 90
        3
 70
   128
 43
0.0
 10
6305.850982666
 20
5151.3082067242
 10
6306.6562654545
 20
5152.3966050758
 10
6307.6922569933
 20
5152.6742259731
  0
LWPOLYLINE
  5
40B
330
1F
100
AcDbEntity
  8
0
  6
Continuous
 62
     7
100
AcDbPolyline
 90
        3
 70
   128
 43
0.0
 10
6307.0526123047
 20
5152.1242539158
 10
6306.3481898948
 20
5151.7147746979
 10
6305.8516227218
 20
5151.3082067242
  0
LWPOLYLINE
  5
40C
330
1F
100
AcDbEntity
  8
0
  6
Continuous
 62
     7
100
AcDbPolyline
 90
        3
 70
   128
 43
0.0
 10
6307.12890625
 20
5151.3347903958
 10
6307.1850097079
 20
5151.2198011444
 10
6307.2798133405
 20
5151.1839906445
  0
LWPOLYLINE
  5
40D
330
1F
100
AcDbEntity
  8
0
  6
Continuous
 62
     7
100
AcDbPolyline
 90
        3
 70
   128
 43
0.0
 10
6306.9648742676
 20
5150.301394867
 10
6306.8996302232
 20
5149.9233432111
 10
6306.7786425861
 20
5149.6449838152
  0
LWPOLYLINE
  5
40E
330
1F
100
AcDbEntity
  8
0
  6
Continuous
 62
     7
100
AcDbPolyline
 90
        4
 70
   128
 43
0.0
 10
6306.7779541016
 20
5149.6449838152
 10
6306.0236627584
 20
5147.5186462882
 10
6306.3448553458
 20
5146.4488322648
 10
6307.2842557492
 20
5145.8307335844
  0
LWPOLYLINE
  5
40F
330
1F
100
AcDbEntity
  8
0
  6
Continuous
 62
     7
100
AcDbPolyline
 90
        3
 70
   128
 43
0.0
 10
6307.3577880859
 20
5145.8173225393
 10
6307.5328092587
 20
5145.7899504636
 10
6307.6702442529
 20
5145.7819173803
  0
LWPOLYLINE
  5
410
330
1F
100
AcDbEntity
  8
0
  6
Continuous
 62
     7
100
AcDbPolyline
 90
        3
 70
   128
 43
0.0
 10
6307.6667785645
 20
5145.7819173803
 10
6307.6368255731
 20
5146.7869203089
 10
6307.7055842193
 20
5147.5737522116
  0
LWPOLYLINE
  5
411
330
1F
100
AcDbEntity
  8
0
  6
Continuous
 62
     7
100
AcDbPolyline
 90
        3
 70
   128
 43
0.0
 10
6307.7049255371
 20
5147.5737522116
 10
6307.7224108327
 20
5146.5677192325
 10
6307.7455193313
 20
5145.7774917355
  0
LWPOLYLINE
  5
412
330
1F
100
AcDbEntity
  8
0
  6
Continuous
 62
     7
100
AcDbPolyline
 90
        3
 70
   128
 43
0.0
 10
6307.7430725098
 20
5145.7774917355
 10
6307.9254928027
 20
5145.7881003187
 10
6308.0648158254
 20
5145.8129863014
  0
LWPOLYLINE
  5
413
330
1F
100
AcDbEntity
  8
0
  6
Continuous
 62
     7
100
AcDbPolyline
 90
        3
 70
   128
 43
0.0
 10
6305.9768676758
 20
5147.9507217875
 10
6306.4020633334
 20
5149.1034585544
 10
6306.8141837182
 20
5149.9776820412
  0
LWPOLYLINE
  5
414
330
1F
100
AcDbEntity
  8
0
  6
Continuous
 62
     7
100
AcDbPolyline
 90
        4
 70
   128
 43
0.0
 10
6306.812286377
 20
5149.9776820412
 10
6306.8410327726
 20
5150.4225676199
 10
6306.5617137122
 20
5150.7684267653
 10
6305.7008974763
 20
5151.0421017876
  0
LWPOLYLINE
  5
415
330
1F
100
AcDbEntity
  8
0
  6
Continuous
 62
     7
100
AcDbPolyline
 90
        3
 70
   128
 43
0.0
 10
6305.6983947754
 20
5151.0421017876
 10
6305.8386224715
 20
5151.4795611704
 10
6305.9936401012
 20
5151.8049369326
  0
LWPOLYLINE
  5
416
330
1F
100
AcDbEntity
  8
0
  6
Continuous
 62
     7
100
AcDbPolyline
 90
        3
 70
   128
 43
0.0
 10
6305.9921264648
 20
5151.8049369326
 10
6305.6230908932
 20
5152.6965842654
 10
6305.5501722308
 20
5153.4548382034
  0
LWPOLYLINE
  5
417
330
1F
100
AcDbEntity
  8
0
  6
Continuous
 62
     7
100
AcDbPolyline
 90
        3
 70
   128
 43
0.0
 10
6305.549621582
 20
5153.4548382034
 10
6306.5862929507
 20
5153.1497381965
 10
6307.3152799668
 20
5152.7141312828
  0
LWPOLYLINE
  5
418
330
1F
100
AcDbEntity
  8
0
  6
Continuous
 62
     7
100
AcDbPolyline
 90
        3
 70
   128
 43
0.0
 10
6307.3120117188
 20
5152.7141312828
 10
6307.7102708374
 20
5152.7482409783
 10
6308.0205649646
 20
5152.7185420265
  0
LWPOLYLINE
  5
419
330
1F
100
AcDbEntity
  8
0
  6
Continuous
 62
     7
100
AcDbPolyline
 90
        3
 70
   128
 43
0.0
 10
6308.0177307129
 20
5152.7185420265
 10
6309.0108678176
 20
5153.2797497126
 10
6309.8920967939
 20
5153.4636894932
  0
LWPOLYLINE
  5
41A
330
1F
100
AcDbEntity
  8
0
  6
Continuous
 62
     7
100
AcDbPolyline
 90
        3
 70
   128
 43
0.0
 10
6309.8907470703
 20
5153.4636894932
 10
6309.7298359529
 20
5152.5006335058
 10
6309.3955174597
 20
5151.8093476763
  0
LWPOLYLINE
  5
41B
330
1F
100
AcDbEntity
  8
0
  6
Continuous
 62
     7
100
AcDbPolyline
 90
        3
 70
   128
 43
0.0
 10
6309.3948364258
 20
5151.8093476763
 10
6309.6438895931
 20
5151.3385140742
 10
6309.6894130619
 20
5150.9286741486
  0
LWPOLYLINE
  5
41C
330
1F
100
AcDbEntity
  8
0
  6
Continuous
 62
     7
100
AcDbPolyline
 90
        3
 70
   128
 43
0.0
 10
6308.3610534668
 20
5148.8890181055
 10
6309.1256808181
 20
5148.7991844673
 10
6309.711626968
 20
5148.9431093207
  0
LWPOLYLINE
  5
41D
330
1F
100
AcDbEntity
  8
0
  6
Continuous
 62
     7
100
AcDbPolyline
 90
        3
 70
   128
 43
0.0
 10
6308.0139160156
 20
5150.6162713041
 10
6307.9909040417
 20
5150.6575177644
 10
6307.9539996149
 20
5150.6694833508
  0
LWPOLYLINE
  5
41E
330
1F
100
AcDbEntity
  8
0
  6
Continuous
 62
     7
100
AcDbPolyline
 90
        3
 70
   128
 43
0.0
 10
6308.4526062012
 20
5152.0799080601
 10
6307.6485816252
 20
5151.7982426033
 10
6307.0535615595
 20
5152.1242539158
  0
LWPOLYLINE
  5
41F
330
1F
100
AcDbEntity
  8
0
  6
Continuous
 62
     7
100
AcDbPolyline
 90
        3
 70
   128
 43
0.0
 10
6309.5054626465
 20
5151.4234821072
 10
6308.9486107226
 20
5151.839833845
 10
6308.4550958636
 20
5152.0799080601
  0
LWPOLYLINE
  5
420
330
1F
100
AcDbEntity
  8
0
  6
Continuous
 62
     7
100
AcDbPolyline
 90
        3
 70
   128
 43
0.0
 10
6308.3457946777
 20
5152.6299397221
 10
6308.2077209222
 20
5152.6741487443
 10
6308.0958903345
 20
5152.7052948942
  0
LWPOLYLINE
  5
421
330
1F
100
AcDbEntity
  8
0
  6
Continuous
 62
     7
100
AcDbPolyline
 90
        3
 70
   128
 43
0.0
 10
6309.139251709
 20
5153.241990017
 10
6308.6682714046
 20
5152.9366079801
 10
6308.3486978473
 20
5152.6299397221
  0
LWPOLYLINE
  5
422
330
1F
100
AcDbEntity
  8
0
  6
Continuous
 62
     7
100
AcDbPolyline
 90
        3
 70
   128
 43
0.0
 10
6308.3572387695
 20
5150.8202831021
 10
6309.0148155666
 20
5151.0234598716
 10
6309.555203891
 20
5150.9977410307
  0
LWPOLYLINE
  5
423
330
1F
100
AcDbEntity
  8
0
  6
Continuous
 62
     7
100
AcDbPolyline
 90
        3
 70
   128
 43
0.0
 10
6307.1708679199
 20
5150.7670710554
 10
6307.8356589752
 20
5151.2209121942
 10
6308.3575081589
 20
5150.8202831021
  0
LWPOLYLINE
  5
424
330
1F
100
AcDbEntity
  8
0
  6
Continuous
 62
     7
100
AcDbPolyline
 90
        3
 70
   128
 43
0.0
 10
6305.8395385742
 20
5151.0598192682
 10
6306.6056726362
 20
5150.9847610765
 10
6307.1733389559
 20
5150.7670710554
  0
LWPOLYLINE
  5
425
330
1F
100
AcDbEntity
  8
0
  6
Continuous
 62
     7
100
AcDbPolyline
 90
        3
 70
   128
 43
0.0
 10
6306.7474365234
 20
5150.775907444
 10
6306.2557681977
 20
5150.9847566205
 10
6305.8429390701
 20
5151.0598192682
  0
LWPOLYLINE
  5
426
330
1F
100
AcDbEntity
  8
0
  6
Continuous
 62
     7
100
AcDbPolyline
 90
        3
 70
   128
 43
0.0
 10
6307.6400756836
 20
5150.4033933153
 10
6307.1257656444
 20
5150.5710680115
 10
6306.7476183685
 20
5150.775907444
  0
LWPOLYLINE
  5
427
330
1F
100
AcDbEntity
  8
0
  6
Continuous
 62
     7
100
AcDbPolyline
 90
        7
 70
   128
 43
0.0
 10
6307.6400756836
 20
5150.5630592575
 10
6307.6666032343
 20
5150.553900103
 10
6307.6808605533
 20
5150.5329046973
 10
6307.6900162312
 20
5150.483232525
 10
6307.6808595453
 20
5150.4335607942
 10
6307.6666015341
 20
5150.4125651287
 10
6307.6434631409
 20
5150.4033933153
  0
LWPOLYLINE
  5
428
330
1F
100
AcDbEntity
  8
0
  6
Continuous
 62
     7
100
AcDbPolyline
 90
        3
 70
   128
 43
0.0
 10
6307.4836730957
 20
5150.6162713041
 10
6307.5077585738
 20
5150.5734215911
 10
6307.5458735736
 20
5150.5630592575
  0
LWPOLYLINE
  5
429
330
1F
100
AcDbEntity
  8
0
  6
Continuous
 62
     7
100
AcDbPolyline
 90
        3
 70
   128
 43
0.0
 10
6307.9528808594
 20
5150.5630592575
 10
6307.9994732222
 20
5150.5817150599
 10
6308.0161467703
 20
5150.6162713041
  0
LWPOLYLINE
  5
42A
330
1F
100
AcDbEntity
  8
0
  6
Continuous
 62
     7
100
AcDbPolyline
 90
        6
 70
   128
 43
0.0
 10
6307.8308105469
 20
5150.3989825716
 10
6307.8127677085
 20
5150.4119436008
 10
6307.8019829404
 20
5150.4354096515
 10
6307.7967930154
 20
5150.4868277407
 10
6307.8100641392
 20
5150.5366299819
 10
6307.851993716
 20
5150.5630592575
  0
LWPOLYLINE
  5
42B
330
1F
100
AcDbEntity
  8
0
  6
Continuous
 62
     7
100
AcDbPolyline
 90
        3
 70
   128
 43
0.0
 10
6308.2847595215
 20
5150.5364010801
 10
6308.0465229228
 20
5150.4108952279
 10
6307.8341980042
 20
5150.3989825716
  0
LWPOLYLINE
  5
42C
330
1F
100
AcDbEntity
  8
0
  6
Continuous
 62
     7
100
AcDbPolyline
 90
        3
 70
   128
 43
0.0
 10
6309.1430664062
 20
5149.9920169583
 10
6309.3178455283
 20
5149.7567854662
 10
6309.4384644689
 20
5149.5621184578
  0
LWPOLYLINE
  5
42D
330
1F
100
AcDbEntity
  8
0
  6
Continuous
 62
     7
100
AcDbPolyline
 90
        3
 70
   128
 43
0.0
 10
6308.3419799805
 20
5151.3347605934
 10
6308.3220387769
 20
5151.381429565
 10
6308.2835369321
 20
5151.3950506916
  0
LWPOLYLINE
  5
42E
330
1F
100
AcDbEntity
  8
0
  6
Continuous
 62
     7
100
AcDbPolyline
 90
        3
 70
   128
 43
0.0
 10
6308.2809448242
 20
5151.2744704952
 10
6308.3301555674
 20
5151.2962534146
 10
6308.3437525245
 20
5151.3347605934
  0
LWPOLYLINE
  5
42F
330
1F
100
AcDbEntity
  8
0
  6
Continuous
 62
     7
100
AcDbPolyline
 90
        3
 70
   128
 43
0.0
 10
6308.2237243652
 20
5151.3347605934
 10
6308.2459044722
 20
5151.2885524386
 10
6308.2835369321
 20
5151.2744704952
  0
LWPOLYLINE
  5
430
330
1F
100
AcDbEntity
  8
0
  6
Continuous
 62
     7
100
AcDbPolyline
 90
        3
 70
   128
 43
0.0
 10
6308.2809448242
 20
5151.3950506916
 10
6308.2380341753
 20
5151.3728117228
 10
6308.2249045881
 20
5151.3347605934
  0
LWPOLYLINE
  5
431
330
1F
100
AcDbEntity
  8
0
  6
Continuous
 62
     7
100
AcDbPolyline
 90
        3
 70
   128
 43
0.0
 10
6311.0961914062
 20
5152.9223899117
 10
6311.1242291392
 20
5152.9804827391
 10
6311.1295506867
 20
5153.0297080746
  0
LWPOLYLINE
  5
432
330
1F
100
AcDbEntity
  8
0
  6
Continuous
 62
     7
100
AcDbPolyline
 90
        3
 70
   128
 43
0.0
 10
6311.0656738281
 20
5153.1767676344
 10
6310.9771595319
 20
5153.2173006576
 10
6310.8981542798
 20
5153.2245109549
  0
LWPOLYLINE
  5
433
330
1F
100
AcDbEntity
  8
0
  6
Continuous
 62
     7
100
AcDbPolyline
 90
        3
 70
   128
 43
0.0
 10
6311.1267089844
 20
5153.0297080746
 10
6311.1130764385
 20
5153.1197146267
 10
6311.0690854999
 20
5153.1767676344
  0
LWPOLYLINE
  5
434
330
1F
100
AcDbEntity
  8
0
  6
Continuous
 62
     7
100
AcDbPolyline
 90
        3
 70
   128
 43
0.0
 10
6311.0084533691
 20
5152.921585249
 10
6310.9513210213
 20
5152.8915807249
 10
6310.8997598799
 20
5152.8859118691
  0
LWPOLYLINE
  5
435
330
1F
100
AcDbEntity
  8
0
  6
Continuous
 62
     7
100
AcDbPolyline
 90
        3
 70
   128
 43
0.0
 10
6311.0466003418
 20
5153.0260721913
 10
6311.0386197863
 20
5152.9626917776
 10
6311.009749076
 20
5152.921585249
  0
LWPOLYLINE
  5
436
330
1F
100
AcDbEntity
  8
0
  6
Continuous
 62
     7
100
AcDbPolyline
 90
        3
 70
   128
 43
0.0
 10
6310.8978271484
 20
5153.1583497992
 10
6311.017611448
 20
5153.119738826
 10
6311.0495817425
 20
5153.0260721913
  0
LWPOLYLINE
  5
437
330
1F
100
AcDbEntity
  8
0
  6
Continuous
 62
     7
100
AcDbPolyline
 90
        3
 70
   128
 43
0.0
 10
6311.0122680664
 20
5152.8497020474
 10
6311.0679913414
 20
5152.8844789334
 10
6311.0999830576
 20
5152.9223899117
  0
LWPOLYLINE
  5
438
330
1F
100
AcDbEntity
  8
0
  6
Continuous
 62
     7
100
AcDbPolyline
 90
        3
 70
   128
 43
0.0
 10
6303.6727905273
 20
5151.5414396992
 10
6304.5726975707
 20
5151.0395381004
 10
6304.7988798978
 20
5150.2448449602
  0
LWPOLYLINE
  5
439
330
1F
100
AcDbEntity
  8
0
  6
Continuous
 62
     7
100
AcDbPolyline
 90
        3
 70
   128
 43
0.0
 10
6302.2918701172
 20
5150.2543071976
 10
6302.6591110763
 20
5151.2230638463
 10
6303.404624811
 20
5151.5414396992
  0
LWPOLYLINE
  5
43A
330
1F
100
AcDbEntity
  8
0
  6
Continuous
 62
     7
100
AcDbPolyline
 90
        4
 70
   128
 43
0.0
 10
6304.0962219238
 20
5149.6333311072
 10
6304.0719068698
 20
5150.3371416249
 10
6303.9675660109
 20
5150.6707194994
 10
6303.6751274528
 20
5150.8368829956
  0
LWPOLYLINE
  5
43B
330
1F
100
AcDbEntity
  8
0
  6
Continuous
 62
     7
100
AcDbPolyline
 90
        4
 70
   128
 43
0.0
 10
6303.4019470215
 20
5150.8368829956
 10
6303.1122874201
 20
5150.6682513415
 10
6303.0084355046
 20
5150.3331350876
 10
6302.9811114582
 20
5149.6267745962
  0
LWPOLYLINE
  5
43C
330
1F
100
AcDbEntity
  8
0
  6
Continuous
 62
     7
100
AcDbPolyline
 90
        3
 70
   128
 43
0.0
 10
6307.2776794434
 20
5151.3919959536
 10
6307.2339166381
 20
5151.3707456316
 10
6307.2194990279
 20
5151.3334492912
  0
LWPOLYLINE
  5
43D
330
1F
100
AcDbEntity
  8
0
  6
Continuous
 62
     7
100
AcDbPolyline
 90
        3
 70
   128
 43
0.0
 10
6307.3387145996
 20
5151.3334492912
 10
6307.3175739774
 20
5151.3785336285
 10
6307.2798133405
 20
5151.3919959536
  0
LWPOLYLINE
  5
43E
330
1F
100
AcDbEntity
  8
0
  6
Continuous
 62
     7
100
AcDbPolyline
 90
        3
 70
   128
 43
0.0
 10
6307.2776794434
 20
5151.2731591931
 10
6307.3258485462
 20
5151.295527451
 10
6307.3402040215
 20
5151.3334492912
  0
LWPOLYLINE
  5
43F
330
1F
100
AcDbEntity
  8
0
  6
Continuous
 62
     7
100
AcDbPolyline
 90
        3
 70
   128
 43
0.0
 10
6307.2166442871
 20
5151.3334492912
 10
6307.2418920369
 20
5151.2874641854
 10
6307.2798133405
 20
5151.2731591931
  0
LWPOLYLINE
  5
440
330
1F
100
AcDbEntity
  8
0
  6
Continuous
 62
     7
100
AcDbPolyline
 90
       18
 70
   128
 43
0.0
 10
6238.4414672852
 20
5311.3593495211
 10
6238.4431132137
 20
5311.3591810558
 10
6238.4426584571
 20
5311.3592190277
 10
6238.4407320488
 20
5311.3595874462
 10
6238.4347584471
 20
5311.3610601293
 10
6238.4314664661
 20
5311.3625310889
 10
6238.4306854034
 20
5311.3636330668
 10
6238.4321057525
 20
5311.3652838517
 10
6238.4364851833
 20
5311.366931785
 10
6238.7197876704
 20
5311.3899083321
 10
6242.2517538707
 20
5311.4830445058
 10
6251.3064601182
 20
5311.6082027179
 10
6263.1312494267
 20
5311.7972183512
 10
6264.0180699508
 20
5311.8459363183
 10
6264.0300991111
 20
5311.8500249399
 10
6264.0316107202
 20
5311.8515559195
 10
6264.0317790093
 20
5311.8530858871
 10
6264.0153255822
 20
5311.8622525355
  0
LWPOLYLINE
  5
441
330
1F
100
AcDbEntity
  8
0
  6
Continuous
 62
     7
100
AcDbPolyline
 90
        8
 70
   128
 43
0.0
 10
6264.6980285645
 20
5311.0543730428
 10
6251.5046014826
 20
5310.6575883184
 10
6239.2982047197
 20
5310.3582678557
 10
6238.3263458599
 20
5310.2856806851
 10
6238.3138597919
 20
5310.2794816376
 10
6238.3132213375
 20
5310.277138154
 10
6238.3147517116
 20
5310.2747842072
 10
6238.3523967626
 20
5310.2605229935
  0
LWPOLYLINE
  5
442
330
1F
100
AcDbEntity
  8
0
  6
Continuous
 62
     7
100
AcDbPolyline
 90
        8
 70
   128
 43
0.0
 10
6264.6980285645
 20
5309.4668722471
 10
6251.5046014444
 20
5309.0700895243
 10
6239.2982047199
 20
5308.7707670465
 10
6238.3263458598
 20
5308.6981798901
 10
6238.3138597919
 20
5308.691980842
 10
6238.3132213375
 20
5308.6896373582
 10
6238.3147517116
 20
5308.6872834113
 10
6238.3523967626
 20
5308.6730221977
  0
LWPOLYLINE
  5
443
330
1F
100
AcDbEntity
  8
0
  6
Continuous
 62
     7
100
AcDbPolyline
 90
        8
 70
   128
 43
0.0
 10
6264.6980285645
 20
5307.8793714514
 10
6251.5046014622
 20
5307.4825887393
 10
6239.2982047181
 20
5307.1832681266
 10
6238.3263458598
 20
5307.1106809563
 10
6238.3138597919
 20
5307.1044819088
 10
6238.3132213375
 20
5307.1021384252
 10
6238.3147517116
 20
5307.0997844784
 10
6238.3523967626
 20
5307.0855232647
  0
LWPOLYLINE
  5
444
330
1F
100
AcDbEntity
  8
0
  6
Continuous
 62
     7
100
AcDbPolyline
 90
        8
 70
   128
 43
0.0
 10
6264.6980285645
 20
5306.2918725183
 10
6251.5046014444
 20
5305.8950897955
 10
6239.2982047199
 20
5305.5957673177
 10
6238.3263458598
 20
5305.5231801613
 10
6238.3138597919
 20
5305.5169811132
 10
6238.3132213375
 20
5305.5146376294
 10
6238.3147517116
 20
5305.5122836825
 10
6238.3523967626
 20
5305.4980224689
  0
LWPOLYLINE
  5
445
330
1F
100
AcDbEntity
  8
0
  6
Continuous
 62
     7
100
AcDbPolyline
 90
        8
 70
   128
 43
0.0
 10
6264.6980285645
 20
5304.7043726539
 10
6251.5046014615
 20
5304.3075890326
 10
6239.2982047198
 20
5304.0082674599
 10
6238.3263458598
 20
5303.9356802965
 10
6238.3138597919
 20
5303.9294812488
 10
6238.3132213375
 20
5303.927137765
 10
6238.3147517116
 20
5303.9247838182
 10
6238.3523967626
 20
5303.9105226045
  0
LWPOLYLINE
  5
446
330
1F
100
AcDbEntity
  8
0
  6
Continuous
 62
     7
100
AcDbPolyline
 90
       10
 70
   128
 43
0.0
 10
6264.6446228027
 20
5310.6487299075
 10
6264.6534411063
 20
5310.6425179592
 10
6264.6567817981
 20
5310.6362961234
 10
6264.649795453
 20
5310.6300545126
 10
6264.6283946751
 20
5310.6237865352
 10
6263.5563244544
 20
5310.5494920123
 10
6251.2821543519
 20
5310.2563780987
 10
6239.2686729113
 20
5309.9601779317
 10
6238.3804735215
 20
5309.8884285038
 10
6238.3445811035
 20
5309.8635430207
  0
LWPOLYLINE
  5
447
330
1F
100
AcDbEntity
  8
0
  6
Continuous
 62
     7
100
AcDbPolyline
 90
       10
 70
   128
 43
0.0
 10
6264.6446228027
 20
5309.0612309745
 10
6264.6534411063
 20
5309.0550190261
 10
6264.6567817981
 20
5309.0487971903
 10
6264.6497954529
 20
5309.0425555795
 10
6264.6283946751
 20
5309.0362876023
 10
6263.5563244527
 20
5308.9619930759
 10
6251.2821543718
 20
5308.6688771687
 10
6239.2686728995
 20
5308.3726790265
 10
6238.3804735227
 20
5308.3009275439
 10
6238.3445811035
 20
5308.276042225
  0
LWPOLYLINE
  5
448
330
1F
100
AcDbEntity
  8
0
  6
Continuous
 62
     7
100
AcDbPolyline
 90
       10
 70
   128
 43
0.0
 10
6264.6446228027
 20
5307.4737301787
 10
6264.6534411063
 20
5307.4675182304
 10
6264.6567817981
 20
5307.4612963946
 10
6264.649795453
 20
5307.4550547838
 10
6264.6283946751
 20
5307.4487868064
 10
6263.5563244543
 20
5307.3744922833
 10
6251.2821543478
 20
5307.0813785459
 10
6239.2686729114
 20
5306.7851782008
 10
6238.3804735216
 20
5306.7134287721
 10
6238.3445811035
 20
5306.6885432919
  0
LWPOLYLINE
  5
449
330
1F
100
AcDbEntity
  8
0
  6
Continuous
 62
     7
100
AcDbPolyline
 90
       10
 70
   128
 43
0.0
 10
6264.6446228027
 20
5305.886229383
 10
6264.6534411063
 20
5305.8800181214
 10
6264.6567817976
 20
5305.873796924
 10
6264.6497954514
 20
5305.8675558549
 10
6264.6283946719
 20
5305.8612882849
 10
6263.5563244493
 20
5305.7869921848
 10
6251.2821543545
 20
5305.4938773971
 10
6239.2686728978
 20
5305.1976792976
 10
6238.3804735226
 20
5305.1259278151
 10
6238.3445811035
 20
5305.1010424962
  0
LWPOLYLINE
  5
44A
330
1F
100
AcDbEntity
  8
0
  6
Continuous
 62
     7
100
AcDbPolyline
 90
        8
 70
   128
 43
0.0
 10
6264.6446228027
 20
5304.2987304499
 10
6264.6543670041
 20
5304.2916179475
 10
6264.6566606273
 20
5304.2880570595
 10
6264.6560485333
 20
5304.2844906074
 10
6264.6490385911
 20
5304.2797234779
 10
6264.0107089507
 20
5304.2223965983
 10
6256.0514783328
 20
5303.9977968373
 10
6241.7047109964
 20
5303.6994541755
  0
LWPOLYLINE
  5
44B
330
1F
100
AcDbEntity
  8
0
  6
Continuous
 62
     7
100
AcDbPolyline
 90
        8
 70
   128
 43
0.0
 10
6263.7977600098
 20
5311.7397482267
 10
6251.2979645833
 20
5311.3478315992
 10
6240.0790330766
 20
5311.052126813
 10
6239.1831294712
 20
5310.9804179457
 10
6239.1712511006
 20
5310.974294153
 10
6239.1705052202
 20
5310.9719793355
 10
6239.1717779574
 20
5310.9696541286
 10
6239.2060768368
 20
5310.9555653056
  0
LWPOLYLINE
  5
44C
330
1F
100
AcDbEntity
  8
0
  6
Continuous
 62
     7
100
AcDbPolyline
 90
        8
 70
   128
 43
0.0
 10
6263.7977600098
 20
5310.1522474309
 10
6251.2979646053
 20
5309.7603306541
 10
6240.0790330785
 20
5309.4646269001
 10
6239.1831294725
 20
5309.3929188157
 10
6239.1712511008
 20
5309.3867951872
 10
6239.1705052201
 20
5309.3844804083
 10
6239.1717779572
 20
5309.3821552265
 10
6239.2060768368
 20
5309.3680663725
  0
LWPOLYLINE
  5
44D
330
1F
100
AcDbEntity
  8
0
  6
Continuous
 62
     7
100
AcDbPolyline
 90
        8
 70
   128
 43
0.0
 10
6263.7977600098
 20
5308.5647466352
 10
6251.2979645637
 20
5308.1728318805
 10
6240.0790330786
 20
5307.8771260911
 10
6239.1831294725
 20
5307.8054180207
 10
6239.1712511008
 20
5307.7992943916
 10
6239.1705052201
 20
5307.7969796126
 10
6239.1717779572
 20
5307.7946544307
 10
6239.2060768368
 20
5307.7805655768
  0
LWPOLYLINE
  5
44E
330
1F
100
AcDbEntity
  8
0
  6
Continuous
 62
     7
100
AcDbPolyline
 90
        8
 70
   128
 43
0.0
 10
6263.7977600098
 20
5306.9772477021
 10
6251.2979646006
 20
5306.585331167
 10
6240.0790330785
 20
5306.289627171
 10
6239.1831294725
 20
5306.2179190869
 10
6239.1712511008
 20
5306.2117954584
 10
6239.1705052201
 20
5306.2094806795
 10
6239.1717779572
 20
5306.2071554977
 10
6239.2060768368
 20
5306.1930666437
  0
LWPOLYLINE
  5
44F
330
1F
100
AcDbEntity
  8
0
  6
Continuous
 62
     7
100
AcDbPolyline
 90
        8
 70
   128
 43
0.0
 10
6263.7977600098
 20
5305.3897469064
 10
6251.2979645639
 20
5304.9978321465
 10
6240.0790330802
 20
5304.702126251
 10
6239.1831294724
 20
5304.6304182982
 10
6239.1712511008
 20
5304.6242946638
 10
6239.1705052201
 20
5304.6219798836
 10
6239.1717779572
 20
5304.6196547009
 10
6239.2060768368
 20
5304.605565848
  0
LWPOLYLINE
  5
450
330
1F
100
AcDbEntity
  8
0
  6
Continuous
 62
     7
100
AcDbPolyline
 90
        9
 70
   128
 43
0.0
 10
6263.843536377
 20
5311.5509989431
 10
6251.7380541058
 20
5311.1585132099
 10
6240.2464485258
 20
5310.8622494006
 10
6239.2132680948
 20
5310.7904715551
 10
6239.1819429602
 20
5310.7836544045
 10
6239.1696288641
 20
5310.7767501442
 10
6239.1701026382
 20
5310.7744261563
 10
6239.1729257629
 20
5310.7720901058
 10
6239.1876888039
 20
5310.7658232322
  0
LWPOLYLINE
  5
451
330
1F
100
AcDbEntity
  8
0
  6
Continuous
 62
     7
100
AcDbPolyline
 90
        9
 70
   128
 43
0.0
 10
6263.843536377
 20
5309.96350001
 10
6251.7380541252
 20
5309.5710124176
 10
6240.2464485256
 20
5309.2747492614
 10
6239.2132680918
 20
5309.2029712256
 10
6239.1819429589
 20
5309.1961538126
 10
6239.1696288638
 20
5309.1892493822
 10
6239.1701026381
 20
5309.1869253647
 10
6239.1729257629
 20
5309.1845892999
 10
6239.1876888039
 20
5309.1783224365
  0
LWPOLYLINE
  5
452
330
1F
100
AcDbEntity
  8
0
  6
Continuous
 62
     7
100
AcDbPolyline
 90
        9
 70
   128
 43
0.0
 10
6263.843536377
 20
5308.3759992143
 10
6251.7380541084
 20
5307.9835133464
 10
6240.2464485258
 20
5307.6872496852
 10
6239.2132680948
 20
5307.6154718248
 10
6239.1819429602
 20
5307.608654675
 10
6239.1696288641
 20
5307.6017504153
 10
6239.1701026382
 20
5307.5994264275
 10
6239.1729257629
 20
5307.597090377
 10
6239.1876888039
 20
5307.5908235034
  0
LWPOLYLINE
  5
453
330
1F
100
AcDbEntity
  8
0
  6
Continuous
 62
     7
100
AcDbPolyline
 90
        9
 70
   128
 43
0.0
 10
6263.843536377
 20
5306.7885002812
 10
6251.7380541247
 20
5306.3960126824
 10
6240.2464485313
 20
5306.0997486296
 10
6239.2132680945
 20
5306.0279710582
 10
6239.1819429601
 20
5306.0211538929
 10
6239.169628864
 20
5306.014249622
 10
6239.1701026382
 20
5306.0119256321
 10
6239.1729257629
 20
5306.0095895806
 10
6239.1876888039
 20
5306.0033227077
  0
LWPOLYLINE
  5
454
330
1F
100
AcDbEntity
  8
0
  6
Continuous
 62
     7
100
AcDbPolyline
 90
        9
 70
   128
 43
0.0
 10
6263.843536377
 20
5305.2009994855
 10
6251.738054128
 20
5304.8085126811
 10
6240.246448533
 20
5304.512249526
 10
6239.2132680942
 20
5304.4404704946
 10
6239.1819429598
 20
5304.4336534226
 10
6239.1696288637
 20
5304.4267495197
 10
6239.1701026378
 20
5304.4244257244
 10
6239.1729257625
 20
5304.422089906
 10
6239.1876888039
 20
5304.4158237746
  0
LWPOLYLINE
  5
455
330
1F
100
AcDbEntity
  8
0
  6
Continuous
 62
     7
100
AcDbPolyline
 90
        9
 70
   128
 43
0.0
 10
6209.8770141602
 20
5116.1994616261
 10
6192.6937509662
 20
5115.9563601979
 10
6191.1769846712
 20
5115.8937841232
 10
6191.1007842947
 20
5115.8824256493
 10
6191.0999300955
 20
5115.8814845174
 10
6191.099934956
 20
5115.8807790984
 10
6191.1005072369
 20
5115.8800740298
 10
6191.1034049134
 20
5115.8786648791
 10
6191.1310267212
 20
5115.8736626377
  0
LWPOLYLINE
  5
456
330
1F
100
AcDbEntity
  8
0
  6
Continuous
 62
     7
100
AcDbPolyline
 90
        5
 70
   128
 43
0.0
 10
6216.3543701172
 20
5115.3705845347
 10
6216.36823151
 20
5115.3649914836
 10
6216.3687358772
 20
5115.3640560168
 10
6216.3684383799
 20
5115.3631190309
 10
6216.1341768267
 20
5115.340201067
  0
LWPOLYLINE
  5
457
330
1F
100
AcDbEntity
  8
0
  6
Continuous
 62
     7
100
AcDbPolyline
 90
        3
 70
   128
 43
0.0
 10
6210.8993530273
 20
5115.340201067
 10
6215.5625095433
 20
5115.6685110556
 10
6216.9218373062
 20
5115.9225384464
  0
LINE
  5
458
330
1F
100
AcDbEntity
  8
0
  6
Continuous
 62
     7
100
AcDbLine
 10
6216.1331176758
 20
5115.340201067
 30
0.0
 11
6210.9002333643
 21
5115.340201067
 31
0.0
  0
ARC
  5
459
330
1F
100
AcDbEntity
  8
0
  6
Continuous
 62
     7
100
AcDbCircle
 10
6212.7389878513
 20
5136.8959336337
 30
0.0
 40
20.89341635475039
100
AcDbArc
 50
262.1268886217
 51
282.263605676
  0
LWPOLYLINE
  5
45A
330
1F
100
AcDbEntity
  8
0
  6
Continuous
 62
     7
100
AcDbPolyline
 90
        5
 70
   128
 43
0.0
 10
6190.8340454102
 20
5117.2810475102
 10
6204.2154524366
 20
5117.6741106944
 10
6216.2388901746
 20
5117.9688791557
 10
6217.1261635031
 20
5118.0430741342
 10
6217.1769526365
 20
5118.0667857399
  0
LWPOLYLINE
  5
45B
330
1F
100
AcDbEntity
  8
0
  6
Continuous
 62
     7
100
AcDbPolyline
 90
        5
 70
   128
 43
0.0
 10
6190.8340454102
 20
5118.8685427179
 10
6204.2154523306
 20
5119.2616192069
 10
6216.2388902705
 20
5119.556374908
 10
6217.1261634927
 20
5119.630585626
 10
6217.1769526365
 20
5119.6542958489
  0
LWPOLYLINE
  5
45C
330
1F
100
AcDbEntity
  8
0
  6
Continuous
 62
     7
100
AcDbPolyline
 90
        5
 70
   128
 43
0.0
 10
6190.8340454102
 20
5120.4560528269
 10
6204.2154524204
 20
5120.8491169782
 10
6216.2388901712
 20
5121.1438848218
 10
6217.1261635057
 20
5121.2180791611
 10
6217.1769526365
 20
5121.2417910566
  0
LWPOLYLINE
  5
45D
330
1F
100
AcDbEntity
  8
0
  6
Continuous
 62
     7
100
AcDbPolyline
 90
        5
 70
   128
 43
0.0
 10
6190.8340454102
 20
5122.0435480347
 10
6204.2154524366
 20
5122.4366112189
 10
6216.2388901746
 20
5122.7313796802
 10
6217.1261635031
 20
5122.8055746587
 10
6217.1769526365
 20
5122.8292862644
  0
LWPOLYLINE
  5
45E
330
1F
100
AcDbEntity
  8
0
  6
Continuous
 62
     7
100
AcDbPolyline
 90
        3
 70
   128
 43
0.0
 10
6190.8340454102
 20
5123.6310432425
 10
6191.0120468704
 20
5123.6688150646
 10
6191.3878482344
 20
5123.6994544735
  0
LWPOLYLINE
  5
45F
330
1F
100
AcDbEntity
  8
0
  6
Continuous
 62
     7
100
AcDbPolyline
 90
       14
 70
   128
 43
0.0
 10
6191.7037963867
 20
5116.1899397841
 10
6191.6941511842
 20
5116.1958618943
 10
6191.6909363556
 20
5116.1988308181
 10
6191.6902327004
 20
5116.2018091841
 10
6191.6992154066
 20
5116.2078049348
 10
6191.7226005101
 20
5116.2138542732
 10
6192.7355753349
 20
5116.2887939533
 10
6204.2114890436
 20
5116.5826251965
 10
6215.4433016167
 20
5116.8775454679
 10
6216.3140936075
 20
5116.9518287146
 10
6216.3276900418
 20
5116.9578206744
 10
6216.3286650987
 20
5116.9600590292
 10
6216.3277205644
 20
5116.9622934189
 10
6216.2970986726
 20
5116.9756482115
  0
LWPOLYLINE
  5
460
330
1F
100
AcDbEntity
  8
0
  6
Continuous
 62
     7
100
AcDbPolyline
 90
       14
 70
   128
 43
0.0
 10
6191.7037963867
 20
5117.777449893
 10
6191.694151186
 20
5117.7833646205
 10
6191.6909363585
 20
5117.7863302306
 10
6191.6902327048
 20
5117.7893057361
 10
6191.6992154137
 20
5117.7952976247
 10
6191.7226005158
 20
5117.8013455109
 10
6192.7355754105
 20
5117.8762984705
 10
6204.2114889198
 20
5118.170133809
 10
6215.4433016311
 20
5118.4650406736
 10
6216.3140936082
 20
5118.5393239229
 10
6216.327690042
 20
5118.5453158823
 10
6216.3286650987
 20
5118.5475542369
 10
6216.3277205643
 20
5118.5497886266
 10
6216.2970986726
 20
5118.5631434193
  0
LWPOLYLINE
  5
461
330
1F
100
AcDbEntity
  8
0
  6
Continuous
 62
     7
100
AcDbPolyline
 90
       14
 70
   128
 43
0.0
 10
6191.7037963867
 20
5119.3649451008
 10
6191.6941511849
 20
5119.3708671488
 10
6191.6909363563
 20
5119.3738360693
 10
6191.6902327008
 20
5119.3768144655
 10
6191.6992154049
 20
5119.382810411
 10
6191.722600505
 20
5119.3888600905
 10
6192.7355754247
 20
5119.4637904706
 10
6204.2114891099
 20
5119.7576280152
 10
6215.4433016133
 20
5120.0525511808
 10
6216.314093608
 20
5120.1268339938
 10
6216.3276900417
 20
5120.1328260015
 10
6216.3286650985
 20
5120.1350643657
 10
6216.3277205641
 20
5120.1372987605
 10
6216.2970986726
 20
5120.1506535282
  0
LWPOLYLINE
  5
462
330
1F
100
AcDbEntity
  8
0
  6
Continuous
 62
     7
100
AcDbPolyline
 90
       14
 70
   128
 43
0.0
 10
6191.7037963867
 20
5120.9524403086
 10
6191.6941511843
 20
5120.9583624185
 10
6191.6909363556
 20
5120.9613313422
 10
6191.6902327004
 20
5120.9643097084
 10
6191.6992154066
 20
5120.9703054602
 10
6191.72260051
 20
5120.9763548004
 10
6192.7355753349
 20
5121.0512944412
 10
6204.2114891185
 20
5121.3451222965
 10
6215.4433016174
 20
5121.6400459916
 10
6216.3140936075
 20
5121.7143292392
 10
6216.3276900418
 20
5121.720321199
 10
6216.3286650987
 20
5121.7225595537
 10
6216.3277205644
 20
5121.7247939433
 10
6216.2970986726
 20
5121.738148736
  0
LWPOLYLINE
  5
463
330
1F
100
AcDbEntity
  8
0
  6
Continuous
 62
     7
100
AcDbPolyline
 90
       14
 70
   128
 43
0.0
 10
6191.7037963867
 20
5122.5399504175
 10
6191.6941511843
 20
5122.5458653813
 10
6191.6909363567
 20
5122.5488310038
 10
6191.6902327039
 20
5122.5518063948
 10
6191.699215418
 20
5122.5577975367
 10
6191.72260053
 20
5122.5638440357
 10
6192.7355754693
 20
5122.6387897556
 10
6204.2114891904
 20
5122.9326208675
 10
6215.4433016303
 20
5123.2275412009
 10
6216.3140936082
 20
5123.3018244471
 10
6216.327690042
 20
5123.3078164069
 10
6216.3286650987
 20
5123.3100547616
 10
6216.3277205643
 20
5123.3122891513
 10
6216.2970986726
 20
5123.3256439438
  0
LINE
  5
464
330
1F
100
AcDbEntity
  8
0
  6
Continuous
 62
     7
100
AcDbLine
 10
6215.7249450684
 20
5123.6994544735
 30
0.0
 11
6213.8604384424
 21
5123.6994544735
 31
0.0
  0
LWPOLYLINE
  5
465
330
1F
100
AcDbEntity
  8
0
  6
Continuous
 62
     7
100
AcDbPolyline
 90
        7
 70
   128
 43
0.0
 10
6210.8993530273
 20
5115.340201067
 10
6215.9268522588
 20
5115.5191232672
 10
6216.3226193142
 20
5115.5639047152
 10
6216.3255777627
 20
5115.5675489511
 10
6216.3241914304
 20
5115.5702721173
 10
6216.3204420124
 20
5115.5729887293
 10
6216.3090047004
 20
5115.5784110298
  0
LWPOLYLINE
  5
466
330
1F
100
AcDbEntity
  8
0
  6
Continuous
 62
     7
100
AcDbPolyline
 90
       15
 70
   128
 43
0.0
 10
6191.7114257812
 20
5116.3801531067
 10
6191.6938474265
 20
5116.3890232483
 10
6191.6881417394
 20
5116.3934729069
 10
6191.6869321097
 20
5116.395703936
 10
6191.6870757148
 20
5116.3979400708
 10
6191.6955156361
 20
5116.4039334907
 10
6192.5702199585
 20
5116.4784977641
 10
6203.7962462028
 20
5116.7728705616
 10
6215.2715250357
 20
5117.0672272904
 10
6216.2896789083
 20
5117.1419607573
 10
6216.3253148281
 20
5117.1540113878
 10
6216.3255484676
 20
5117.1555050383
 10
6216.3248739719
 20
5117.1569959735
 10
6216.3213164196
 20
5117.1599712406
 10
6216.3090047004
 20
5117.1659062376
  0
LWPOLYLINE
  5
467
330
1F
100
AcDbEntity
  8
0
  6
Continuous
 62
     7
100
AcDbPolyline
 90
       15
 70
   128
 43
0.0
 10
6191.7114257812
 20
5117.9676632157
 10
6191.6938474274
 20
5117.9765264171
 10
6191.688141742
 20
5117.9809729232
 10
6191.6869321136
 20
5117.983202511
 10
6191.6870757205
 20
5117.9854373156
 10
6191.6955156488
 20
5117.9914278495
 10
6192.5702200786
 20
5118.065992722
 10
6203.7962462126
 20
5118.3603720982
 10
6215.2715250778
 20
5118.6547204964
 10
6216.2896789068
 20
5118.7294561373
 10
6216.3253148281
 20
5118.7415065994
 10
6216.3255484676
 20
5118.743000241
 10
6216.324873972
 20
5118.7444911708
 10
6216.3213164197
 20
5118.747466435
 10
6216.3090047004
 20
5118.7534014454
  0
LWPOLYLINE
  5
468
330
1F
100
AcDbEntity
  8
0
  6
Continuous
 62
     7
100
AcDbPolyline
 90
       15
 70
   128
 43
0.0
 10
6191.7114257812
 20
5119.5551584234
 10
6191.6938474308
 20
5119.5640211178
 10
6191.6881417457
 20
5119.5684675619
 10
6191.686932117
 20
5119.5706972001
 10
6191.6870757232
 20
5119.5729321222
 10
6191.6955156471
 20
5119.5789233679
 10
6192.5702200097
 20
5119.6535001957
 10
6203.796246146
 20
5119.9478785132
 10
6215.271525023
 20
5120.2422369849
 10
6216.2896789169
 20
5120.3169447621
 10
6216.32531483
 20
5120.3290012751
 10
6216.3255484682
 20
5120.3304964222
 10
6216.3248739717
 20
5120.3319890267
 10
6216.3213164186
 20
5120.3349680523
 10
6216.3090047004
 20
5120.3409115544
  0
LWPOLYLINE
  5
469
330
1F
100
AcDbEntity
  8
0
  6
Continuous
 62
     7
100
AcDbPolyline
 90
       15
 70
   128
 43
0.0
 10
6191.7114257812
 20
5121.1426536312
 10
6191.693847428
 20
5121.1515236346
 10
6191.688141741
 20
5121.1559732763
 10
6191.6869321111
 20
5121.1582043191
 10
6191.6870757159
 20
5121.160440486
 10
6191.6955156352
 20
5121.1664340996
 10
6192.5702200199
 20
5121.2409923688
 10
6203.7962462082
 20
5121.5353710575
 10
6215.2715250362
 20
5121.829727815
 10
6216.2896789083
 20
5121.9044612818
 10
6216.3253148281
 20
5121.9165119124
 10
6216.3255484676
 20
5121.9180055628
 10
6216.3248739719
 20
5121.9194964981
 10
6216.3213164196
 20
5121.9224717652
 10
6216.3090047004
 20
5121.9284067621
  0
LWPOLYLINE
  5
46A
330
1F
100
AcDbEntity
  8
0
  6
Continuous
 62
     7
100
AcDbPolyline
 90
       15
 70
   128
 43
0.0
 10
6191.7114257812
 20
5122.7301637402
 10
6191.6938474274
 20
5122.7390269416
 10
6191.688141742
 20
5122.7434734477
 10
6191.6869321136
 20
5122.7457030355
 10
6191.6870757205
 20
5122.7479378401
 10
6191.6955156488
 20
5122.753928374
 10
6192.5702200786
 20
5122.8284932465
 10
6203.7962462126
 20
5123.1228726227
 10
6215.2715250778
 20
5123.4172210209
 10
6216.2896789068
 20
5123.4919566618
 10
6216.3253148281
 20
5123.5040071239
 10
6216.3255484676
 20
5123.5055007656
 10
6216.324873972
 20
5123.5069916953
 10
6216.3213164197
 20
5123.5099669595
 10
6216.3090047004
 20
5123.5159019699
  0
LWPOLYLINE
  5
46B
330
1F
100
AcDbEntity
  8
0
  6
Continuous
 62
     7
100
AcDbPolyline
 90
       10
 70
   128
 43
0.0
 10
6190.8569335938
 20
5116.8762723675
 10
6190.8319388507
 20
5116.8897343879
 10
6190.8307379737
 20
5116.8919895553
 10
6190.8310339874
 20
5116.8942500292
 10
6190.8407215243
 20
5116.9003094959
 10
6191.7971108521
 20
5116.9757012662
 10
6204.0044859115
 20
5117.273068946
 10
6216.2189826704
 20
5117.5709934813
 10
6217.1253401996
 20
5117.6459752089
 10
6217.1769526365
 20
5117.6699231138
  0
LWPOLYLINE
  5
46C
330
1F
100
AcDbEntity
  8
0
  6
Continuous
 62
     7
100
AcDbPolyline
 90
       10
 70
   128
 43
0.0
 10
6190.8569335938
 20
5118.4637824764
 10
6190.8319388562
 20
5118.477233772
 10
6190.8307379802
 20
5118.4794875406
 10
6190.8310339949
 20
5118.4817467952
 10
6190.8407215344
 20
5118.4878040748
 10
6191.7971108702
 20
5118.5632096149
 10
6204.0044858169
 20
5118.8605769008
 10
6216.2189825699
 20
5119.158503541
 10
6217.125340214
 20
5119.2334686627
 10
6217.1769526365
 20
5119.2574183216
  0
LWPOLYLINE
  5
46D
330
1F
100
AcDbEntity
  8
0
  6
Continuous
 62
     7
100
AcDbPolyline
 90
       10
 70
   128
 43
0.0
 10
6190.8569335938
 20
5120.0512776842
 10
6190.8319388517
 20
5120.0647395915
 10
6190.8307379746
 20
5120.0669947701
 10
6190.831033988
 20
5120.0692552689
 10
6190.8407215231
 20
5120.075314884
 10
6191.7971108799
 20
5120.1507017676
 10
6204.0044858757
 20
5120.4480693995
 10
6216.2189825688
 20
5120.7459988351
 10
6217.1253402155
 20
5120.8209637661
 10
6217.1769526365
 20
5120.8449135294
  0
LWPOLYLINE
  5
46E
330
1F
100
AcDbEntity
  8
0
  6
Continuous
 62
     7
100
AcDbPolyline
 90
       10
 70
   128
 43
0.0
 10
6190.8569335938
 20
5121.638772892
 10
6190.8319388507
 20
5121.6522349124
 10
6190.8307379737
 20
5121.6544900798
 10
6190.8310339874
 20
5121.6567505537
 10
6190.8407215243
 20
5121.6628100204
 10
6191.7971108521
 20
5121.7382017908
 10
6204.0044859115
 20
5122.0355694705
 10
6216.2189826704
 20
5122.3334940058
 10
6217.1253401996
 20
5122.4084757334
 10
6217.1769526365
 20
5122.4324236384
  0
LWPOLYLINE
  5
46F
330
1F
100
AcDbEntity
  8
0
  6
Continuous
 62
     7
100
AcDbPolyline
 90
        8
 70
   128
 43
0.0
 10
6190.8569335938
 20
5123.226283001
 10
6190.8397365063
 20
5123.2342976525
 10
6190.8306793019
 20
5123.2423482563
 10
6190.831535782
 20
5123.2450459942
 10
6190.8349355907
 20
5123.247753053
 10
6190.8579107463
 20
5123.2550225817
 10
6192.2129245185
 20
5123.3453664597
 10
6207.9561587932
 20
5123.6994544735
  0
LWPOLYLINE
  5
470
330
1F
100
AcDbEntity
  8
0
  6
Continuous
 62
     7
100
AcDbPolyline
 90
        9
 70
   128
 43
0.0
 10
6312.1948242188
 20
5116.1994616261
 10
6298.7836676284
 20
5115.9553932747
 10
6287.1810392333
 20
5115.7681085925
 10
6286.3046171289
 20
5115.7223801294
 10
6286.2883291667
 20
5115.7184542823
 10
6286.2858436943
 20
5115.716972448
 10
6286.2853827857
 20
5115.7162294526
 10
6286.2854561702
 20
5115.7154850376
 10
6286.3166306677
 20
5115.7064716091
  0
LINE
  5
471
330
1F
100
AcDbEntity
  8
0
  6
Continuous
 62
     7
100
AcDbLine
 10
6288.8565063477
 20
5123.6994544735
 30
0.0
 11
6287.3683881523
 21
5123.6994544735
 31
0.0
  0
LWPOLYLINE
  5
472
330
1F
100
AcDbEntity
  8
0
  6
Continuous
 62
     7
100
AcDbPolyline
 90
        9
 70
   128
 43
0.0
 10
6312.1948242188
 20
5116.1994616261
 10
6312.2183942819
 20
5116.2057175751
 10
6312.2228448798
 20
5116.208052716
 10
6312.2239666701
 20
5116.2092166104
 10
6312.22421266
 20
5116.2103775873
 10
6312.2227096309
 20
5116.2121128167
 10
6312.2187803489
 20
5116.2138399637
 10
6312.2047754341
 20
5116.2172737829
 10
6312.1623036029
 20
5116.2240932455
  0
LWPOLYLINE
  5
473
330
1F
100
AcDbEntity
  8
0
  6
Continuous
 62
     7
100
AcDbPolyline
 90
       12
 70
   128
 43
0.0
 10
6285.8695983887
 20
5117.0177886954
 10
6285.9134348604
 20
5117.0425845387
 10
6286.9481771403
 20
5117.1142522059
 10
6299.2280516415
 20
5117.4107762794
 10
6311.2395347933
 20
5117.7034966205
 10
6312.153512643
 20
5117.7781562515
 10
6312.2008970421
 20
5117.7875992792
 10
6312.2261337875
 20
5117.7946688661
 10
6312.2274803226
 20
5117.7958383854
 10
6312.2277022291
 20
5117.7964216567
 10
6312.2275974545
 20
5117.7970038379
 10
6312.2047234835
 20
5117.8031394949
  0
LWPOLYLINE
  5
474
330
1F
100
AcDbEntity
  8
0
  6
Continuous
 62
     7
100
AcDbPolyline
 90
       12
 70
   128
 43
0.0
 10
6285.8695983887
 20
5118.6052839031
 10
6285.9134348604
 20
5118.6300797465
 10
6286.9481771405
 20
5118.7017474136
 10
6299.228051643
 20
5118.9982715239
 10
6311.2395347604
 20
5119.2909951344
 10
6312.153512642
 20
5119.365651557
 10
6312.2008970421
 20
5119.3750944836
 10
6312.2261337876
 20
5119.3821640655
 10
6312.2274803227
 20
5119.3833335871
 10
6312.2277022291
 20
5119.3839168596
 10
6312.2275974545
 20
5119.3844990419
 10
6312.2047234835
 20
5119.3906347027
  0
LWPOLYLINE
  5
475
330
1F
100
AcDbEntity
  8
0
  6
Continuous
 62
     7
100
AcDbPolyline
 90
       12
 70
   128
 43
0.0
 10
6285.8695983887
 20
5120.1927940121
 10
6285.9134348629
 20
5120.2175896309
 10
6286.9481771781
 20
5120.2892541087
 10
6299.2280517296
 20
5120.5857764448
 10
6311.239534783
 20
5120.8785010581
 10
6312.1535126697
 20
5120.9531424818
 10
6312.2008970689
 20
5120.9625904326
 10
6312.2261337976
 20
5120.9696698059
 10
6312.2274803296
 20
5120.9708407638
 10
6312.2277022345
 20
5120.9714246809
 10
6312.2275974585
 20
5120.9720074494
 10
6312.2047234835
 20
5120.9781448116
  0
LWPOLYLINE
  5
476
330
1F
100
AcDbEntity
  8
0
  6
Continuous
 62
     7
100
AcDbPolyline
 90
       12
 70
   128
 43
0.0
 10
6285.8695983887
 20
5121.7802892199
 10
6285.9134348604
 20
5121.8050850632
 10
6286.9481771403
 20
5121.8767527304
 10
6299.2280516415
 20
5122.1732768039
 10
6311.2395347933
 20
5122.465997145
 10
6312.153512643
 20
5122.540656776
 10
6312.2008970421
 20
5122.5500998037
 10
6312.2261337875
 20
5122.5571693906
 10
6312.2274803226
 20
5122.5583389099
 10
6312.2277022291
 20
5122.5589221813
 10
6312.2275974545
 20
5122.5595043624
 10
6312.2047234835
 20
5122.5656400194
  0
ARC
  5
477
330
1F
100
AcDbEntity
  8
0
  6
Continuous
 62
     7
100
AcDbCircle
 10
6292.1713858365
 20
5087.1552889636
 30
0.0
 40
36.75673207419761
100
AcDbArc
 50
83.8350979783
 51
99.8718917417
  0
LWPOLYLINE
  5
478
330
1F
100
AcDbEntity
  8
0
  6
Continuous
 62
     7
100
AcDbPolyline
 90
        8
 70
   128
 43
0.0
 10
6286.6477966309
 20
5115.9271876087
 10
6308.0467725839
 20
5116.5225241251
 10
6311.2288744236
 20
5116.6702805591
 10
6311.3736189608
 20
5116.6988936021
 10
6311.3741853915
 20
5116.7012496287
 10
6311.3726835598
 20
5116.7035989963
 10
6311.3632182389
 20
5116.7082757908
 10
6311.3050062718
 20
5116.7206297388
  0
LWPOLYLINE
  5
479
330
1F
100
AcDbEntity
  8
0
  6
Continuous
 62
     7
100
AcDbPolyline
 90
        8
 70
   128
 43
0.0
 10
6286.6477966309
 20
5117.5146232119
 10
6308.0467725897
 20
5118.1100176593
 10
6311.2288744401
 20
5118.2577739166
 10
6311.3736189645
 20
5118.2863883969
 10
6311.3741853939
 20
5118.288744559
 10
6311.3726835612
 20
5118.2910940441
 10
6311.3632182389
 20
5118.295771002
 10
6311.3050062718
 20
5118.3081249466
  0
LWPOLYLINE
  5
47A
330
1F
100
AcDbEntity
  8
0
  6
Continuous
 62
     7
100
AcDbPolyline
 90
        8
 70
   128
 43
0.0
 10
6286.6477966309
 20
5119.1021184197
 10
6308.0467726167
 20
5119.6975117703
 10
6311.2288743887
 20
5119.8452917403
 10
6311.3736189747
 20
5119.873905212
 10
6311.3741854072
 20
5119.8762600497
 10
6311.3726835768
 20
5119.8786079593
 10
6311.3632182571
 20
5119.8832809618
 10
6311.3050062718
 20
5119.8956201544
  0
LWPOLYLINE
  5
47B
330
1F
100
AcDbEntity
  8
0
  6
Continuous
 62
     7
100
AcDbPolyline
 90
        8
 70
   128
 43
0.0
 10
6286.6477966309
 20
5120.6896285286
 10
6308.0467727332
 20
5121.2850126138
 10
6311.22887443
 20
5121.4327805864
 10
6311.3736189623
 20
5121.4613940156
 10
6311.3741853924
 20
5121.4637500787
 10
6311.3726835603
 20
5121.4660994779
 10
6311.3632182389
 20
5121.4707763163
 10
6311.3050062718
 20
5121.4831302633
  0
LWPOLYLINE
  5
47C
330
1F
100
AcDbEntity
  8
0
  6
Continuous
 62
     7
100
AcDbPolyline
 90
        8
 70
   128
 43
0.0
 10
6286.6477966309
 20
5122.2771237364
 10
6308.046772576
 20
5122.8725202266
 10
6311.2288744237
 20
5123.0202762819
 10
6311.3736189609
 20
5123.0488893322
 10
6311.3741853915
 20
5123.0512453596
 10
6311.3726835598
 20
5123.0535947278
 10
6311.3632182389
 20
5123.0582715231
 10
6311.3050062718
 20
5123.0706254711
  0
LWPOLYLINE
  5
47D
330
1F
100
AcDbEntity
  8
0
  6
Continuous
 62
     7
100
AcDbPolyline
 90
       15
 70
   128
 43
0.0
 10
6286.678314209
 20
5116.1169836989
 10
6286.6537363231
 20
5116.1241328153
 10
6286.6457705333
 20
5116.1276834283
 10
6286.6431943523
 20
5116.1312119147
 10
6286.6443556785
 20
5116.1335526953
 10
6286.647729808
 20
5116.1358848061
 10
6286.6669575302
 20
5116.142065068
 10
6287.6050657496
 20
5116.2148536379
 10
6299.0729815861
 20
5116.5148361667
 10
6310.459928068
 20
5116.8113433818
 10
6311.3294556175
 20
5116.8872850403
 10
6311.3639562708
 20
5116.9015569282
 10
6311.3646623115
 20
5116.9039219665
 10
6311.3638560198
 20
5116.9062822101
 10
6311.3558490338
 20
5116.912556695
  0
LWPOLYLINE
  5
47E
330
1F
100
AcDbEntity
  8
0
  6
Continuous
 62
     7
100
AcDbPolyline
 90
       15
 70
   128
 43
0.0
 10
6286.678314209
 20
5117.7044789066
 10
6286.6537363231
 20
5117.7116280231
 10
6286.6457705333
 20
5117.715178636
 10
6286.6431943523
 20
5117.7187071225
 10
6286.6443556785
 20
5117.7210479029
 10
6286.6477298081
 20
5117.7233800137
 10
6286.6669575303
 20
5117.7295602755
 10
6287.6050657504
 20
5117.8023488484
 10
6299.0729815999
 20
5118.1023311272
 10
6310.459928092
 20
5118.3988366027
 10
6311.3294556142
 20
5118.4747805048
 10
6311.3639562703
 20
5118.4890521711
 10
6311.3646623113
 20
5118.4914171884
 10
6311.3638560198
 20
5118.4937774189
 10
6311.3558490338
 20
5118.5000519028
  0
LWPOLYLINE
  5
47F
330
1F
100
AcDbEntity
  8
0
  6
Continuous
 62
     7
100
AcDbPolyline
 90
       15
 70
   128
 43
0.0
 10
6286.678314209
 20
5119.2919741144
 10
6286.6537363376
 20
5119.2991360568
 10
6286.64577055
 20
5119.3026916739
 10
6286.64319437
 20
5119.3062238724
 10
6286.6443556964
 20
5119.3085664621
 10
6286.6477298259
 20
5119.3108998888
 10
6286.6669575465
 20
5119.317081503
 10
6287.6050657827
 20
5119.3898380435
 10
6299.0729817311
 20
5119.6898266628
 10
6310.4599280926
 20
5119.9863473344
 10
6311.3294556316
 20
5120.0622535268
 10
6311.3639562678
 20
5120.0765378091
 10
6311.3646623073
 20
5120.078906964
 10
6311.3638560151
 20
5120.0812720058
 10
6311.3558490338
 20
5120.0875620117
  0
LWPOLYLINE
  5
480
330
1F
100
AcDbEntity
  8
0
  6
Continuous
 62
     7
100
AcDbPolyline
 90
       15
 70
   128
 43
0.0
 10
6286.678314209
 20
5120.8794842234
 10
6286.6537363231
 20
5120.8866333398
 10
6286.6457705333
 20
5120.8901839527
 10
6286.6431943523
 20
5120.893712439
 10
6286.6443556785
 20
5120.8960532194
 10
6286.647729808
 20
5120.89838533
 10
6286.6669575302
 20
5120.9045655913
 10
6287.6050657489
 20
5120.9773541725
 10
6299.0729818935
 20
5121.2773218049
 10
6310.4599280683
 20
5121.5738439167
 10
6311.3294556175
 20
5121.6497855635
 10
6311.3639562708
 20
5121.6640574525
 10
6311.3646623115
 20
5121.6664224909
 10
6311.3638560198
 20
5121.6687827346
 10
6311.3558490338
 20
5121.6750572195
  0
LWPOLYLINE
  5
481
330
1F
100
AcDbEntity
  8
0
  6
Continuous
 62
     7
100
AcDbPolyline
 90
       15
 70
   128
 43
0.0
 10
6286.678314209
 20
5122.4669794312
 10
6286.6537363231
 20
5122.4741285476
 10
6286.6457705333
 20
5122.4776791606
 10
6286.6431943523
 20
5122.481207647
 10
6286.6443556785
 20
5122.4835484275
 10
6286.6477298081
 20
5122.4858805382
 10
6286.6669575303
 20
5122.4920608
 10
6287.6050657504
 20
5122.5648493729
 10
6299.0729815999
 20
5122.8648316518
 10
6310.459928092
 20
5123.1613371272
 10
6311.3294556142
 20
5123.2372810293
 10
6311.3639562703
 20
5123.2515526956
 10
6311.3646623113
 20
5123.2539177129
 10
6311.3638560198
 20
5123.2562779434
 10
6311.3558490338
 20
5123.2625524273
  0
LWPOLYLINE
  5
482
330
1F
100
AcDbEntity
  8
0
  6
Continuous
 62
     7
100
AcDbPolyline
 90
       17
 70
   128
 43
0.0
 10
6285.8238220215
 20
5116.6125516167
 10
6285.7968893564
 20
5116.6196861406
 10
6285.7877740471
 20
5116.6232309843
 10
6285.7843480783
 20
5116.6267539413
 10
6285.7851266055
 20
5116.6290910629
 10
6285.788260769
 20
5116.6314195265
 10
6285.8075198384
 20
5116.6375900524
 10
6286.7980809095
 20
5116.7102174129
 10
6299.003944012
 20
5117.0094970241
 10
6311.2097966174
 20
5117.3053357233
 10
6312.2095209882
 20
5117.381192874
 10
6312.2336598527
 20
5117.3875335997
 10
6312.2398539188
 20
5117.3906887234
 10
6312.2418462155
 20
5117.3938318794
 10
6312.239423099
 20
5117.3969617116
 10
6312.2323709254
 20
5117.4000768638
 10
6312.2047234835
 20
5117.4062619677
  0
LWPOLYLINE
  5
483
330
1F
100
AcDbEntity
  8
0
  6
Continuous
 62
     7
100
AcDbPolyline
 90
       17
 70
   128
 43
0.0
 10
6285.8238220215
 20
5118.2000468245
 10
6285.7968126937
 20
5118.2072167194
 10
6285.7877131573
 20
5118.2107777708
 10
6285.7843402253
 20
5118.2143155709
 10
6285.7851721675
 20
5118.2166618875
 10
6285.7883732662
 20
5118.2189990282
 10
6285.8078708954
 20
5118.2251904383
 10
6286.8044447972
 20
5118.2980256731
 10
6299.0716153173
 20
5118.5983014549
 10
6311.2542597685
 20
5118.8950926144
 10
6312.2173067594
 20
5118.971237083
 10
6312.2357683498
 20
5118.9775852523
 10
6312.2386328288
 20
5118.9799549733
 10
6312.2391528176
 20
5118.9823179225
 10
6312.2353530859
 20
5118.9858484426
 10
6312.2258056339
 20
5118.9893606242
 10
6312.1917948636
 20
5118.9963350763
  0
LWPOLYLINE
  5
484
330
1F
100
AcDbEntity
  8
0
  6
Continuous
 62
     7
100
AcDbPolyline
 90
       17
 70
   128
 43
0.0
 10
6285.8238220215
 20
5119.7875569334
 10
6285.7968126808
 20
5119.7947146278
 10
6285.7877131424
 20
5119.7982708465
 10
6285.7843402098
 20
5119.8018050399
 10
6285.785172152
 20
5119.8041495886
 10
6285.788373251
 20
5119.8064854337
 10
6285.8078708822
 20
5119.8126754561
 10
6286.804444779
 20
5119.8855416977
 10
6299.0716156137
 20
5120.1857965926
 10
6311.2542598406
 20
5120.4825930781
 10
6312.2173067549
 20
5120.5587478755
 10
6312.2357683473
 20
5120.5650957456
 10
6312.238632827
 20
5120.5674653641
 10
6312.2391528163
 20
5120.5698282212
 10
6312.2353530853
 20
5120.57335863
 10
6312.2258056339
 20
5120.5768707419
 10
6312.1917948636
 20
5120.5838451853
  0
LWPOLYLINE
  5
485
330
1F
100
AcDbEntity
  8
0
  6
Continuous
 62
     7
100
AcDbPolyline
 90
       17
 70
   128
 43
0.0
 10
6285.8238220215
 20
5121.3750521412
 10
6285.7968893564
 20
5121.3821866652
 10
6285.7877740471
 20
5121.3857315088
 10
6285.7843480783
 20
5121.3892544658
 10
6285.7851266055
 20
5121.3915915874
 10
6285.788260769
 20
5121.393920051
 10
6285.8075198384
 20
5121.400090577
 10
6286.7980809095
 20
5121.4727179374
 10
6299.003944012
 20
5121.7719975486
 10
6311.2097966174
 20
5122.0678362478
 10
6312.2095209882
 20
5122.1436933986
 10
6312.2336598527
 20
5122.1500341242
 10
6312.2398539188
 20
5122.1531892479
 10
6312.2418462155
 20
5122.156332404
 10
6312.239423099
 20
5122.1594622362
 10
6312.2323709254
 20
5122.1625773883
 10
6312.2047234835
 20
5122.1687624922
  0
LWPOLYLINE
  5
486
330
1F
100
AcDbEntity
  8
0
  6
Continuous
 62
     7
100
AcDbPolyline
 90
        8
 70
   128
 43
0.0
 10
6285.8238220215
 20
5122.962547349
 10
6285.7847429943
 20
5122.9757654345
 10
6285.7844457769
 20
5122.9779427929
 10
6285.7862202344
 20
5122.9801124658
 10
6285.800585511
 20
5122.9858635901
 10
6286.6657542534
 20
5123.0533775705
 10
6297.553228549
 20
5123.3311359809
 10
6311.9055714967
 20
5123.6994544735
  0
LWPOLYLINE
  5
487
330
1F
100
AcDbEntity
  8
0
  6
Continuous
 62
     7
100
AcDbPolyline
 90
        3
 70
   128
 43
0.0
 10
6552.8831481934
 20
5309.4703963717
 10
6553.3677853049
 20
5309.1924257073
 10
6553.745749654
 20
5308.9740182033
  0
LWPOLYLINE
  5
488
330
1F
100
AcDbEntity
  8
0
  6
Continuous
 62
     7
100
AcDbPolyline
 90
        3
 70
   128
 43
0.0
 10
6552.8831481934
 20
5307.8828974387
 10
6553.3677847088
 20
5307.6049257418
 10
6553.745749654
 20
5307.3865192702
  0
LWPOLYLINE
  5
489
330
1F
100
AcDbEntity
  8
0
  6
Continuous
 62
     7
100
AcDbPolyline
 90
        3
 70
   128
 43
0.0
 10
6552.8831481934
 20
5306.2953966429
 10
6553.3677853049
 20
5306.0174259785
 10
6553.745749654
 20
5305.7990184745
  0
LWPOLYLINE
  5
48A
330
1F
100
AcDbEntity
  8
0
  6
Continuous
 62
     7
100
AcDbPolyline
 90
        3
 70
   128
 43
0.0
 10
6552.8831481934
 20
5304.7078967785
 10
6553.3677850068
 20
5304.4299255979
 10
6553.745749654
 20
5304.2115186101
  0
LWPOLYLINE
  5
48B
330
1F
100
AcDbEntity
  8
0
  6
Continuous
 62
     7
100
AcDbPolyline
 90
        3
 70
   128
 43
0.0
 10
6578.4568786621
 20
5309.7553568652
 10
6578.9408691824
 20
5310.0335100344
 10
6579.3191733101
 20
5310.252053546
  0
LWPOLYLINE
  5
48C
330
1F
100
AcDbEntity
  8
0
  6
Continuous
 62
     7
100
AcDbPolyline
 90
        3
 70
   128
 43
0.0
 10
6578.4568786621
 20
5308.1678579321
 10
6578.9408691824
 20
5308.4460111013
 10
6579.3191733101
 20
5308.6645546129
  0
LWPOLYLINE
  5
48D
330
1F
100
AcDbEntity
  8
0
  6
Continuous
 62
     7
100
AcDbPolyline
 90
        3
 70
   128
 43
0.0
 10
6578.4568786621
 20
5306.5803571364
 10
6578.9408691824
 20
5306.8585103056
 10
6579.3191733101
 20
5307.0770538172
  0
LWPOLYLINE
  5
48E
330
1F
100
AcDbEntity
  8
0
  6
Continuous
 62
     7
100
AcDbPolyline
 90
        3
 70
   128
 43
0.0
 10
6578.4568786621
 20
5304.9928582033
 10
6578.9408691824
 20
5305.2710113725
 10
6579.3191733101
 20
5305.4895548841
  0
LWPOLYLINE
  5
48F
330
1F
100
AcDbEntity
  8
0
  6
Continuous
 62
     7
100
AcDbPolyline
 90
        3
 70
   128
 43
0.0
 10
6578.4568786621
 20
5311.3428576609
 10
6578.7099005883
 20
5311.4875802898
 10
6578.9067277947
 20
5311.6012884995
  0
LWPOLYLINE
  5
490
330
1F
100
AcDbEntity
  8
0
  6
Continuous
 62
     7
100
AcDbPolyline
 90
        3
 70
   128
 43
0.0
 10
6552.8831481934
 20
5311.0578971675
 10
6553.3677847088
 20
5310.7799254706
 10
6553.745749654
 20
5310.561518999
  0
LWPOLYLINE
  5
491
330
1F
100
AcDbEntity
  8
0
  6
Continuous
 62
     7
100
AcDbPolyline
 90
        3
 70
   128
 43
0.0
 10
6553.7490844727
 20
5310.3689922711
 10
6553.2711480959
 20
5310.0908440549
 10
6552.8928460117
 20
5309.8723049035
  0
LWPOLYLINE
  5
492
330
1F
100
AcDbEntity
  8
0
  6
Continuous
 62
     7
100
AcDbPolyline
 90
        3
 70
   128
 43
0.0
 10
6553.7490844727
 20
5308.7814914754
 10
6553.2711474995
 20
5308.5033442915
 10
6552.8928460117
 20
5308.2848041078
  0
LWPOLYLINE
  5
493
330
1F
100
AcDbEntity
  8
0
  6
Continuous
 62
     7
100
AcDbPolyline
 90
        3
 70
   128
 43
0.0
 10
6553.7490844727
 20
5307.1939925423
 10
6553.2711477977
 20
5306.9158437992
 10
6552.8928460117
 20
5306.6973033121
  0
LWPOLYLINE
  5
494
330
1F
100
AcDbEntity
  8
0
  6
Continuous
 62
     7
100
AcDbPolyline
 90
        3
 70
   128
 43
0.0
 10
6553.7490844727
 20
5305.6064917466
 10
6553.2711474995
 20
5305.3283445627
 10
6552.8928460117
 20
5305.109804379
  0
LWPOLYLINE
  5
495
330
1F
100
AcDbEntity
  8
0
  6
Continuous
 62
     7
100
AcDbPolyline
 90
        3
 70
   128
 43
0.0
 10
6553.7490844727
 20
5304.0189928135
 10
6553.4582508879
 20
5303.84893239
 10
6553.2269597753
 20
5303.7153164616
  0
LWPOLYLINE
  5
496
330
1F
100
AcDbEntity
  8
0
  6
Continuous
 62
     7
100
AcDbPolyline
 90
        3
 70
   128
 43
0.0
 10
6579.3190002441
 20
5309.0785535743
 10
6578.8420918682
 20
5309.3541675743
 10
6578.4672329465
 20
5309.5707258901
  0
LWPOLYLINE
  5
497
330
1F
100
AcDbEntity
  8
0
  6
Continuous
 62
     7
100
AcDbPolyline
 90
        3
 70
   128
 43
0.0
 10
6579.3190002441
 20
5307.4910546413
 10
6578.8420921693
 20
5307.7666681193
 10
6578.4672329465
 20
5307.9832250943
  0
LWPOLYLINE
  5
498
330
1F
100
AcDbEntity
  8
0
  6
Continuous
 62
     7
100
AcDbPolyline
 90
        3
 70
   128
 43
0.0
 10
6579.3190002441
 20
5305.9035538455
 10
6578.8420918682
 20
5306.1791678455
 10
6578.4672329465
 20
5306.3957261613
  0
LWPOLYLINE
  5
499
330
1F
100
AcDbEntity
  8
0
  6
Continuous
 62
     7
100
AcDbPolyline
 90
        3
 70
   128
 43
0.0
 10
6579.3190002441
 20
5304.3160539811
 10
6578.8420920187
 20
5304.5916677201
 10
6578.4672329465
 20
5304.8082253655
  0
LWPOLYLINE
  5
49A
330
1F
100
AcDbEntity
  8
0
  6
Continuous
 62
     7
100
AcDbPolyline
 90
        3
 70
   128
 43
0.0
 10
6579.3190002441
 20
5310.6660543701
 10
6578.8420918682
 20
5310.94166837
 10
6578.4672329465
 20
5311.1582266858
  0
LWPOLYLINE
  5
49B
330
1F
100
AcDbEntity
  8
0
  6
Continuous
 62
     7
100
AcDbPolyline
 90
        3
 70
   128
 43
0.0
 10
6632.8544616699
 20
5260.3282461634
 10
6632.7354762928
 20
5265.2955800337
 10
6632.4667556474
 20
5269.1994550398
  0
LWPOLYLINE
  5
49C
330
1F
100
AcDbEntity
  8
0
  6
Continuous
 62
     7
100
AcDbPolyline
 90
        3
 70
   128
 43
0.0
 10
6619.1062927246
 20
5288.1994545452
 10
6618.5284404692
 20
5288.096402427
 10
6618.1209756324
 20
5287.992347846
  0
LWPOLYLINE
  5
49D
330
1F
100
AcDbEntity
  8
0
  6
Continuous
 62
     7
100
AcDbPolyline
 90
        3
 70
   128
 43
0.0
 10
6632.1029663086
 20
5169.411940383
 10
6632.3110038767
 20
5171.6358172469
 10
6632.3559729645
 20
5173.4075079432
  0
LWPOLYLINE
  5
49E
330
1F
100
AcDbEntity
  8
0
  6
Continuous
 62
     7
100
AcDbPolyline
 90
        3
 70
   128
 43
0.0
 10
6579.3190002441
 20
5117.6775972119
 10
6578.8424739342
 20
5117.9534762469
 10
6578.4672310838
 20
5118.1702445021
  0
LWPOLYLINE
  5
49F
330
1F
100
AcDbEntity
  8
0
  6
Continuous
 62
     7
100
AcDbPolyline
 90
        3
 70
   128
 43
0.0
 10
6579.3190002441
 20
5119.2650924196
 10
6578.8424739342
 20
5119.5409714547
 10
6578.4672310838
 20
5119.7577397099
  0
LWPOLYLINE
  5
4A0
330
1F
100
AcDbEntity
  8
0
  6
Continuous
 62
     7
100
AcDbPolyline
 90
        3
 70
   128
 43
0.0
 10
6579.3190002441
 20
5120.8526025286
 10
6578.8424739342
 20
5121.1284815636
 10
6578.4672310838
 20
5121.3452498188
  0
LWPOLYLINE
  5
4A1
330
1F
100
AcDbEntity
  8
0
  6
Continuous
 62
     7
100
AcDbPolyline
 90
        3
 70
   128
 43
0.0
 10
6579.3190002441
 20
5122.4400977364
 10
6578.8424739342
 20
5122.7159767714
 10
6578.4672310838
 20
5122.9327450266
  0
LWPOLYLINE
  5
4A2
330
1F
100
AcDbEntity
  8
0
  6
Continuous
 62
     7
100
AcDbPolyline
 90
        3
 70
   128
 43
0.0
 10
6553.7490844727
 20
5117.3804829588
 10
6553.2702575516
 20
5117.1023553714
 10
6552.8919752979
 20
5116.8838421574
  0
LWPOLYLINE
  5
4A3
330
1F
100
AcDbEntity
  8
0
  6
Continuous
 62
     7
100
AcDbPolyline
 90
        3
 70
   128
 43
0.0
 10
6553.7490844727
 20
5118.9679781666
 10
6553.2702539774
 20
5118.6898651956
 10
6552.8919752979
 20
5118.4713522663
  0
LWPOLYLINE
  5
4A4
330
1F
100
AcDbEntity
  8
0
  6
Continuous
 62
     7
100
AcDbPolyline
 90
        3
 70
   128
 43
0.0
 10
6553.7490844727
 20
5120.5554733744
 10
6553.2702539774
 20
5120.2773604034
 10
6552.8919752979
 20
5120.0588474741
  0
LWPOLYLINE
  5
4A5
330
1F
100
AcDbEntity
  8
0
  6
Continuous
 62
     7
100
AcDbPolyline
 90
        3
 70
   128
 43
0.0
 10
6553.7490844727
 20
5122.1429685822
 10
6553.2702539774
 20
5121.8648556112
 10
6552.8919752979
 20
5121.6463426819
  0
LWPOLYLINE
  5
4A6
330
1F
100
AcDbEntity
  8
0
  6
Continuous
 62
     7
100
AcDbPolyline
 90
        3
 70
   128
 43
0.0
 10
6553.6956787109
 20
5123.6994544735
 10
6553.2466253735
 20
5123.4387162544
 10
6552.8919752979
 20
5123.2338527908
  0
LWPOLYLINE
  5
4A7
330
1F
100
AcDbEntity
  8
0
  6
Continuous
 62
     7
100
AcDbPolyline
 90
        3
 70
   128
 43
0.0
 10
6579.2198181152
 20
5116.1477247944
 10
6578.7985792824
 20
5116.3913371529
 10
6578.4672310838
 20
5116.5827492943
  0
LWPOLYLINE
  5
4A8
330
1F
100
AcDbEntity
  8
0
  6
Continuous
 62
     7
100
AcDbPolyline
 90
        3
 70
   128
 43
0.0
 10
6578.4568786621
 20
5118.3565239182
 10
6578.9417839849
 20
5118.6346368385
 10
6579.3200599292
 20
5118.8531498184
  0
LWPOLYLINE
  5
4A9
330
1F
100
AcDbEntity
  8
0
  6
Continuous
 62
     7
100
AcDbPolyline
 90
        3
 70
   128
 43
0.0
 10
6578.4568786621
 20
5119.944019126
 10
6578.9417839849
 20
5120.2221320463
 10
6579.3200599292
 20
5120.4406450262
  0
LWPOLYLINE
  5
4AA
330
1F
100
AcDbEntity
  8
0
  6
Continuous
 62
     7
100
AcDbPolyline
 90
        3
 70
   128
 43
0.0
 10
6578.4568786621
 20
5121.5315292349
 10
6578.9417863704
 20
5121.809629681
 10
6579.3200599292
 20
5122.028140234
  0
LWPOLYLINE
  5
4AB
330
1F
100
AcDbEntity
  8
0
  6
Continuous
 62
     7
100
AcDbPolyline
 90
        3
 70
   128
 43
0.0
 10
6578.4568786621
 20
5123.1190244427
 10
6578.9417839849
 20
5123.397137363
 10
6579.3200599292
 20
5123.615650343
  0
LWPOLYLINE
  5
4AC
330
1F
100
AcDbEntity
  8
0
  6
Continuous
 62
     7
100
AcDbPolyline
 90
        3
 70
   128
 43
0.0
 10
6552.8907775879
 20
5118.059394764
 10
6553.3695454388
 20
5117.7835230379
 10
6553.7447768875
 20
5117.5667623749
  0
LWPOLYLINE
  5
4AD
330
1F
100
AcDbEntity
  8
0
  6
Continuous
 62
     7
100
AcDbPolyline
 90
        3
 70
   128
 43
0.0
 10
6552.8907775879
 20
5119.6468899717
 10
6553.3695490058
 20
5119.3710328061
 10
6553.7447768875
 20
5119.1542724838
  0
LWPOLYLINE
  5
4AE
330
1F
100
AcDbEntity
  8
0
  6
Continuous
 62
     7
100
AcDbPolyline
 90
        3
 70
   128
 43
0.0
 10
6552.8907775879
 20
5121.2344000807
 10
6553.3695454388
 20
5120.9585283546
 10
6553.7447768875
 20
5120.7417676916
  0
LWPOLYLINE
  5
4AF
330
1F
100
AcDbEntity
  8
0
  6
Continuous
 62
     7
100
AcDbPolyline
 90
        3
 70
   128
 43
0.0
 10
6552.8907775879
 20
5122.8218952885
 10
6553.3695454388
 20
5122.5460235624
 10
6553.7447768875
 20
5122.3292628994
  0
LWPOLYLINE
  5
4B0
330
1F
100
AcDbEntity
  8
0
  6
Continuous
 62
     7
100
AcDbPolyline
 90
        3
 70
   128
 43
0.0
 10
6552.8907775879
 20
5116.4718995562
 10
6553.3695454388
 20
5116.1960278301
 10
6553.7447768875
 20
5115.9792671671
  0
LWPOLYLINE
  5
4B1
330
1F
100
AcDbEntity
  8
0
  6
Continuous
 62
     7
100
AcDbPolyline
 90
        3
 70
   128
 43
0.0
 10
6578.4568786621
 20
5116.7690287104
 10
6578.9417803947
 20
5117.0471395414
 10
6579.3200599292
 20
5117.2656397095
  0
LWPOLYLINE
  5
4B2
330
1F
100
AcDbEntity
  8
0
  6
Continuous
 62
     7
100
AcDbPolyline
 90
        3
 70
   128
 43
0.0
 10
6578.5293579102
 20
5118.1332449188
 10
6578.9725012266
 20
5118.388135963
 10
6579.3191714475
 20
5118.5884008875
  0
LWPOLYLINE
  5
4B3
330
1F
100
AcDbEntity
  8
0
  6
Continuous
 62
     7
100
AcDbPolyline
 90
        3
 70
   128
 43
0.0
 10
6578.5293579102
 20
5119.7207401266
 10
6578.9725012266
 20
5119.9756311708
 10
6579.3191714475
 20
5120.1758960953
  0
LWPOLYLINE
  5
4B4
330
1F
100
AcDbEntity
  8
0
  6
Continuous
 62
     7
100
AcDbPolyline
 90
        3
 70
   128
 43
0.0
 10
6578.5293579102
 20
5121.3082353344
 10
6578.9725034046
 20
5121.563130953
 10
6579.3191714475
 20
5121.7634062042
  0
LWPOLYLINE
  5
4B5
330
1F
100
AcDbEntity
  8
0
  6
Continuous
 62
     7
100
AcDbPolyline
 90
        3
 70
   128
 43
0.0
 10
6578.5293579102
 20
5122.8957454434
 10
6578.9725012266
 20
5123.1506364875
 10
6579.3191714475
 20
5123.350901412
  0
LWPOLYLINE
  5
4B6
330
1F
100
AcDbEntity
  8
0
  6
Continuous
 62
     7
100
AcDbPolyline
 90
        3
 70
   128
 43
0.0
 10
6552.8907775879
 20
5117.794645833
 10
6553.3340794965
 20
5117.5397621431
 10
6553.6807456083
 20
5117.3394898644
  0
LWPOLYLINE
  5
4B7
330
1F
100
AcDbEntity
  8
0
  6
Continuous
 62
     7
100
AcDbPolyline
 90
        3
 70
   128
 43
0.0
 10
6552.8907775879
 20
5119.382155942
 10
6553.3340773025
 20
5119.1272601096
 10
6553.6807456083
 20
5118.9269850722
  0
LWPOLYLINE
  5
4B8
330
1F
100
AcDbEntity
  8
0
  6
Continuous
 62
     7
100
AcDbPolyline
 90
        3
 70
   128
 43
0.0
 10
6552.8907775879
 20
5120.9696511498
 10
6553.3340794965
 20
5120.7147674599
 10
6553.6807456083
 20
5120.5144951811
  0
LWPOLYLINE
  5
4B9
330
1F
100
AcDbEntity
  8
0
  6
Continuous
 62
     7
100
AcDbPolyline
 90
        3
 70
   128
 43
0.0
 10
6552.8907775879
 20
5122.5571463576
 10
6553.3340794965
 20
5122.3022626676
 10
6553.6807456083
 20
5122.1019903889
  0
LWPOLYLINE
  5
4BA
330
1F
100
AcDbEntity
  8
0
  6
Continuous
 62
     7
100
AcDbPolyline
 90
        3
 70
   128
 43
0.0
 10
6552.8907775879
 20
5116.2071506252
 10
6553.3340794965
 20
5115.9522669353
 10
6553.6807456083
 20
5115.7519946566
  0
LWPOLYLINE
  5
4BB
330
1F
100
AcDbEntity
  8
0
  6
Continuous
 62
     7
100
AcDbPolyline
 90
        3
 70
   128
 43
0.0
 10
6578.5293579102
 20
5116.5457348099
 10
6578.9725034046
 20
5116.8006304285
 10
6579.3191714475
 20
5117.0009056797
  0
LWPOLYLINE
  5
4BC
330
1F
100
AcDbEntity
  8
0
  6
Continuous
 62
     7
100
AcDbPolyline
 90
        3
 70
   128
 43
0.0
 10
6690.2046203613
 20
5228.9079296162
 10
6692.7629025385
 20
5222.5015932626
 10
6693.7060131023
 20
5217.2014171949
  0
LWPOLYLINE
  5
4BD
330
1F
100
AcDbEntity
  8
0
  6
Continuous
 62
     7
100
AcDbPolyline
 90
        3
 70
   128
 43
0.0
 10
6693.2029724121
 20
5217.3454890719
 10
6691.9738865829
 20
5223.8845083699
 10
6690.2060134599
 20
5228.9079296162
  0
LWPOLYLINE
  5
4BE
330
1F
100
AcDbEntity
  8
0
  6
Continuous
 62
     7
100
AcDbPolyline
 90
       11
 70
   128
 43
0.0
 10
6680.4046630859
 20
5254.7994534245
 10
6685.4070915138
 20
5254.1678114469
 10
6690.0351445968
 20
5254.7105136048
 10
6690.3445248628
 20
5254.7842307123
 10
6690.363621989
 20
5254.7889585032
 10
6690.3642405386
 20
5254.7891139865
 10
6690.3643087817
 20
5254.7891318262
 10
6690.364312521
 20
5254.7891330743
 10
6690.3643069301
 20
5254.7891320161
 10
6690.3642352208
 20
5254.7891152624
 10
6690.3394086549
 20
5254.7830062678
  0
LWPOLYLINE
  5
4BF
330
1F
100
AcDbEntity
  8
0
  6
Continuous
 62
     7
100
AcDbPolyline
 90
        8
 70
   128
 43
0.0
 10
6555.0384521484
 20
5311.1994544735
 10
6576.3993440752
 20
5311.5069481717
 10
6578.7850000934
 20
5311.5840843678
 10
6578.9085799877
 20
5311.5990998709
 10
6578.9120246608
 20
5311.601586863
 10
6578.9115671134
 20
5311.6028276852
 10
6578.9095973129
 20
5311.6040665493
 10
6578.8812486717
 20
5311.610650154
  0
LWPOLYLINE
  5
4C0
330
1F
100
AcDbEntity
  8
0
  6
Continuous
 62
     7
100
AcDbPolyline
 90
        3
 70
   128
 43
0.0
 10
6554.9621582031
 20
5312.0587150326
 10
6553.823925813
 20
5311.9117128289
 10
6553.524162373
 20
5311.795145156
  0
LINE
  5
4C1
330
1F
100
AcDbEntity
  8
0
  6
Continuous
 62
     7
100
AcDbLine
 10
6553.7528991699
 20
5312.0587150326
 30
0.0
 11
6554.9629339512
 21
5312.0587150326
 31
0.0
  0
LWPOLYLINE
  5
4C2
330
1F
100
AcDbEntity
  8
0
  6
Continuous
 62
     7
100
AcDbPolyline
 90
       11
 70
   128
 43
0.0
 10
6579.273223877
 20
5310.6574526748
 10
6579.2250850368
 20
5310.6321109662
 10
6578.3215343399
 20
5310.5565745956
 10
6566.1068868421
 20
5310.2607503587
 10
6553.8993681236
 20
5309.9613208602
 10
6552.9449609373
 20
5309.8888083703
 10
6552.9361229305
 20
5309.8825792617
 10
6552.9360773661
 20
5309.8802256118
 10
6552.9374928672
 20
5309.8778640312
 10
6552.9438721712
 20
5309.87312161
 10
6552.9649797246
 20
5309.8635914495
  0
LWPOLYLINE
  5
4C3
330
1F
100
AcDbEntity
  8
0
  6
Continuous
 62
     7
100
AcDbPolyline
 90
       11
 70
   128
 43
0.0
 10
6579.273223877
 20
5309.0699537417
 10
6579.2250850373
 20
5309.044611984
 10
6578.3215343396
 20
5308.9690757133
 10
6566.1068868816
 20
5308.6732494062
 10
6553.8993681296
 20
5308.3738216216
 10
6552.9449609387
 20
5308.301307525
 10
6552.9361229315
 20
5308.2950786902
 10
6552.936077367
 20
5308.2927251911
 10
6552.9374928679
 20
5308.290363783
 10
6552.9438721717
 20
5308.2856217591
 10
6552.9649797246
 20
5308.2760925164
  0
LWPOLYLINE
  5
4C4
330
1F
100
AcDbEntity
  8
0
  6
Continuous
 62
     7
100
AcDbPolyline
 90
       11
 70
   128
 43
0.0
 10
6579.273223877
 20
5307.482452946
 10
6579.2250850368
 20
5307.4571112374
 10
6578.3215343399
 20
5307.3815748668
 10
6566.1068868424
 20
5307.085750641
 10
6553.8993681211
 20
5306.7863213172
 10
6552.9449609373
 20
5306.7138086393
 10
6552.9361229304
 20
5306.707579537
 10
6552.936077366
 20
5306.7052258881
 10
6552.9374928671
 20
5306.7028643079
 10
6552.9438721711
 20
5306.698121886
 10
6552.9649797246
 20
5306.6885917207
  0
LWPOLYLINE
  5
4C5
330
1F
100
AcDbEntity
  8
0
  6
Continuous
 62
     7
100
AcDbPolyline
 90
       11
 70
   128
 43
0.0
 10
6579.273223877
 20
5305.8949540129
 10
6579.2250850372
 20
5305.8696122551
 10
6578.3215343378
 20
5305.7940759844
 10
6566.106886863
 20
5305.498249678
 10
6553.8993681255
 20
5305.1988203221
 10
6552.9449609373
 20
5305.1263078459
 10
6552.9361229305
 20
5305.1200787369
 10
6552.9360773661
 20
5305.1177250869
 10
6552.9374928672
 20
5305.1153635063
 10
6552.9438721712
 20
5305.1106210851
 10
6552.9649797246
 20
5305.101090925
  0
LWPOLYLINE
  5
4C6
330
1F
100
AcDbEntity
  8
0
  6
Continuous
 62
     7
100
AcDbPolyline
 90
        5
 70
   128
 43
0.0
 10
6579.273223877
 20
5304.3074532172
 10
6575.1460297817
 20
5304.100723788
 10
6569.038166307
 20
5303.9665418837
 10
6562.1279815908
 20
5303.8316330793
 10
6556.3070385979
 20
5303.6994541755
  0
LWPOLYLINE
  5
4C7
330
1F
100
AcDbEntity
  8
0
  6
Continuous
 62
     7
100
AcDbPolyline
 90
        9
 70
   128
 43
0.0
 10
6555.0384521484
 20
5311.1994544735
 10
6553.0007027308
 20
5311.0910669212
 10
6552.9531148693
 20
5311.0820539165
 10
6552.9406821816
 20
5311.0774918877
 10
6552.9359658215
 20
5311.07288857
 10
6552.9361013572
 20
5311.0705734362
 10
6552.9376333738
 20
5311.0682507565
 10
6552.9440888605
 20
5311.0635870711
 10
6552.9649797246
 20
5311.0542165806
  0
LWPOLYLINE
  5
4C8
330
1F
100
AcDbEntity
  8
0
  6
Continuous
 62
     7
100
AcDbPolyline
 90
       16
 70
   128
 43
0.0
 10
6579.2617797852
 20
5310.2518952211
 10
6579.2778513695
 20
5310.2457021279
 10
6579.2820060357
 20
5310.242599386
 10
6579.2829349545
 20
5310.2410453822
 10
6579.2829181707
 20
5310.2394892102
 10
6579.272510975
 20
5310.2332420287
 10
6579.2464310733
 20
5310.2269657598
 10
6578.1580357372
 20
5310.1526010467
 10
6565.8827574927
 20
5309.8594351162
 10
6553.8780524531
 20
5309.5634196533
 10
6552.9443089979
 20
5309.4916724712
 10
6552.9360452351
 20
5309.4855062052
 10
6552.9361189549
 20
5309.483176637
 10
6552.9376099112
 20
5309.4808393751
 10
6552.9440336841
 20
5309.4761461665
 10
6552.9649797246
 20
5309.4667157849
  0
LWPOLYLINE
  5
4C9
330
1F
100
AcDbEntity
  8
0
  6
Continuous
 62
     7
100
AcDbPolyline
 90
       16
 70
   128
 43
0.0
 10
6579.2617797852
 20
5308.6643962881
 10
6579.2778513693
 20
5308.658202178
 10
6579.2820060356
 20
5308.6550989741
 10
6579.2829349545
 20
5308.6535447589
 10
6579.2829181709
 20
5308.6519883917
 10
6579.2725109762
 20
5308.6457406034
 10
6579.2464310756
 20
5308.6394639765
 10
6578.1580357546
 20
5308.5651003306
 10
6565.8827575296
 20
5308.2719342473
 10
6553.8780524615
 20
5307.9759193109
 10
6552.944308998
 20
5307.9041735121
 10
6552.9360452348
 20
5307.8980073342
 10
6552.9361189544
 20
5307.8956777798
 10
6552.9376099107
 20
5307.893340523
 10
6552.9440336836
 20
5307.8886473038
 10
6552.9649797246
 20
5307.8792168518
  0
LWPOLYLINE
  5
4CA
330
1F
100
AcDbEntity
  8
0
  6
Continuous
 62
     7
100
AcDbPolyline
 90
       16
 70
   128
 43
0.0
 10
6579.2617797852
 20
5307.0768954923
 10
6579.2778513694
 20
5307.0707024166
 10
6579.2820060357
 20
5307.0675996721
 10
6579.2829349544
 20
5307.0660456621
 10
6579.2829181707
 20
5307.0644894798
 10
6579.2725109754
 20
5307.0582422151
 10
6579.2464310746
 20
5307.0519658037
 10
6578.1580357549
 20
5306.9775990627
 10
6565.8827574933
 20
5306.6844353787
 10
6553.8780524618
 20
5306.3884185016
 10
6552.944308998
 20
5306.3166727165
 10
6552.9360452348
 20
5306.3105065381
 10
6552.9361189544
 20
5306.3081769837
 10
6552.9376099107
 20
5306.3058397269
 10
6552.9440336836
 20
5306.3011465077
 10
6552.9649797246
 20
5306.2917160561
  0
LWPOLYLINE
  5
4CB
330
1F
100
AcDbEntity
  8
0
  6
Continuous
 62
     7
100
AcDbPolyline
 90
       16
 70
   128
 43
0.0
 10
6579.2617797852
 20
5305.4893946966
 10
6579.2778513695
 20
5305.4832016019
 10
6579.2820060358
 20
5305.4800988603
 10
6579.2829349545
 20
5305.478544857
 10
6579.2829181707
 20
5305.4769886858
 10
6579.2725109749
 20
5305.4707415108
 10
6579.2464310732
 20
5305.464465252
 10
6578.1580357415
 20
5305.3901003268
 10
6565.8827575116
 20
5305.0969345168
 10
6553.8780524759
 20
5304.8009181021
 10
6552.9443089986
 20
5304.7291728439
 10
6552.9360452356
 20
5304.7230067609
 10
6552.9361189552
 20
5304.7206772751
 10
6552.9376099115
 20
5304.7183401017
 10
6552.9440336842
 20
5304.7136470852
 10
6552.9649797246
 20
5304.704217123
  0
LWPOLYLINE
  5
4CC
330
1F
100
AcDbEntity
  8
0
  6
Continuous
 62
     7
100
AcDbPolyline
 90
        7
 70
   128
 43
0.0
 10
6579.2617797852
 20
5303.9018957635
 10
6579.2822437958
 20
5303.8923055608
 10
6579.2830152784
 20
5303.8907020797
 10
6579.2827514418
 20
5303.8890962425
 10
6579.1985028339
 20
5303.8696771997
 10
6578.9912028232
 20
5303.8501792613
 10
6574.9807914982
 20
5303.6994541755
  0
LWPOLYLINE
  5
4CD
330
1F
100
AcDbEntity
  8
0
  6
Continuous
 62
     7
100
AcDbPolyline
 90
        8
 70
   128
 43
0.0
 10
6578.3882141113
 20
5311.3428017816
 10
6565.9653363743
 20
5310.9523401618
 10
6554.725066275
 20
5310.6575121628
 10
6553.8074959896
 20
5310.5861535348
 10
6553.7948582463
 20
5310.58004579
 10
6553.7935446573
 20
5310.577735688
 10
6553.7938151639
 20
5310.5754163955
 10
6553.8160314464
 20
5310.5613811633
  0
LWPOLYLINE
  5
4CE
330
1F
100
AcDbEntity
  8
0
  6
Continuous
 62
     7
100
AcDbPolyline
 90
        8
 70
   128
 43
0.0
 10
6578.3882141113
 20
5309.7553009858
 10
6565.9653363285
 20
5309.3648416408
 10
6554.7250662689
 20
5309.0700120443
 10
6553.8074959898
 20
5308.9986527214
 10
6553.7948582463
 20
5308.9925449989
 10
6553.7935446572
 20
5308.9902349012
 10
6553.7938151638
 20
5308.9879156111
 10
6553.8160314464
 20
5308.9738803675
  0
LWPOLYLINE
  5
4CF
330
1F
100
AcDbEntity
  8
0
  6
Continuous
 62
     7
100
AcDbPolyline
 90
        8
 70
   128
 43
0.0
 10
6578.3882141113
 20
5308.1678001901
 10
6565.9653363314
 20
5307.7773406619
 10
6554.7250662605
 20
5307.4825122119
 10
6553.8074959874
 20
5307.4111540569
 10
6553.7948582454
 20
5307.4050459426
 10
6553.7935446567
 20
5307.4027356654
 10
6553.7938151635
 20
5307.4004161805
 10
6553.8160314464
 20
5307.3863795718
  0
LWPOLYLINE
  5
4D0
330
1F
100
AcDbEntity
  8
0
  6
Continuous
 62
     7
100
AcDbPolyline
 90
        8
 70
   128
 43
0.0
 10
6578.3882141113
 20
5306.580301257
 10
6565.9653363287
 20
5306.189841925
 10
6554.725066266
 20
5305.895012514
 10
6553.8074959899
 20
5305.8236529862
 10
6553.7948582462
 20
5305.8175452718
 10
6553.7935446571
 20
5305.8152351757
 10
6553.7938151637
 20
5305.8129158863
 10
6553.8160314464
 20
5305.7988806387
  0
LWPOLYLINE
  5
4D1
330
1F
100
AcDbEntity
  8
0
  6
Continuous
 62
     7
100
AcDbPolyline
 90
        8
 70
   128
 43
0.0
 10
6578.3882141113
 20
5304.9928004613
 10
6565.9653363409
 20
5304.6023409492
 10
6554.7250662711
 20
5304.307512105
 10
6553.8074959896
 20
5304.2361531373
 10
6553.7948582463
 20
5304.2300454033
 10
6553.7935446572
 20
5304.2277353034
 10
6553.7938151638
 20
5304.2254160121
 10
6553.8160314464
 20
5304.2113807743
  0
LWPOLYLINE
  5
4D2
330
1F
100
AcDbEntity
  8
0
  6
Continuous
 62
     7
100
AcDbPolyline
 90
        3
 70
   128
 43
0.0
 10
6554.9621582031
 20
5312.0587150326
 10
6554.033405037
 20
5312.0018495544
 10
6553.7985767733
 20
5311.9561931809
  0
LWPOLYLINE
  5
4D3
330
1F
100
AcDbEntity
  8
0
  6
Continuous
 62
     7
100
AcDbPolyline
 90
        5
 70
   128
 43
0.0
 10
6578.4187316895
 20
5311.1540804377
 10
6578.3755305117
 20
5311.1290065312
 10
6577.5573064459
 20
5311.0542180254
 10
6566.3367583665
 20
5310.7616050716
 10
6553.7985767733
 20
5310.3686942479
  0
LWPOLYLINE
  5
4D4
330
1F
100
AcDbEntity
  8
0
  6
Continuous
 62
     7
100
AcDbPolyline
 90
        5
 70
   128
 43
0.0
 10
6578.4187316895
 20
5309.5665815046
 10
6578.3755305137
 20
5309.5415064805
 10
6577.5573064597
 20
5309.4667171346
 10
6566.3367583815
 20
5309.1741044999
 10
6553.7985767733
 20
5308.7811934521
  0
LWPOLYLINE
  5
4D5
330
1F
100
AcDbEntity
  8
0
  6
Continuous
 62
     7
100
AcDbPolyline
 90
        5
 70
   128
 43
0.0
 10
6578.4187316895
 20
5307.9790807089
 10
6578.3755305136
 20
5307.9540056895
 10
6577.5573064599
 20
5307.8792163315
 10
6566.336758349
 20
5307.5866053432
 10
6553.7985767733
 20
5307.1936926564
  0
LWPOLYLINE
  5
4D6
330
1F
100
AcDbEntity
  8
0
  6
Continuous
 62
     7
100
AcDbPolyline
 90
        5
 70
   128
 43
0.0
 10
6578.4187316895
 20
5306.3915817758
 10
6578.3755305144
 20
5306.3665066902
 10
6577.5573064586
 20
5306.2917175021
 10
6566.3367583855
 20
5305.9991045621
 10
6553.7985767733
 20
5305.6061937233
  0
LWPOLYLINE
  5
4D7
330
1F
100
AcDbEntity
  8
0
  6
Continuous
 62
     7
100
AcDbPolyline
 90
        5
 70
   128
 43
0.0
 10
6578.4187316895
 20
5304.8040809801
 10
6578.3755305147
 20
5304.7790058429
 10
6577.5573064531
 20
5304.7042175279
 10
6566.3367583741
 20
5304.4116047945
 10
6553.7985767733
 20
5304.0186938589
  0
LWPOLYLINE
  5
4D8
330
1F
100
AcDbEntity
  8
0
  6
Continuous
 62
     7
100
AcDbPolyline
 90
        3
 70
   128
 43
0.0
 10
6632.6026916504
 20
5244.69049822
 10
6632.8143612066
 20
5244.6597134612
 10
6632.9595519492
 20
5244.5587980321
  0
LWPOLYLINE
  5
4D9
330
1F
100
AcDbEntity
  8
0
  6
Continuous
 62
     7
100
AcDbPolyline
 90
        3
 70
   128
 43
0.0
 10
6632.9574584961
 20
5244.5587980321
 10
6633.0765289097
 20
5244.3763125456
 10
6633.1060154626
 20
5244.2093471756
  0
LWPOLYLINE
  5
4DA
330
1F
100
AcDbEntity
  8
0
  6
Continuous
 62
     7
100
AcDbPolyline
 90
        3
 70
   128
 43
0.0
 10
6632.1678161621
 20
5245.1716492644
 10
6632.2362606658
 20
5244.9860405994
 10
6632.3311401794
 20
5244.8592687717
  0
LWPOLYLINE
  5
4DB
330
1F
100
AcDbEntity
  8
0
  6
Continuous
 62
     7
100
AcDbPolyline
 90
        3
 70
   128
 43
0.0
 10
6632.3280334473
 20
5244.8592687717
 10
6632.4941927212
 20
5244.7417857429
 10
6632.6060144493
 20
5244.69049822
  0
LWPOLYLINE
  5
4DC
330
1F
100
AcDbEntity
  8
0
  6
Continuous
 62
     7
100
AcDbPolyline
 90
        3
 70
   128
 43
0.0
 10
6633.1024169922
 20
5245.6781807115
 10
6632.80294278
 20
5245.511919812
 10
6632.170535464
 20
5245.1716492644
  0
LWPOLYLINE
  5
4DD
330
1F
100
AcDbEntity
  8
0
  6
Continuous
 62
     7
100
AcDbPolyline
 90
        3
 70
   128
 43
0.0
 10
6633.1024169922
 20
5237.1994535198
 10
6633.0836693159
 20
5237.0997862469
 10
6633.0384535978
 20
5236.970996367
  0
LWPOLYLINE
  5
4DE
330
1F
100
AcDbEntity
  8
0
  6
Continuous
 62
     7
100
AcDbPolyline
 90
        3
 70
   128
 43
0.0
 10
6632.9574584961
 20
5244.5587980321
 10
6633.0501606892
 20
5245.006299895
 10
6633.1052406022
 20
5245.2392036786
  0
LWPOLYLINE
  5
4DF
330
1F
100
AcDbEntity
  8
0
  6
Continuous
 62
     7
100
AcDbPolyline
 90
        5
 70
   128
 43
0.0
 10
6632.3280334473
 20
5244.8592687717
 10
6632.9708078186
 20
5245.2384272775
 10
6633.0423866375
 20
5245.2624153487
 10
6633.0748470892
 20
5245.2620709314
 10
6633.1052406022
 20
5245.2392036786
  0
LWPOLYLINE
  5
4E0
330
1F
100
AcDbEntity
  8
0
  6
Continuous
 62
     7
100
AcDbPolyline
 90
        3
 70
   128
 43
0.0
 10
6633.1024169922
 20
5244.2093471756
 10
6633.1060154626
 20
5244.5400392692
 10
6633.1060154626
 20
5244.6410896948
  0
LWPOLYLINE
  5
4E1
330
1F
100
AcDbEntity
  8
0
  6
Continuous
 62
     7
100
AcDbPolyline
 90
        3
 70
   128
 43
0.0
 10
6633.1024169922
 20
5245.6781807115
 10
6633.1030521467
 20
5245.4323570207
 10
6633.1052406022
 20
5245.2392036786
  0
LWPOLYLINE
  5
4E2
330
1F
100
AcDbEntity
  8
0
  6
Continuous
 62
     7
100
AcDbPolyline
 90
        5
 70
   128
 43
0.0
 10
6633.0680847168
 20
5237.1575626304
 10
6633.0986903674
 20
5237.2119373857
 10
6633.1015304061
 20
5237.2135662847
 10
6633.1036383361
 20
5237.2125583405
 10
6633.1060154626
 20
5237.1994535198
  0
LWPOLYLINE
  5
4E3
330
1F
100
AcDbEntity
  8
0
  6
Continuous
 62
     7
100
AcDbPolyline
 90
       15
 70
   128
 43
0.0
 10
6579.2083740234
 20
5116.1303202381
 10
6579.2438095554
 20
5116.1218120538
 10
6579.2443125744
 20
5116.1211022634
 10
6579.2442894418
 20
5116.1203922827
 10
6579.2426965527
 20
5116.1189716575
 10
6579.2288563277
 20
5116.1151777268
 10
6578.3633422971
 20
5116.0681679252
 10
6566.5106322368
 20
5115.8785467768
 10
6554.4188719043
 20
5115.6868894517
 10
6553.4991916497
 20
5115.6377869798
 10
6553.4829854725
 20
5115.6338210967
 10
6553.4805689412
 20
5115.6323430374
 10
6553.4801366934
 20
5115.6316059621
 10
6553.4801907793
 20
5115.630870113
 10
6553.5051564949
 20
5115.6221012345
  0
LWPOLYLINE
  5
4E4
330
1F
100
AcDbEntity
  8
0
  6
Continuous
 62
     7
100
AcDbPolyline
 90
       10
 70
   128
 43
0.0
 10
6552.9632568359
 20
5116.4794991484
 10
6552.9517030098
 20
5116.488441316
 10
6552.9489333613
 20
5116.4929253065
 10
6552.9498612437
 20
5116.4974247849
 10
6552.9589803994
 20
5116.503457105
 10
6553.8973987718
 20
5116.5788293614
 10
6566.1064413853
 20
5116.876269211
 10
6578.3187844368
 20
5117.1740913101
 10
6579.2332054033
 20
5117.2491672931
 10
6579.2613400409
 20
5117.2730753889
  0
LWPOLYLINE
  5
4E5
330
1F
100
AcDbEntity
  8
0
  6
Continuous
 62
     7
100
AcDbPolyline
 90
       10
 70
   128
 43
0.0
 10
6552.9632568359
 20
5118.0669943562
 10
6552.9517030022
 20
5118.07594286
 10
6552.9489333502
 20
5118.0804296876
 10
6552.9498612295
 20
5118.0849316061
 10
6552.9589803819
 20
5118.0909663328
 10
6553.8973987395
 20
5118.1663262855
 10
6566.1064414403
 20
5118.4637609301
 10
6578.3187844267
 20
5118.761587535
 10
6579.2332053995
 20
5118.8366628645
 10
6579.2613400409
 20
5118.8605705967
  0
LWPOLYLINE
  5
4E6
330
1F
100
AcDbEntity
  8
0
  6
Continuous
 62
     7
100
AcDbPolyline
 90
       10
 70
   128
 43
0.0
 10
6552.9632568359
 20
5119.6545044651
 10
6552.9517030098
 20
5119.6634466328
 10
6552.9489333613
 20
5119.6679306232
 10
6552.9498612437
 20
5119.6724301016
 10
6552.9589803994
 20
5119.6784624217
 10
6553.8973987705
 20
5119.7538346783
 10
6566.1064413791
 20
5120.0512741419
 10
6578.3187844279
 20
5120.3490977049
 10
6579.2332054264
 20
5120.4241607992
 10
6579.2613400409
 20
5120.4480807057
  0
LWPOLYLINE
  5
4E7
330
1F
100
AcDbEntity
  8
0
  6
Continuous
 62
     7
100
AcDbPolyline
 90
       10
 70
   128
 43
0.0
 10
6552.9632568359
 20
5121.2419996729
 10
6552.9517030098
 20
5121.2509418405
 10
6552.9489333613
 20
5121.255425831
 10
6552.9498612437
 20
5121.2599253094
 10
6552.9589803994
 20
5121.2659576295
 10
6553.8973987718
 20
5121.3413298859
 10
6566.1064413853
 20
5121.6387697355
 10
6578.3187844368
 20
5121.9365918346
 10
6579.2332054033
 20
5122.0116678177
 10
6579.2613400409
 20
5122.0355759134
  0
LWPOLYLINE
  5
4E8
330
1F
100
AcDbEntity
  8
0
  6
Continuous
 62
     7
100
AcDbPolyline
 90
       10
 70
   128
 43
0.0
 10
6552.9632568359
 20
5122.8294948807
 10
6552.9517880223
 20
5122.838347099
 10
6552.9489689698
 20
5122.8427857305
 10
6552.9497371558
 20
5122.8472393888
 10
6552.9584082745
 20
5122.8532096325
 10
6553.8773621969
 20
5122.9277995371
 10
6565.8978886017
 20
5123.2224290972
 10
6578.1716403063
 20
5123.5168978157
 10
6579.2016947901
 20
5123.5916175315
 10
6579.2429501453
 20
5123.6153523197
  0
LWPOLYLINE
  5
4E9
330
1F
100
AcDbEntity
  8
0
  6
Continuous
 62
     7
100
AcDbPolyline
 90
       10
 70
   128
 43
0.0
 10
6552.9098510742
 20
5116.883991169
 10
6566.3128539347
 20
5117.2770598793
 10
6578.3307461021
 20
5117.5720166101
 10
6579.3041659425
 20
5117.6461704024
 10
6579.3236386751
 20
5117.6521961111
 10
6579.3269751843
 20
5117.6544527273
 10
6579.3280272819
 20
5117.6567079766
 10
6579.3251516253
 20
5117.6600886852
 10
6579.3167109347
 20
5117.6634673416
 10
6579.2876536289
 20
5117.6702211371
  0
LWPOLYLINE
  5
4EA
330
1F
100
AcDbEntity
  8
0
  6
Continuous
 62
     7
100
AcDbPolyline
 90
       10
 70
   128
 43
0.0
 10
6552.9098510742
 20
5118.4714863768
 10
6566.3128539365
 20
5118.8645550887
 10
6578.3307461004
 20
5119.1595071413
 10
6579.3041659616
 20
5119.2336922189
 10
6579.3236386942
 20
5119.2397165613
 10
6579.3269752029
 20
5119.2419718404
 10
6579.3280272998
 20
5119.2442252489
 10
6579.3251516417
 20
5119.2476021768
 10
6579.3167109485
 20
5119.2509757286
 10
6579.2876536289
 20
5119.2577163448
  0
LWPOLYLINE
  5
4EB
330
1F
100
AcDbEntity
  8
0
  6
Continuous
 62
     7
100
AcDbPolyline
 90
       10
 70
   128
 43
0.0
 10
6552.9098510742
 20
5120.0589815846
 10
6566.3128541021
 20
5120.4520488271
 10
6578.3307461038
 20
5120.7470163894
 10
6579.3041659632
 20
5120.8211720312
 10
6579.3236386855
 20
5120.8271996161
 10
6579.3269751914
 20
5120.8294568049
 10
6579.3280272863
 20
5120.831712538
 10
6579.3251516268
 20
5120.8350937822
 10
6579.3167109345
 20
5120.8384727132
 10
6579.2876536289
 20
5120.8452264538
  0
LWPOLYLINE
  5
4EC
330
1F
100
AcDbEntity
  8
0
  6
Continuous
 62
     7
100
AcDbPolyline
 90
       10
 70
   128
 43
0.0
 10
6552.9098510742
 20
5121.6464916935
 10
6566.312853937
 20
5122.0395604091
 10
6578.3307461024
 20
5122.3345171346
 10
6579.3041659425
 20
5122.4086709269
 10
6579.3236386751
 20
5122.4146966356
 10
6579.3269751843
 20
5122.4169532518
 10
6579.3280272819
 20
5122.4192085011
 10
6579.3251516253
 20
5122.4225892098
 10
6579.3167109347
 20
5122.4259678661
 10
6579.2876536289
 20
5122.4327216616
  0
LWPOLYLINE
  5
4ED
330
1F
100
AcDbEntity
  8
0
  6
Continuous
 62
     7
100
AcDbPolyline
 90
        3
 70
   128
 43
0.0
 10
6552.9098510742
 20
5123.2339869013
 10
6559.6840278993
 20
5123.4944036994
 10
6570.0584816078
 20
5123.6994544735
  0
LINE
  5
4EE
330
1F
100
AcDbEntity
  8
0
  6
Continuous
 62
     7
100
AcDbLine
 10
6561.3212585449
 20
5123.6994544735
 30
0.0
 11
6558.7184581237
 21
5123.6994544735
 31
0.0
  0
LWPOLYLINE
  5
4EF
330
1F
100
AcDbEntity
  8
0
  6
Continuous
 62
     7
100
AcDbPolyline
 90
        9
 70
   128
 43
0.0
 10
6553.8177490234
 20
5115.7931516638
 10
6553.8139592715
 20
5115.7990563153
 10
6553.8126509345
 20
5115.8049796141
 10
6553.8391948552
 20
5115.8169552479
 10
6554.8353769311
 20
5115.8918585944
 10
6566.3011416256
 20
5116.1855710356
 10
6577.5367361893
 20
5116.4802000964
 10
6578.3789638387
 20
5116.5544197606
 10
6578.40523294
 20
5116.5780554285
  0
LWPOLYLINE
  5
4F0
330
1F
100
AcDbEntity
  8
0
  6
Continuous
 62
     7
100
AcDbPolyline
 90
        9
 70
   128
 43
0.0
 10
6553.8177490234
 20
5117.3806617727
 10
6553.8139592739
 20
5117.3865612893
 10
6553.8126509407
 20
5117.3924798221
 10
6553.8391948783
 20
5117.4044484736
 10
6554.8353770381
 20
5117.4793551541
 10
6566.3011418135
 20
5117.773064147
 10
6577.5367362075
 20
5118.0676950504
 10
6578.3789638408
 20
5118.1419148624
 10
6578.40523294
 20
5118.1655506363
  0
LWPOLYLINE
  5
4F1
330
1F
100
AcDbEntity
  8
0
  6
Continuous
 62
     7
100
AcDbPolyline
 90
        9
 70
   128
 43
0.0
 10
6553.8177490234
 20
5118.9681569805
 10
6553.813959269
 20
5118.9740619721
 10
6553.812650931
 20
5118.9799854028
 10
6553.8391948602
 20
5118.9919598653
 10
6554.8353770153
 20
5119.0668521999
 10
6566.3011417396
 20
5119.3605698204
 10
6577.5367362989
 20
5119.6551913371
 10
6578.3789638539
 20
5119.7294145302
 10
6578.40523294
 20
5119.7530607453
  0
LWPOLYLINE
  5
4F2
330
1F
100
AcDbEntity
  8
0
  6
Continuous
 62
     7
100
AcDbPolyline
 90
        9
 70
   128
 43
0.0
 10
6553.8177490234
 20
5120.5556521883
 10
6553.8139592715
 20
5120.5615568398
 10
6553.8126509345
 20
5120.5674801386
 10
6553.8391948551
 20
5120.5794557724
 10
6554.8353769304
 20
5120.6543591189
 10
6566.3011416187
 20
5120.9480715571
 10
6577.5367361823
 20
5121.2427013876
 10
6578.3789638642
 20
5121.3169084166
 10
6578.40523294
 20
5121.340555953
  0
LWPOLYLINE
  5
4F3
330
1F
100
AcDbEntity
  8
0
  6
Continuous
 62
     7
100
AcDbPolyline
 90
        9
 70
   128
 43
0.0
 10
6553.8177490234
 20
5122.1431622973
 10
6553.8139592739
 20
5122.1490618138
 10
6553.8126509407
 20
5122.1549803466
 10
6553.8391948783
 20
5122.1669489982
 10
6554.8353770384
 20
5122.2418556765
 10
6566.3011417775
 20
5122.5355666269
 10
6577.5367362069
 20
5122.8301955916
 10
6578.3789638406
 20
5122.9044153939
 10
6578.40523294
 20
5122.9280511608
  0
LWPOLYLINE
  5
4F4
330
1F
100
AcDbEntity
  8
0
  6
Continuous
 62
     7
100
AcDbPolyline
 90
       10
 70
   128
 43
0.0
 10
6553.8139343262
 20
5115.9833649864
 10
6553.806716949
 20
5115.9922125505
 10
6553.8040638279
 20
5115.9966487988
 10
6553.8047520231
 20
5116.0011000064
 10
6553.8127922582
 20
5116.0070668387
 10
6554.6702992643
 20
5116.0816125609
 10
6565.8988091204
 20
5116.3760999285
 10
6577.3789529961
 20
5116.670382411
 10
6578.348655451
 20
5116.745071161
 10
6578.3881096432
 20
5116.768805193
  0
LWPOLYLINE
  5
4F5
330
1F
100
AcDbEntity
  8
0
  6
Continuous
 62
     7
100
AcDbPolyline
 90
       10
 70
   128
 43
0.0
 10
6553.8139343262
 20
5117.5708601942
 10
6553.806716949
 20
5117.5797077583
 10
6553.8040638279
 20
5117.5841440066
 10
6553.8047520231
 20
5117.5885952142
 10
6553.8127922582
 20
5117.5945620465
 10
6554.6702992651
 20
5117.6691077688
 10
6565.8988091313
 20
5117.9635950029
 10
6577.3789530191
 20
5118.2578747278
 10
6578.3486554243
 20
5118.3325797397
 10
6578.3881096432
 20
5118.3563004007
  0
LWPOLYLINE
  5
4F6
330
1F
100
AcDbEntity
  8
0
  6
Continuous
 62
     7
100
AcDbPolyline
 90
       10
 70
   128
 43
0.0
 10
6553.8139343262
 20
5119.158355402
 10
6553.806716941
 20
5119.1672092318
 10
6553.8040638161
 20
5119.1716482933
 10
6553.804752008
 20
5119.1761019307
 10
6553.8127922396
 20
5119.1820711852
 10
6554.6702992343
 20
5119.2566044131
 10
6565.8988091925
 20
5119.5510866051
 10
6577.3789529839
 20
5119.845373102
 10
6578.3486554223
 20
5119.9200751278
 10
6578.3881096432
 20
5119.9437956085
  0
LWPOLYLINE
  5
4F7
330
1F
100
AcDbEntity
  8
0
  6
Continuous
 62
     7
100
AcDbPolyline
 90
       10
 70
   128
 43
0.0
 10
6553.8139343262
 20
5120.745865511
 10
6553.806716949
 20
5120.7547130751
 10
6553.8040638279
 20
5120.7591493233
 10
6553.8047520231
 20
5120.7636005309
 10
6553.8127922582
 20
5120.7695673632
 10
6554.6702992638
 20
5120.8441130857
 10
6565.8988091243
 20
5121.1385999525
 10
6577.3789530005
 20
5121.4328827121
 10
6578.3486554513
 20
5121.5075716723
 10
6578.3881096432
 20
5121.5313057175
  0
LWPOLYLINE
  5
4F8
330
1F
100
AcDbEntity
  8
0
  6
Continuous
 62
     7
100
AcDbPolyline
 90
       10
 70
   128
 43
0.0
 10
6553.8139343262
 20
5122.3333607187
 10
6553.806716949
 20
5122.3422082829
 10
6553.8040638279
 20
5122.3466445311
 10
6553.8047520231
 20
5122.3510957387
 10
6553.8127922582
 20
5122.357062571
 10
6554.6702992651
 20
5122.4316082933
 10
6565.8988091313
 20
5122.7260955274
 10
6577.3789530191
 20
5123.0203752523
 10
6578.3486554243
 20
5123.0950802643
 10
6578.3881096432
 20
5123.1188009253
  0
LWPOLYLINE
  5
4F9
330
1F
100
AcDbEntity
  8
0
  6
Continuous
 62
     7
100
AcDbPolyline
 90
        6
 70
   128
 43
0.0
 10
6552.9098510742
 20
5116.2156591883
 10
6552.9043931447
 20
5116.2207546021
 10
6552.9026611831
 20
5116.2232967946
 10
6552.902475238
 20
5116.2258323698
 10
6552.905522935
 20
5116.2291990309
 10
6553.2444111305
 20
5116.2683049908
  0
LWPOLYLINE
  5
4FA
330
1F
100
AcDbEntity
  8
0
  6
Continuous
 62
     7
100
AcDbPolyline
 90
        3
 70
   128
 43
0.0
 10
6578.7506103516
 20
5116.9376949539
 10
6579.2381826035
 20
5116.9776293894
 10
6579.3120188901
 20
5117.0094738474
  0
LWPOLYLINE
  5
4FB
330
1F
100
AcDbEntity
  8
0
  6
Continuous
 62
     7
100
AcDbPolyline
 90
        6
 70
   128
 43
0.0
 10
6552.9098510742
 20
5117.8031692972
 10
6552.9043931478
 20
5117.8082589165
 10
6552.9026611881
 20
5117.8107984116
 10
6552.9024752452
 20
5117.8133315293
 10
6552.9055229459
 20
5117.8166954249
 10
6553.2444111305
 20
5117.8558150997
  0
LWPOLYLINE
  5
4FC
330
1F
100
AcDbEntity
  8
0
  6
Continuous
 62
     7
100
AcDbPolyline
 90
        3
 70
   128
 43
0.0
 10
6578.7506103516
 20
5118.5252050629
 10
6579.2381825836
 20
5118.5651353611
 10
6579.3120188901
 20
5118.5969690552
  0
LWPOLYLINE
  5
4FD
330
1F
100
AcDbEntity
  8
0
  6
Continuous
 62
     7
100
AcDbPolyline
 90
        6
 70
   128
 43
0.0
 10
6552.9098510742
 20
5119.390664505
 10
6552.9043931447
 20
5119.3957599188
 10
6552.9026611831
 20
5119.3983021113
 10
6552.902475238
 20
5119.4008376866
 10
6552.905522935
 20
5119.4042043476
 10
6553.2444111305
 20
5119.4433103075
  0
LWPOLYLINE
  5
4FE
330
1F
100
AcDbEntity
  8
0
  6
Continuous
 62
     7
100
AcDbPolyline
 90
        3
 70
   128
 43
0.0
 10
6578.7506103516
 20
5120.1127002707
 10
6579.2381825836
 20
5120.1526305689
 10
6579.3120188901
 20
5120.184464263
  0
LWPOLYLINE
  5
4FF
330
1F
100
AcDbEntity
  8
0
  6
Continuous
 62
     7
100
AcDbPolyline
 90
        6
 70
   128
 43
0.0
 10
6552.9098510742
 20
5120.9781597128
 10
6552.9043931447
 20
5120.9832551266
 10
6552.9026611831
 20
5120.9857973191
 10
6552.902475238
 20
5120.9883328944
 10
6552.905522935
 20
5120.9916995554
 10
6553.2444111305
 20
5121.0308055153
  0
LWPOLYLINE
  5
500
330
1F
100
AcDbEntity
  8
0
  6
Continuous
 62
     7
100
AcDbPolyline
 90
        3
 70
   128
 43
0.0
 10
6578.7506103516
 20
5121.7001954785
 10
6579.2381826035
 20
5121.7401299139
 10
6579.3120188901
 20
5121.7719743719
  0
LWPOLYLINE
  5
501
330
1F
100
AcDbEntity
  8
0
  6
Continuous
 62
     7
100
AcDbPolyline
 90
        6
 70
   128
 43
0.0
 10
6552.9098510742
 20
5122.5656549206
 10
6552.9043931455
 20
5122.5707500889
 10
6552.9026611844
 20
5122.5732922153
 10
6552.90247524
 20
5122.5758277925
 10
6552.905522938
 20
5122.579194601
 10
6553.2444111305
 20
5122.6183156243
  0
LWPOLYLINE
  5
502
330
1F
100
AcDbEntity
  8
0
  6
Continuous
 62
     7
100
AcDbPolyline
 90
        3
 70
   128
 43
0.0
 10
6578.7506103516
 20
5123.2877055874
 10
6579.2381825836
 20
5123.3276358856
 10
6579.3120188901
 20
5123.3594695797
  0
LWPOLYLINE
  5
503
330
1F
100
AcDbEntity
  8
0
  6
Continuous
 62
     7
100
AcDbPolyline
 90
        3
 70
   128
 43
0.0
 10
6552.1049499512
 20
5287.3994546236
 10
6552.7595652893
 20
5287.4514747004
 10
6553.9060172305
 20
5287.492347764
  0
LWPOLYLINE
  5
504
330
1F
100
AcDbEntity
  8
0
  6
Continuous
 62
     7
100
AcDbPolyline
 90
        3
 70
   128
 43
0.0
 10
6553.9054870605
 20
5135.9065602293
 10
6552.5173823399
 20
5135.9585818696
 10
6552.1060172032
 20
5135.9994540682
  0
LWPOLYLINE
  5
505
330
1F
100
AcDbEntity
  8
0
  6
Continuous
 62
     7
100
AcDbPolyline
 90
        3
 70
   128
 43
0.0
 10
6553.1044006348
 20
5135.9994540682
 10
6553.3964873122
 20
5135.3822893724
 10
6553.9060172305
 20
5135.1994554272
  0
LWPOLYLINE
  5
506
330
1F
100
AcDbEntity
  8
0
  6
Continuous
 62
     7
100
AcDbPolyline
 90
        3
 70
   128
 43
0.0
 10
6552.1049499512
 20
5135.9994540682
 10
6552.7595653333
 20
5134.6108196592
 10
6553.9060172305
 20
5134.1994534006
  0
LWPOLYLINE
  5
507
330
1F
100
AcDbEntity
  8
0
  6
Continuous
 62
     7
100
AcDbPolyline
 90
        3
 70
   128
 43
0.0
 10
6553.9054870605
 20
5289.1994545927
 10
6552.5173852094
 20
5288.5459041462
 10
6552.1060172032
 20
5287.3994546236
  0
LWPOLYLINE
  5
508
330
1F
100
AcDbEntity
  8
0
  6
Continuous
 62
     7
100
AcDbPolyline
 90
        3
 70
   128
 43
0.0
 10
6553.9054870605
 20
5288.1994545452
 10
6553.2888474461
 20
5287.9089878334
 10
6553.1060172507
 20
5287.3994546236
  0
LWPOLYLINE
  5
509
330
1F
100
AcDbEntity
  8
0
  6
Continuous
 62
     7
100
AcDbPolyline
 90
        3
 70
   128
 43
0.0
 10
6632.6332092285
 20
5235.063029336
 10
6632.3934492099
 20
5234.838732483
 10
6632.1060208866
 20
5234.6556166878
  0
LWPOLYLINE
  5
50A
330
1F
100
AcDbEntity
  8
0
  6
Continuous
 62
     7
100
AcDbPolyline
 90
        3
 70
   128
 43
0.0
 10
6633.1062316895
 20
5244.969608145
 10
6633.107597836
 20
5245.1205847664
 10
6633.1052406022
 20
5245.2392036786
  0
LWPOLYLINE
  5
50B
330
1F
100
AcDbEntity
  8
0
  6
Continuous
 62
     7
100
AcDbPolyline
 90
        3
 70
   128
 43
0.0
 10
6327.2933959961
 20
4900.1268306632
 10
6327.5191737277
 20
4900.1372797695
 10
6327.6937630769
 20
4900.1499498148
  0
LWPOLYLINE
  5
50C
330
1F
100
AcDbEntity
  8
0
  6
Continuous
 62
     7
100
AcDbPolyline
 90
        3
 70
   128
 43
0.0
 10
6194.0002441406
 20
4851.9282946248
 10
6195.7364647476
 20
4851.3279695982
 10
6196.5561967852
 20
4851.2501502294
  0
LWPOLYLINE
  5
50D
330
1F
100
AcDbEntity
  8
0
  6
Continuous
 62
     7
100
AcDbPolyline
 90
        3
 70
   128
 43
0.0
 10
6208.610534668
 20
4851.1966036294
 10
6208.9292154865
 20
4851.6397483854
 10
6209.1265704595
 20
4851.9999475812
  0
LWPOLYLINE
  5
50E
330
1F
100
AcDbEntity
  8
0
  6
Continuous
 62
     7
100
AcDbPolyline
 90
        3
 70
   128
 43
0.0
 10
6175.708770752
 20
4922.4422220025
 10
6175.5372849398
 20
4920.8254078292
 10
6175.7107984783
 20
4919.4813566167
  0
LINE
  5
50F
330
1F
100
AcDbEntity
  8
0
  6
Continuous
 62
     7
100
AcDbLine
 10
6307.3120117188
 20
4839.6749505658
 30
0.0
 11
6308.0205649646
 21
4839.6749505658
 31
0.0
  0
LINE
  5
510
330
1F
100
AcDbEntity
  8
0
  6
Continuous
 62
     7
100
AcDbLine
 10
6311.0656738281
 20
4839.6749505658
 30
0.0
 11
6310.8981542798
 21
4839.6749505658
 31
0.0
  0
LINE
  5
511
330
1F
100
AcDbEntity
  8
0
  6
Continuous
 62
     7
100
AcDbLine
 10
6311.1267089844
 20
4839.6749505658
 30
0.0
 11
6311.0690854999
 21
4839.6749505658
 31
0.0
  0
LWPOLYLINE
  5
512
330
1F
100
AcDbEntity
  8
0
  6
Continuous
 62
     7
100
AcDbPolyline
 90
        9
 70
   128
 43
0.0
 10
6244.2665100098
 20
4929.0649525576
 10
6239.1401454936
 20
4922.3758675208
 10
6239.1408995708
 20
4913.9492483539
 10
6244.3033465298
 20
4907.292664683
 10
6252.4704978996
 20
4905.2404771762
 10
6260.1423149054
 20
4908.7063953141
 10
6263.9556224544
 20
4916.208820542
 10
6262.1864097262
 20
4924.4339216642
 10
6255.5993956091
 20
4929.6629466001
  0
LWPOLYLINE
  5
513
330
1F
100
AcDbEntity
  8
0
  6
Continuous
 62
     7
100
AcDbPolyline
 90
        3
 70
   128
 43
0.0
 10
6246.150970459
 20
4929.1430337938
 10
6256.1537269003
 20
4929.9791657162
 10
6262.5686910512
 20
4925.2350977507
  0
LWPOLYLINE
  5
514
330
1F
100
AcDbEntity
  8
0
  6
Continuous
 62
     7
100
AcDbPolyline
 90
        3
 70
   128
 43
0.0
 10
6255.5961608887
 20
4929.6629466001
 10
6250.2440376472
 20
4930.2954298981
 10
6246.1528119209
 20
4929.1430337938
  0
ARC
  5
515
330
1F
100
AcDbEntity
  8
0
  6
Continuous
 62
     7
100
AcDbCircle
 10
6251.5412281639
 20
4917.9693400923
 30
0.0
 40
13.20334392490214
100
AcDbArc
 50
142.2694886174
 51
33.3873757572
  0
LWPOLYLINE
  5
516
330
1F
100
AcDbEntity
  8
0
  6
Continuous
 62
     7
100
AcDbPolyline
 90
        3
 70
   128
 43
0.0
 10
6246.150970459
 20
4929.1430337938
 10
6250.7984654264
 20
4930.3348172761
 10
6254.5608591797
 20
4929.9512787141
  0
LWPOLYLINE
  5
517
330
1F
100
AcDbEntity
  8
0
  6
Continuous
 62
     7
100
AcDbPolyline
 90
        3
 70
   128
 43
0.0
 10
6327.2018432617
 20
4931.9999505418
 10
6327.255713052
 20
4931.3464000069
 10
6327.2965860131
 20
4930.1999505145
  0
LWPOLYLINE
  5
518
330
1F
100
AcDbEntity
  8
0
  6
Continuous
 62
     7
100
AcDbPolyline
 90
        3
 70
   128
 43
0.0
 10
6175.708770752
 20
4930.1999505145
 10
6175.7628199684
 20
4931.5885825356
 10
6175.8036923172
 20
4931.9999505418
  0
LWPOLYLINE
  5
519
330
1F
100
AcDbEntity
  8
0
  6
Continuous
 62
     7
100
AcDbPolyline
 90
        3
 70
   128
 43
0.0
 10
6175.8003234863
 20
4931.9999505418
 10
6174.4150579059
 20
4931.3464024558
 10
6174.0036916497
 20
4930.1999505145
  0
LWPOLYLINE
  5
51A
330
1F
100
AcDbEntity
  8
0
  6
Continuous
 62
     7
100
AcDbPolyline
 90
        3
 70
   128
 43
0.0
 10
6175.8003234863
 20
4930.9999504943
 10
6175.1865276162
 20
4930.7094805315
 10
6175.0036936762
 20
4930.1999505145
  0
LWPOLYLINE
  5
51B
330
1F
100
AcDbEntity
  8
0
  6
Continuous
 62
     7
100
AcDbPolyline
 90
        3
 70
   128
 43
0.0
 10
6328.0029296875
 20
4930.1999505145
 10
6327.7132259861
 20
4930.817120292
 10
6327.2036928727
 20
4930.9999504943
  0
LWPOLYLINE
  5
51C
330
1F
100
AcDbEntity
  8
0
  6
Continuous
 62
     7
100
AcDbPolyline
 90
        3
 70
   128
 43
0.0
 10
6329.0023803711
 20
4930.1999505145
 10
6328.3501423522
 20
4931.5885825325
 10
6327.2036928727
 20
4931.9999505418
  0
LWPOLYLINE
  5
51D
330
1F
100
AcDbEntity
  8
0
  6
Continuous
 62
     7
100
AcDbPolyline
 90
        3
 70
   128
 43
0.0
 10
6209.1903686523
 20
4851.9999468584
 10
6209.0936790428
 20
4851.835684605
 10
6208.9863282206
 20
4851.7357790727
  0
ENDSEC
  0
SECTION
  2
OBJECTS
  0
DICTIONARY
  5
C
330
0
100
AcDbDictionary
281
     1
  3
ACAD_GROUP
350
D
  3
ACAD_LAYOUT
350
1A
  3
ACAD_MLINESTYLE
350
17
  3
ACAD_PLOTSETTINGS
350
19
  3
ACAD_PLOTSTYLENAME
350
E
  3
ACAD_SCALELIST
350
47
  3
DWGPROPS
350
51E
  0
DICTIONARY
  5
D
102
{ACAD_REACTORS
330
C
102
}
330
C
100
AcDbDictionary
281
     1
  0
DICTIONARY
  5
1A
102
{ACAD_REACTORS
330
C
102
}
330
C
100
AcDbDictionary
281
     1
  3
Layout1
350
1E
  3
Layout2
350
26
  3
Model
350
22
  0
DICTIONARY
  5
17
102
{ACAD_REACTORS
330
C
102
}
330
C
100
AcDbDictionary
281
     1
  3
Standard
350
18
  0
DICTIONARY
  5
19
102
{ACAD_REACTORS
330
C
102
}
330
C
100
AcDbDictionary
281
     1
  0
ACDBDICTIONARYWDFLT
  5
E
102
{ACAD_REACTORS
330
C
102
}
330
C
100
AcDbDictionary
281
     1
  3
Normal
350
F
100
AcDbDictionaryWithDefault
340
F
  0
DICTIONARY
  5
47
102
{ACAD_REACTORS
330
C
102
}
330
C
100
AcDbDictionary
281
     1
  3
A0
350
48
  3
A1
350
49
  3
A2
350
4A
  3
A3
350
4B
  3
A4
350
4C
  3
A5
350
4D
  3
A6
350
4E
  3
A7
350
4F
  3
A8
350
50
  3
A9
350
51
  3
B0
350
52
  3
B1
350
53
  3
B2
350
54
  3
B3
350
55
  3
B4
350
56
  3
B5
350
57
  3
B6
350
58
  3
B7
350
59
  3
B8
350
5A
  3
B9
350
5B
  3
C0
350
5C
  3
C1
350
5D
  3
C2
350
5E
  3
C3
350
5F
  3
C4
350
60
  3
C5
350
61
  3
C6
350
62
  3
C7
350
63
  3
C8
350
64
  3
C9
350
65
  3
D0
350
66
  3
D1
350
67
  3
D2
350
68
  0
XRECORD
  5
51E
102
{ACAD_REACTORS
330
C
102
}
330
C
100
AcDbXrecord
280
     1
  1
DWGPROPS COOKIE
  2

  3

  4

  6

  7

  8
radek.stransky
  9

300
=
301
=
302
=
303
=
304
=
305
=
306
=
307
=
308
=
309
=
 40
0.0
 41
2459103.377809653
 42
2459103.377966134
  1

 90
        0
  0
LAYOUT
  5
1E
102
{ACAD_REACTORS
330
1A
102
}
330
1A
100
AcDbPlotSettings
  1

  2
none_device
  4

  6

 40
0.0
 41
0.0
 42
0.0
 43
0.0
 44
0.0
 45
0.0
 46
0.0
 47
0.0
 48
0.0
 49
0.0
140
0.0
141
0.0
142
1.0
143
1.0
 70
   688
 72
     1
 73
     0
 74
     5
  7

 75
    16
147
1.0
148
0.0
149
0.0
100
AcDbLayout
  1
Layout1
 70
     1
 71
     1
 10
0.0
 20
0.0
 11
420.0
 21
297.0
 12
0.0
 22
0.0
 32
0.0
 14
1.0000000000E+20
 24
1.0000000000E+20
 34
1.0000000000E+20
 15
-1.0000000000E+20
 25
-1.0000000000E+20
 35
-1.0000000000E+20
146
0.0
 13
0.0
 23
0.0
 33
0.0
 16
1.0
 26
0.0
 36
0.0
 17
0.0
 27
1.0
 37
0.0
 76
     0
330
1B
  0
LAYOUT
  5
26
102
{ACAD_REACTORS
330
1A
102
}
330
1A
100
AcDbPlotSettings
  1

  2
none_device
  4

  6

 40
0.0
 41
0.0
 42
0.0
 43
0.0
 44
0.0
 45
0.0
 46
0.0
 47
0.0
 48
0.0
 49
0.0
140
0.0
141
0.0
142
1.0
143
1.0
 70
   688
 72
     1
 73
     0
 74
     5
  7

 75
    16
147
1.0
148
0.0
149
0.0
100
AcDbLayout
  1
Layout2
 70
     1
 71
     2
 10
0.0
 20
0.0
 11
0.0
 21
0.0
 12
0.0
 22
0.0
 32
0.0
 14
0.0
 24
0.0
 34
0.0
 15
0.0
 25
0.0
 35
0.0
146
0.0
 13
0.0
 23
0.0
 33
0.0
 16
1.0
 26
0.0
 36
0.0
 17
0.0
 27
1.0
 37
0.0
 76
     0
330
23
  0
LAYOUT
  5
22
102
{ACAD_REACTORS
330
1A
102
}
330
1A
100
AcDbPlotSettings
  1

  2
none_device
  4
ANSI_A_(11.00_x_8.50_Inches)
  6

 40
6.35
 41
19.05
 42
6.35000508
 43
19.05000254
 44
279.4
 45
215.9
 46
-2475.5316484419
 47
-1958.9596004498
 48
0.0
 49
0.0
140
0.0
141
0.0
142
0.015967757
143
1.0
 70
  1696
 72
     0
 73
     0
 74
     0
  7

 75
     0
147
0.0179189148
148
-1300.4909072572
149
0.0
100
AcDbLayout
  1
Model
 70
     1
 71
     0
 10
0.0
 20
0.0
 11
420.0
 21
297.0
 12
0.0
 22
0.0
 32
0.0
 14
6166.5036988022
 24
4785.6999495883
 34
0.0
 15
6698.4060181567
 25
5312.6994537881
 35
0.0
146
0.0
 13
0.0
 23
0.0
 33
0.0
 16
1.0
 26
0.0
 36
0.0
 17
0.0
 27
1.0
 37
0.0
 76
     0
330
1F
331
29
  0
MLINESTYLE
  5
18
102
{ACAD_REACTORS
330
17
102
}
330
17
100
AcDbMlineStyle
  2
Standard
 70
     0
  3

 62
   256
 51
90.0
 52
90.0
 71
     2
 49
0.5
 62
   256
  6
BYLAYER
 49
-0.5
 62
   256
  6
BYLAYER
  0
ACDBPLACEHOLDER
  5
F
102
{ACAD_REACTORS
330
E
102
}
330
E
  0
SCALE
  5
48
102
{ACAD_REACTORS
330
47
102
}
330
47
100
AcDbScale
 70
     0
300
1:1
140
1.0
141
1.0
290
     1
  0
SCALE
  5
49
102
{ACAD_REACTORS
330
47
102
}
330
47
100
AcDbScale
 70
     0
300
1:2
140
1.0
141
2.0
290
     0
  0
SCALE
  5
4A
102
{ACAD_REACTORS
330
47
102
}
330
47
100
AcDbScale
 70
     0
300
1:4
140
1.0
141
4.0
290
     0
  0
SCALE
  5
4B
102
{ACAD_REACTORS
330
47
102
}
330
47
100
AcDbScale
 70
     0
300
1:5
140
1.0
141
5.0
290
     0
  0
SCALE
  5
4C
102
{ACAD_REACTORS
330
47
102
}
330
47
100
AcDbScale
 70
     0
300
1:8
140
1.0
141
8.0
290
     0
  0
SCALE
  5
4D
102
{ACAD_REACTORS
330
47
102
}
330
47
100
AcDbScale
 70
     0
300
1:10
140
1.0
141
10.0
290
     0
  0
SCALE
  5
4E
102
{ACAD_REACTORS
330
47
102
}
330
47
100
AcDbScale
 70
     0
300
1:16
140
1.0
141
16.0
290
     0
  0
SCALE
  5
4F
102
{ACAD_REACTORS
330
47
102
}
330
47
100
AcDbScale
 70
     0
300
1:20
140
1.0
141
20.0
290
     0
  0
SCALE
  5
50
102
{ACAD_REACTORS
330
47
102
}
330
47
100
AcDbScale
 70
     0
300
1:30
140
1.0
141
30.0
290
     0
  0
SCALE
  5
51
102
{ACAD_REACTORS
330
47
102
}
330
47
100
AcDbScale
 70
     0
300
1:40
140
1.0
141
40.0
290
     0
  0
SCALE
  5
52
102
{ACAD_REACTORS
330
47
102
}
330
47
100
AcDbScale
 70
     0
300
1:50
140
1.0
141
50.0
290
     0
  0
SCALE
  5
53
102
{ACAD_REACTORS
330
47
102
}
330
47
100
AcDbScale
 70
     0
300
1:100
140
1.0
141
100.0
290
     0
  0
SCALE
  5
54
102
{ACAD_REACTORS
330
47
102
}
330
47
100
AcDbScale
 70
     0
300
2:1
140
2.0
141
1.0
290
     0
  0
SCALE
  5
55
102
{ACAD_REACTORS
330
47
102
}
330
47
100
AcDbScale
 70
     0
300
4:1
140
4.0
141
1.0
290
     0
  0
SCALE
  5
56
102
{ACAD_REACTORS
330
47
102
}
330
47
100
AcDbScale
 70
     0
300
8:1
140
8.0
141
1.0
290
     0
  0
SCALE
  5
57
102
{ACAD_REACTORS
330
47
102
}
330
47
100
AcDbScale
 70
     0
300
10:1
140
10.0
141
1.0
290
     0
  0
SCALE
  5
58
102
{ACAD_REACTORS
330
47
102
}
330
47
100
AcDbScale
 70
     0
300
100:1
140
100.0
141
1.0
290
     0
  0
SCALE
  5
59
102
{ACAD_REACTORS
330
47
102
}
330
47
100
AcDbScale
 70
     0
300
1/128" = 1'-0"
140
0.0078125
141
12.0
290
     0
  0
SCALE
  5
5A
102
{ACAD_REACTORS
330
47
102
}
330
47
100
AcDbScale
 70
     0
300
1/64" = 1'-0"
140
0.015625
141
12.0
290
     0
  0
SCALE
  5
5B
102
{ACAD_REACTORS
330
47
102
}
330
47
100
AcDbScale
 70
     0
300
1/32" = 1'-0"
140
0.03125
141
12.0
290
     0
  0
SCALE
  5
5C
102
{ACAD_REACTORS
330
47
102
}
330
47
100
AcDbScale
 70
     0
300
1/16" = 1'-0"
140
0.0625
141
12.0
290
     0
  0
SCALE
  5
5D
102
{ACAD_REACTORS
330
47
102
}
330
47
100
AcDbScale
 70
     0
300
3/32" = 1'-0"
140
0.09375
141
12.0
290
     0
  0
SCALE
  5
5E
102
{ACAD_REACTORS
330
47
102
}
330
47
100
AcDbScale
 70
     0
300
1/8" = 1'-0"
140
0.125
141
12.0
290
     0
  0
SCALE
  5
5F
102
{ACAD_REACTORS
330
47
102
}
330
47
100
AcDbScale
 70
     0
300
3/16" = 1'-0"
140
0.1875
141
12.0
290
     0
  0
SCALE
  5
60
102
{ACAD_REACTORS
330
47
102
}
330
47
100
AcDbScale
 70
     0
300
1/4" = 1'-0"
140
0.25
141
12.0
290
     0
  0
SCALE
  5
61
102
{ACAD_REACTORS
330
47
102
}
330
47
100
AcDbScale
 70
     0
300
3/8" = 1'-0"
140
0.375
141
12.0
290
     0
  0
SCALE
  5
62
102
{ACAD_REACTORS
330
47
102
}
330
47
100
AcDbScale
 70
     0
300
1/2" = 1'-0"
140
0.5
141
12.0
290
     0
  0
SCALE
  5
63
102
{ACAD_REACTORS
330
47
102
}
330
47
100
AcDbScale
 70
     0
300
3/4" = 1'-0"
140
0.75
141
12.0
290
     0
  0
SCALE
  5
64
102
{ACAD_REACTORS
330
47
102
}
330
47
100
AcDbScale
 70
     0
300
1" = 1'-0"
140
1.0
141
12.0
290
     0
  0
SCALE
  5
65
102
{ACAD_REACTORS
330
47
102
}
330
47
100
AcDbScale
 70
     0
300
1-1/2" = 1'-0"
140
1.5
141
12.0
290
     0
  0
SCALE
  5
66
102
{ACAD_REACTORS
330
47
102
}
330
47
100
AcDbScale
 70
     0
300
3" = 1'-0"
140
3.0
141
12.0
290
     0
  0
SCALE
  5
67
102
{ACAD_REACTORS
330
47
102
}
330
47
100
AcDbScale
 70
     0
300
6" = 1'-0"
140
6.0
141
12.0
290
     0
  0
SCALE
  5
68
102
{ACAD_REACTORS
330
47
102
}
330
47
100
AcDbScale
 70
     0
300
1'-0" = 1'-0"
140
12.0
141
12.0
290
     0
  0
ENDSEC
  0
EOF
