  0
SECTION
  2
HEADER
  9
$ACADVER
  1
AC1015
  9
$ACADMAINTVER
 70
     6
  9
$DWGCODEPAGE
  3
ANSI_1250
  9
$INSBASE
 10
0.0
 20
0.0
 30
0.0
  9
$EXTMIN
 10
-8660.4452941515
 20
-11679.1738508385
 30
0.0
  9
$EXTMAX
 10
11435.3578554535
 20
14473.757806824
 30
0.0
  9
$LIMMIN
 10
0.0
 20
0.0
  9
$LIMMAX
 10
420.0
 20
297.0
  9
$ORTHOMODE
 70
     0
  9
$REGENMODE
 70
     1
  9
$FILLMODE
 70
     1
  9
$QTEXTMODE
 70
     0
  9
$MIRRTEXT
 70
     1
  9
$LTSCALE
 40
1.0
  9
$ATTMODE
 70
     1
  9
$TEXTSIZE
 40
3.5
  9
$TRACEWID
 40
1.0
  9
$TEXTSTYLE
  7
Standard
  9
$CLAYER
  8
0
  9
$CELTYPE
  6
ByLayer
  9
$CECOLOR
 62
   256
  9
$CELTSCALE
 40
1.0
  9
$DISPSILH
 70
     0
  9
$DIMSCALE
 40
1.0
  9
$DIMASZ
 40
3.302
  9
$DIMEXO
 40
0.0
  9
$DIMDLI
 40
3.75
  9
$DIMRND
 40
0.0
  9
$DIMDLE
 40
0.0
  9
$DIMEXE
 40
1.0
  9
$DIMTP
 40
0.0
  9
$DIMTM
 40
0.0
  9
$DIMTXT
 40
3.5
  9
$DIMCEN
 40
2.5
  9
$DIMTSZ
 40
0.0
  9
$DIMTOL
 70
     0
  9
$DIMLIM
 70
     0
  9
$DIMTIH
 70
     1
  9
$DIMTOH
 70
     1
  9
$DIMSE1
 70
     0
  9
$DIMSE2
 70
     0
  9
$DIMTAD
 70
     1
  9
$DIMZIN
 70
     0
  9
$DIMBLK
  1

  9
$DIMASO
 70
     1
  9
$DIMSHO
 70
     1
  9
$DIMPOST
  1

  9
$DIMAPOST
  1

  9
$DIMALT
 70
     0
  9
$DIMALTD
 70
     3
  9
$DIMALTF
 40
0.0393700787
  9
$DIMLFAC
 40
1.0
  9
$DIMTOFL
 70
     1
  9
$DIMTVP
 40
0.0
  9
$DIMTIX
 70
     0
  9
$DIMSOXD
 70
     0
  9
$DIMSAH
 70
     0
  9
$DIMBLK1
  1

  9
$DIMBLK2
  1

  9
$DIMSTYLE
  2
ISO-25
  9
$DIMCLRD
 70
     0
  9
$DIMCLRE
 70
     0
  9
$DIMCLRT
 70
     0
  9
$DIMTFAC
 40
1.0
  9
$DIMGAP
 40
1.524
  9
$DIMJUST
 70
     0
  9
$DIMSD1
 70
     0
  9
$DIMSD2
 70
     0
  9
$DIMTOLJ
 70
     0
  9
$DIMTZIN
 70
     0
  9
$DIMALTZ
 70
     0
  9
$DIMALTTZ
 70
     0
  9
$DIMUPT
 70
     0
  9
$DIMDEC
 70
     2
  9
$DIMTDEC
 70
     2
  9
$DIMALTU
 70
     2
  9
$DIMALTTD
 70
     3
  9
$DIMTXSTY
  7
Standard
  9
$DIMAUNIT
 70
     0
  9
$DIMADEC
 70
     2
  9
$DIMALTRND
 40
0.0
  9
$DIMAZIN
 70
     0
  9
$DIMDSEP
 70
    44
  9
$DIMATFIT
 70
     3
  9
$DIMFRAC
 70
     0
  9
$DIMLDRBLK
  1

  9
$DIMLUNIT
 70
     2
  9
$DIMLWD
 70
    -2
  9
$DIMLWE
 70
    -2
  9
$DIMTMOVE
 70
     0
  9
$LUNITS
 70
     2
  9
$LUPREC
 70
     2
  9
$SKETCHINC
 40
1.0
  9
$FILLETRAD
 40
10.0
  9
$AUNITS
 70
     0
  9
$AUPREC
 70
     2
  9
$MENU
  1
.
  9
$ELEVATION
 40
0.0
  9
$PELEVATION
 40
0.0
  9
$THICKNESS
 40
0.0
  9
$LIMCHECK
 70
     0
  9
$CHAMFERA
 40
0.0
  9
$CHAMFERB
 40
0.0
  9
$CHAMFERC
 40
0.0
  9
$CHAMFERD
 40
0.0
  9
$SKPOLY
 70
     0
  9
$TDCREATE
 40
2459103.315373542
  9
$TDUCREATE
 40
2459103.232040208
  9
$TDUPDATE
 40
2459103.31544831
  9
$TDUUPDATE
 40
2459103.232114977
  9
$TDINDWG
 40
0.0000000116
  9
$TDUSRTIMER
 40
0.0000000116
  9
$USRTIMER
 70
     1
  9
$ANGBASE
 50
0.0
  9
$ANGDIR
 70
     0
  9
$PDMODE
 70
     0
  9
$PDSIZE
 40
-1.0
  9
$PLINEWID
 40
0.0
  9
$SPLFRAME
 70
     0
  9
$SPLINETYPE
 70
     6
  9
$SPLINESEGS
 70
     8
  9
$HANDSEED
  5
38D
  9
$SURFTAB1
 70
     6
  9
$SURFTAB2
 70
     6
  9
$SURFTYPE
 70
     6
  9
$SURFU
 70
     6
  9
$SURFV
 70
     6
  9
$UCSBASE
  2

  9
$UCSNAME
  2

  9
$UCSORG
 10
0.0
 20
0.0
 30
0.0
  9
$UCSXDIR
 10
1.0
 20
0.0
 30
0.0
  9
$UCSYDIR
 10
0.0
 20
1.0
 30
0.0
  9
$UCSORTHOREF
  2

  9
$UCSORTHOVIEW
 70
     0
  9
$UCSORGTOP
 10
0.0
 20
0.0
 30
0.0
  9
$UCSORGBOTTOM
 10
0.0
 20
0.0
 30
0.0
  9
$UCSORGLEFT
 10
0.0
 20
0.0
 30
0.0
  9
$UCSORGRIGHT
 10
0.0
 20
0.0
 30
0.0
  9
$UCSORGFRONT
 10
0.0
 20
0.0
 30
0.0
  9
$UCSORGBACK
 10
0.0
 20
0.0
 30
0.0
  9
$PUCSBASE
  2

  9
$PUCSNAME
  2

  9
$PUCSORG
 10
0.0
 20
0.0
 30
0.0
  9
$PUCSXDIR
 10
1.0
 20
0.0
 30
0.0
  9
$PUCSYDIR
 10
0.0
 20
1.0
 30
0.0
  9
$PUCSORTHOREF
  2

  9
$PUCSORTHOVIEW
 70
     0
  9
$PUCSORGTOP
 10
0.0
 20
0.0
 30
0.0
  9
$PUCSORGBOTTOM
 10
0.0
 20
0.0
 30
0.0
  9
$PUCSORGLEFT
 10
0.0
 20
0.0
 30
0.0
  9
$PUCSORGRIGHT
 10
0.0
 20
0.0
 30
0.0
  9
$PUCSORGFRONT
 10
0.0
 20
0.0
 30
0.0
  9
$PUCSORGBACK
 10
0.0
 20
0.0
 30
0.0
  9
$USERI1
 70
     0
  9
$USERI2
 70
     0
  9
$USERI3
 70
     0
  9
$USERI4
 70
     0
  9
$USERI5
 70
     0
  9
$USERR1
 40
0.0
  9
$USERR2
 40
0.0
  9
$USERR3
 40
0.0
  9
$USERR4
 40
0.0
  9
$USERR5
 40
0.0
  9
$WORLDVIEW
 70
     1
  9
$SHADEDGE
 70
     3
  9
$SHADEDIF
 70
    70
  9
$TILEMODE
 70
     1
  9
$MAXACTVP
 70
    64
  9
$PINSBASE
 10
0.0
 20
0.0
 30
0.0
  9
$PLIMCHECK
 70
     0
  9
$PEXTMIN
 10
1.0000000000E+20
 20
1.0000000000E+20
 30
1.0000000000E+20
  9
$PEXTMAX
 10
-1.0000000000E+20
 20
-1.0000000000E+20
 30
-1.0000000000E+20
  9
$PLIMMIN
 10
0.0
 20
0.0
  9
$PLIMMAX
 10
420.0
 20
297.0
  9
$UNITMODE
 70
     0
  9
$VISRETAIN
 70
     1
  9
$PLINEGEN
 70
     0
  9
$PSLTSCALE
 70
     1
  9
$TREEDEPTH
 70
  3020
  9
$CMLSTYLE
  2
Standard
  9
$CMLJUST
 70
     0
  9
$CMLSCALE
 40
20.0
  9
$PROXYGRAPHICS
 70
     1
  9
$MEASUREMENT
 70
     1
  9
$CELWEIGHT
370
    -1
  9
$ENDCAPS
280
     0
  9
$JOINSTYLE
280
     0
  9
$LWDISPLAY
290
     1
  9
$INSUNITS
 70
     4
  9
$HYPERLINKBASE
  1

  9
$STYLESHEET
  1

  9
$XEDIT
290
     1
  9
$CEPSNTYPE
380
     0
  9
$PSTYLEMODE
290
     1
  9
$FINGERPRINTGUID
  2
{1457d4d3-1019-4a0c-891b-faaeca7b23be}
  9
$VERSIONGUID
  2
{FAEB1C32-E019-11D5-929B-00C0DF256EC4}
  9
$EXTNAMES
290
     1
  9
$PSVPSCALE
 40
0.0
  9
$OLESTARTUP
290
     0
  0
ENDSEC
  0
SECTION
  2
CLASSES
  0
CLASS
  1
ACDBDICTIONARYWDFLT
  2
AcDbDictionaryWithDefault
  3
ObjectDBX Classes
 90
        0
280
     0
281
     0
  0
CLASS
  1
VISUALSTYLE
  2
AcDbVisualStyle
  3
ObjectDBX Classes
 90
     4095
280
     0
281
     0
  0
CLASS
  1
MATERIAL
  2
AcDbMaterial
  3
ObjectDBX Classes
 90
     1153
280
     0
281
     0
  0
CLASS
  1
SCALE
  2
AcDbScale
  3
ObjectDBX Classes
 90
     1153
280
     0
281
     0
  0
CLASS
  1
TABLESTYLE
  2
AcDbTableStyle
  3
ObjectDBX Classes
 90
     4095
280
     0
281
     0
  0
CLASS
  1
MLEADERSTYLE
  2
AcDbMLeaderStyle
  3
ACDB_MLEADERSTYLE_CLASS
 90
     4095
280
     0
281
     0
  0
CLASS
  1
SUN
  2
AcDbSun
  3
SCENEOE
 90
     1153
280
     0
281
     0
  0
CLASS
  1
ACDBPLACEHOLDER
  2
AcDbPlaceHolder
  3
ObjectDBX Classes
 90
        0
280
     0
281
     0
  0
CLASS
  1
LAYOUT
  2
AcDbLayout
  3
ObjectDBX Classes
 90
        0
280
     0
281
     0
  0
ENDSEC
  0
SECTION
  2
TABLES
  0
TABLE
  2
VPORT
  5
8
330
0
100
AcDbSymbolTable
 70
     1
  0
VPORT
  5
29
330
8
100
AcDbSymbolTableRecord
100
AcDbViewportTableRecord
  2
*Active
 70
     0
 10
0.0
 20
0.0
 11
1.0
 21
1.0
 12
1387.456280651
 22
1397.2919779928
 13
0.0
 23
0.0
 14
10.0
 24
10.0
 15
10.0
 25
10.0
 16
0.0
 26
0.0
 36
1.0
 17
0.0
 27
0.0
 37
0.0
 40
26675.9902908157
 41
0.7683958117
 42
50.0
 43
0.0
 44
0.0
 50
0.0
 51
0.0
 71
     0
 72
   100
 73
     1
 74
     3
 75
     0
 76
     0
 77
     0
 78
     0
281
     0
 65
     1
110
0.0
120
0.0
130
0.0
111
1.0
121
0.0
131
0.0
112
0.0
122
1.0
132
0.0
 79
     0
146
0.0
  0
ENDTAB
  0
TABLE
  2
LTYPE
  5
5
330
0
100
AcDbSymbolTable
 70
     6
  0
LTYPE
  5
14
330
5
100
AcDbSymbolTableRecord
100
AcDbLinetypeTableRecord
  2
ByBlock
 70
     0
  3

 72
    65
 73
     0
 40
0.0
  0
LTYPE
  5
15
330
5
100
AcDbSymbolTableRecord
100
AcDbLinetypeTableRecord
  2
ByLayer
 70
     0
  3

 72
    65
 73
     0
 40
0.0
  0
LTYPE
  5
16
330
5
100
AcDbSymbolTableRecord
100
AcDbLinetypeTableRecord
  2
Continuous
 70
     0
  3
Solid line
 72
    65
 73
     0
 40
0.0
  0
LTYPE
  5
6E
330
5
100
AcDbSymbolTableRecord
100
AcDbLinetypeTableRecord
  2
HIDDEN
 70
     0
  3
Hidden __ __ __ __ __ __ __ __ __ __ __ __ __ __
 72
    65
 73
     2
 40
1.905
 49
1.27
 74
     0
 49
-0.635
 74
     0
  0
LTYPE
  5
6F
330
5
100
AcDbSymbolTableRecord
100
AcDbLinetypeTableRecord
  2
PHANTOM
 70
     0
  3
Phantom ______  __  __  ______  __  __  ______
 72
    65
 73
     6
 40
12.7
 49
6.35
 74
     0
 49
-1.27
 74
     0
 49
1.27
 74
     0
 49
-1.27
 74
     0
 49
1.27
 74
     0
 49
-1.27
 74
     0
  0
LTYPE
  5
70
330
5
100
AcDbSymbolTableRecord
100
AcDbLinetypeTableRecord
  2
CENTER
 70
     0
  3
Center ____ _ ____ _ ____ _ ____ _ ____ _ ____
 72
    65
 73
     4
 40
10.16
 49
6.35
 74
     0
 49
-1.27
 74
     0
 49
1.27
 74
     0
 49
-1.27
 74
     0
  0
LTYPE
  5
71
330
5
100
AcDbSymbolTableRecord
100
AcDbLinetypeTableRecord
  2
CENTERX2
 70
     0
  3
Center (2x) ________  __  ________  __  _____
 72
    65
 73
     4
 40
20.32
 49
12.7
 74
     0
 49
-2.54
 74
     0
 49
2.54
 74
     0
 49
-2.54
 74
     0
  0
LTYPE
  5
72
330
5
100
AcDbSymbolTableRecord
100
AcDbLinetypeTableRecord
  2
DOT2
 70
     0
  3
Dot (.5x) ........................................
 72
    65
 73
     2
 40
0.635
 49
0.0
 74
     0
 49
-0.635
 74
     0
  0
ENDTAB
  0
TABLE
  2
LAYER
  5
2
330
0
100
AcDbSymbolTable
 70
     1
  0
LAYER
  5
10
330
2
100
AcDbSymbolTableRecord
100
AcDbLayerTableRecord
  2
0
 70
     0
 62
     7
  6
Continuous
370
    -3
390
F
  0
ENDTAB
  0
TABLE
  2
STYLE
  5
3
330
0
100
AcDbSymbolTable
 70
     1
  0
STYLE
  5
11
330
3
100
AcDbSymbolTableRecord
100
AcDbTextStyleTableRecord
  2
Standard
 70
     0
 40
0.0
 41
1.0
 50
0.0
 71
     0
 42
3.5
  3
txt
  4

  0
ENDTAB
  0
TABLE
  2
VIEW
  5
6
330
0
100
AcDbSymbolTable
 70
     0
  0
ENDTAB
  0
TABLE
  2
UCS
  5
7
330
0
100
AcDbSymbolTable
 70
     0
  0
ENDTAB
  0
TABLE
  2
APPID
  5
9
330
0
100
AcDbSymbolTable
 70
     1
  0
APPID
  5
12
330
9
100
AcDbSymbolTableRecord
100
AcDbRegAppTableRecord
  2
ACAD
 70
     0
  0
ENDTAB
  0
TABLE
  2
DIMSTYLE
  5
A
330
0
100
AcDbSymbolTable
 70
     1
100
AcDbDimStyleTable
  0
DIMSTYLE
105
27
330
A
100
AcDbSymbolTableRecord
100
AcDbDimStyleTableRecord
  2
ISO-25
 70
     0
 41
2.5
 42
0.625
 43
3.75
 44
1.25
 73
     0
 74
     0
 77
     1
 78
     8
140
2.5
141
2.5
143
0.0393700787
147
0.625
171
     3
172
     1
178
     0
271
     2
272
     2
274
     3
278
    44
283
     0
284
     8
340
11
  0
ENDTAB
  0
TABLE
  2
BLOCK_RECORD
  5
1
330
0
100
AcDbSymbolTable
 70
     1
  0
BLOCK_RECORD
  5
1F
330
1
100
AcDbSymbolTableRecord
100
AcDbBlockTableRecord
  2
*Model_Space
340
22
  0
BLOCK_RECORD
  5
1B
330
1
100
AcDbSymbolTableRecord
100
AcDbBlockTableRecord
  2
*Paper_Space
340
1E
  0
BLOCK_RECORD
  5
23
330
1
100
AcDbSymbolTableRecord
100
AcDbBlockTableRecord
  2
*Paper_Space0
340
26
  0
ENDTAB
  0
ENDSEC
  0
SECTION
  2
BLOCKS
  0
BLOCK
  5
20
330
1F
100
AcDbEntity
  8
0
100
AcDbBlockBegin
  2
*Model_Space
 70
     0
 10
0.0
 20
0.0
 30
0.0
  3
*Model_Space
  1

  0
ENDBLK
  5
21
330
1F
100
AcDbEntity
  8
0
100
AcDbBlockEnd
  0
BLOCK
  5
1C
330
1B
100
AcDbEntity
 67
     1
  8
0
100
AcDbBlockBegin
  2
*Paper_Space
 70
     0
 10
0.0
 20
0.0
 30
0.0
  3
*Paper_Space
  1

  0
ENDBLK
  5
1D
330
1B
100
AcDbEntity
 67
     1
  8
0
100
AcDbBlockEnd
  0
BLOCK
  5
24
330
23
100
AcDbEntity
  8
0
100
AcDbBlockBegin
  2
*Paper_Space0
 70
     0
 10
0.0
 20
0.0
 30
0.0
  3
*Paper_Space0
  1

  0
ENDBLK
  5
25
330
23
100
AcDbEntity
  8
0
100
AcDbBlockEnd
  0
ENDSEC
  0
SECTION
  2
ENTITIES
  0
ARC
  5
73
330
1F
100
AcDbEntity
  8
0
  6
Continuous
 62
     7
100
AcDbCircle
 10
-1147.9452941515
 20
-11591.6738508385
 30
0.0
 40
87.50000000000546
100
AcDbArc
 50
270.0
 51
360.0
  0
ARC
  5
74
330
1F
100
AcDbEntity
  8
0
  6
Continuous
 62
     7
100
AcDbCircle
 10
-8572.9452941515
 20
-11591.6738508385
 30
0.0
 40
87.50000000000546
100
AcDbArc
 50
180.0
 51
270.0
  0
ARC
  5
75
330
1F
100
AcDbEntity
  8
0
  6
Continuous
 62
     7
100
AcDbCircle
 10
-8610.4452941515
 20
-11522.4751210277
 30
0.0
 40
50.0
100
AcDbArc
 50
120.0
 51
180.0000000009
  0
ARC
  5
76
330
1F
100
AcDbEntity
  8
0
  6
Continuous
 62
     7
100
AcDbCircle
 10
-1110.4452941515
 20
-11522.4751210277
 30
0.0
 40
50.00000000000341
100
AcDbArc
 50
359.9999999991
 51
60.0
  0
ARC
  5
77
330
1F
100
AcDbEntity
  8
0
  6
Continuous
 62
     7
100
AcDbCircle
 10
-1135.4452941515
 20
839.1274193507
 30
0.0
 40
50.00000000000341
100
AcDbArc
 50
300.0
 51
359.9999999952
  0
ARC
  5
78
330
1F
100
AcDbEntity
  8
0
  6
Continuous
 62
     7
100
AcDbCircle
 10
-8585.4452941515
 20
839.1274193507
 30
0.0
 40
49.99999999999729
100
AcDbArc
 50
180.0000000048
 51
240.0
  0
ARC
  5
79
330
1F
100
AcDbEntity
  8
0
  6
Continuous
 62
     7
100
AcDbCircle
 10
-8547.9452941515
 20
908.3261491615
 30
0.0
 40
87.50000000001364
100
AcDbArc
 50
90.0
 51
180.0
  0
ARC
  5
7A
330
1F
100
AcDbEntity
  8
0
  6
Continuous
 62
     7
100
AcDbCircle
 10
-1172.9452941515
 20
908.3261491615
 30
0.0
 40
87.50000000000921
100
AcDbArc
 50
0.0
 51
90.0
  0
CIRCLE
  5
7B
330
1F
100
AcDbEntity
  8
0
  6
Continuous
 62
     7
100
AcDbCircle
 10
-4860.4452941515
 20
7974.3171502815
 30
0.0
 40
3550.0
  0
CIRCLE
  5
7C
330
1F
100
AcDbEntity
  8
0
  6
Continuous
 62
     7
100
AcDbCircle
 10
-4860.4452941515
 20
7974.3171502815
 30
0.0
 40
3800.000000000007
  0
CIRCLE
  5
7D
330
1F
100
AcDbEntity
  8
0
  6
Continuous
 62
     7
100
AcDbCircle
 10
-4860.4452941515
 20
7974.3171502815
 30
0.0
 40
3574.999999999999
  0
CIRCLE
  5
7E
330
1F
100
AcDbEntity
  8
0
  6
Continuous
 62
     7
100
AcDbCircle
 10
-4860.4452941515
 20
7974.3171502815
 30
0.0
 40
3662.499999999999
  0
CIRCLE
  5
7F
330
1F
100
AcDbEntity
  8
0
  6
Continuous
 62
     7
100
AcDbCircle
 10
-4860.4452941515
 20
7974.3171502815
 30
0.0
 40
3687.500000000003
  0
CIRCLE
  5
80
330
1F
100
AcDbEntity
  8
0
  6
Continuous
 62
     7
100
AcDbCircle
 10
-4860.4452941515
 20
7974.3171502815
 30
0.0
 40
3775.000000000004
  0
ARC
  5
81
330
1F
100
AcDbEntity
  8
0
  6
Continuous
 62
     7
100
AcDbCircle
 10
5115.3162392989
 20
2107.2159426785
 30
0.0
 40
1279.867864846249
100
AcDbArc
 50
168.3402043158
 51
192.4517469295
  0
ARC
  5
82
330
1F
100
AcDbEntity
  8
0
  6
Continuous
 62
     7
100
AcDbCircle
 10
10155.4172374818
 20
2107.2376198496
 30
0.0
 40
1279.851027007429
100
AcDbArc
 50
347.7268699774
 51
11.9578163614
  0
ARC
  5
83
330
1F
100
AcDbEntity
  8
0
  6
Continuous
 62
     7
100
AcDbCircle
 10
5107.5682928609
 20
2050.9163127346
 30
0.0
 40
1272.210448379892
100
AcDbArc
 50
180.0075250535
 51
186.8543307694
  0
ARC
  5
84
330
1F
100
AcDbEntity
  8
0
  6
Continuous
 62
     7
100
AcDbCircle
 10
5137.5654276884
 20
2039.3245802882
 30
0.0
 40
1277.241575947113
100
AcDbArc
 50
168.2017560745
 51
177.6553873809
  0
ARC
  5
85
330
1F
100
AcDbEntity
  8
0
  6
Continuous
 62
     7
100
AcDbCircle
 10
10128.7071621786
 20
2038.7760676975
 30
0.0
 40
1281.703469282041
100
AcDbArc
 50
2.3609866533
 51
11.8233540779
  0
ARC
  5
86
330
1F
100
AcDbEntity
  8
0
  6
Continuous
 62
     7
100
AcDbCircle
 10
9924.6532098805
 20
2023.7598202774
 30
0.0
 40
1385.913236017195
100
AcDbArc
 50
323.6554381724
 51
359.0059178841
  0
ARC
  5
87
330
1F
100
AcDbEntity
  8
0
  6
Continuous
 62
     7
100
AcDbCircle
 10
5346.0625010263
 20
2023.7598202845
 30
0.0
 40
1385.913236017079
100
AcDbArc
 50
180.9940821162
 51
216.344561828
  0
ARC
  5
88
330
1F
100
AcDbEntity
  8
0
  6
Continuous
 62
     7
100
AcDbCircle
 10
5122.446794299
 20
12257.517265001
 30
0.0
 40
1262.081605440983
100
AcDbArc
 50
172.9444122785
 51
186.5900648135
  0
ARC
  5
89
330
1F
100
AcDbEntity
  8
0
  6
Continuous
 62
     7
100
AcDbCircle
 10
10148.2230820048
 20
12257.5175691107
 30
0.0
 40
1262.126994896963
100
AcDbArc
 50
353.4689807343
 51
7.0425536412
  0
ARC
  5
8A
330
1F
100
AcDbEntity
  8
0
  6
Continuous
 62
     7
100
AcDbCircle
 10
5136.094937484
 20
12201.8646537254
 30
0.0
 40
1275.737371139325
100
AcDbArc
 50
180.0385733763
 51
192.2660768573
  0
ARC
  5
8B
330
1F
100
AcDbEntity
  8
0
  6
Continuous
 62
     7
100
AcDbCircle
 10
10135.0895060245
 20
12201.8067109459
 30
0.0
 40
1275.268600937062
100
AcDbArc
 50
347.6613809426
 51
359.9640157216
  0
ARC
  5
8C
330
1F
100
AcDbEntity
  8
0
  6
Continuous
 62
     7
100
AcDbCircle
 10
10015.1721352445
 20
12257.497695275
 30
0.0
 40
1195.178289672555
100
AcDbArc
 50
353.0005855953
 51
6.0588699308
  0
ARC
  5
8D
330
1F
100
AcDbEntity
  8
0
  6
Continuous
 62
     7
100
AcDbCircle
 10
5255.6704257054
 20
12257.51321702
 30
0.0
 40
1195.304842522253
100
AcDbArc
 50
173.0755477569
 51
186.6654856332
  0
ARC
  5
8E
330
1F
100
AcDbEntity
  8
0
  6
Continuous
 62
     7
100
AcDbCircle
 10
5237.5919499935
 20
2016.9876110365
 30
0.0
 40
1379.722778988271
100
AcDbArc
 50
157.7768606301
 51
168.1430766023
  0
ARC
  5
8F
330
1F
100
AcDbEntity
  8
0
  6
Continuous
 62
     7
100
AcDbCircle
 10
10033.5223797835
 20
2017.1004329365
 30
0.0
 40
1379.311100243778
100
AcDbArc
 50
11.8945059244
 51
22.2250635693
  0
ARC
  5
90
330
1F
100
AcDbEntity
  8
0
  6
Continuous
 62
     7
100
AcDbCircle
 10
10097.3499241885
 20
1999.6364324915
 30
0.0
 40
1262.834245302595
100
AcDbArc
 50
343.1637476966
 51
16.1485018138
  0
ARC
  5
91
330
1F
100
AcDbEntity
  8
0
  6
Continuous
 62
     7
100
AcDbCircle
 10
5173.1300309485
 20
1999.6350175215
 30
0.0
 40
1262.608186806622
100
AcDbArc
 50
163.8484610037
 51
196.8392894859
  0
LINE
  5
92
330
1F
100
AcDbEntity
  8
0
  6
Continuous
 62
     7
100
AcDbLine
 10
-8660.4452941515
 20
-11522.4751210285
 30
0.0
 11
-8660.4452941515
 21
-11591.6738508385
 31
0.0
  0
LINE
  5
93
330
1F
100
AcDbEntity
  8
0
  6
Continuous
 62
     7
100
AcDbLine
 10
-1060.4452941515
 20
-11591.6738508385
 30
0.0
 11
-1060.4452941515
 21
-11522.4751210285
 31
0.0
  0
LINE
  5
94
330
1F
100
AcDbEntity
  8
0
  6
Continuous
 62
     7
100
AcDbLine
 10
-1185.4452941515
 20
-11479.1738508385
 30
0.0
 11
-1185.4452941515
 21
795.8261491615
 31
0.0
  0
LINE
  5
95
330
1F
100
AcDbEntity
  8
0
  6
Continuous
 62
     7
100
AcDbLine
 10
-8535.4452941515
 20
795.8261491615
 30
0.0
 11
-8535.4452941515
 21
-11479.1738508385
 31
0.0
  0
LINE
  5
96
330
1F
100
AcDbEntity
  8
0
  6
Continuous
 62
     7
100
AcDbLine
 10
-8635.4452941515
 20
908.3261491615
 30
0.0
 11
-8635.4452941515
 21
839.1274193465
 31
0.0
  0
LINE
  5
97
330
1F
100
AcDbEntity
  8
0
  6
Continuous
 62
     7
100
AcDbLine
 10
-1085.4452941515
 20
839.1274193465
 30
0.0
 11
-1085.4452941515
 21
908.3261491615
 31
0.0
  0
LINE
  5
98
330
1F
100
AcDbEntity
  8
0
  6
Continuous
 62
     7
100
AcDbLine
 10
-1147.9452941515
 20
-11679.1738508385
 30
0.0
 11
-8572.9452941515
 21
-11679.1738508385
 31
0.0
  0
LINE
  5
99
330
1F
100
AcDbEntity
  8
0
  6
Continuous
 62
     7
100
AcDbLine
 10
-4860.4452941515
 20
-11479.1738508385
 30
0.0
 11
-1085.4452941515
 21
-11479.1738508385
 31
0.0
  0
LINE
  5
9A
330
1F
100
AcDbEntity
  8
0
  6
Continuous
 62
     7
100
AcDbLine
 10
-8635.4452941515
 20
-11479.1738508385
 30
0.0
 11
-4860.4452941515
 21
-11479.1738508385
 31
0.0
  0
LINE
  5
9B
330
1F
100
AcDbEntity
  8
0
  6
Continuous
 62
     7
100
AcDbLine
 10
-4860.4452941515
 20
795.8261491615
 30
0.0
 11
-1110.4452941515
 21
795.8261491615
 31
0.0
  0
LINE
  5
9C
330
1F
100
AcDbEntity
  8
0
  6
Continuous
 62
     7
100
AcDbLine
 10
-8610.4452941515
 20
795.8261491615
 30
0.0
 11
-4860.4452941515
 21
795.8261491615
 31
0.0
  0
LINE
  5
9D
330
1F
100
AcDbEntity
  8
0
  6
Continuous
 62
     7
100
AcDbLine
 10
-4860.4452941515
 20
995.8261491615
 30
0.0
 11
-1172.9452941515
 21
995.8261491615
 31
0.0
  0
LINE
  5
9E
330
1F
100
AcDbEntity
  8
0
  6
Continuous
 62
     7
100
AcDbLine
 10
-8547.9452941515
 20
995.8261491615
 30
0.0
 11
-4860.4452941515
 21
995.8261491615
 31
0.0
  0
LINE
  5
9F
330
1F
100
AcDbEntity
  8
0
  6
Continuous
 62
     7
100
AcDbLine
 10
-4860.4452941515
 20
-11522.4751210285
 30
0.0
 11
-8660.4452941515
 21
-11522.4751210285
 31
0.0
  0
LINE
  5
A0
330
1F
100
AcDbEntity
  8
0
  6
Continuous
 62
     7
100
AcDbLine
 10
-1060.4452941515
 20
-11522.4751210285
 30
0.0
 11
-4860.4452941515
 21
-11522.4751210285
 31
0.0
  0
LINE
  5
A1
330
1F
100
AcDbEntity
  8
0
  6
Continuous
 62
     7
100
AcDbLine
 10
-8660.4452941515
 20
-11591.6738508385
 30
0.0
 11
-1060.4452941515
 21
-11591.6738508385
 31
0.0
  0
LINE
  5
A2
330
1F
100
AcDbEntity
  8
0
  6
Continuous
 62
     7
100
AcDbLine
 10
-8635.4452941515
 20
839.1274193465
 30
0.0
 11
-1085.4452941515
 21
839.1274193465
 31
0.0
  0
LINE
  5
A3
330
1F
100
AcDbEntity
  8
0
  6
Continuous
 62
     7
100
AcDbLine
 10
-4860.4452941515
 20
908.3261491615
 30
0.0
 11
-8635.4452941515
 21
908.3261491615
 31
0.0
  0
LINE
  5
A4
330
1F
100
AcDbEntity
  8
0
  6
Continuous
 62
     7
100
AcDbLine
 10
-1085.4452941515
 20
908.3261491615
 30
0.0
 11
-4860.4452941515
 21
908.3261491615
 31
0.0
  0
LINE
  5
A5
330
1F
100
AcDbEntity
  8
0
  6
Continuous
 62
     7
100
AcDbLine
 10
3835.3578554535
 20
2107.2528115015
 30
0.0
 11
3835.3578554535
 21
2050.7492244815
 31
0.0
  0
LINE
  5
A6
330
1F
100
AcDbEntity
  8
0
  6
Continuous
 62
     7
100
AcDbLine
 10
11435.3578554535
 20
2050.7492244815
 30
0.0
 11
11435.3578554535
 21
2107.2528115015
 31
0.0
  0
LINE
  5
A7
330
1F
100
AcDbEntity
  8
0
  6
Continuous
 62
     7
100
AcDbLine
 10
11310.3578554535
 20
1999.7154237365
 30
0.0
 11
11310.3578554535
 21
11698.7401854615
 31
0.0
  0
LINE
  5
A8
330
1F
100
AcDbEntity
  8
0
  6
Continuous
 62
     7
100
AcDbLine
 10
3960.3578554535
 20
11697.6131010015
 30
0.0
 11
3960.3578554535
 21
1999.7154237365
 31
0.0
  0
LINE
  5
A9
330
1F
100
AcDbEntity
  8
0
  6
Continuous
 62
     7
100
AcDbLine
 10
3860.3578554535
 20
12257.5093730515
 30
0.0
 11
3860.3578554535
 21
12201.0057860315
 31
0.0
  0
LINE
  5
AA
330
1F
100
AcDbEntity
  8
0
  6
Continuous
 62
     7
100
AcDbLine
 10
11410.3578554535
 20
12201.0057860315
 30
0.0
 11
11410.3578554535
 21
12257.5093730515
 31
0.0
  0
LINE
  5
AB
330
1F
100
AcDbEntity
  8
0
  6
Continuous
 62
     7
100
AcDbLine
 10
4966.0297564785
 20
601.6397547515
 30
0.0
 11
5098.1111877285
 21
528.9897750565
 31
0.0
  0
LINE
  5
AC
330
1F
100
AcDbEntity
  8
0
  6
Continuous
 62
     7
100
AcDbLine
 10
5098.1111877285
 20
528.9897750565
 30
0.0
 11
5236.1184761385
 21
460.1084803165
 31
0.0
  0
LINE
  5
AD
330
1F
100
AcDbEntity
  8
0
  6
Continuous
 62
     7
100
AcDbLine
 10
5236.1184761385
 20
460.1084803165
 30
0.0
 11
5379.7292992935
 21
395.1567459915
 31
0.0
  0
LINE
  5
AE
330
1F
100
AcDbEntity
  8
0
  6
Continuous
 62
     7
100
AcDbLine
 10
5379.7292992935
 20
395.1567459915
 30
0.0
 11
5528.6082474485
 21
334.2862698665
 31
0.0
  0
LINE
  5
AF
330
1F
100
AcDbEntity
  8
0
  6
Continuous
 62
     7
100
AcDbLine
 10
5528.6082474485
 20
334.2862698665
 30
0.0
 11
5682.4076069335
 21
277.6392177515
 31
0.0
  0
LINE
  5
B0
330
1F
100
AcDbEntity
  8
0
  6
Continuous
 62
     7
100
AcDbLine
 10
5682.4076069335
 20
277.6392177515
 30
0.0
 11
5840.7681722185
 21
225.3478914665
 31
0.0
  0
LINE
  5
B1
330
1F
100
AcDbEntity
  8
0
  6
Continuous
 62
     7
100
AcDbLine
 10
5840.7681722185
 20
225.3478914665
 30
0.0
 11
6003.3200848535
 21
177.5344198265
 31
0.0
  0
LINE
  5
B2
330
1F
100
AcDbEntity
  8
0
  6
Continuous
 62
     7
100
AcDbLine
 10
6003.3200848535
 20
177.5344198265
 30
0.0
 11
6169.6836973285
 21
134.3104734115
 31
0.0
  0
LINE
  5
B3
330
1F
100
AcDbEntity
  8
0
  6
Continuous
 62
     7
100
AcDbLine
 10
6169.6836973285
 20
134.3104734115
 30
0.0
 11
6339.4704597135
 21
95.7770037515
 31
0.0
  0
LINE
  5
B4
330
1F
100
AcDbEntity
  8
0
  6
Continuous
 62
     7
100
AcDbLine
 10
6339.4704597135
 20
95.7770037515
 30
0.0
 11
6512.2838271535
 21
62.0240075465
 31
0.0
  0
LINE
  5
B5
330
1F
100
AcDbEntity
  8
0
  6
Continuous
 62
     7
100
AcDbLine
 10
6512.2838271535
 20
62.0240075465
 30
0.0
 11
6687.7201860235
 21
33.1303164865
 31
0.0
  0
LINE
  5
B6
330
1F
100
AcDbEntity
  8
0
  6
Continuous
 62
     7
100
AcDbLine
 10
6687.7201860235
 20
33.1303164865
 30
0.0
 11
6865.3697965835
 21
9.1634131265
 31
0.0
  0
LINE
  5
B7
330
1F
100
AcDbEntity
  8
0
  6
Continuous
 62
     7
100
AcDbLine
 10
6865.3697965835
 20
9.1634131265
 30
0.0
 11
7044.8177499285
 21
-9.8207267285
 31
0.0
  0
LINE
  5
B8
330
1F
100
AcDbEntity
  8
0
  6
Continuous
 62
     7
100
AcDbLine
 10
7044.8177499285
 20
-9.8207267285
 30
0.0
 11
7225.6449370535
 21
-23.7777647285
 31
0.0
  0
LINE
  5
B9
330
1F
100
AcDbEntity
  8
0
  6
Continuous
 62
     7
100
AcDbLine
 10
7225.6449370535
 20
-23.7777647285
 30
0.0
 11
7407.4290276885
 21
-32.6751035735
 31
0.0
  0
LINE
  5
BA
330
1F
100
AcDbEntity
  8
0
  6
Continuous
 62
     7
100
AcDbLine
 10
7407.4290276885
 20
-32.6751035735
 30
0.0
 11
7589.7454566585
 21
-36.4919631085
 31
0.0
  0
LINE
  5
BB
330
1F
100
AcDbEntity
  8
0
  6
Continuous
 62
     7
100
AcDbLine
 10
7589.7454566585
 20
-36.4919631085
 30
0.0
 11
7772.1684154985
 21
-35.2194288885
 31
0.0
  0
LINE
  5
BC
330
1F
100
AcDbEntity
  8
0
  6
Continuous
 62
     7
100
AcDbLine
 10
7772.1684154985
 20
-35.2194288885
 30
0.0
 11
7954.2718469335
 21
-28.8604729735
 31
0.0
  0
LINE
  5
BD
330
1F
100
AcDbEntity
  8
0
  6
Continuous
 62
     7
100
AcDbLine
 10
7954.2718469335
 20
-28.8604729735
 30
0.0
 11
8135.6304399685
 21
-17.4299469985
 31
0.0
  0
LINE
  5
BE
330
1F
100
AcDbEntity
  8
0
  6
Continuous
 62
     7
100
AcDbLine
 10
8135.6304399685
 20
-17.4299469985
 30
0.0
 11
8315.8206232035
 21
-0.9545474885
 31
0.0
  0
LINE
  5
BF
330
1F
100
AcDbEntity
  8
0
  6
Continuous
 62
     7
100
AcDbLine
 10
8315.8206232035
 20
-0.9545474885
 30
0.0
 11
8494.4215541135
 21
20.5272465015
 31
0.0
  0
LINE
  5
C0
330
1F
100
AcDbEntity
  8
0
  6
Continuous
 62
     7
100
AcDbLine
 10
8494.4215541135
 20
20.5272465015
 30
0.0
 11
8671.0161019485
 21
46.9652632415
 31
0.0
  0
LINE
  5
C1
330
1F
100
AcDbEntity
  8
0
  6
Continuous
 62
     7
100
AcDbLine
 10
8671.0161019485
 20
46.9652632415
 30
0.0
 11
8845.1918219635
 21
78.2977555215
 31
0.0
  0
LINE
  5
C2
330
1F
100
AcDbEntity
  8
0
  6
Continuous
 62
     7
100
AcDbLine
 10
8845.1918219635
 20
78.2977555215
 30
0.0
 11
9016.5419186885
 21
114.4515448515
 31
0.0
  0
LINE
  5
C3
330
1F
100
AcDbEntity
  8
0
  6
Continuous
 62
     7
100
AcDbLine
 10
9016.5419186885
 20
114.4515448515
 30
0.0
 11
9184.6661960385
 21
155.3421923815
 31
0.0
  0
LINE
  5
C4
330
1F
100
AcDbEntity
  8
0
  6
Continuous
 62
     7
100
AcDbLine
 10
9184.6661960385
 20
155.3421923815
 30
0.0
 11
9349.1719919735
 21
200.8741961165
 31
0.0
  0
LINE
  5
C5
330
1F
100
AcDbEntity
  8
0
  6
Continuous
 62
     7
100
AcDbLine
 10
9349.1719919735
 20
200.8741961165
 30
0.0
 11
9509.6750955785
 21
250.9412139415
 31
0.0
  0
LINE
  5
C6
330
1F
100
AcDbEntity
  8
0
  6
Continuous
 62
     7
100
AcDbLine
 10
9509.6750955785
 20
250.9412139415
 30
0.0
 11
9665.8006444235
 21
305.4263120215
 31
0.0
  0
LINE
  5
C7
330
1F
100
AcDbEntity
  8
0
  6
Continuous
 62
     7
100
AcDbLine
 10
9665.8006444235
 20
305.4263120215
 30
0.0
 11
9817.1840000535
 21
364.2022378815
 31
0.0
  0
LINE
  5
C8
330
1F
100
AcDbEntity
  8
0
  6
Continuous
 62
     7
100
AcDbLine
 10
9817.1840000535
 20
364.2022378815
 30
0.0
 11
9963.4715996285
 21
427.1317176315
 31
0.0
  0
LINE
  5
C9
330
1F
100
AcDbEntity
  8
0
  6
Continuous
 62
     7
100
AcDbLine
 10
9963.4715996285
 20
427.1317176315
 30
0.0
 11
10104.3217816785
 21
494.0677765515
 31
0.0
  0
LINE
  5
CA
330
1F
100
AcDbEntity
  8
0
  6
Continuous
 62
     7
100
AcDbLine
 10
10104.3217816785
 20
494.0677765515
 30
0.0
 11
10239.4055840785
 21
564.8540823715
 31
0.0
  0
LINE
  5
CB
330
1F
100
AcDbEntity
  8
0
  6
Continuous
 62
     7
100
AcDbLine
 10
10239.4055840785
 20
564.8540823715
 30
0.0
 11
10368.4075123485
 21
639.3253103965
 31
0.0
  0
LINE
  5
CC
330
1F
100
AcDbEntity
  8
0
  6
Continuous
 62
     7
100
AcDbLine
 10
10368.4075123485
 20
639.3253103965
 30
0.0
 11
10491.0262765085
 21
717.3075296265
 31
0.0
  0
LINE
  5
CD
330
1F
100
AcDbEntity
  8
0
  6
Continuous
 62
     7
100
AcDbLine
 10
10491.0262765085
 20
717.3075296265
 30
0.0
 11
10606.9754947535
 21
798.6186089665
 31
0.0
  0
LINE
  5
CE
330
1F
100
AcDbEntity
  8
0
  6
Continuous
 62
     7
100
AcDbLine
 10
10606.9754947535
 20
798.6186089665
 30
0.0
 11
10715.9843623135
 21
883.0686426315
 31
0.0
  0
LINE
  5
CF
330
1F
100
AcDbEntity
  8
0
  6
Continuous
 62
     7
100
AcDbLine
 10
10715.9843623135
 20
883.0686426315
 30
0.0
 11
10817.7982839185
 21
970.4603936515
 31
0.0
  0
LINE
  5
D0
330
1F
100
AcDbEntity
  8
0
  6
Continuous
 62
     7
100
AcDbLine
 10
10817.7982839185
 20
970.4603936515
 30
0.0
 11
10912.1794684485
 21
1060.5897545415
 31
0.0
  0
LINE
  5
D1
330
1F
100
AcDbEntity
  8
0
  6
Continuous
 62
     7
100
AcDbLine
 10
10912.1794684485
 20
1060.5897545415
 30
0.0
 11
10998.9074842685
 21
1153.2462240065
 31
0.0
  0
LINE
  5
D2
330
1F
100
AcDbEntity
  8
0
  6
Continuous
 62
     7
100
AcDbLine
 10
10998.9074842685
 20
1153.2462240065
 30
0.0
 11
11077.7797740785
 21
1248.2133985665
 31
0.0
  0
LINE
  5
D3
330
1F
100
AcDbEntity
  8
0
  6
Continuous
 62
     7
100
AcDbLine
 10
11077.7797740785
 20
1248.2133985665
 30
0.0
 11
11148.6121279885
 21
1345.2694779815
 31
0.0
  0
LINE
  5
D4
330
1F
100
AcDbEntity
  8
0
  6
Continuous
 62
     7
100
AcDbLine
 10
11148.6121279885
 20
1345.2694779815
 30
0.0
 11
11211.2391137585
 21
1444.1877832865
 31
0.0
  0
LINE
  5
D5
330
1F
100
AcDbEntity
  8
0
  6
Continuous
 62
     7
100
AcDbLine
 10
11211.2391137585
 20
1444.1877832865
 30
0.0
 11
11265.5144631635
 21
1544.7372861965
 31
0.0
  0
LINE
  5
D6
330
1F
100
AcDbEntity
  8
0
  6
Continuous
 62
     7
100
AcDbLine
 10
11265.5144631635
 20
1544.7372861965
 30
0.0
 11
11311.3114136035
 21
1646.6831486815
 31
0.0
  0
LINE
  5
D7
330
1F
100
AcDbEntity
  8
0
  6
Continuous
 62
     7
100
AcDbLine
 10
11311.3114136035
 20
1646.6831486815
 30
0.0
 11
11348.5230041835
 21
1749.7872714665
 31
0.0
  0
LINE
  5
D8
330
1F
100
AcDbEntity
  8
0
  6
Continuous
 62
     7
100
AcDbLine
 10
11348.5230041835
 20
1749.7872714665
 30
0.0
 11
11377.0623255035
 21
1853.8088500815
 31
0.0
  0
LINE
  5
D9
330
1F
100
AcDbEntity
  8
0
  6
Continuous
 62
     7
100
AcDbLine
 10
11377.0623255035
 20
1853.8088500815
 30
0.0
 11
11396.8627226635
 21
1958.5049373215
 31
0.0
  0
LINE
  5
DA
330
1F
100
AcDbEntity
  8
0
  6
Continuous
 62
     7
100
AcDbLine
 10
11396.8627226635
 20
1958.5049373215
 30
0.0
 11
11407.8779509185
 21
2063.6310106215
 31
0.0
  0
LINE
  5
DB
330
1F
100
AcDbEntity
  8
0
  6
Continuous
 62
     7
100
AcDbLine
 10
11407.8779509185
 20
2063.6310106215
 30
0.0
 11
11410.0822836835
 21
2168.9415431615
 31
0.0
  0
LINE
  5
DC
330
1F
100
AcDbEntity
  8
0
  6
Continuous
 62
     7
100
AcDbLine
 10
11410.0822836835
 20
2168.9415431615
 30
0.0
 11
11403.4705726485
 21
2274.1905773165
 31
0.0
  0
LINE
  5
DD
330
1F
100
AcDbEntity
  8
0
  6
Continuous
 62
     7
100
AcDbLine
 10
11403.4705726485
 20
2274.1905773165
 30
0.0
 11
11388.0582597635
 21
2379.1322990915
 31
0.0
  0
LINE
  5
DE
330
1F
100
AcDbEntity
  8
0
  6
Continuous
 62
     7
100
AcDbLine
 10
11388.0582597635
 20
2379.1322990915
 30
0.0
 11
11363.8813412035
 21
2483.5216122315
 31
0.0
  0
LINE
  5
DF
330
1F
100
AcDbEntity
  8
0
  6
Continuous
 62
     7
100
AcDbLine
 10
11363.8813412035
 20
2483.5216122315
 30
0.0
 11
11330.9962832785
 21
2587.1147106565
 31
0.0
  0
LINE
  5
E0
330
1F
100
AcDbEntity
  8
0
  6
Continuous
 62
     7
100
AcDbLine
 10
11330.9962832785
 20
2587.1147106565
 30
0.0
 11
11310.3578554535
 21
2640.8866169215
 31
0.0
  0
LINE
  5
E1
330
1F
100
AcDbEntity
  8
0
  6
Continuous
 62
     7
100
AcDbLine
 10
3960.3578554535
 20
2640.8866169215
 30
0.0
 11
3959.4042973085
 21
2638.5369829515
 31
0.0
  0
LINE
  5
E2
330
1F
100
AcDbEntity
  8
0
  6
Continuous
 62
     7
100
AcDbLine
 10
3959.4042973085
 20
2638.5369829515
 30
0.0
 11
3922.1927067285
 21
2535.4328601665
 31
0.0
  0
LINE
  5
E3
330
1F
100
AcDbEntity
  8
0
  6
Continuous
 62
     7
100
AcDbLine
 10
3922.1927067285
 20
2535.4328601665
 30
0.0
 11
3893.6533854085
 21
2431.4112815515
 31
0.0
  0
LINE
  5
E4
330
1F
100
AcDbEntity
  8
0
  6
Continuous
 62
     7
100
AcDbLine
 10
3893.6533854085
 20
2431.4112815515
 30
0.0
 11
3873.8529882485
 21
2326.7151943115
 31
0.0
  0
LINE
  5
E5
330
1F
100
AcDbEntity
  8
0
  6
Continuous
 62
     7
100
AcDbLine
 10
3873.8529882485
 20
2326.7151943115
 30
0.0
 11
3862.8377599935
 21
2221.5891210115
 31
0.0
  0
LINE
  5
E6
330
1F
100
AcDbEntity
  8
0
  6
Continuous
 62
     7
100
AcDbLine
 10
3862.8377599935
 20
2221.5891210115
 30
0.0
 11
3860.6334272285
 21
2116.2785884715
 31
0.0
  0
LINE
  5
E7
330
1F
100
AcDbEntity
  8
0
  6
Continuous
 62
     7
100
AcDbLine
 10
3860.6334272285
 20
2116.2785884715
 30
0.0
 11
3867.2451382635
 21
2011.0295543165
 31
0.0
  0
LINE
  5
E8
330
1F
100
AcDbEntity
  8
0
  6
Continuous
 62
     7
100
AcDbLine
 10
3867.2451382635
 20
2011.0295543165
 30
0.0
 11
3882.6574511485
 21
1906.0878325415
 31
0.0
  0
LINE
  5
E9
330
1F
100
AcDbEntity
  8
0
  6
Continuous
 62
     7
100
AcDbLine
 10
3882.6574511485
 20
1906.0878325415
 30
0.0
 11
3906.8343697085
 21
1801.6985194015
 31
0.0
  0
LINE
  5
EA
330
1F
100
AcDbEntity
  8
0
  6
Continuous
 62
     7
100
AcDbLine
 10
3906.8343697085
 20
1801.6985194015
 30
0.0
 11
3939.7194276335
 21
1698.1054209765
 31
0.0
  0
LINE
  5
EB
330
1F
100
AcDbEntity
  8
0
  6
Continuous
 62
     7
100
AcDbLine
 10
3939.7194276335
 20
1698.1054209765
 30
0.0
 11
3981.2358203485
 21
1595.5504837465
 31
0.0
  0
LINE
  5
EC
330
1F
100
AcDbEntity
  8
0
  6
Continuous
 62
     7
100
AcDbLine
 10
3981.2358203485
 20
1595.5504837465
 30
0.0
 11
4031.2865843885
 21
1494.2732295165
 31
0.0
  0
LINE
  5
ED
330
1F
100
AcDbEntity
  8
0
  6
Continuous
 62
     7
100
AcDbLine
 10
4031.2865843885
 20
1494.2732295165
 30
0.0
 11
4089.7548238735
 21
1394.5101960065
 31
0.0
  0
LINE
  5
EE
330
1F
100
AcDbEntity
  8
0
  6
Continuous
 62
     7
100
AcDbLine
 10
4089.7548238735
 20
1394.5101960065
 30
0.0
 11
4156.5039835335
 21
1296.4943844065
 31
0.0
  0
LINE
  5
EF
330
1F
100
AcDbEntity
  8
0
  6
Continuous
 62
     7
100
AcDbLine
 10
4156.5039835335
 20
1296.4943844065
 30
0.0
 11
4231.3781675985
 21
1200.4547151915
 31
0.0
  0
LINE
  5
F0
330
1F
100
AcDbEntity
  8
0
  6
Continuous
 62
     7
100
AcDbLine
 10
4231.3781675985
 20
1200.4547151915
 30
0.0
 11
4314.2025039535
 21
1106.6154934465
 31
0.0
  0
LINE
  5
F1
330
1F
100
AcDbEntity
  8
0
  6
Continuous
 62
     7
100
AcDbLine
 10
4314.2025039535
 20
1106.6154934465
 30
0.0
 11
4404.7835525185
 21
1015.1958850315
 31
0.0
  0
LINE
  5
F2
330
1F
100
AcDbEntity
  8
0
  6
Continuous
 62
     7
100
AcDbLine
 10
4404.7835525185
 20
1015.1958850315
 30
0.0
 11
4502.9097570585
 21
926.4094046715
 31
0.0
  0
LINE
  5
F3
330
1F
100
AcDbEntity
  8
0
  6
Continuous
 62
     7
100
AcDbLine
 10
4502.9097570585
 20
926.4094046715
 30
0.0
 11
4608.3519392735
 21
840.4634173115
 31
0.0
  0
LINE
  5
F4
330
1F
100
AcDbEntity
  8
0
  6
Continuous
 62
     7
100
AcDbLine
 10
4608.3519392735
 20
840.4634173115
 30
0.0
 11
4720.8638340635
 21
757.5586537865
 31
0.0
  0
LINE
  5
F5
330
1F
100
AcDbEntity
  8
0
  6
Continuous
 62
     7
100
AcDbLine
 10
4720.8638340635
 20
757.5586537865
 30
0.0
 11
4840.1826646835
 21
677.8887420065
 31
0.0
  0
LINE
  5
F6
330
1F
100
AcDbEntity
  8
0
  6
Continuous
 62
     7
100
AcDbLine
 10
4840.1826646835
 20
677.8887420065
 30
0.0
 11
4966.0297564785
 21
601.6397547515
 31
0.0
  0
LINE
  5
F7
330
1F
100
AcDbEntity
  8
0
  6
Continuous
 62
     7
100
AcDbLine
 10
11427.2099818485
 20
1907.1710837015
 30
0.0
 11
11432.8615277085
 21
1971.2471291815
 31
0.0
  0
LINE
  5
F8
330
1F
100
AcDbEntity
  8
0
  6
Continuous
 62
     7
100
AcDbLine
 10
11432.8615277085
 20
1971.2471291815
 30
0.0
 11
11435.3578554535
 21
2050.7492244815
 31
0.0
  0
LINE
  5
F9
330
1F
100
AcDbEntity
  8
0
  6
Continuous
 62
     7
100
AcDbLine
 10
5027.9015998285
 20
10823.7042379165
 30
0.0
 11
5158.9842094585
 21
10751.6581431215
 31
0.0
  0
LINE
  5
FA
330
1F
100
AcDbEntity
  8
0
  6
Continuous
 62
     7
100
AcDbLine
 10
5158.9842094585
 20
10751.6581431215
 30
0.0
 11
5296.0326201035
 21
10683.4118986915
 31
0.0
  0
LINE
  5
FB
330
1F
100
AcDbEntity
  8
0
  6
Continuous
 62
     7
100
AcDbLine
 10
5296.0326201035
 20
10683.4118986915
 30
0.0
 11
5438.7166701385
 21
10619.1299158065
 31
0.0
  0
LINE
  5
FC
330
1F
100
AcDbEntity
  8
0
  6
Continuous
 62
     7
100
AcDbLine
 10
5438.7166701385
 20
10619.1299158065
 30
0.0
 11
5586.6926211985
 21
10558.9670553965
 31
0.0
  0
LINE
  5
FD
330
1F
100
AcDbEntity
  8
0
  6
Continuous
 62
     7
100
AcDbLine
 10
5586.6926211985
 20
10558.9670553965
 30
0.0
 11
5739.6039862435
 21
10503.0682550565
 31
0.0
  0
LINE
  5
FE
330
1F
100
AcDbEntity
  8
0
  6
Continuous
 62
     7
100
AcDbLine
 10
5739.6039862435
 20
10503.0682550565
 30
0.0
 11
5897.0823884085
 21
10451.5681798915
 31
0.0
  0
LINE
  5
FF
330
1F
100
AcDbEntity
  8
0
  6
Continuous
 62
     7
100
AcDbLine
 10
5897.0823884085
 20
10451.5681798915
 30
0.0
 11
6058.7484484335
 21
10404.5908981015
 31
0.0
  0
LINE
  5
100
330
1F
100
AcDbEntity
  8
0
  6
Continuous
 62
     7
100
AcDbLine
 10
6058.7484484335
 20
10404.5908981015
 30
0.0
 11
6224.2126986085
 21
10362.2495820665
 31
0.0
  0
LINE
  5
101
330
1F
100
AcDbEntity
  8
0
  6
Continuous
 62
     7
100
AcDbLine
 10
6224.2126986085
 20
10362.2495820665
 30
0.0
 11
6393.0765210735
 21
10324.6462357265
 31
0.0
  0
LINE
  5
102
330
1F
100
AcDbEntity
  8
0
  6
Continuous
 62
     7
100
AcDbLine
 10
6393.0765210735
 20
10324.6462357265
 30
0.0
 11
6564.9331080785
 21
10291.8714488415
 31
0.0
  0
LINE
  5
103
330
1F
100
AcDbEntity
  8
0
  6
Continuous
 62
     7
100
AcDbLine
 10
6564.9331080785
 20
10291.8714488415
 30
0.0
 11
6739.3684420635
 21
10264.0041787365
 31
0.0
  0
LINE
  5
104
330
1F
100
AcDbEntity
  8
0
  6
Continuous
 62
     7
100
AcDbLine
 10
6739.3684420635
 20
10264.0041787365
 30
0.0
 11
6915.9622930235
 21
10241.1115601115
 31
0.0
  0
LINE
  5
105
330
1F
100
AcDbEntity
  8
0
  6
Continuous
 62
     7
100
AcDbLine
 10
6915.9622930235
 20
10241.1115601115
 30
0.0
 11
7094.2892309035
 21
10223.2487432865
 31
0.0
  0
LINE
  5
106
330
1F
100
AcDbEntity
  8
0
  6
Continuous
 62
     7
100
AcDbLine
 10
7094.2892309035
 20
10223.2487432865
 30
0.0
 11
7273.9196504885
 21
10210.4587613515
 31
0.0
  0
LINE
  5
107
330
1F
100
AcDbEntity
  8
0
  6
Continuous
 62
     7
100
AcDbLine
 10
7273.9196504885
 20
10210.4587613515
 30
0.0
 11
7454.4208063735
 21
10202.7724264965
 31
0.0
  0
LINE
  5
108
330
1F
100
AcDbEntity
  8
0
  6
Continuous
 62
     7
100
AcDbLine
 10
7454.4208063735
 20
10202.7724264965
 30
0.0
 11
7635.3578554535
 21
10200.2082557765
 31
0.0
  0
LINE
  5
109
330
1F
100
AcDbEntity
  8
0
  6
Continuous
 62
     7
100
AcDbLine
 10
7635.3578554535
 20
10200.2082557765
 30
0.0
 11
7816.2949045385
 21
10202.7724264965
 31
0.0
  0
LINE
  5
10A
330
1F
100
AcDbEntity
  8
0
  6
Continuous
 62
     7
100
AcDbLine
 10
7816.2949045385
 20
10202.7724264965
 30
0.0
 11
7996.7960604235
 21
10210.4587613515
 31
0.0
  0
LINE
  5
10B
330
1F
100
AcDbEntity
  8
0
  6
Continuous
 62
     7
100
AcDbLine
 10
7996.7960604235
 20
10210.4587613515
 30
0.0
 11
8176.4264800085
 21
10223.2487432865
 31
0.0
  0
LINE
  5
10C
330
1F
100
AcDbEntity
  8
0
  6
Continuous
 62
     7
100
AcDbLine
 10
8176.4264800085
 20
10223.2487432865
 30
0.0
 11
8354.7534178885
 21
10241.1115601115
 31
0.0
  0
LINE
  5
10D
330
1F
100
AcDbEntity
  8
0
  6
Continuous
 62
     7
100
AcDbLine
 10
8354.7534178885
 20
10241.1115601115
 30
0.0
 11
8531.3472688485
 21
10264.0041787365
 31
0.0
  0
LINE
  5
10E
330
1F
100
AcDbEntity
  8
0
  6
Continuous
 62
     7
100
AcDbLine
 10
8531.3472688485
 20
10264.0041787365
 30
0.0
 11
8705.7826028335
 21
10291.8714488415
 31
0.0
  0
LINE
  5
10F
330
1F
100
AcDbEntity
  8
0
  6
Continuous
 62
     7
100
AcDbLine
 10
8705.7826028335
 20
10291.8714488415
 30
0.0
 11
8877.6391898385
 21
10324.6462357265
 31
0.0
  0
LINE
  5
110
330
1F
100
AcDbEntity
  8
0
  6
Continuous
 62
     7
100
AcDbLine
 10
8877.6391898385
 20
10324.6462357265
 30
0.0
 11
9046.5030123035
 21
10362.2495820665
 31
0.0
  0
LINE
  5
111
330
1F
100
AcDbEntity
  8
0
  6
Continuous
 62
     7
100
AcDbLine
 10
9046.5030123035
 20
10362.2495820665
 30
0.0
 11
9211.9672624785
 21
10404.5908981015
 31
0.0
  0
LINE
  5
112
330
1F
100
AcDbEntity
  8
0
  6
Continuous
 62
     7
100
AcDbLine
 10
9211.9672624785
 20
10404.5908981015
 30
0.0
 11
9373.6333225035
 21
10451.5681798915
 31
0.0
  0
LINE
  5
113
330
1F
100
AcDbEntity
  8
0
  6
Continuous
 62
     7
100
AcDbLine
 10
9373.6333225035
 20
10451.5681798915
 30
0.0
 11
9531.1117246685
 21
10503.0682550565
 31
0.0
  0
LINE
  5
114
330
1F
100
AcDbEntity
  8
0
  6
Continuous
 62
     7
100
AcDbLine
 10
9531.1117246685
 20
10503.0682550565
 30
0.0
 11
9684.0230897135
 21
10558.9670553965
 31
0.0
  0
LINE
  5
115
330
1F
100
AcDbEntity
  8
0
  6
Continuous
 62
     7
100
AcDbLine
 10
9684.0230897135
 20
10558.9670553965
 30
0.0
 11
9831.9990407735
 21
10619.1299158065
 31
0.0
  0
LINE
  5
116
330
1F
100
AcDbEntity
  8
0
  6
Continuous
 62
     7
100
AcDbLine
 10
9831.9990407735
 20
10619.1299158065
 30
0.0
 11
9974.6830908085
 21
10683.4118986915
 31
0.0
  0
LINE
  5
117
330
1F
100
AcDbEntity
  8
0
  6
Continuous
 62
     7
100
AcDbLine
 10
9974.6830908085
 20
10683.4118986915
 30
0.0
 11
10111.7315014535
 21
10751.6581431215
 31
0.0
  0
LINE
  5
118
330
1F
100
AcDbEntity
  8
0
  6
Continuous
 62
     7
100
AcDbLine
 10
10111.7315014535
 20
10751.6581431215
 30
0.0
 11
10242.8141110835
 21
10823.7042379165
 31
0.0
  0
LINE
  5
119
330
1F
100
AcDbEntity
  8
0
  6
Continuous
 62
     7
100
AcDbLine
 10
10242.8141110835
 20
10823.7042379165
 30
0.0
 11
10367.6151302035
 21
10899.3766177215
 31
0.0
  0
LINE
  5
11A
330
1F
100
AcDbEntity
  8
0
  6
Continuous
 62
     7
100
AcDbLine
 10
10367.6151302035
 20
10899.3766177215
 30
0.0
 11
10485.8339022335
 21
10978.4929811515
 31
0.0
  0
LINE
  5
11B
330
1F
100
AcDbEntity
  8
0
  6
Continuous
 62
     7
100
AcDbLine
 10
10485.8339022335
 20
10978.4929811515
 30
0.0
 11
10597.1856277885
 21
11060.8627299465
 31
0.0
  0
LINE
  5
11C
330
1F
100
AcDbEntity
  8
0
  6
Continuous
 62
     7
100
AcDbLine
 10
10597.1856277885
 20
11060.8627299465
 30
0.0
 11
10701.4020508235
 21
11146.2874281765
 31
0.0
  0
LINE
  5
11D
330
1F
100
AcDbEntity
  8
0
  6
Continuous
 62
     7
100
AcDbLine
 10
10701.4020508235
 20
11146.2874281765
 30
0.0
 11
10798.2321048335
 21
11234.5612802565
 31
0.0
  0
LINE
  5
11E
330
1F
100
AcDbEntity
  8
0
  6
Continuous
 62
     7
100
AcDbLine
 10
10798.2321048335
 20
11234.5612802565
 30
0.0
 11
10887.4425177385
 21
11325.4716267465
 31
0.0
  0
LINE
  5
11F
330
1F
100
AcDbEntity
  8
0
  6
Continuous
 62
     7
100
AcDbLine
 10
10887.4425177385
 20
11325.4716267465
 30
0.0
 11
10968.8183738485
 21
11418.7994566565
 31
0.0
  0
LINE
  5
120
330
1F
100
AcDbEntity
  8
0
  6
Continuous
 62
     7
100
AcDbLine
 10
10968.8183738485
 20
11418.7994566565
 30
0.0
 11
11042.1636315935
 21
11514.3199350765
 31
0.0
  0
LINE
  5
121
330
1F
100
AcDbEntity
  8
0
  6
Continuous
 62
     7
100
AcDbLine
 10
11042.1636315935
 20
11514.3199350765
 30
0.0
 11
11107.3015958185
 21
11611.8029447965
 31
0.0
  0
LINE
  5
122
330
1F
100
AcDbEntity
  8
0
  6
Continuous
 62
     7
100
AcDbLine
 10
11107.3015958185
 20
11611.8029447965
 30
0.0
 11
11164.0753434685
 21
11711.0136407165
 31
0.0
  0
LINE
  5
123
330
1F
100
AcDbEntity
  8
0
  6
Continuous
 62
     7
100
AcDbLine
 10
11164.0753434685
 20
11711.0136407165
 30
0.0
 11
11212.3481016085
 21
11811.7130155815
 31
0.0
  0
LINE
  5
124
330
1F
100
AcDbEntity
  8
0
  6
Continuous
 62
     7
100
AcDbLine
 10
11212.3481016085
 20
11811.7130155815
 30
0.0
 11
11252.0035769435
 21
11913.6584757715
 31
0.0
  0
LINE
  5
125
330
1F
100
AcDbEntity
  8
0
  6
Continuous
 62
     7
100
AcDbLine
 10
11252.0035769435
 20
11913.6584757715
 30
0.0
 11
11282.9462359535
 21
12016.6044257415
 31
0.0
  0
LINE
  5
126
330
1F
100
AcDbEntity
  8
0
  6
Continuous
 62
     7
100
AcDbLine
 10
11282.9462359535
 20
12016.6044257415
 30
0.0
 11
11305.1015350585
 21
12120.3028596865
 31
0.0
  0
LINE
  5
127
330
1F
100
AcDbEntity
  8
0
  6
Continuous
 62
     7
100
AcDbLine
 10
11305.1015350585
 20
12120.3028596865
 30
0.0
 11
11318.4161002135
 21
12224.5039589965
 31
0.0
  0
LINE
  5
128
330
1F
100
AcDbEntity
  8
0
  6
Continuous
 62
     7
100
AcDbLine
 10
11318.4161002135
 20
12224.5039589965
 30
0.0
 11
11322.8578554535
 21
12328.9566940915
 31
0.0
  0
LINE
  5
129
330
1F
100
AcDbEntity
  8
0
  6
Continuous
 62
     7
100
AcDbLine
 10
11322.8578554535
 20
12328.9566940915
 30
0.0
 11
11318.4161002135
 21
12433.4094291865
 31
0.0
  0
LINE
  5
12A
330
1F
100
AcDbEntity
  8
0
  6
Continuous
 62
     7
100
AcDbLine
 10
11318.4161002135
 20
12433.4094291865
 30
0.0
 11
11305.1015350585
 21
12537.6105284965
 31
0.0
  0
LINE
  5
12B
330
1F
100
AcDbEntity
  8
0
  6
Continuous
 62
     7
100
AcDbLine
 10
11305.1015350585
 20
12537.6105284965
 30
0.0
 11
11282.9462359535
 21
12641.3089624415
 31
0.0
  0
LINE
  5
12C
330
1F
100
AcDbEntity
  8
0
  6
Continuous
 62
     7
100
AcDbLine
 10
11282.9462359535
 20
12641.3089624415
 30
0.0
 11
11252.0035769435
 21
12744.2549124115
 31
0.0
  0
LINE
  5
12D
330
1F
100
AcDbEntity
  8
0
  6
Continuous
 62
     7
100
AcDbLine
 10
11252.0035769435
 20
12744.2549124115
 30
0.0
 11
11212.3481016085
 21
12846.2003726015
 31
0.0
  0
LINE
  5
12E
330
1F
100
AcDbEntity
  8
0
  6
Continuous
 62
     7
100
AcDbLine
 10
11212.3481016085
 20
12846.2003726015
 30
0.0
 11
11164.0753434685
 21
12946.8997474615
 31
0.0
  0
LINE
  5
12F
330
1F
100
AcDbEntity
  8
0
  6
Continuous
 62
     7
100
AcDbLine
 10
11164.0753434685
 20
12946.8997474615
 30
0.0
 11
11107.3015958185
 21
13046.1104433865
 31
0.0
  0
LINE
  5
130
330
1F
100
AcDbEntity
  8
0
  6
Continuous
 62
     7
100
AcDbLine
 10
11107.3015958185
 20
13046.1104433865
 30
0.0
 11
11042.1636315935
 21
13143.5934531065
 31
0.0
  0
LINE
  5
131
330
1F
100
AcDbEntity
  8
0
  6
Continuous
 62
     7
100
AcDbLine
 10
11042.1636315935
 20
13143.5934531065
 30
0.0
 11
10968.8183738485
 21
13239.1139315265
 31
0.0
  0
LINE
  5
132
330
1F
100
AcDbEntity
  8
0
  6
Continuous
 62
     7
100
AcDbLine
 10
10968.8183738485
 20
13239.1139315265
 30
0.0
 11
10887.4425177385
 21
13332.4417614365
 31
0.0
  0
LINE
  5
133
330
1F
100
AcDbEntity
  8
0
  6
Continuous
 62
     7
100
AcDbLine
 10
10887.4425177385
 20
13332.4417614365
 30
0.0
 11
10798.2321048335
 21
13423.3521079265
 31
0.0
  0
LINE
  5
134
330
1F
100
AcDbEntity
  8
0
  6
Continuous
 62
     7
100
AcDbLine
 10
10798.2321048335
 20
13423.3521079265
 30
0.0
 11
10701.4020508235
 21
13511.6259600065
 31
0.0
  0
LINE
  5
135
330
1F
100
AcDbEntity
  8
0
  6
Continuous
 62
     7
100
AcDbLine
 10
10701.4020508235
 20
13511.6259600065
 30
0.0
 11
10597.1856277885
 21
13597.0506582365
 31
0.0
  0
LINE
  5
136
330
1F
100
AcDbEntity
  8
0
  6
Continuous
 62
     7
100
AcDbLine
 10
10597.1856277885
 20
13597.0506582365
 30
0.0
 11
10485.8339022285
 21
13679.4204070315
 31
0.0
  0
LINE
  5
137
330
1F
100
AcDbEntity
  8
0
  6
Continuous
 62
     7
100
AcDbLine
 10
10485.8339022285
 20
13679.4204070315
 30
0.0
 11
10367.6151302035
 21
13758.5367704565
 31
0.0
  0
LINE
  5
138
330
1F
100
AcDbEntity
  8
0
  6
Continuous
 62
     7
100
AcDbLine
 10
10367.6151302035
 20
13758.5367704565
 30
0.0
 11
10242.8141110835
 21
13834.2091502665
 31
0.0
  0
LINE
  5
139
330
1F
100
AcDbEntity
  8
0
  6
Continuous
 62
     7
100
AcDbLine
 10
10242.8141110835
 20
13834.2091502665
 30
0.0
 11
10111.7315014535
 21
13906.2552450565
 31
0.0
  0
LINE
  5
13A
330
1F
100
AcDbEntity
  8
0
  6
Continuous
 62
     7
100
AcDbLine
 10
10111.7315014535
 20
13906.2552450565
 30
0.0
 11
9974.6830908085
 21
13974.5014894865
 31
0.0
  0
LINE
  5
13B
330
1F
100
AcDbEntity
  8
0
  6
Continuous
 62
     7
100
AcDbLine
 10
9974.6830908085
 20
13974.5014894865
 30
0.0
 11
9831.9990407735
 21
14038.7834723715
 31
0.0
  0
LINE
  5
13C
330
1F
100
AcDbEntity
  8
0
  6
Continuous
 62
     7
100
AcDbLine
 10
9831.9990407735
 20
14038.7834723715
 30
0.0
 11
9684.0230897135
 21
14098.9463327865
 31
0.0
  0
LINE
  5
13D
330
1F
100
AcDbEntity
  8
0
  6
Continuous
 62
     7
100
AcDbLine
 10
9684.0230897135
 20
14098.9463327865
 30
0.0
 11
9531.1117246685
 21
14154.8451331265
 31
0.0
  0
LINE
  5
13E
330
1F
100
AcDbEntity
  8
0
  6
Continuous
 62
     7
100
AcDbLine
 10
9531.1117246685
 20
14154.8451331265
 30
0.0
 11
9373.6333225035
 21
14206.3452082915
 31
0.0
  0
LINE
  5
13F
330
1F
100
AcDbEntity
  8
0
  6
Continuous
 62
     7
100
AcDbLine
 10
9373.6333225035
 20
14206.3452082915
 30
0.0
 11
9211.9672624785
 21
14253.3224900815
 31
0.0
  0
LINE
  5
140
330
1F
100
AcDbEntity
  8
0
  6
Continuous
 62
     7
100
AcDbLine
 10
9211.9672624785
 20
14253.3224900815
 30
0.0
 11
9046.5030123035
 21
14295.6638061165
 31
0.0
  0
LINE
  5
141
330
1F
100
AcDbEntity
  8
0
  6
Continuous
 62
     7
100
AcDbLine
 10
9046.5030123035
 20
14295.6638061165
 30
0.0
 11
8877.6391898385
 21
14333.2671524565
 31
0.0
  0
LINE
  5
142
330
1F
100
AcDbEntity
  8
0
  6
Continuous
 62
     7
100
AcDbLine
 10
8877.6391898385
 20
14333.2671524565
 30
0.0
 11
8705.7826028335
 21
14366.0419393415
 31
0.0
  0
LINE
  5
143
330
1F
100
AcDbEntity
  8
0
  6
Continuous
 62
     7
100
AcDbLine
 10
8705.7826028335
 20
14366.0419393415
 30
0.0
 11
8531.3472688485
 21
14393.9092094465
 31
0.0
  0
LINE
  5
144
330
1F
100
AcDbEntity
  8
0
  6
Continuous
 62
     7
100
AcDbLine
 10
8531.3472688485
 20
14393.9092094465
 30
0.0
 11
8354.7534178885
 21
14416.8018280715
 31
0.0
  0
LINE
  5
145
330
1F
100
AcDbEntity
  8
0
  6
Continuous
 62
     7
100
AcDbLine
 10
8354.7534178885
 20
14416.8018280715
 30
0.0
 11
8176.4264800085
 21
14434.6646448965
 31
0.0
  0
LINE
  5
146
330
1F
100
AcDbEntity
  8
0
  6
Continuous
 62
     7
100
AcDbLine
 10
8176.4264800085
 20
14434.6646448965
 30
0.0
 11
7996.7960604235
 21
14447.4546268315
 31
0.0
  0
LINE
  5
147
330
1F
100
AcDbEntity
  8
0
  6
Continuous
 62
     7
100
AcDbLine
 10
7996.7960604235
 20
14447.4546268315
 30
0.0
 11
7816.2949045385
 21
14455.1409616865
 31
0.0
  0
LINE
  5
148
330
1F
100
AcDbEntity
  8
0
  6
Continuous
 62
     7
100
AcDbLine
 10
7816.2949045385
 20
14455.1409616865
 30
0.0
 11
7635.3578554535
 21
14457.7051324065
 31
0.0
  0
LINE
  5
149
330
1F
100
AcDbEntity
  8
0
  6
Continuous
 62
     7
100
AcDbLine
 10
7635.3578554535
 20
14457.7051324065
 30
0.0
 11
7454.4208063735
 21
14455.1409616865
 31
0.0
  0
LINE
  5
14A
330
1F
100
AcDbEntity
  8
0
  6
Continuous
 62
     7
100
AcDbLine
 10
7454.4208063735
 20
14455.1409616865
 30
0.0
 11
7273.9196504885
 21
14447.4546268315
 31
0.0
  0
LINE
  5
14B
330
1F
100
AcDbEntity
  8
0
  6
Continuous
 62
     7
100
AcDbLine
 10
7273.9196504885
 20
14447.4546268315
 30
0.0
 11
7094.2892309035
 21
14434.6646448965
 31
0.0
  0
LINE
  5
14C
330
1F
100
AcDbEntity
  8
0
  6
Continuous
 62
     7
100
AcDbLine
 10
7094.2892309035
 20
14434.6646448965
 30
0.0
 11
6915.9622930235
 21
14416.8018280715
 31
0.0
  0
LINE
  5
14D
330
1F
100
AcDbEntity
  8
0
  6
Continuous
 62
     7
100
AcDbLine
 10
6915.9622930235
 20
14416.8018280715
 30
0.0
 11
6739.3684420635
 21
14393.9092094465
 31
0.0
  0
LINE
  5
14E
330
1F
100
AcDbEntity
  8
0
  6
Continuous
 62
     7
100
AcDbLine
 10
6739.3684420635
 20
14393.9092094465
 30
0.0
 11
6564.9331080785
 21
14366.0419393415
 31
0.0
  0
LINE
  5
14F
330
1F
100
AcDbEntity
  8
0
  6
Continuous
 62
     7
100
AcDbLine
 10
6564.9331080785
 20
14366.0419393415
 30
0.0
 11
6393.0765210735
 21
14333.2671524565
 31
0.0
  0
LINE
  5
150
330
1F
100
AcDbEntity
  8
0
  6
Continuous
 62
     7
100
AcDbLine
 10
6393.0765210735
 20
14333.2671524565
 30
0.0
 11
6224.2126986085
 21
14295.6638061165
 31
0.0
  0
LINE
  5
151
330
1F
100
AcDbEntity
  8
0
  6
Continuous
 62
     7
100
AcDbLine
 10
6224.2126986085
 20
14295.6638061165
 30
0.0
 11
6058.7484484335
 21
14253.3224900815
 31
0.0
  0
LINE
  5
152
330
1F
100
AcDbEntity
  8
0
  6
Continuous
 62
     7
100
AcDbLine
 10
6058.7484484335
 20
14253.3224900815
 30
0.0
 11
5897.0823884085
 21
14206.3452082915
 31
0.0
  0
LINE
  5
153
330
1F
100
AcDbEntity
  8
0
  6
Continuous
 62
     7
100
AcDbLine
 10
5897.0823884085
 20
14206.3452082915
 30
0.0
 11
5739.6039862435
 21
14154.8451331265
 31
0.0
  0
LINE
  5
154
330
1F
100
AcDbEntity
  8
0
  6
Continuous
 62
     7
100
AcDbLine
 10
5739.6039862435
 20
14154.8451331265
 30
0.0
 11
5586.6926211985
 21
14098.9463327865
 31
0.0
  0
LINE
  5
155
330
1F
100
AcDbEntity
  8
0
  6
Continuous
 62
     7
100
AcDbLine
 10
5586.6926211985
 20
14098.9463327865
 30
0.0
 11
5438.7166701385
 21
14038.7834723715
 31
0.0
  0
LINE
  5
156
330
1F
100
AcDbEntity
  8
0
  6
Continuous
 62
     7
100
AcDbLine
 10
5438.7166701385
 20
14038.7834723715
 30
0.0
 11
5296.0326201035
 21
13974.5014894865
 31
0.0
  0
LINE
  5
157
330
1F
100
AcDbEntity
  8
0
  6
Continuous
 62
     7
100
AcDbLine
 10
5296.0326201035
 20
13974.5014894865
 30
0.0
 11
5158.9842094585
 21
13906.2552450565
 31
0.0
  0
LINE
  5
158
330
1F
100
AcDbEntity
  8
0
  6
Continuous
 62
     7
100
AcDbLine
 10
5158.9842094585
 20
13906.2552450565
 30
0.0
 11
5027.9015998285
 21
13834.2091502665
 31
0.0
  0
LINE
  5
159
330
1F
100
AcDbEntity
  8
0
  6
Continuous
 62
     7
100
AcDbLine
 10
5027.9015998285
 20
13834.2091502665
 30
0.0
 11
4903.1005807085
 21
13758.5367704565
 31
0.0
  0
LINE
  5
15A
330
1F
100
AcDbEntity
  8
0
  6
Continuous
 62
     7
100
AcDbLine
 10
4903.1005807085
 20
13758.5367704565
 30
0.0
 11
4784.8818086785
 21
13679.4204070315
 31
0.0
  0
LINE
  5
15B
330
1F
100
AcDbEntity
  8
0
  6
Continuous
 62
     7
100
AcDbLine
 10
4784.8818086785
 20
13679.4204070315
 30
0.0
 11
4673.5300831185
 21
13597.0506582365
 31
0.0
  0
LINE
  5
15C
330
1F
100
AcDbEntity
  8
0
  6
Continuous
 62
     7
100
AcDbLine
 10
4673.5300831185
 20
13597.0506582365
 30
0.0
 11
4569.3136600885
 21
13511.6259600065
 31
0.0
  0
LINE
  5
15D
330
1F
100
AcDbEntity
  8
0
  6
Continuous
 62
     7
100
AcDbLine
 10
4569.3136600885
 20
13511.6259600065
 30
0.0
 11
4472.4836060785
 21
13423.3521079265
 31
0.0
  0
LINE
  5
15E
330
1F
100
AcDbEntity
  8
0
  6
Continuous
 62
     7
100
AcDbLine
 10
4472.4836060785
 20
13423.3521079265
 30
0.0
 11
4383.2731931735
 21
13332.4417614365
 31
0.0
  0
LINE
  5
15F
330
1F
100
AcDbEntity
  8
0
  6
Continuous
 62
     7
100
AcDbLine
 10
4383.2731931735
 20
13332.4417614365
 30
0.0
 11
4301.8973370635
 21
13239.1139315265
 31
0.0
  0
LINE
  5
160
330
1F
100
AcDbEntity
  8
0
  6
Continuous
 62
     7
100
AcDbLine
 10
4301.8973370635
 20
13239.1139315265
 30
0.0
 11
4228.5520793185
 21
13143.5934531065
 31
0.0
  0
LINE
  5
161
330
1F
100
AcDbEntity
  8
0
  6
Continuous
 62
     7
100
AcDbLine
 10
4228.5520793185
 20
13143.5934531065
 30
0.0
 11
4163.4141150935
 21
13046.1104433865
 31
0.0
  0
LINE
  5
162
330
1F
100
AcDbEntity
  8
0
  6
Continuous
 62
     7
100
AcDbLine
 10
4163.4141150935
 20
13046.1104433865
 30
0.0
 11
4106.6403674435
 21
12946.8997474615
 31
0.0
  0
LINE
  5
163
330
1F
100
AcDbEntity
  8
0
  6
Continuous
 62
     7
100
AcDbLine
 10
4106.6403674435
 20
12946.8997474615
 30
0.0
 11
4058.3676093035
 21
12846.2003726015
 31
0.0
  0
LINE
  5
164
330
1F
100
AcDbEntity
  8
0
  6
Continuous
 62
     7
100
AcDbLine
 10
4058.3676093035
 20
12846.2003726015
 30
0.0
 11
4018.7121339685
 21
12744.2549124115
 31
0.0
  0
LINE
  5
165
330
1F
100
AcDbEntity
  8
0
  6
Continuous
 62
     7
100
AcDbLine
 10
4018.7121339685
 20
12744.2549124115
 30
0.0
 11
3987.7694749585
 21
12641.3089624415
 31
0.0
  0
LINE
  5
166
330
1F
100
AcDbEntity
  8
0
  6
Continuous
 62
     7
100
AcDbLine
 10
3987.7694749585
 20
12641.3089624415
 30
0.0
 11
3965.6141758535
 21
12537.6105284965
 31
0.0
  0
LINE
  5
167
330
1F
100
AcDbEntity
  8
0
  6
Continuous
 62
     7
100
AcDbLine
 10
3965.6141758535
 20
12537.6105284965
 30
0.0
 11
3952.2996106985
 21
12433.4094291865
 31
0.0
  0
LINE
  5
168
330
1F
100
AcDbEntity
  8
0
  6
Continuous
 62
     7
100
AcDbLine
 10
3952.2996106985
 20
12433.4094291865
 30
0.0
 11
3947.8578554535
 21
12328.9566940915
 31
0.0
  0
LINE
  5
169
330
1F
100
AcDbEntity
  8
0
  6
Continuous
 62
     7
100
AcDbLine
 10
3947.8578554535
 20
12328.9566940915
 30
0.0
 11
3952.2996106985
 21
12224.5039589965
 31
0.0
  0
LINE
  5
16A
330
1F
100
AcDbEntity
  8
0
  6
Continuous
 62
     7
100
AcDbLine
 10
3952.2996106985
 20
12224.5039589965
 30
0.0
 11
3965.6141758535
 21
12120.3028596865
 31
0.0
  0
LINE
  5
16B
330
1F
100
AcDbEntity
  8
0
  6
Continuous
 62
     7
100
AcDbLine
 10
3965.6141758535
 20
12120.3028596865
 30
0.0
 11
3987.7694749585
 21
12016.6044257415
 31
0.0
  0
LINE
  5
16C
330
1F
100
AcDbEntity
  8
0
  6
Continuous
 62
     7
100
AcDbLine
 10
3987.7694749585
 20
12016.6044257415
 30
0.0
 11
4018.7121339685
 21
11913.6584757665
 31
0.0
  0
LINE
  5
16D
330
1F
100
AcDbEntity
  8
0
  6
Continuous
 62
     7
100
AcDbLine
 10
4018.7121339685
 20
11913.6584757665
 30
0.0
 11
4058.3676093035
 21
11811.7130155815
 31
0.0
  0
LINE
  5
16E
330
1F
100
AcDbEntity
  8
0
  6
Continuous
 62
     7
100
AcDbLine
 10
4058.3676093035
 20
11811.7130155815
 30
0.0
 11
4106.6403674435
 21
11711.0136407165
 31
0.0
  0
LINE
  5
16F
330
1F
100
AcDbEntity
  8
0
  6
Continuous
 62
     7
100
AcDbLine
 10
4106.6403674435
 20
11711.0136407165
 30
0.0
 11
4163.4141150935
 21
11611.8029447965
 31
0.0
  0
LINE
  5
170
330
1F
100
AcDbEntity
  8
0
  6
Continuous
 62
     7
100
AcDbLine
 10
4163.4141150935
 20
11611.8029447965
 30
0.0
 11
4228.5520793185
 21
11514.3199350765
 31
0.0
  0
LINE
  5
171
330
1F
100
AcDbEntity
  8
0
  6
Continuous
 62
     7
100
AcDbLine
 10
4228.5520793185
 20
11514.3199350765
 30
0.0
 11
4301.8973370635
 21
11418.7994566565
 31
0.0
  0
LINE
  5
172
330
1F
100
AcDbEntity
  8
0
  6
Continuous
 62
     7
100
AcDbLine
 10
4301.8973370635
 20
11418.7994566565
 30
0.0
 11
4383.2731931735
 21
11325.4716267465
 31
0.0
  0
LINE
  5
173
330
1F
100
AcDbEntity
  8
0
  6
Continuous
 62
     7
100
AcDbLine
 10
4383.2731931735
 20
11325.4716267465
 30
0.0
 11
4472.4836060785
 21
11234.5612802565
 31
0.0
  0
LINE
  5
174
330
1F
100
AcDbEntity
  8
0
  6
Continuous
 62
     7
100
AcDbLine
 10
4472.4836060785
 20
11234.5612802565
 30
0.0
 11
4569.3136600885
 21
11146.2874281765
 31
0.0
  0
LINE
  5
175
330
1F
100
AcDbEntity
  8
0
  6
Continuous
 62
     7
100
AcDbLine
 10
4569.3136600885
 20
11146.2874281765
 30
0.0
 11
4673.5300831235
 21
11060.8627299465
 31
0.0
  0
LINE
  5
176
330
1F
100
AcDbEntity
  8
0
  6
Continuous
 62
     7
100
AcDbLine
 10
4673.5300831235
 20
11060.8627299465
 30
0.0
 11
4784.8818086785
 21
10978.4929811515
 31
0.0
  0
LINE
  5
177
330
1F
100
AcDbEntity
  8
0
  6
Continuous
 62
     7
100
AcDbLine
 10
4784.8818086785
 20
10978.4929811515
 30
0.0
 11
4903.1005807085
 21
10899.3766177215
 31
0.0
  0
LINE
  5
178
330
1F
100
AcDbEntity
  8
0
  6
Continuous
 62
     7
100
AcDbLine
 10
4903.1005807085
 20
10899.3766177215
 30
0.0
 11
5027.9015998285
 21
10823.7042379165
 31
0.0
  0
LINE
  5
179
330
1F
100
AcDbEntity
  8
0
  6
Continuous
 62
     7
100
AcDbLine
 10
5538.4783323935
 20
10370.8874701565
 30
0.0
 11
5542.5602316085
 21
10369.3003900415
 31
0.0
  0
LINE
  5
17A
330
1F
100
AcDbEntity
  8
0
  6
Continuous
 62
     7
100
AcDbLine
 10
5542.5602316085
 20
10369.3003900415
 30
0.0
 11
5695.3410522885
 21
10313.0284839665
 31
0.0
  0
LINE
  5
17B
330
1F
100
AcDbEntity
  8
0
  6
Continuous
 62
     7
100
AcDbLine
 10
5695.3410522885
 20
10313.0284839665
 30
0.0
 11
5852.6528721035
 21
10261.0834578565
 31
0.0
  0
LINE
  5
17C
330
1F
100
AcDbEntity
  8
0
  6
Continuous
 62
     7
100
AcDbLine
 10
5852.6528721035
 20
10261.0834578565
 30
0.0
 11
6014.1282820135
 21
10213.5866317265
 31
0.0
  0
LINE
  5
17D
330
1F
100
AcDbEntity
  8
0
  6
Continuous
 62
     7
100
AcDbLine
 10
6014.1282820135
 20
10213.5866317265
 30
0.0
 11
6179.3901487085
 21
10170.6489366115
 31
0.0
  0
LINE
  5
17E
330
1F
100
AcDbEntity
  8
0
  6
Continuous
 62
     7
100
AcDbLine
 10
6179.3901487085
 20
10170.6489366115
 30
0.0
 11
6348.0524954435
 21
10132.3706554915
 31
0.0
  0
LINE
  5
17F
330
1F
100
AcDbEntity
  8
0
  6
Continuous
 62
     7
100
AcDbLine
 10
6348.0524954435
 20
10132.3706554915
 30
0.0
 11
6519.7214034985
 21
10098.8411890615
 31
0.0
  0
LINE
  5
180
330
1F
100
AcDbEntity
  8
0
  6
Continuous
 62
     7
100
AcDbLine
 10
6519.7214034985
 20
10098.8411890615
 30
0.0
 11
6693.9959321785
 21
10070.1388469515
 31
0.0
  0
LINE
  5
181
330
1F
100
AcDbEntity
  8
0
  6
Continuous
 62
     7
100
AcDbLine
 10
6693.9959321785
 20
10070.1388469515
 30
0.0
 11
6870.4690552485
 21
10046.3306648015
 31
0.0
  0
LINE
  5
182
330
1F
100
AcDbEntity
  8
0
  6
Continuous
 62
     7
100
AcDbLine
 10
6870.4690552485
 20
10046.3306648015
 30
0.0
 11
7048.7286115535
 21
10027.4722477315
 31
0.0
  0
LINE
  5
183
330
1F
100
AcDbEntity
  8
0
  6
Continuous
 62
     7
100
AcDbLine
 10
7048.7286115535
 20
10027.4722477315
 30
0.0
 11
7228.3582676385
 21
10013.6076404415
 31
0.0
  0
LINE
  5
184
330
1F
100
AcDbEntity
  8
0
  6
Continuous
 62
     7
100
AcDbLine
 10
7228.3582676385
 20
10013.6076404415
 30
0.0
 11
7408.9384901235
 21
10004.7692243765
 31
0.0
  0
LINE
  5
185
330
1F
100
AcDbEntity
  8
0
  6
Continuous
 62
     7
100
AcDbLine
 10
7408.9384901235
 20
10004.7692243765
 30
0.0
 11
7590.0475255235
 21
10000.9776420515
 31
0.0
  0
LINE
  5
186
330
1F
100
AcDbEntity
  8
0
  6
Continuous
 62
     7
100
AcDbLine
 10
7590.0475255235
 20
10000.9776420515
 30
0.0
 11
7771.2623852985
 21
10002.2417488915
 31
0.0
  0
LINE
  5
187
330
1F
100
AcDbEntity
  8
0
  6
Continuous
 62
     7
100
AcDbLine
 10
7771.2623852985
 20
10002.2417488915
 30
0.0
 11
7952.1598337485
 21
10008.5585925165
 31
0.0
  0
LINE
  5
188
330
1F
100
AcDbEntity
  8
0
  6
Continuous
 62
     7
100
AcDbLine
 10
7952.1598337485
 20
10008.5585925165
 30
0.0
 11
8132.3173764985
 21
10019.9134196465
 31
0.0
  0
LINE
  5
189
330
1F
100
AcDbEntity
  8
0
  6
Continuous
 62
     7
100
AcDbLine
 10
8132.3173764985
 20
10019.9134196465
 30
0.0
 11
8311.3142472585
 21
10036.2797105515
 31
0.0
  0
LINE
  5
18A
330
1F
100
AcDbEntity
  8
0
  6
Continuous
 62
     7
100
AcDbLine
 10
8311.3142472585
 20
10036.2797105515
 30
0.0
 11
8488.7323905435
 21
10057.6192410015
 31
0.0
  0
LINE
  5
18B
330
1F
100
AcDbEntity
  8
0
  6
Continuous
 62
     7
100
AcDbLine
 10
8488.7323905435
 20
10057.6192410015
 30
0.0
 11
8664.1574380635
 21
10083.8821715415
 31
0.0
  0
LINE
  5
18C
330
1F
100
AcDbEntity
  8
0
  6
Continuous
 62
     7
100
AcDbLine
 10
8664.1574380635
 20
10083.8821715415
 30
0.0
 11
8837.1796764885
 21
10115.0071638715
 31
0.0
  0
LINE
  5
18D
330
1F
100
AcDbEntity
  8
0
  6
Continuous
 62
     7
100
AcDbLine
 10
8837.1796764885
 20
10115.0071638715
 30
0.0
 11
9007.3950043635
 21
10150.9215241315
 31
0.0
  0
LINE
  5
18E
330
1F
100
AcDbEntity
  8
0
  6
Continuous
 62
     7
100
AcDbLine
 10
9007.3950043635
 20
10150.9215241315
 30
0.0
 11
9174.4058759035
 21
10191.5413726765
 31
0.0
  0
LINE
  5
18F
330
1F
100
AcDbEntity
  8
0
  6
Continuous
 62
     7
100
AcDbLine
 10
9174.4058759035
 20
10191.5413726765
 30
0.0
 11
9337.8222294785
 21
10236.7718399565
 31
0.0
  0
LINE
  5
190
330
1F
100
AcDbEntity
  8
0
  6
Continuous
 62
     7
100
AcDbLine
 10
9337.8222294785
 20
10236.7718399565
 30
0.0
 11
9497.2623986235
 21
10286.5072881265
 31
0.0
  0
LINE
  5
191
330
1F
100
AcDbEntity
  8
0
  6
Continuous
 62
     7
100
AcDbLine
 10
9497.2623986235
 20
10286.5072881265
 30
0.0
 11
9652.3540034385
 21
10340.6315577415
 31
0.0
  0
LINE
  5
192
330
1F
100
AcDbEntity
  8
0
  6
Continuous
 62
     7
100
AcDbLine
 10
9652.3540034385
 20
10340.6315577415
 30
0.0
 11
9667.2960538885
 21
10346.1637516815
 31
0.0
  0
LINE
  5
193
330
1F
100
AcDbEntity
  8
0
  6
Continuous
 62
     7
100
AcDbLine
 10
5045.5792693585
 20
10833.9093393165
 30
0.0
 11
4921.6243588435
 21
10909.0686860365
 31
0.0
  0
LINE
  5
194
330
1F
100
AcDbEntity
  8
0
  6
Continuous
 62
     7
100
AcDbLine
 10
4921.6243588435
 20
10909.0686860365
 30
0.0
 11
4804.2070700135
 21
10987.6486673415
 31
0.0
  0
LINE
  5
195
330
1F
100
AcDbEntity
  8
0
  6
Continuous
 62
     7
100
AcDbLine
 10
4804.2070700135
 20
10987.6486673415
 30
0.0
 11
4693.6102714085
 21
11069.4599771615
 31
0.0
  0
LINE
  5
196
330
1F
100
AcDbEntity
  8
0
  6
Continuous
 62
     7
100
AcDbLine
 10
4693.6102714085
 20
11069.4599771615
 30
0.0
 11
4590.1004003985
 21
11154.3055248965
 31
0.0
  0
LINE
  5
197
330
1F
100
AcDbEntity
  8
0
  6
Continuous
 62
     7
100
AcDbLine
 10
4590.1004003985
 20
11154.3055248965
 30
0.0
 11
4493.9268213285
 21
11241.9809101815
 31
0.0
  0
LINE
  5
198
330
1F
100
AcDbEntity
  8
0
  6
Continuous
 62
     7
100
AcDbLine
 10
4493.9268213285
 20
11241.9809101815
 30
0.0
 11
4405.3212247785
 21
11332.2749153365
 31
0.0
  0
LINE
  5
199
330
1F
100
AcDbEntity
  8
0
  6
Continuous
 62
     7
100
AcDbLine
 10
4405.3212247785
 20
11332.2749153365
 30
0.0
 11
4324.4970693935
 21
11424.9700142015
 31
0.0
  0
LINE
  5
19A
330
1F
100
AcDbEntity
  8
0
  6
Continuous
 62
     7
100
AcDbLine
 10
4324.4970693935
 20
11424.9700142015
 30
0.0
 11
4251.6490676335
 21
11519.8428961515
 31
0.0
  0
LINE
  5
19B
330
1F
100
AcDbEntity
  8
0
  6
Continuous
 62
     7
100
AcDbLine
 10
4251.6490676335
 20
11519.8428961515
 30
0.0
 11
4186.9527167235
 21
11616.6650041165
 31
0.0
  0
LINE
  5
19C
330
1F
100
AcDbEntity
  8
0
  6
Continuous
 62
     7
100
AcDbLine
 10
4186.9527167235
 20
11616.6650041165
 30
0.0
 11
4130.5638758385
 21
11715.2030851465
 31
0.0
  0
LINE
  5
19D
330
1F
100
AcDbEntity
  8
0
  6
Continuous
 62
     7
100
AcDbLine
 10
4130.5638758385
 20
11715.2030851465
 30
0.0
 11
4082.6183906285
 21
11815.2197523865
 31
0.0
  0
LINE
  5
19E
330
1F
100
AcDbEntity
  8
0
  6
Continuous
 62
     7
100
AcDbLine
 10
4082.6183906285
 20
11815.2197523865
 30
0.0
 11
4043.2317659785
 21
11916.4740569115
 31
0.0
  0
LINE
  5
19F
330
1F
100
AcDbEntity
  8
0
  6
Continuous
 62
     7
100
AcDbLine
 10
4043.2317659785
 20
11916.4740569115
 30
0.0
 11
4012.4988877085
 21
12018.7220682365
 31
0.0
  0
LINE
  5
1A0
330
1F
100
AcDbEntity
  8
0
  6
Continuous
 62
     7
100
AcDbLine
 10
4012.4988877085
 20
12018.7220682365
 30
0.0
 11
3990.4937940185
 21
12121.7174619515
 31
0.0
  0
LINE
  5
1A1
330
1F
100
AcDbEntity
  8
0
  6
Continuous
 62
     7
100
AcDbLine
 10
3990.4937940185
 20
12121.7174619515
 30
0.0
 11
3977.2694971035
 21
12225.2121131315
 31
0.0
  0
LINE
  5
1A2
330
1F
100
AcDbEntity
  8
0
  6
Continuous
 62
     7
100
AcDbLine
 10
3977.2694971035
 20
12225.2121131315
 30
0.0
 11
3972.8578554535
 21
12328.9566940915
 31
0.0
  0
LINE
  5
1A3
330
1F
100
AcDbEntity
  8
0
  6
Continuous
 62
     7
100
AcDbLine
 10
3972.8578554535
 20
12328.9566940915
 30
0.0
 11
3977.2694971035
 21
12432.7012750515
 31
0.0
  0
LINE
  5
1A4
330
1F
100
AcDbEntity
  8
0
  6
Continuous
 62
     7
100
AcDbLine
 10
3977.2694971035
 20
12432.7012750515
 30
0.0
 11
3990.4937940185
 21
12536.1959262265
 31
0.0
  0
LINE
  5
1A5
330
1F
100
AcDbEntity
  8
0
  6
Continuous
 62
     7
100
AcDbLine
 10
3990.4937940185
 20
12536.1959262265
 30
0.0
 11
4012.4988877085
 21
12639.1913199465
 31
0.0
  0
LINE
  5
1A6
330
1F
100
AcDbEntity
  8
0
  6
Continuous
 62
     7
100
AcDbLine
 10
4012.4988877085
 20
12639.1913199465
 30
0.0
 11
4043.2317659785
 21
12741.4393312715
 31
0.0
  0
LINE
  5
1A7
330
1F
100
AcDbEntity
  8
0
  6
Continuous
 62
     7
100
AcDbLine
 10
4043.2317659785
 20
12741.4393312715
 30
0.0
 11
4082.6183906285
 21
12842.6936357965
 31
0.0
  0
LINE
  5
1A8
330
1F
100
AcDbEntity
  8
0
  6
Continuous
 62
     7
100
AcDbLine
 10
4082.6183906285
 20
12842.6936357965
 30
0.0
 11
4130.5638758385
 21
12942.7103030365
 31
0.0
  0
LINE
  5
1A9
330
1F
100
AcDbEntity
  8
0
  6
Continuous
 62
     7
100
AcDbLine
 10
4130.5638758385
 20
12942.7103030365
 30
0.0
 11
4186.9527167235
 21
13041.2483840665
 31
0.0
  0
LINE
  5
1AA
330
1F
100
AcDbEntity
  8
0
  6
Continuous
 62
     7
100
AcDbLine
 10
4186.9527167235
 20
13041.2483840665
 30
0.0
 11
4251.6490676335
 21
13138.0704920315
 31
0.0
  0
LINE
  5
1AB
330
1F
100
AcDbEntity
  8
0
  6
Continuous
 62
     7
100
AcDbLine
 10
4251.6490676335
 20
13138.0704920315
 30
0.0
 11
4324.4970693935
 21
13232.9433739815
 31
0.0
  0
LINE
  5
1AC
330
1F
100
AcDbEntity
  8
0
  6
Continuous
 62
     7
100
AcDbLine
 10
4324.4970693935
 20
13232.9433739815
 30
0.0
 11
4405.3212247785
 21
13325.6384728465
 31
0.0
  0
LINE
  5
1AD
330
1F
100
AcDbEntity
  8
0
  6
Continuous
 62
     7
100
AcDbLine
 10
4405.3212247785
 20
13325.6384728465
 30
0.0
 11
4493.9268213285
 21
13415.9324780015
 31
0.0
  0
LINE
  5
1AE
330
1F
100
AcDbEntity
  8
0
  6
Continuous
 62
     7
100
AcDbLine
 10
4493.9268213285
 20
13415.9324780015
 30
0.0
 11
4590.1004003985
 21
13503.6078632865
 31
0.0
  0
LINE
  5
1AF
330
1F
100
AcDbEntity
  8
0
  6
Continuous
 62
     7
100
AcDbLine
 10
4590.1004003985
 20
13503.6078632865
 30
0.0
 11
4693.6102714085
 21
13588.4534110215
 31
0.0
  0
LINE
  5
1B0
330
1F
100
AcDbEntity
  8
0
  6
Continuous
 62
     7
100
AcDbLine
 10
4693.6102714085
 20
13588.4534110215
 30
0.0
 11
4804.2070700135
 21
13670.2647208415
 31
0.0
  0
LINE
  5
1B1
330
1F
100
AcDbEntity
  8
0
  6
Continuous
 62
     7
100
AcDbLine
 10
4804.2070700135
 20
13670.2647208415
 30
0.0
 11
4921.6243588435
 21
13748.8447021465
 31
0.0
  0
LINE
  5
1B2
330
1F
100
AcDbEntity
  8
0
  6
Continuous
 62
     7
100
AcDbLine
 10
4921.6243588435
 20
13748.8447021465
 30
0.0
 11
5045.5792693585
 21
13824.0040488665
 31
0.0
  0
LINE
  5
1B3
330
1F
100
AcDbEntity
  8
0
  6
Continuous
 62
     7
100
AcDbLine
 10
5045.5792693585
 20
13824.0040488665
 30
0.0
 11
5175.7731833285
 21
13895.5616955615
 31
0.0
  0
LINE
  5
1B4
330
1F
100
AcDbEntity
  8
0
  6
Continuous
 62
     7
100
AcDbLine
 10
5175.7731833285
 20
13895.5616955615
 30
0.0
 11
5311.8924522085
 21
13963.3452535865
 31
0.0
  0
LINE
  5
1B5
330
1F
100
AcDbEntity
  8
0
  6
Continuous
 62
     7
100
AcDbLine
 10
5311.8924522085
 20
13963.3452535865
 30
0.0
 11
5453.6091527535
 21
14027.1914264215
 31
0.0
  0
LINE
  5
1B6
330
1F
100
AcDbEntity
  8
0
  6
Continuous
 62
     7
100
AcDbLine
 10
5453.6091527535
 20
14027.1914264215
 30
0.0
 11
5600.5818770235
 21
14086.9464030315
 31
0.0
  0
LINE
  5
1B7
330
1F
100
AcDbEntity
  8
0
  6
Continuous
 62
     7
100
AcDbLine
 10
5600.5818770235
 20
14086.9464030315
 30
0.0
 11
5752.4565548485
 21
14142.4662284565
 31
0.0
  0
LINE
  5
1B8
330
1F
100
AcDbEntity
  8
0
  6
Continuous
 62
     7
100
AcDbLine
 10
5752.4565548485
 20
14142.4662284565
 30
0.0
 11
5908.8673068285
 21
14193.6171505665
 31
0.0
  0
LINE
  5
1B9
330
1F
100
AcDbEntity
  8
0
  6
Continuous
 62
     7
100
AcDbLine
 10
5908.8673068285
 20
14193.6171505665
 30
0.0
 11
6069.4373257685
 21
14240.2759423115
 31
0.0
  0
LINE
  5
1BA
330
1F
100
AcDbEntity
  8
0
  6
Continuous
 62
     7
100
AcDbLine
 10
6069.4373257685
 20
14240.2759423115
 30
0.0
 11
6233.7797844185
 21
14282.3301985765
 31
0.0
  0
LINE
  5
1BB
330
1F
100
AcDbEntity
  8
0
  6
Continuous
 62
     7
100
AcDbLine
 10
6233.7797844185
 20
14282.3301985765
 30
0.0
 11
6401.4987674085
 21
14319.6786069765
 31
0.0
  0
LINE
  5
1BC
330
1F
100
AcDbEntity
  8
0
  6
Continuous
 62
     7
100
AcDbLine
 10
6401.4987674085
 20
14319.6786069765
 30
0.0
 11
6572.1902250135
 21
14352.2311919165
 31
0.0
  0
LINE
  5
1BD
330
1F
100
AcDbEntity
  8
0
  6
Continuous
 62
     7
100
AcDbLine
 10
6572.1902250135
 20
14352.2311919165
 30
0.0
 11
6745.4429465585
 21
14379.9095313765
 31
0.0
  0
LINE
  5
1BE
330
1F
100
AcDbEntity
  8
0
  6
Continuous
 62
     7
100
AcDbLine
 10
6745.4429465585
 20
14379.9095313765
 30
0.0
 11
6920.8395510735
 21
14402.6469458065
 31
0.0
  0
LINE
  5
1BF
330
1F
100
AcDbEntity
  8
0
  6
Continuous
 62
     7
100
AcDbLine
 10
6920.8395510735
 20
14402.6469458065
 30
0.0
 11
7097.9574927635
 21
14420.3886587915
 31
0.0
  0
LINE
  5
1C0
330
1F
100
AcDbEntity
  8
0
  6
Continuous
 62
     7
100
AcDbLine
 10
7097.9574927635
 20
14420.3886587915
 30
0.0
 11
7276.3700789985
 21
14433.0919289815
 31
0.0
  0
LINE
  5
1C1
330
1F
100
AcDbEntity
  8
0
  6
Continuous
 62
     7
100
AcDbLine
 10
7276.3700789985
 20
14433.0919289815
 30
0.0
 11
7455.6474982335
 21
14440.7261530915
 31
0.0
  0
LINE
  5
1C2
330
1F
100
AcDbEntity
  8
0
  6
Continuous
 62
     7
100
AcDbLine
 10
7455.6474982335
 20
14440.7261530915
 30
0.0
 11
7635.3578554535
 21
14443.2729396065
 31
0.0
  0
LINE
  5
1C3
330
1F
100
AcDbEntity
  8
0
  6
Continuous
 62
     7
100
AcDbLine
 10
7635.3578554535
 20
14443.2729396065
 30
0.0
 11
7815.0682126785
 21
14440.7261530915
 31
0.0
  0
LINE
  5
1C4
330
1F
100
AcDbEntity
  8
0
  6
Continuous
 62
     7
100
AcDbLine
 10
7815.0682126785
 20
14440.7261530915
 30
0.0
 11
7994.3456319135
 21
14433.0919289815
 31
0.0
  0
LINE
  5
1C5
330
1F
100
AcDbEntity
  8
0
  6
Continuous
 62
     7
100
AcDbLine
 10
7994.3456319135
 20
14433.0919289815
 30
0.0
 11
8172.7582181485
 21
14420.3886587915
 31
0.0
  0
LINE
  5
1C6
330
1F
100
AcDbEntity
  8
0
  6
Continuous
 62
     7
100
AcDbLine
 10
8172.7582181485
 20
14420.3886587915
 30
0.0
 11
8349.8761598385
 21
14402.6469458065
 31
0.0
  0
LINE
  5
1C7
330
1F
100
AcDbEntity
  8
0
  6
Continuous
 62
     7
100
AcDbLine
 10
8349.8761598385
 20
14402.6469458065
 30
0.0
 11
8525.2727643535
 21
14379.9095313765
 31
0.0
  0
LINE
  5
1C8
330
1F
100
AcDbEntity
  8
0
  6
Continuous
 62
     7
100
AcDbLine
 10
8525.2727643535
 20
14379.9095313765
 30
0.0
 11
8698.5254858985
 21
14352.2311919165
 31
0.0
  0
LINE
  5
1C9
330
1F
100
AcDbEntity
  8
0
  6
Continuous
 62
     7
100
AcDbLine
 10
8698.5254858985
 20
14352.2311919165
 30
0.0
 11
8869.2169435035
 21
14319.6786069765
 31
0.0
  0
LINE
  5
1CA
330
1F
100
AcDbEntity
  8
0
  6
Continuous
 62
     7
100
AcDbLine
 10
8869.2169435035
 20
14319.6786069765
 30
0.0
 11
9036.9359264935
 21
14282.3301985765
 31
0.0
  0
LINE
  5
1CB
330
1F
100
AcDbEntity
  8
0
  6
Continuous
 62
     7
100
AcDbLine
 10
9036.9359264935
 20
14282.3301985765
 30
0.0
 11
9201.2783851435
 21
14240.2759423115
 31
0.0
  0
LINE
  5
1CC
330
1F
100
AcDbEntity
  8
0
  6
Continuous
 62
     7
100
AcDbLine
 10
9201.2783851435
 20
14240.2759423115
 30
0.0
 11
9361.8484040835
 21
14193.6171505665
 31
0.0
  0
LINE
  5
1CD
330
1F
100
AcDbEntity
  8
0
  6
Continuous
 62
     7
100
AcDbLine
 10
9361.8484040835
 20
14193.6171505665
 30
0.0
 11
9518.2591560635
 21
14142.4662284565
 31
0.0
  0
LINE
  5
1CE
330
1F
100
AcDbEntity
  8
0
  6
Continuous
 62
     7
100
AcDbLine
 10
9518.2591560635
 20
14142.4662284565
 30
0.0
 11
9670.1338338885
 21
14086.9464030315
 31
0.0
  0
LINE
  5
1CF
330
1F
100
AcDbEntity
  8
0
  6
Continuous
 62
     7
100
AcDbLine
 10
9670.1338338885
 20
14086.9464030315
 30
0.0
 11
9817.1065581585
 21
14027.1914264215
 31
0.0
  0
LINE
  5
1D0
330
1F
100
AcDbEntity
  8
0
  6
Continuous
 62
     7
100
AcDbLine
 10
9817.1065581585
 20
14027.1914264215
 30
0.0
 11
9958.8232587035
 21
13963.3452535865
 31
0.0
  0
LINE
  5
1D1
330
1F
100
AcDbEntity
  8
0
  6
Continuous
 62
     7
100
AcDbLine
 10
9958.8232587035
 20
13963.3452535865
 30
0.0
 11
10094.9425275835
 21
13895.5616955615
 31
0.0
  0
LINE
  5
1D2
330
1F
100
AcDbEntity
  8
0
  6
Continuous
 62
     7
100
AcDbLine
 10
10094.9425275835
 20
13895.5616955615
 30
0.0
 11
10225.1364415535
 21
13824.0040488665
 31
0.0
  0
LINE
  5
1D3
330
1F
100
AcDbEntity
  8
0
  6
Continuous
 62
     7
100
AcDbLine
 10
10225.1364415535
 20
13824.0040488665
 30
0.0
 11
10349.0913520685
 21
13748.8447021465
 31
0.0
  0
LINE
  5
1D4
330
1F
100
AcDbEntity
  8
0
  6
Continuous
 62
     7
100
AcDbLine
 10
10349.0913520685
 20
13748.8447021465
 30
0.0
 11
10466.5086408985
 21
13670.2647208415
 31
0.0
  0
LINE
  5
1D5
330
1F
100
AcDbEntity
  8
0
  6
Continuous
 62
     7
100
AcDbLine
 10
10466.5086408985
 20
13670.2647208415
 30
0.0
 11
10577.1054395035
 21
13588.4534110215
 31
0.0
  0
LINE
  5
1D6
330
1F
100
AcDbEntity
  8
0
  6
Continuous
 62
     7
100
AcDbLine
 10
10577.1054395035
 20
13588.4534110215
 30
0.0
 11
10680.6153105135
 21
13503.6078632865
 31
0.0
  0
LINE
  5
1D7
330
1F
100
AcDbEntity
  8
0
  6
Continuous
 62
     7
100
AcDbLine
 10
10680.6153105135
 20
13503.6078632865
 30
0.0
 11
10776.7888895835
 21
13415.9324780015
 31
0.0
  0
LINE
  5
1D8
330
1F
100
AcDbEntity
  8
0
  6
Continuous
 62
     7
100
AcDbLine
 10
10776.7888895835
 20
13415.9324780015
 30
0.0
 11
10865.3944861335
 21
13325.6384728465
 31
0.0
  0
LINE
  5
1D9
330
1F
100
AcDbEntity
  8
0
  6
Continuous
 62
     7
100
AcDbLine
 10
10865.3944861335
 20
13325.6384728465
 30
0.0
 11
10946.2186415185
 21
13232.9433739815
 31
0.0
  0
LINE
  5
1DA
330
1F
100
AcDbEntity
  8
0
  6
Continuous
 62
     7
100
AcDbLine
 10
10946.2186415185
 20
13232.9433739815
 30
0.0
 11
11019.0666432785
 21
13138.0704920315
 31
0.0
  0
LINE
  5
1DB
330
1F
100
AcDbEntity
  8
0
  6
Continuous
 62
     7
100
AcDbLine
 10
11019.0666432785
 20
13138.0704920315
 30
0.0
 11
11083.7629941885
 21
13041.2483840665
 31
0.0
  0
LINE
  5
1DC
330
1F
100
AcDbEntity
  8
0
  6
Continuous
 62
     7
100
AcDbLine
 10
11083.7629941885
 20
13041.2483840665
 30
0.0
 11
11140.1518350735
 21
12942.7103030315
 31
0.0
  0
LINE
  5
1DD
330
1F
100
AcDbEntity
  8
0
  6
Continuous
 62
     7
100
AcDbLine
 10
11140.1518350735
 20
12942.7103030315
 30
0.0
 11
11188.0973202785
 21
12842.6936357965
 31
0.0
  0
LINE
  5
1DE
330
1F
100
AcDbEntity
  8
0
  6
Continuous
 62
     7
100
AcDbLine
 10
11188.0973202785
 20
12842.6936357965
 30
0.0
 11
11227.4839449335
 21
12741.4393312715
 31
0.0
  0
LINE
  5
1DF
330
1F
100
AcDbEntity
  8
0
  6
Continuous
 62
     7
100
AcDbLine
 10
11227.4839449335
 20
12741.4393312715
 30
0.0
 11
11258.2168232035
 21
12639.1913199465
 31
0.0
  0
LINE
  5
1E0
330
1F
100
AcDbEntity
  8
0
  6
Continuous
 62
     7
100
AcDbLine
 10
11258.2168232035
 20
12639.1913199465
 30
0.0
 11
11280.2219168935
 21
12536.1959262265
 31
0.0
  0
LINE
  5
1E1
330
1F
100
AcDbEntity
  8
0
  6
Continuous
 62
     7
100
AcDbLine
 10
11280.2219168935
 20
12536.1959262265
 30
0.0
 11
11293.4462138085
 21
12432.7012750515
 31
0.0
  0
LINE
  5
1E2
330
1F
100
AcDbEntity
  8
0
  6
Continuous
 62
     7
100
AcDbLine
 10
11293.4462138085
 20
12432.7012750515
 30
0.0
 11
11297.8578554535
 21
12328.9566940915
 31
0.0
  0
LINE
  5
1E3
330
1F
100
AcDbEntity
  8
0
  6
Continuous
 62
     7
100
AcDbLine
 10
11297.8578554535
 20
12328.9566940915
 30
0.0
 11
11293.4462138085
 21
12225.2121131315
 31
0.0
  0
LINE
  5
1E4
330
1F
100
AcDbEntity
  8
0
  6
Continuous
 62
     7
100
AcDbLine
 10
11293.4462138085
 20
12225.2121131315
 30
0.0
 11
11280.2219168935
 21
12121.7174619515
 31
0.0
  0
LINE
  5
1E5
330
1F
100
AcDbEntity
  8
0
  6
Continuous
 62
     7
100
AcDbLine
 10
11280.2219168935
 20
12121.7174619515
 30
0.0
 11
11258.2168232035
 21
12018.7220682365
 31
0.0
  0
LINE
  5
1E6
330
1F
100
AcDbEntity
  8
0
  6
Continuous
 62
     7
100
AcDbLine
 10
11258.2168232035
 20
12018.7220682365
 30
0.0
 11
11227.4839449335
 21
11916.4740569115
 31
0.0
  0
LINE
  5
1E7
330
1F
100
AcDbEntity
  8
0
  6
Continuous
 62
     7
100
AcDbLine
 10
11227.4839449335
 20
11916.4740569115
 30
0.0
 11
11188.0973202785
 21
11815.2197523865
 31
0.0
  0
LINE
  5
1E8
330
1F
100
AcDbEntity
  8
0
  6
Continuous
 62
     7
100
AcDbLine
 10
11188.0973202785
 20
11815.2197523865
 30
0.0
 11
11140.1518350735
 21
11715.2030851465
 31
0.0
  0
LINE
  5
1E9
330
1F
100
AcDbEntity
  8
0
  6
Continuous
 62
     7
100
AcDbLine
 10
11140.1518350735
 20
11715.2030851465
 30
0.0
 11
11083.7629941885
 21
11616.6650041165
 31
0.0
  0
LINE
  5
1EA
330
1F
100
AcDbEntity
  8
0
  6
Continuous
 62
     7
100
AcDbLine
 10
11083.7629941885
 20
11616.6650041165
 30
0.0
 11
11019.0666432785
 21
11519.8428961515
 31
0.0
  0
LINE
  5
1EB
330
1F
100
AcDbEntity
  8
0
  6
Continuous
 62
     7
100
AcDbLine
 10
11019.0666432785
 20
11519.8428961515
 30
0.0
 11
10946.2186415185
 21
11424.9700142015
 31
0.0
  0
LINE
  5
1EC
330
1F
100
AcDbEntity
  8
0
  6
Continuous
 62
     7
100
AcDbLine
 10
10946.2186415185
 20
11424.9700142015
 30
0.0
 11
10865.3944861335
 21
11332.2749153365
 31
0.0
  0
LINE
  5
1ED
330
1F
100
AcDbEntity
  8
0
  6
Continuous
 62
     7
100
AcDbLine
 10
10865.3944861335
 20
11332.2749153365
 30
0.0
 11
10776.7888895835
 21
11241.9809101815
 31
0.0
  0
LINE
  5
1EE
330
1F
100
AcDbEntity
  8
0
  6
Continuous
 62
     7
100
AcDbLine
 10
10776.7888895835
 20
11241.9809101815
 30
0.0
 11
10680.6153105135
 21
11154.3055248965
 31
0.0
  0
LINE
  5
1EF
330
1F
100
AcDbEntity
  8
0
  6
Continuous
 62
     7
100
AcDbLine
 10
10680.6153105135
 20
11154.3055248965
 30
0.0
 11
10577.1054395035
 21
11069.4599771615
 31
0.0
  0
LINE
  5
1F0
330
1F
100
AcDbEntity
  8
0
  6
Continuous
 62
     7
100
AcDbLine
 10
10577.1054395035
 20
11069.4599771615
 30
0.0
 11
10466.5086408985
 21
10987.6486673415
 31
0.0
  0
LINE
  5
1F1
330
1F
100
AcDbEntity
  8
0
  6
Continuous
 62
     7
100
AcDbLine
 10
10466.5086408985
 20
10987.6486673415
 30
0.0
 11
10349.0913520685
 21
10909.0686860365
 31
0.0
  0
LINE
  5
1F2
330
1F
100
AcDbEntity
  8
0
  6
Continuous
 62
     7
100
AcDbLine
 10
10349.0913520685
 20
10909.0686860365
 30
0.0
 11
10225.1364415535
 21
10833.9093393165
 31
0.0
  0
LINE
  5
1F3
330
1F
100
AcDbEntity
  8
0
  6
Continuous
 62
     7
100
AcDbLine
 10
10225.1364415535
 20
10833.9093393165
 30
0.0
 11
10094.9425275835
 21
10762.3516926215
 31
0.0
  0
LINE
  5
1F4
330
1F
100
AcDbEntity
  8
0
  6
Continuous
 62
     7
100
AcDbLine
 10
10094.9425275835
 20
10762.3516926215
 30
0.0
 11
9958.8232587035
 21
10694.5681345965
 31
0.0
  0
LINE
  5
1F5
330
1F
100
AcDbEntity
  8
0
  6
Continuous
 62
     7
100
AcDbLine
 10
9958.8232587035
 20
10694.5681345965
 30
0.0
 11
9817.1065581585
 21
10630.7219617615
 31
0.0
  0
LINE
  5
1F6
330
1F
100
AcDbEntity
  8
0
  6
Continuous
 62
     7
100
AcDbLine
 10
9817.1065581585
 20
10630.7219617615
 30
0.0
 11
9670.1338338885
 21
10570.9669851515
 31
0.0
  0
LINE
  5
1F7
330
1F
100
AcDbEntity
  8
0
  6
Continuous
 62
     7
100
AcDbLine
 10
9670.1338338885
 20
10570.9669851515
 30
0.0
 11
9518.2591560635
 21
10515.4471597265
 31
0.0
  0
LINE
  5
1F8
330
1F
100
AcDbEntity
  8
0
  6
Continuous
 62
     7
100
AcDbLine
 10
9518.2591560635
 20
10515.4471597265
 30
0.0
 11
9361.8484040835
 21
10464.2962376165
 31
0.0
  0
LINE
  5
1F9
330
1F
100
AcDbEntity
  8
0
  6
Continuous
 62
     7
100
AcDbLine
 10
9361.8484040835
 20
10464.2962376165
 30
0.0
 11
9201.2783851435
 21
10417.6374458715
 31
0.0
  0
LINE
  5
1FA
330
1F
100
AcDbEntity
  8
0
  6
Continuous
 62
     7
100
AcDbLine
 10
9201.2783851435
 20
10417.6374458715
 30
0.0
 11
9036.9359264935
 21
10375.5831896065
 31
0.0
  0
LINE
  5
1FB
330
1F
100
AcDbEntity
  8
0
  6
Continuous
 62
     7
100
AcDbLine
 10
9036.9359264935
 20
10375.5831896065
 30
0.0
 11
8869.2169435035
 21
10338.2347812065
 31
0.0
  0
LINE
  5
1FC
330
1F
100
AcDbEntity
  8
0
  6
Continuous
 62
     7
100
AcDbLine
 10
8869.2169435035
 20
10338.2347812065
 30
0.0
 11
8698.5254858985
 21
10305.6821962665
 31
0.0
  0
LINE
  5
1FD
330
1F
100
AcDbEntity
  8
0
  6
Continuous
 62
     7
100
AcDbLine
 10
8698.5254858985
 20
10305.6821962665
 30
0.0
 11
8525.2727643535
 21
10278.0038568065
 31
0.0
  0
LINE
  5
1FE
330
1F
100
AcDbEntity
  8
0
  6
Continuous
 62
     7
100
AcDbLine
 10
8525.2727643535
 20
10278.0038568065
 30
0.0
 11
8349.8761598385
 21
10255.2664423765
 31
0.0
  0
LINE
  5
1FF
330
1F
100
AcDbEntity
  8
0
  6
Continuous
 62
     7
100
AcDbLine
 10
8349.8761598385
 20
10255.2664423765
 30
0.0
 11
8172.7582181485
 21
10237.5247293915
 31
0.0
  0
LINE
  5
200
330
1F
100
AcDbEntity
  8
0
  6
Continuous
 62
     7
100
AcDbLine
 10
8172.7582181485
 20
10237.5247293915
 30
0.0
 11
7994.3456319135
 21
10224.8214592015
 31
0.0
  0
LINE
  5
201
330
1F
100
AcDbEntity
  8
0
  6
Continuous
 62
     7
100
AcDbLine
 10
7994.3456319135
 20
10224.8214592015
 30
0.0
 11
7815.0682126785
 21
10217.1872350915
 31
0.0
  0
LINE
  5
202
330
1F
100
AcDbEntity
  8
0
  6
Continuous
 62
     7
100
AcDbLine
 10
7815.0682126785
 20
10217.1872350915
 30
0.0
 11
7635.3578554535
 21
10214.6404485765
 31
0.0
  0
LINE
  5
203
330
1F
100
AcDbEntity
  8
0
  6
Continuous
 62
     7
100
AcDbLine
 10
7635.3578554535
 20
10214.6404485765
 30
0.0
 11
7455.6474982335
 21
10217.1872350915
 31
0.0
  0
LINE
  5
204
330
1F
100
AcDbEntity
  8
0
  6
Continuous
 62
     7
100
AcDbLine
 10
7455.6474982335
 20
10217.1872350915
 30
0.0
 11
7276.3700789985
 21
10224.8214592015
 31
0.0
  0
LINE
  5
205
330
1F
100
AcDbEntity
  8
0
  6
Continuous
 62
     7
100
AcDbLine
 10
7276.3700789985
 20
10224.8214592015
 30
0.0
 11
7097.9574927635
 21
10237.5247293915
 31
0.0
  0
LINE
  5
206
330
1F
100
AcDbEntity
  8
0
  6
Continuous
 62
     7
100
AcDbLine
 10
7097.9574927635
 20
10237.5247293915
 30
0.0
 11
6920.8395510735
 21
10255.2664423765
 31
0.0
  0
LINE
  5
207
330
1F
100
AcDbEntity
  8
0
  6
Continuous
 62
     7
100
AcDbLine
 10
6920.8395510735
 20
10255.2664423765
 30
0.0
 11
6745.4429465585
 21
10278.0038568065
 31
0.0
  0
LINE
  5
208
330
1F
100
AcDbEntity
  8
0
  6
Continuous
 62
     7
100
AcDbLine
 10
6745.4429465585
 20
10278.0038568065
 30
0.0
 11
6572.1902250135
 21
10305.6821962665
 31
0.0
  0
LINE
  5
209
330
1F
100
AcDbEntity
  8
0
  6
Continuous
 62
     7
100
AcDbLine
 10
6572.1902250135
 20
10305.6821962665
 30
0.0
 11
6401.4987674085
 21
10338.2347812065
 31
0.0
  0
LINE
  5
20A
330
1F
100
AcDbEntity
  8
0
  6
Continuous
 62
     7
100
AcDbLine
 10
6401.4987674085
 20
10338.2347812065
 30
0.0
 11
6233.7797844185
 21
10375.5831896065
 31
0.0
  0
LINE
  5
20B
330
1F
100
AcDbEntity
  8
0
  6
Continuous
 62
     7
100
AcDbLine
 10
6233.7797844185
 20
10375.5831896065
 30
0.0
 11
6069.4373257685
 21
10417.6374458715
 31
0.0
  0
LINE
  5
20C
330
1F
100
AcDbEntity
  8
0
  6
Continuous
 62
     7
100
AcDbLine
 10
6069.4373257685
 20
10417.6374458715
 30
0.0
 11
5908.8673068285
 21
10464.2962376165
 31
0.0
  0
LINE
  5
20D
330
1F
100
AcDbEntity
  8
0
  6
Continuous
 62
     7
100
AcDbLine
 10
5908.8673068285
 20
10464.2962376165
 30
0.0
 11
5752.4565548485
 21
10515.4471597265
 31
0.0
  0
LINE
  5
20E
330
1F
100
AcDbEntity
  8
0
  6
Continuous
 62
     7
100
AcDbLine
 10
5752.4565548485
 20
10515.4471597265
 30
0.0
 11
5600.5818770235
 21
10570.9669851515
 31
0.0
  0
LINE
  5
20F
330
1F
100
AcDbEntity
  8
0
  6
Continuous
 62
     7
100
AcDbLine
 10
5600.5818770235
 20
10570.9669851515
 30
0.0
 11
5453.6091527535
 21
10630.7219617615
 31
0.0
  0
LINE
  5
210
330
1F
100
AcDbEntity
  8
0
  6
Continuous
 62
     7
100
AcDbLine
 10
5453.6091527535
 20
10630.7219617615
 30
0.0
 11
5311.8924522085
 21
10694.5681345965
 31
0.0
  0
LINE
  5
211
330
1F
100
AcDbEntity
  8
0
  6
Continuous
 62
     7
100
AcDbLine
 10
5311.8924522085
 20
10694.5681345965
 30
0.0
 11
5175.7731833285
 21
10762.3516926215
 31
0.0
  0
LINE
  5
212
330
1F
100
AcDbEntity
  8
0
  6
Continuous
 62
     7
100
AcDbLine
 10
5175.7731833285
 20
10762.3516926215
 30
0.0
 11
5045.5792693585
 21
10833.9093393165
 31
0.0
  0
LINE
  5
213
330
1F
100
AcDbEntity
  8
0
  6
Continuous
 62
     7
100
AcDbLine
 10
11189.9157602235
 20
12039.0058613015
 30
0.0
 11
11176.7957354835
 21
12100.7480816215
 31
0.0
  0
LINE
  5
214
330
1F
100
AcDbEntity
  8
0
  6
Continuous
 62
     7
100
AcDbLine
 10
11176.7957354835
 20
12100.7480816215
 30
0.0
 11
11148.0329972635
 21
12202.3037253615
 31
0.0
  0
LINE
  5
215
330
1F
100
AcDbEntity
  8
0
  6
Continuous
 62
     7
100
AcDbLine
 10
11148.0329972635
 20
12202.3037253615
 30
0.0
 11
11110.5371951785
 21
12302.9054676415
 31
0.0
  0
LINE
  5
216
330
1F
100
AcDbEntity
  8
0
  6
Continuous
 62
     7
100
AcDbLine
 10
11110.5371951785
 20
12302.9054676415
 30
0.0
 11
11064.4015496985
 21
12402.3031966765
 31
0.0
  0
LINE
  5
217
330
1F
100
AcDbEntity
  8
0
  6
Continuous
 62
     7
100
AcDbLine
 10
11064.4015496985
 20
12402.3031966765
 30
0.0
 11
11009.7407613085
 21
12500.2497940565
 31
0.0
  0
LINE
  5
218
330
1F
100
AcDbEntity
  8
0
  6
Continuous
 62
     7
100
AcDbLine
 10
11009.7407613085
 20
12500.2497940565
 30
0.0
 11
10946.6907253385
 21
12596.5017491015
 31
0.0
  0
LINE
  5
219
330
1F
100
AcDbEntity
  8
0
  6
Continuous
 62
     7
100
AcDbLine
 10
10946.6907253385
 20
12596.5017491015
 30
0.0
 11
10875.4081941135
 21
12690.8197642865
 31
0.0
  0
LINE
  5
21A
330
1F
100
AcDbEntity
  8
0
  6
Continuous
 62
     7
100
AcDbLine
 10
10875.4081941135
 20
12690.8197642865
 30
0.0
 11
10796.0703872335
 21
12782.9693501715
 31
0.0
  0
LINE
  5
21B
330
1F
100
AcDbEntity
  8
0
  6
Continuous
 62
     7
100
AcDbLine
 10
10796.0703872335
 20
12782.9693501715
 30
0.0
 11
10708.8745509935
 21
12872.7214083615
 31
0.0
  0
LINE
  5
21C
330
1F
100
AcDbEntity
  8
0
  6
Continuous
 62
     7
100
AcDbLine
 10
10708.8745509935
 20
12872.7214083615
 30
0.0
 11
10614.0374679785
 21
12959.8528010965
 31
0.0
  0
LINE
  5
21D
330
1F
100
AcDbEntity
  8
0
  6
Continuous
 62
     7
100
AcDbLine
 10
10614.0374679785
 20
12959.8528010965
 30
0.0
 11
10511.7949181235
 21
13044.1469060065
 31
0.0
  0
LINE
  5
21E
330
1F
100
AcDbEntity
  8
0
  6
Continuous
 62
     7
100
AcDbLine
 10
10511.7949181235
 20
13044.1469060065
 30
0.0
 11
10402.4010925085
 21
13125.3941546665
 31
0.0
  0
LINE
  5
21F
330
1F
100
AcDbEntity
  8
0
  6
Continuous
 62
     7
100
AcDbLine
 10
10402.4010925085
 20
13125.3941546665
 30
0.0
 11
10286.1279614235
 21
13203.3925536165
 31
0.0
  0
LINE
  5
220
330
1F
100
AcDbEntity
  8
0
  6
Continuous
 62
     7
100
AcDbLine
 10
10286.1279614235
 20
13203.3925536165
 30
0.0
 11
10163.2645981985
 21
13277.9481865465
 31
0.0
  0
LINE
  5
221
330
1F
100
AcDbEntity
  8
0
  6
Continuous
 62
     7
100
AcDbLine
 10
10163.2645981985
 20
13277.9481865465
 30
0.0
 11
10034.1164605035
 21
13348.8756964015
 31
0.0
  0
LINE
  5
222
330
1F
100
AcDbEntity
  8
0
  6
Continuous
 62
     7
100
AcDbLine
 10
10034.1164605035
 20
13348.8756964015
 30
0.0
 11
9899.0046309685
 21
13415.9987462215
 31
0.0
  0
LINE
  5
223
330
1F
100
AcDbEntity
  8
0
  6
Continuous
 62
     7
100
AcDbLine
 10
9899.0046309685
 20
13415.9987462215
 30
0.0
 11
9758.2650188835
 21
13479.1504575265
 31
0.0
  0
LINE
  5
224
330
1F
100
AcDbEntity
  8
0
  6
Continuous
 62
     7
100
AcDbLine
 10
9758.2650188835
 20
13479.1504575265
 30
0.0
 11
9612.2475250985
 21
13538.1738252115
 31
0.0
  0
LINE
  5
225
330
1F
100
AcDbEntity
  8
0
  6
Continuous
 62
     7
100
AcDbLine
 10
9612.2475250985
 20
13538.1738252115
 30
0.0
 11
9461.3151721085
 21
13592.9221078865
 31
0.0
  0
LINE
  5
226
330
1F
100
AcDbEntity
  8
0
  6
Continuous
 62
     7
100
AcDbLine
 10
9461.3151721085
 20
13592.9221078865
 30
0.0
 11
9305.8432015335
 21
13643.2591926915
 31
0.0
  0
LINE
  5
227
330
1F
100
AcDbEntity
  8
0
  6
Continuous
 62
     7
100
AcDbLine
 10
9305.8432015335
 20
13643.2591926915
 30
0.0
 11
9146.2181411785
 21
13689.0599337065
 31
0.0
  0
LINE
  5
228
330
1F
100
AcDbEntity
  8
0
  6
Continuous
 62
     7
100
AcDbLine
 10
9146.2181411785
 20
13689.0599337065
 30
0.0
 11
8982.8368440985
 21
13730.2104630715
 31
0.0
  0
LINE
  5
229
330
1F
100
AcDbEntity
  8
0
  6
Continuous
 62
     7
100
AcDbLine
 10
8982.8368440985
 20
13730.2104630715
 30
0.0
 11
8816.1055019435
 21
13766.6084740815
 31
0.0
  0
LINE
  5
22A
330
1F
100
AcDbEntity
  8
0
  6
Continuous
 62
     7
100
AcDbLine
 10
8816.1055019435
 20
13766.6084740815
 30
0.0
 11
8646.4386350985
 21
13798.1634755565
 31
0.0
  0
LINE
  5
22B
330
1F
100
AcDbEntity
  8
0
  6
Continuous
 62
     7
100
AcDbLine
 10
8646.4386350985
 20
13798.1634755565
 30
0.0
 11
8474.2580621285
 21
13824.7970167815
 31
0.0
  0
LINE
  5
22C
330
1F
100
AcDbEntity
  8
0
  6
Continuous
 62
     7
100
AcDbLine
 10
8474.2580621285
 20
13824.7970167815
 30
0.0
 11
8299.9918510635
 21
13846.4428825765
 31
0.0
  0
LINE
  5
22D
330
1F
100
AcDbEntity
  8
0
  6
Continuous
 62
     7
100
AcDbLine
 10
8299.9918510635
 20
13846.4428825765
 30
0.0
 11
8124.0732551635
 21
13863.0472579165
 31
0.0
  0
LINE
  5
22E
330
1F
100
AcDbEntity
  8
0
  6
Continuous
 62
     7
100
AcDbLine
 10
8124.0732551635
 20
13863.0472579165
 30
0.0
 11
7946.9396357785
 21
13874.5688617015
 31
0.0
  0
LINE
  5
22F
330
1F
100
AcDbEntity
  8
0
  6
Continuous
 62
     7
100
AcDbLine
 10
7946.9396357785
 20
13874.5688617015
 30
0.0
 11
7769.0313749935
 21
13880.9790494115
 31
0.0
  0
LINE
  5
230
330
1F
100
AcDbEntity
  8
0
  6
Continuous
 62
     7
100
AcDbLine
 10
7769.0313749935
 20
13880.9790494115
 30
0.0
 11
7590.7907807785
 21
13882.2618843115
 31
0.0
  0
LINE
  5
231
330
1F
100
AcDbEntity
  8
0
  6
Continuous
 62
     7
100
AcDbLine
 10
7590.7907807785
 20
13882.2618843115
 30
0.0
 11
7412.6609873285
 21
13878.4141770715
 31
0.0
  0
LINE
  5
232
330
1F
100
AcDbEntity
  8
0
  6
Continuous
 62
     7
100
AcDbLine
 10
7412.6609873285
 20
13878.4141770715
 30
0.0
 11
7235.0848533885
 21
13869.4454936965
 31
0.0
  0
LINE
  5
233
330
1F
100
AcDbEntity
  8
0
  6
Continuous
 62
     7
100
AcDbLine
 10
7235.0848533885
 20
13869.4454936965
 30
0.0
 11
7058.5038611935
 21
13855.3781317415
 31
0.0
  0
LINE
  5
234
330
1F
100
AcDbEntity
  8
0
  6
Continuous
 62
     7
100
AcDbLine
 10
7058.5038611935
 20
13855.3781317415
 30
0.0
 11
6883.3570189185
 21
13836.2470648915
 31
0.0
  0
LINE
  5
235
330
1F
100
AcDbEntity
  8
0
  6
Continuous
 62
     7
100
AcDbLine
 10
6883.3570189185
 20
13836.2470648915
 30
0.0
 11
6710.0797692135
 21
13812.0998559965
 31
0.0
  0
LINE
  5
236
330
1F
100
AcDbEntity
  8
0
  6
Continuous
 62
     7
100
AcDbLine
 10
6710.0797692135
 20
13812.0998559965
 30
0.0
 11
6539.1029066185
 21
13782.9965388115
 31
0.0
  0
LINE
  5
237
330
1F
100
AcDbEntity
  8
0
  6
Continuous
 62
     7
100
AcDbLine
 10
6539.1029066185
 20
13782.9965388115
 30
0.0
 11
6370.8515065535
 21
13749.0094687765
 31
0.0
  0
LINE
  5
238
330
1F
100
AcDbEntity
  8
0
  6
Continuous
 62
     7
100
AcDbLine
 10
6370.8515065535
 20
13749.0094687765
 30
0.0
 11
6205.7438685135
 21
13710.2231431015
 31
0.0
  0
LINE
  5
239
330
1F
100
AcDbEntity
  8
0
  6
Continuous
 62
     7
100
AcDbLine
 10
6205.7438685135
 20
13710.2231431015
 30
0.0
 11
6044.1904760935
 21
13666.7339907015
 31
0.0
  0
LINE
  5
23A
330
1F
100
AcDbEntity
  8
0
  6
Continuous
 62
     7
100
AcDbLine
 10
6044.1904760935
 20
13666.7339907015
 30
0.0
 11
5886.5929764885
 21
13618.6501324615
 31
0.0
  0
LINE
  5
23B
330
1F
100
AcDbEntity
  8
0
  6
Continuous
 62
     7
100
AcDbLine
 10
5886.5929764885
 20
13618.6501324615
 30
0.0
 11
5733.3431819135
 21
13566.0911124315
 31
0.0
  0
LINE
  5
23C
330
1F
100
AcDbEntity
  8
0
  6
Continuous
 62
     7
100
AcDbLine
 10
5733.3431819135
 20
13566.0911124315
 30
0.0
 11
5584.8220954985
 21
13509.1876006165
 31
0.0
  0
LINE
  5
23D
330
1F
100
AcDbEntity
  8
0
  6
Continuous
 62
     7
100
AcDbLine
 10
5584.8220954985
 20
13509.1876006165
 30
0.0
 11
5441.3989640735
 21
13448.0810681115
 31
0.0
  0
LINE
  5
23E
330
1F
100
AcDbEntity
  8
0
  6
Continuous
 62
     7
100
AcDbLine
 10
5441.3989640735
 20
13448.0810681115
 30
0.0
 11
5303.4303601385
 21
13382.9234353865
 31
0.0
  0
LINE
  5
23F
330
1F
100
AcDbEntity
  8
0
  6
Continuous
 62
     7
100
AcDbLine
 10
5303.4303601385
 20
13382.9234353865
 30
0.0
 11
5171.2592953735
 21
13313.8766945765
 31
0.0
  0
LINE
  5
240
330
1F
100
AcDbEntity
  8
0
  6
Continuous
 62
     7
100
AcDbLine
 10
5171.2592953735
 20
13313.8766945765
 30
0.0
 11
5045.2143678835
 21
13241.1125067665
 31
0.0
  0
LINE
  5
241
330
1F
100
AcDbEntity
  8
0
  6
Continuous
 62
     7
100
AcDbLine
 10
5045.2143678835
 20
13241.1125067665
 30
0.0
 11
4925.6089452085
 21
13164.8117751865
 31
0.0
  0
LINE
  5
242
330
1F
100
AcDbEntity
  8
0
  6
Continuous
 62
     7
100
AcDbLine
 10
4925.6089452085
 20
13164.8117751865
 30
0.0
 11
4812.7403852835
 21
13085.1641954765
 31
0.0
  0
LINE
  5
243
330
1F
100
AcDbEntity
  8
0
  6
Continuous
 62
     7
100
AcDbLine
 10
4812.7403852835
 20
13085.1641954765
 30
0.0
 11
4706.8892971235
 21
13002.3677840765
 31
0.0
  0
LINE
  5
244
330
1F
100
AcDbEntity
  8
0
  6
Continuous
 62
     7
100
AcDbLine
 10
4706.8892971235
 20
13002.3677840765
 30
0.0
 11
4608.3188432135
 21
12916.6283859065
 31
0.0
  0
LINE
  5
245
330
1F
100
AcDbEntity
  8
0
  6
Continuous
 62
     7
100
AcDbLine
 10
4608.3188432135
 20
12916.6283859065
 30
0.0
 11
4517.2740852385
 21
12828.1591626165
 31
0.0
  0
LINE
  5
246
330
1F
100
AcDbEntity
  8
0
  6
Continuous
 62
     7
100
AcDbLine
 10
4517.2740852385
 20
12828.1591626165
 30
0.0
 11
4433.9813748085
 21
12737.1800626415
 31
0.0
  0
LINE
  5
247
330
1F
100
AcDbEntity
  8
0
  6
Continuous
 62
     7
100
AcDbLine
 10
4433.9813748085
 20
12737.1800626415
 30
0.0
 11
4358.6477907185
 21
12643.9172743515
 31
0.0
  0
LINE
  5
248
330
1F
100
AcDbEntity
  8
0
  6
Continuous
 62
     7
100
AcDbLine
 10
4358.6477907185
 20
12643.9172743515
 30
0.0
 11
4291.4606241435
 21
12548.6026637365
 31
0.0
  0
LINE
  5
249
330
1F
100
AcDbEntity
  8
0
  6
Continuous
 62
     7
100
AcDbLine
 10
4291.4606241435
 20
12548.6026637365
 30
0.0
 11
4232.5869129535
 21
12451.4731979415
 31
0.0
  0
LINE
  5
24A
330
1F
100
AcDbEntity
  8
0
  6
Continuous
 62
     7
100
AcDbLine
 10
4232.5869129535
 20
12451.4731979415
 30
0.0
 11
4182.1730264735
 21
12352.7703561115
 31
0.0
  0
LINE
  5
24B
330
1F
100
AcDbEntity
  8
0
  6
Continuous
 62
     7
100
AcDbLine
 10
4182.1730264735
 20
12352.7703561115
 30
0.0
 11
4140.3443015685
 21
12252.7395290715
 31
0.0
  0
LINE
  5
24C
330
1F
100
AcDbEntity
  8
0
  6
Continuous
 62
     7
100
AcDbLine
 10
4140.3443015685
 20
12252.7395290715
 30
0.0
 11
4107.2047310435
 21
12151.6294092165
 31
0.0
  0
LINE
  5
24D
330
1F
100
AcDbEntity
  8
0
  6
Continuous
 62
     7
100
AcDbLine
 10
4107.2047310435
 20
12151.6294092165
 30
0.0
 11
4082.8367050885
 21
12049.6913722365
 31
0.0
  0
LINE
  5
24E
330
1F
100
AcDbEntity
  8
0
  6
Continuous
 62
     7
100
AcDbLine
 10
4082.8367050885
 20
12049.6913722365
 30
0.0
 11
4079.4091300285
 21
12031.3973068965
 31
0.0
  0
LINE
  5
24F
330
1F
100
AcDbEntity
  8
0
  6
Continuous
 62
     7
100
AcDbLine
 10
4948.3520869485
 20
556.0773990365
 30
0.0
 11
4821.6715707035
 21
632.8313464765
 31
0.0
  0
LINE
  5
250
330
1F
100
AcDbEntity
  8
0
  6
Continuous
 62
     7
100
AcDbLine
 10
4821.6715707035
 20
632.8313464765
 30
0.0
 11
4701.5625491535
 21
713.0288735615
 31
0.0
  0
LINE
  5
251
330
1F
100
AcDbEntity
  8
0
  6
Continuous
 62
     7
100
AcDbLine
 10
4701.5625491535
 20
713.0288735615
 30
0.0
 11
4588.3055424735
 21
796.4826752615
 31
0.0
  0
LINE
  5
252
330
1F
100
AcDbEntity
  8
0
  6
Continuous
 62
     7
100
AcDbLine
 10
4588.3055424735
 20
796.4826752615
 30
0.0
 11
4482.1650676635
 21
882.9978413415
 31
0.0
  0
LINE
  5
253
330
1F
100
AcDbEntity
  8
0
  6
Continuous
 62
     7
100
AcDbLine
 10
4482.1650676635
 20
882.9978413415
 30
0.0
 11
4383.3890207085
 21
972.3723116365
 31
0.0
  0
LINE
  5
254
330
1F
100
AcDbEntity
  8
0
  6
Continuous
 62
     7
100
AcDbLine
 10
4383.3890207085
 20
972.3723116365
 30
0.0
 11
4292.2080976535
 21
1064.3973479215
 31
0.0
  0
LINE
  5
255
330
1F
100
AcDbEntity
  8
0
  6
Continuous
 62
     7
100
AcDbLine
 10
4292.2080976535
 20
1064.3973479215
 30
0.0
 11
4208.8352557585
 21
1158.8580214665
 31
0.0
  0
LINE
  5
256
330
1F
100
AcDbEntity
  8
0
  6
Continuous
 62
     7
100
AcDbLine
 10
4208.8352557585
 20
1158.8580214665
 30
0.0
 11
4133.4652161685
 21
1255.5337149865
 31
0.0
  0
LINE
  5
257
330
1F
100
AcDbEntity
  8
0
  6
Continuous
 62
     7
100
AcDbLine
 10
4133.4652161685
 20
1255.5337149865
 30
0.0
 11
4066.2740090985
 21
1354.1986379165
 31
0.0
  0
LINE
  5
258
330
1F
100
AcDbEntity
  8
0
  6
Continuous
 62
     7
100
AcDbLine
 10
4066.2740090985
 20
1354.1986379165
 30
0.0
 11
4007.4185627235
 21
1454.6223537665
 31
0.0
  0
LINE
  5
259
330
1F
100
AcDbEntity
  8
0
  6
Continuous
 62
     7
100
AcDbLine
 10
4007.4185627235
 20
1454.6223537665
 30
0.0
 11
3957.0363366685
 21
1556.5703182865
 31
0.0
  0
LINE
  5
25A
330
1F
100
AcDbEntity
  8
0
  6
Continuous
 62
     7
100
AcDbLine
 10
3957.0363366685
 20
1556.5703182865
 30
0.0
 11
3915.2450009585
 21
1659.8044272915
 31
0.0
  0
LINE
  5
25B
330
1F
100
AcDbEntity
  8
0
  6
Continuous
 62
     7
100
AcDbLine
 10
3915.2450009585
 20
1659.8044272915
 30
0.0
 11
3882.1421611935
 21
1764.0835727265
 31
0.0
  0
LINE
  5
25C
330
1F
100
AcDbEntity
  8
0
  6
Continuous
 62
     7
100
AcDbLine
 10
3882.1421611935
 20
1764.0835727265
 30
0.0
 11
3865.5535020135
 21
1831.2542570065
 31
0.0
  0
LINE
  5
25D
330
1F
100
AcDbEntity
  8
0
  6
Continuous
 62
     7
100
AcDbLine
 10
11406.0177450635
 20
1835.1769248415
 30
0.0
 11
11401.8418253085
 21
1816.5390049365
 31
0.0
  0
LINE
  5
25E
330
1F
100
AcDbEntity
  8
0
  6
Continuous
 62
     7
100
AcDbLine
 10
11401.8418253085
 20
1816.5390049365
 30
0.0
 11
11373.1135018535
 21
1711.8285416865
 31
0.0
  0
LINE
  5
25F
330
1F
100
AcDbEntity
  8
0
  6
Continuous
 62
     7
100
AcDbLine
 10
11373.1135018535
 20
1711.8285416865
 30
0.0
 11
11335.6554769035
 21
1608.0416101465
 31
0.0
  0
LINE
  5
260
330
1F
100
AcDbEntity
  8
0
  6
Continuous
 62
     7
100
AcDbLine
 10
11335.6554769035
 20
1608.0416101465
 30
0.0
 11
11289.5552353985
 21
1505.4206094965
 31
0.0
  0
LINE
  5
261
330
1F
100
AcDbEntity
  8
0
  6
Continuous
 62
     7
100
AcDbLine
 10
11289.5552353985
 20
1505.4206094965
 30
0.0
 11
11234.9204465935
 21
1404.2052158415
 31
0.0
  0
LINE
  5
262
330
1F
100
AcDbEntity
  8
0
  6
Continuous
 62
     7
100
AcDbLine
 10
11234.9204465935
 20
1404.2052158415
 30
0.0
 11
11171.8787125735
 21
1304.6318224215
 31
0.0
  0
LINE
  5
263
330
1F
100
AcDbEntity
  8
0
  6
Continuous
 62
     7
100
AcDbLine
 10
11171.8787125735
 20
1304.6318224215
 30
0.0
 11
11100.5772702235
 21
1206.9329875115
 31
0.0
  0
LINE
  5
264
330
1F
100
AcDbEntity
  8
0
  6
Continuous
 62
     7
100
AcDbLine
 10
11100.5772702235
 20
1206.9329875115
 30
0.0
 11
11021.1826473735
 21
1111.3368912665
 31
0.0
  0
LINE
  5
265
330
1F
100
AcDbEntity
  8
0
  6
Continuous
 62
     7
100
AcDbLine
 10
11021.1826473735
 20
1111.3368912665
 30
0.0
 11
10933.8802738335
 21
1018.0668028015
 31
0.0
  0
LINE
  5
266
330
1F
100
AcDbEntity
  8
0
  6
Continuous
 62
     7
100
AcDbLine
 10
10933.8802738335
 20
1018.0668028015
 30
0.0
 11
10838.8740483485
 21
927.3405587265
 31
0.0
  0
LINE
  5
267
330
1F
100
AcDbEntity
  8
0
  6
Continuous
 62
     7
100
AcDbLine
 10
10838.8740483485
 20
927.3405587265
 30
0.0
 11
10736.3858623585
 21
839.3700543865
 31
0.0
  0
LINE
  5
268
330
1F
100
AcDbEntity
  8
0
  6
Continuous
 62
     7
100
AcDbLine
 10
10736.3858623585
 20
839.3700543865
 30
0.0
 11
10626.6550817685
 21
754.3607489765
 31
0.0
  0
LINE
  5
269
330
1F
100
AcDbEntity
  8
0
  6
Continuous
 62
     7
100
AcDbLine
 10
10626.6550817685
 20
754.3607489765
 30
0.0
 11
10509.9379879085
 21
672.5111856665
 31
0.0
  0
LINE
  5
26A
330
1F
100
AcDbEntity
  8
0
  6
Continuous
 62
     7
100
AcDbLine
 10
10509.9379879085
 20
672.5111856665
 30
0.0
 11
10386.5071789535
 21
594.0125279015
 31
0.0
  0
LINE
  5
26B
330
1F
100
AcDbEntity
  8
0
  6
Continuous
 62
     7
100
AcDbLine
 10
10386.5071789535
 20
594.0125279015
 30
0.0
 11
10256.6509332735
 21
519.0481129315
 31
0.0
  0
LINE
  5
26C
330
1F
100
AcDbEntity
  8
0
  6
Continuous
 62
     7
100
AcDbLine
 10
10256.6509332735
 20
519.0481129315
 30
0.0
 11
10120.6725361585
 21
447.7930236315
 31
0.0
  0
LINE
  5
26D
330
1F
100
AcDbEntity
  8
0
  6
Continuous
 62
     7
100
AcDbLine
 10
10120.6725361585
 20
447.7930236315
 30
0.0
 11
9978.8895714435
 21
380.4136795515
 31
0.0
  0
LINE
  5
26E
330
1F
100
AcDbEntity
  8
0
  6
Continuous
 62
     7
100
AcDbLine
 10
9978.8895714435
 20
380.4136795515
 30
0.0
 11
9831.6331798185
 21
317.0674482815
 31
0.0
  0
LINE
  5
26F
330
1F
100
AcDbEntity
  8
0
  6
Continuous
 62
     7
100
AcDbLine
 10
9831.6331798185
 20
317.0674482815
 30
0.0
 11
9679.2472854085
 21
257.9022778765
 31
0.0
  0
LINE
  5
270
330
1F
100
AcDbEntity
  8
0
  6
Continuous
 62
     7
100
AcDbLine
 10
9679.2472854085
 20
257.9022778765
 30
0.0
 11
9522.0877925335
 21
203.0563513315
 31
0.0
  0
LINE
  5
271
330
1F
100
AcDbEntity
  8
0
  6
Continuous
 62
     7
100
AcDbLine
 10
9522.0877925335
 20
203.0563513315
 30
0.0
 11
9360.5217544685
 21
152.6577638515
 31
0.0
  0
LINE
  5
272
330
1F
100
AcDbEntity
  8
0
  6
Continuous
 62
     7
100
AcDbLine
 10
9360.5217544685
 20
152.6577638515
 30
0.0
 11
9194.9265161785
 21
106.8242236715
 31
0.0
  0
LINE
  5
273
330
1F
100
AcDbEntity
  8
0
  6
Continuous
 62
     7
100
AcDbLine
 10
9194.9265161785
 20
106.8242236715
 30
0.0
 11
9025.6888330185
 21
65.6627771515
 31
0.0
  0
LINE
  5
274
330
1F
100
AcDbEntity
  8
0
  6
Continuous
 62
     7
100
AcDbLine
 10
9025.6888330185
 20
65.6627771515
 30
0.0
 11
8853.2039674385
 21
29.2695587515
 31
0.0
  0
LINE
  5
275
330
1F
100
AcDbEntity
  8
0
  6
Continuous
 62
     7
100
AcDbLine
 10
8853.2039674385
 20
29.2695587515
 30
0.0
 11
8677.8747658335
 21
-2.2704334735
 31
0.0
  0
LINE
  5
276
330
1F
100
AcDbEntity
  8
0
  6
Continuous
 62
     7
100
AcDbLine
 10
8677.8747658335
 20
-2.2704334735
 30
0.0
 11
8500.1107176785
 21
-28.8835364185
 31
0.0
  0
LINE
  5
277
330
1F
100
AcDbEntity
  8
0
  6
Continuous
 62
     7
100
AcDbLine
 10
8500.1107176785
 20
-28.8835364185
 30
0.0
 11
8320.3269991485
 21
-50.5075939435
 31
0.0
  0
LINE
  5
278
330
1F
100
AcDbEntity
  8
0
  6
Continuous
 62
     7
100
AcDbLine
 10
8320.3269991485
 20
-50.5075939435
 30
0.0
 11
8138.9435034435
 21
-67.0921020635
 31
0.0
  0
LINE
  5
279
330
1F
100
AcDbEntity
  8
0
  6
Continuous
 62
     7
100
AcDbLine
 10
8138.9435034435
 20
-67.0921020635
 30
0.0
 11
7956.3838601235
 21
-78.5983268835
 31
0.0
  0
LINE
  5
27A
330
1F
100
AcDbEntity
  8
0
  6
Continuous
 62
     7
100
AcDbLine
 10
7956.3838601235
 20
-78.5983268835
 30
0.0
 11
7773.0744456985
 21
-84.9993950885
 31
0.0
  0
LINE
  5
27B
330
1F
100
AcDbEntity
  8
0
  6
Continuous
 62
     7
100
AcDbLine
 10
7773.0744456985
 20
-84.9993950885
 30
0.0
 11
7589.4433877885
 21
-86.2803566885
 31
0.0
  0
LINE
  5
27C
330
1F
100
AcDbEntity
  8
0
  6
Continuous
 62
     7
100
AcDbLine
 10
7589.4433877885
 20
-86.2803566885
 30
0.0
 11
7405.9195652535
 21
-82.4382199385
 31
0.0
  0
LINE
  5
27D
330
1F
100
AcDbEntity
  8
0
  6
Continuous
 62
     7
100
AcDbLine
 10
7405.9195652535
 20
-82.4382199385
 30
0.0
 11
7222.9316064685
 21
-73.4819583185
 31
0.0
  0
LINE
  5
27E
330
1F
100
AcDbEntity
  8
0
  6
Continuous
 62
     7
100
AcDbLine
 10
7222.9316064685
 20
-73.4819583185
 30
0.0
 11
7040.9068883035
 21
-59.4324896035
 31
0.0
  0
LINE
  5
27F
330
1F
100
AcDbEntity
  8
0
  6
Continuous
 62
     7
100
AcDbLine
 10
7040.9068883035
 20
-59.4324896035
 30
0.0
 11
6860.2705379135
 21
-40.3226269735
 31
0.0
  0
LINE
  5
280
330
1F
100
AcDbEntity
  8
0
  6
Continuous
 62
     7
100
AcDbLine
 10
6860.2705379135
 20
-40.3226269735
 30
0.0
 11
6681.4444398685
 21
-16.1970023935
 31
0.0
  0
LINE
  5
281
330
1F
100
AcDbEntity
  8
0
  6
Continuous
 62
     7
100
AcDbLine
 10
6681.4444398685
 20
-16.1970023935
 30
0.0
 11
6504.8462508085
 21
12.8880376115
 31
0.0
  0
LINE
  5
282
330
1F
100
AcDbEntity
  8
0
  6
Continuous
 62
     7
100
AcDbLine
 10
6504.8462508085
 20
12.8880376115
 30
0.0
 11
6330.8884239785
 21
46.8645635965
 31
0.0
  0
LINE
  5
283
330
1F
100
AcDbEntity
  8
0
  6
Continuous
 62
     7
100
AcDbLine
 10
6330.8884239785
 20
46.8645635965
 30
0.0
 11
6159.9772459535
 21
85.6532217965
 31
0.0
  0
LINE
  5
284
330
1F
100
AcDbEntity
  8
0
  6
Continuous
 62
     7
100
AcDbLine
 10
6159.9772459535
 20
85.6532217965
 30
0.0
 11
5992.5118876985
 21
129.1634195115
 31
0.0
  0
LINE
  5
285
330
1F
100
AcDbEntity
  8
0
  6
Continuous
 62
     7
100
AcDbLine
 10
5992.5118876985
 20
129.1634195115
 30
0.0
 11
5828.8834723285
 21
177.2935366565
 31
0.0
  0
LINE
  5
286
330
1F
100
AcDbEntity
  8
0
  6
Continuous
 62
     7
100
AcDbLine
 10
5828.8834723285
 20
177.2935366565
 30
0.0
 11
5669.4741615785
 21
229.9311631165
 31
0.0
  0
LINE
  5
287
330
1F
100
AcDbEntity
  8
0
  6
Continuous
 62
     7
100
AcDbLine
 10
5669.4741615785
 20
229.9311631165
 30
0.0
 11
5514.6562632935
 21
286.9533612715
 31
0.0
  0
LINE
  5
288
330
1F
100
AcDbEntity
  8
0
  6
Continuous
 62
     7
100
AcDbLine
 10
5514.6562632935
 20
286.9533612715
 30
0.0
 11
5364.7913618335
 21
348.2269531365
 31
0.0
  0
LINE
  5
289
330
1F
100
AcDbEntity
  8
0
  6
Continuous
 62
     7
100
AcDbLine
 10
5364.7913618335
 20
348.2269531365
 30
0.0
 11
5220.2294736285
 21
413.6088313965
 31
0.0
  0
LINE
  5
28A
330
1F
100
AcDbEntity
  8
0
  6
Continuous
 62
     7
100
AcDbLine
 10
5220.2294736285
 20
413.6088313965
 30
0.0
 11
5081.3082296685
 21
482.9462936515
 31
0.0
  0
LINE
  5
28B
330
1F
100
AcDbEntity
  8
0
  6
Continuous
 62
     7
100
AcDbLine
 10
5081.3082296685
 20
482.9462936515
 30
0.0
 11
4948.3520869485
 21
556.0773990365
 31
0.0
  0
LINE
  5
28C
330
1F
100
AcDbEntity
  8
0
  6
Continuous
 62
     7
100
AcDbLine
 10
3844.4506060335
 20
1899.0837266715
 30
0.0
 11
3857.8051305885
 21
1812.6606187965
 31
0.0
  0
LINE
  5
28D
330
1F
100
AcDbEntity
  8
0
  6
Continuous
 62
     7
100
AcDbLine
 10
3857.8051305885
 20
1812.6606187965
 30
0.0
 11
3882.1421611935
 21
1707.5799857065
 31
0.0
  0
LINE
  5
28E
330
1F
100
AcDbEntity
  8
0
  6
Continuous
 62
     7
100
AcDbLine
 10
3882.1421611935
 20
1707.5799857065
 30
0.0
 11
3915.2450009585
 21
1603.3008402715
 31
0.0
  0
LINE
  5
28F
330
1F
100
AcDbEntity
  8
0
  6
Continuous
 62
     7
100
AcDbLine
 10
3915.2450009585
 20
1603.3008402715
 30
0.0
 11
3957.0363366685
 21
1500.0667312665
 31
0.0
  0
LINE
  5
290
330
1F
100
AcDbEntity
  8
0
  6
Continuous
 62
     7
100
AcDbLine
 10
3957.0363366685
 20
1500.0667312665
 30
0.0
 11
4007.4185627235
 21
1398.1187667465
 31
0.0
  0
LINE
  5
291
330
1F
100
AcDbEntity
  8
0
  6
Continuous
 62
     7
100
AcDbLine
 10
4007.4185627235
 20
1398.1187667465
 30
0.0
 11
4066.2740090985
 21
1297.6950508965
 31
0.0
  0
LINE
  5
292
330
1F
100
AcDbEntity
  8
0
  6
Continuous
 62
     7
100
AcDbLine
 10
4066.2740090985
 20
1297.6950508965
 30
0.0
 11
4133.4652161685
 21
1199.0301279615
 31
0.0
  0
LINE
  5
293
330
1F
100
AcDbEntity
  8
0
  6
Continuous
 62
     7
100
AcDbLine
 10
4133.4652161685
 20
1199.0301279615
 30
0.0
 11
4208.8352557585
 21
1102.3544344465
 31
0.0
  0
LINE
  5
294
330
1F
100
AcDbEntity
  8
0
  6
Continuous
 62
     7
100
AcDbLine
 10
4208.8352557585
 20
1102.3544344465
 30
0.0
 11
4292.2080976535
 21
1007.8937609015
 31
0.0
  0
LINE
  5
295
330
1F
100
AcDbEntity
  8
0
  6
Continuous
 62
     7
100
AcDbLine
 10
4292.2080976535
 20
1007.8937609015
 30
0.0
 11
4383.3890207085
 21
915.8687246165
 31
0.0
  0
LINE
  5
296
330
1F
100
AcDbEntity
  8
0
  6
Continuous
 62
     7
100
AcDbLine
 10
4383.3890207085
 20
915.8687246165
 30
0.0
 11
4482.1650676635
 21
826.4942543215
 31
0.0
  0
LINE
  5
297
330
1F
100
AcDbEntity
  8
0
  6
Continuous
 62
     7
100
AcDbLine
 10
4482.1650676635
 20
826.4942543215
 30
0.0
 11
4588.3055424735
 21
739.9790882365
 31
0.0
  0
LINE
  5
298
330
1F
100
AcDbEntity
  8
0
  6
Continuous
 62
     7
100
AcDbLine
 10
4588.3055424735
 20
739.9790882365
 30
0.0
 11
4701.5625491535
 21
656.5252865415
 31
0.0
  0
LINE
  5
299
330
1F
100
AcDbEntity
  8
0
  6
Continuous
 62
     7
100
AcDbLine
 10
4701.5625491535
 20
656.5252865415
 30
0.0
 11
4821.6715707035
 21
576.3277594565
 31
0.0
  0
LINE
  5
29A
330
1F
100
AcDbEntity
  8
0
  6
Continuous
 62
     7
100
AcDbLine
 10
4821.6715707035
 20
576.3277594565
 30
0.0
 11
4948.3520869485
 21
499.5738120165
 31
0.0
  0
LINE
  5
29B
330
1F
100
AcDbEntity
  8
0
  6
Continuous
 62
     7
100
AcDbLine
 10
4948.3520869485
 20
499.5738120165
 30
0.0
 11
5081.3082296685
 21
426.4427066265
 31
0.0
  0
LINE
  5
29C
330
1F
100
AcDbEntity
  8
0
  6
Continuous
 62
     7
100
AcDbLine
 10
5081.3082296685
 20
426.4427066265
 30
0.0
 11
5220.2294736285
 21
357.1052443765
 31
0.0
  0
LINE
  5
29D
330
1F
100
AcDbEntity
  8
0
  6
Continuous
 62
     7
100
AcDbLine
 10
5220.2294736285
 20
357.1052443765
 30
0.0
 11
5364.7913618335
 21
291.7233661165
 31
0.0
  0
LINE
  5
29E
330
1F
100
AcDbEntity
  8
0
  6
Continuous
 62
     7
100
AcDbLine
 10
5364.7913618335
 20
291.7233661165
 30
0.0
 11
5514.6562632935
 21
230.4497742515
 31
0.0
  0
LINE
  5
29F
330
1F
100
AcDbEntity
  8
0
  6
Continuous
 62
     7
100
AcDbLine
 10
5514.6562632935
 20
230.4497742515
 30
0.0
 11
5669.4741615785
 21
173.4275760965
 31
0.0
  0
LINE
  5
2A0
330
1F
100
AcDbEntity
  8
0
  6
Continuous
 62
     7
100
AcDbLine
 10
5669.4741615785
 20
173.4275760965
 30
0.0
 11
5828.8834723285
 21
120.7899496365
 31
0.0
  0
LINE
  5
2A1
330
1F
100
AcDbEntity
  8
0
  6
Continuous
 62
     7
100
AcDbLine
 10
5828.8834723285
 20
120.7899496365
 30
0.0
 11
5992.5118876985
 21
72.6598324915
 31
0.0
  0
LINE
  5
2A2
330
1F
100
AcDbEntity
  8
0
  6
Continuous
 62
     7
100
AcDbLine
 10
5992.5118876985
 20
72.6598324915
 30
0.0
 11
6159.9772459535
 21
29.1496347765
 31
0.0
  0
LINE
  5
2A3
330
1F
100
AcDbEntity
  8
0
  6
Continuous
 62
     7
100
AcDbLine
 10
6159.9772459535
 20
29.1496347765
 30
0.0
 11
6330.8884239785
 21
-9.6390234285
 31
0.0
  0
LINE
  5
2A4
330
1F
100
AcDbEntity
  8
0
  6
Continuous
 62
     7
100
AcDbLine
 10
6330.8884239785
 20
-9.6390234285
 30
0.0
 11
6504.8462508085
 21
-43.6155494085
 31
0.0
  0
LINE
  5
2A5
330
1F
100
AcDbEntity
  8
0
  6
Continuous
 62
     7
100
AcDbLine
 10
6504.8462508085
 20
-43.6155494085
 30
0.0
 11
6681.4444398685
 21
-72.7005894135
 31
0.0
  0
LINE
  5
2A6
330
1F
100
AcDbEntity
  8
0
  6
Continuous
 62
     7
100
AcDbLine
 10
6681.4444398685
 20
-72.7005894135
 30
0.0
 11
6860.2705379135
 21
-96.8262139935
 31
0.0
  0
LINE
  5
2A7
330
1F
100
AcDbEntity
  8
0
  6
Continuous
 62
     7
100
AcDbLine
 10
6860.2705379135
 20
-96.8262139935
 30
0.0
 11
7040.9068883035
 21
-115.9360766235
 31
0.0
  0
LINE
  5
2A8
330
1F
100
AcDbEntity
  8
0
  6
Continuous
 62
     7
100
AcDbLine
 10
7040.9068883035
 20
-115.9360766235
 30
0.0
 11
7222.9316064685
 21
-129.9855453435
 31
0.0
  0
LINE
  5
2A9
330
1F
100
AcDbEntity
  8
0
  6
Continuous
 62
     7
100
AcDbLine
 10
7222.9316064685
 20
-129.9855453435
 30
0.0
 11
7405.9195652535
 21
-138.9418069585
 31
0.0
  0
LINE
  5
2AA
330
1F
100
AcDbEntity
  8
0
  6
Continuous
 62
     7
100
AcDbLine
 10
7405.9195652535
 20
-138.9418069585
 30
0.0
 11
7589.4433877885
 21
-142.7839437135
 31
0.0
  0
LINE
  5
2AB
330
1F
100
AcDbEntity
  8
0
  6
Continuous
 62
     7
100
AcDbLine
 10
7589.4433877885
 20
-142.7839437135
 30
0.0
 11
7773.0744456985
 21
-141.5029821135
 31
0.0
  0
LINE
  5
2AC
330
1F
100
AcDbEntity
  8
0
  6
Continuous
 62
     7
100
AcDbLine
 10
7773.0744456985
 20
-141.5029821135
 30
0.0
 11
7956.3838601235
 21
-135.1019139035
 31
0.0
  0
LINE
  5
2AD
330
1F
100
AcDbEntity
  8
0
  6
Continuous
 62
     7
100
AcDbLine
 10
7956.3838601235
 20
-135.1019139035
 30
0.0
 11
8138.9435034435
 21
-123.5956890835
 31
0.0
  0
LINE
  5
2AE
330
1F
100
AcDbEntity
  8
0
  6
Continuous
 62
     7
100
AcDbLine
 10
8138.9435034435
 20
-123.5956890835
 30
0.0
 11
8320.3269991485
 21
-107.0111809635
 31
0.0
  0
LINE
  5
2AF
330
1F
100
AcDbEntity
  8
0
  6
Continuous
 62
     7
100
AcDbLine
 10
8320.3269991485
 20
-107.0111809635
 30
0.0
 11
8500.1107176785
 21
-85.3871234385
 31
0.0
  0
LINE
  5
2B0
330
1F
100
AcDbEntity
  8
0
  6
Continuous
 62
     7
100
AcDbLine
 10
8500.1107176785
 20
-85.3871234385
 30
0.0
 11
8677.8747658335
 21
-58.7740204985
 31
0.0
  0
LINE
  5
2B1
330
1F
100
AcDbEntity
  8
0
  6
Continuous
 62
     7
100
AcDbLine
 10
8677.8747658335
 20
-58.7740204985
 30
0.0
 11
8853.2039674385
 21
-27.2340282685
 31
0.0
  0
LINE
  5
2B2
330
1F
100
AcDbEntity
  8
0
  6
Continuous
 62
     7
100
AcDbLine
 10
8853.2039674385
 20
-27.2340282685
 30
0.0
 11
9025.6888330185
 21
9.1591901315
 31
0.0
  0
LINE
  5
2B3
330
1F
100
AcDbEntity
  8
0
  6
Continuous
 62
     7
100
AcDbLine
 10
9025.6888330185
 20
9.1591901315
 30
0.0
 11
9194.9265161785
 21
50.3206366515
 31
0.0
  0
LINE
  5
2B4
330
1F
100
AcDbEntity
  8
0
  6
Continuous
 62
     7
100
AcDbLine
 10
9194.9265161785
 20
50.3206366515
 30
0.0
 11
9360.5217544685
 21
96.1541768315
 31
0.0
  0
LINE
  5
2B5
330
1F
100
AcDbEntity
  8
0
  6
Continuous
 62
     7
100
AcDbLine
 10
9360.5217544685
 20
96.1541768315
 30
0.0
 11
9522.0877925335
 21
146.5527643115
 31
0.0
  0
LINE
  5
2B6
330
1F
100
AcDbEntity
  8
0
  6
Continuous
 62
     7
100
AcDbLine
 10
9522.0877925335
 20
146.5527643115
 30
0.0
 11
9679.2472854135
 21
201.3986908565
 31
0.0
  0
LINE
  5
2B7
330
1F
100
AcDbEntity
  8
0
  6
Continuous
 62
     7
100
AcDbLine
 10
9679.2472854135
 20
201.3986908565
 30
0.0
 11
9831.6331798185
 21
260.5638612615
 31
0.0
  0
LINE
  5
2B8
330
1F
100
AcDbEntity
  8
0
  6
Continuous
 62
     7
100
AcDbLine
 10
9831.6331798185
 20
260.5638612615
 30
0.0
 11
9978.8895714435
 21
323.9100925315
 31
0.0
  0
LINE
  5
2B9
330
1F
100
AcDbEntity
  8
0
  6
Continuous
 62
     7
100
AcDbLine
 10
9978.8895714435
 20
323.9100925315
 30
0.0
 11
10120.6725361585
 21
391.2894366115
 31
0.0
  0
LINE
  5
2BA
330
1F
100
AcDbEntity
  8
0
  6
Continuous
 62
     7
100
AcDbLine
 10
10120.6725361585
 20
391.2894366115
 30
0.0
 11
10256.6509332735
 21
462.5445259115
 31
0.0
  0
LINE
  5
2BB
330
1F
100
AcDbEntity
  8
0
  6
Continuous
 62
     7
100
AcDbLine
 10
10256.6509332735
 20
462.5445259115
 30
0.0
 11
10386.5071789535
 21
537.5089408815
 31
0.0
  0
LINE
  5
2BC
330
1F
100
AcDbEntity
  8
0
  6
Continuous
 62
     7
100
AcDbLine
 10
10386.5071789535
 20
537.5089408815
 30
0.0
 11
10509.9379879085
 21
616.0075986465
 31
0.0
  0
LINE
  5
2BD
330
1F
100
AcDbEntity
  8
0
  6
Continuous
 62
     7
100
AcDbLine
 10
10509.9379879085
 20
616.0075986465
 30
0.0
 11
10626.6550817685
 21
697.8571619565
 31
0.0
  0
LINE
  5
2BE
330
1F
100
AcDbEntity
  8
0
  6
Continuous
 62
     7
100
AcDbLine
 10
10626.6550817685
 20
697.8571619565
 30
0.0
 11
10736.3858623585
 21
782.8664673665
 31
0.0
  0
LINE
  5
2BF
330
1F
100
AcDbEntity
  8
0
  6
Continuous
 62
     7
100
AcDbLine
 10
10736.3858623585
 20
782.8664673665
 30
0.0
 11
10838.8740483485
 21
870.8369717065
 31
0.0
  0
LINE
  5
2C0
330
1F
100
AcDbEntity
  8
0
  6
Continuous
 62
     7
100
AcDbLine
 10
10838.8740483485
 20
870.8369717065
 30
0.0
 11
10933.8802738335
 21
961.5632157815
 31
0.0
  0
LINE
  5
2C1
330
1F
100
AcDbEntity
  8
0
  6
Continuous
 62
     7
100
AcDbLine
 10
10933.8802738335
 20
961.5632157815
 30
0.0
 11
11021.1826473735
 21
1054.8333042465
 31
0.0
  0
LINE
  5
2C2
330
1F
100
AcDbEntity
  8
0
  6
Continuous
 62
     7
100
AcDbLine
 10
11021.1826473735
 20
1054.8333042465
 30
0.0
 11
11100.5772702235
 21
1150.4294004915
 31
0.0
  0
LINE
  5
2C3
330
1F
100
AcDbEntity
  8
0
  6
Continuous
 62
     7
100
AcDbLine
 10
11100.5772702235
 20
1150.4294004915
 30
0.0
 11
11171.8787125735
 21
1248.1282354015
 31
0.0
  0
LINE
  5
2C4
330
1F
100
AcDbEntity
  8
0
  6
Continuous
 62
     7
100
AcDbLine
 10
11171.8787125735
 20
1248.1282354015
 30
0.0
 11
11234.9204465935
 21
1347.7016288215
 31
0.0
  0
LINE
  5
2C5
330
1F
100
AcDbEntity
  8
0
  6
Continuous
 62
     7
100
AcDbLine
 10
11234.9204465935
 20
1347.7016288215
 30
0.0
 11
11289.5552353985
 21
1448.9170224765
 31
0.0
  0
LINE
  5
2C6
330
1F
100
AcDbEntity
  8
0
  6
Continuous
 62
     7
100
AcDbLine
 10
11289.5552353985
 20
1448.9170224765
 30
0.0
 11
11335.6554769035
 21
1551.5380231265
 31
0.0
  0
LINE
  5
2C7
330
1F
100
AcDbEntity
  8
0
  6
Continuous
 62
     7
100
AcDbLine
 10
11335.6554769035
 20
1551.5380231265
 30
0.0
 11
11373.1135018535
 21
1655.3249546665
 31
0.0
  0
LINE
  5
2C8
330
1F
100
AcDbEntity
  8
0
  6
Continuous
 62
     7
100
AcDbLine
 10
11373.1135018535
 20
1655.3249546665
 30
0.0
 11
11401.8418253085
 21
1760.0354179115
 31
0.0
  0
LINE
  5
2C9
330
1F
100
AcDbEntity
  8
0
  6
Continuous
 62
     7
100
AcDbLine
 10
11401.8418253085
 20
1760.0354179115
 30
0.0
 11
11421.7733509235
 21
1865.4248567265
 31
0.0
  0
LINE
  5
2CA
330
1F
100
AcDbEntity
  8
0
  6
Continuous
 62
     7
100
AcDbLine
 10
11421.7733509235
 20
1865.4248567265
 30
0.0
 11
11427.2099818485
 21
1907.1710837015
 31
0.0
  0
LINE
  5
2CB
330
1F
100
AcDbEntity
  8
0
  6
Continuous
 62
     7
100
AcDbLine
 10
4966.0297564785
 20
10716.5390619865
 30
0.0
 11
4840.1826646835
 21
10792.7880492415
 31
0.0
  0
LINE
  5
2CC
330
1F
100
AcDbEntity
  8
0
  6
Continuous
 62
     7
100
AcDbLine
 10
4840.1826646835
 20
10792.7880492415
 30
0.0
 11
4720.8638340635
 21
10872.4579610215
 31
0.0
  0
LINE
  5
2CD
330
1F
100
AcDbEntity
  8
0
  6
Continuous
 62
     7
100
AcDbLine
 10
4720.8638340635
 20
10872.4579610215
 30
0.0
 11
4608.3519392735
 21
10955.3627245465
 31
0.0
  0
LINE
  5
2CE
330
1F
100
AcDbEntity
  8
0
  6
Continuous
 62
     7
100
AcDbLine
 10
4608.3519392735
 20
10955.3627245465
 30
0.0
 11
4502.9097570585
 21
11041.3087119065
 31
0.0
  0
LINE
  5
2CF
330
1F
100
AcDbEntity
  8
0
  6
Continuous
 62
     7
100
AcDbLine
 10
4502.9097570585
 20
11041.3087119065
 30
0.0
 11
4404.7835525185
 21
11130.0951922665
 31
0.0
  0
LINE
  5
2D0
330
1F
100
AcDbEntity
  8
0
  6
Continuous
 62
     7
100
AcDbLine
 10
4404.7835525185
 20
11130.0951922665
 30
0.0
 11
4314.2025039535
 21
11221.5148006815
 31
0.0
  0
LINE
  5
2D1
330
1F
100
AcDbEntity
  8
0
  6
Continuous
 62
     7
100
AcDbLine
 10
4314.2025039535
 20
11221.5148006815
 30
0.0
 11
4231.3781675985
 21
11315.3540224265
 31
0.0
  0
LINE
  5
2D2
330
1F
100
AcDbEntity
  8
0
  6
Continuous
 62
     7
100
AcDbLine
 10
4231.3781675985
 20
11315.3540224265
 30
0.0
 11
4156.5039835335
 21
11411.3936916415
 31
0.0
  0
LINE
  5
2D3
330
1F
100
AcDbEntity
  8
0
  6
Continuous
 62
     7
100
AcDbLine
 10
4156.5039835335
 20
11411.3936916415
 30
0.0
 11
4089.7548238735
 21
11509.4095032415
 31
0.0
  0
LINE
  5
2D4
330
1F
100
AcDbEntity
  8
0
  6
Continuous
 62
     7
100
AcDbLine
 10
4089.7548238735
 20
11509.4095032415
 30
0.0
 11
4031.2865843885
 21
11609.1725367515
 31
0.0
  0
LINE
  5
2D5
330
1F
100
AcDbEntity
  8
0
  6
Continuous
 62
     7
100
AcDbLine
 10
4031.2865843885
 20
11609.1725367515
 30
0.0
 11
3981.2358203485
 21
11710.4497909815
 31
0.0
  0
LINE
  5
2D6
330
1F
100
AcDbEntity
  8
0
  6
Continuous
 62
     7
100
AcDbLine
 10
3981.2358203485
 20
11710.4497909815
 30
0.0
 11
3939.7194276335
 21
11813.0047282115
 31
0.0
  0
LINE
  5
2D7
330
1F
100
AcDbEntity
  8
0
  6
Continuous
 62
     7
100
AcDbLine
 10
3939.7194276335
 20
11813.0047282115
 30
0.0
 11
3906.8343697085
 21
11916.5978266365
 31
0.0
  0
LINE
  5
2D8
330
1F
100
AcDbEntity
  8
0
  6
Continuous
 62
     7
100
AcDbLine
 10
3906.8343697085
 20
11916.5978266365
 30
0.0
 11
3882.6574511485
 21
12020.9871397765
 31
0.0
  0
LINE
  5
2D9
330
1F
100
AcDbEntity
  8
0
  6
Continuous
 62
     7
100
AcDbLine
 10
3882.6574511485
 20
12020.9871397765
 30
0.0
 11
3868.7041646735
 21
12112.6746005265
 31
0.0
  0
LINE
  5
2DA
330
1F
100
AcDbEntity
  8
0
  6
Continuous
 62
     7
100
AcDbLine
 10
11402.1594068035
 20
12113.9618496215
 30
0.0
 11
11396.8627226635
 21
12073.4042445565
 31
0.0
  0
LINE
  5
2DB
330
1F
100
AcDbEntity
  8
0
  6
Continuous
 62
     7
100
AcDbLine
 10
11396.8627226635
 20
12073.4042445565
 30
0.0
 11
11377.0623255035
 21
11968.7081573165
 31
0.0
  0
LINE
  5
2DC
330
1F
100
AcDbEntity
  8
0
  6
Continuous
 62
     7
100
AcDbLine
 10
11377.0623255035
 20
11968.7081573165
 30
0.0
 11
11348.5230041835
 21
11864.6865786965
 31
0.0
  0
LINE
  5
2DD
330
1F
100
AcDbEntity
  8
0
  6
Continuous
 62
     7
100
AcDbLine
 10
11348.5230041835
 20
11864.6865786965
 30
0.0
 11
11311.3114136035
 21
11761.5824559165
 31
0.0
  0
LINE
  5
2DE
330
1F
100
AcDbEntity
  8
0
  6
Continuous
 62
     7
100
AcDbLine
 10
11311.3114136035
 20
11761.5824559165
 30
0.0
 11
11265.5144631635
 21
11659.6365934315
 31
0.0
  0
LINE
  5
2DF
330
1F
100
AcDbEntity
  8
0
  6
Continuous
 62
     7
100
AcDbLine
 10
11265.5144631635
 20
11659.6365934315
 30
0.0
 11
11211.2391137585
 21
11559.0870905215
 31
0.0
  0
LINE
  5
2E0
330
1F
100
AcDbEntity
  8
0
  6
Continuous
 62
     7
100
AcDbLine
 10
11211.2391137585
 20
11559.0870905215
 30
0.0
 11
11148.6121279885
 21
11460.1687852165
 31
0.0
  0
LINE
  5
2E1
330
1F
100
AcDbEntity
  8
0
  6
Continuous
 62
     7
100
AcDbLine
 10
11148.6121279885
 20
11460.1687852165
 30
0.0
 11
11077.7797740785
 21
11363.1127058015
 31
0.0
  0
LINE
  5
2E2
330
1F
100
AcDbEntity
  8
0
  6
Continuous
 62
     7
100
AcDbLine
 10
11077.7797740785
 20
11363.1127058015
 30
0.0
 11
10998.9074842685
 21
11268.1455312415
 31
0.0
  0
LINE
  5
2E3
330
1F
100
AcDbEntity
  8
0
  6
Continuous
 62
     7
100
AcDbLine
 10
10998.9074842685
 20
11268.1455312415
 30
0.0
 11
10912.1794684485
 21
11175.4890617765
 31
0.0
  0
LINE
  5
2E4
330
1F
100
AcDbEntity
  8
0
  6
Continuous
 62
     7
100
AcDbLine
 10
10912.1794684485
 20
11175.4890617765
 30
0.0
 11
10817.7982839185
 21
11085.3597008865
 31
0.0
  0
LINE
  5
2E5
330
1F
100
AcDbEntity
  8
0
  6
Continuous
 62
     7
100
AcDbLine
 10
10817.7982839185
 20
11085.3597008865
 30
0.0
 11
10715.9843623135
 21
10997.9679498665
 31
0.0
  0
LINE
  5
2E6
330
1F
100
AcDbEntity
  8
0
  6
Continuous
 62
     7
100
AcDbLine
 10
10715.9843623135
 20
10997.9679498665
 30
0.0
 11
10606.9754947535
 21
10913.5179162015
 31
0.0
  0
LINE
  5
2E7
330
1F
100
AcDbEntity
  8
0
  6
Continuous
 62
     7
100
AcDbLine
 10
10606.9754947535
 20
10913.5179162015
 30
0.0
 11
10491.0262765085
 21
10832.2068368615
 31
0.0
  0
LINE
  5
2E8
330
1F
100
AcDbEntity
  8
0
  6
Continuous
 62
     7
100
AcDbLine
 10
10491.0262765085
 20
10832.2068368615
 30
0.0
 11
10368.4075123485
 21
10754.2246176315
 31
0.0
  0
LINE
  5
2E9
330
1F
100
AcDbEntity
  8
0
  6
Continuous
 62
     7
100
AcDbLine
 10
10368.4075123485
 20
10754.2246176315
 30
0.0
 11
10239.4055840785
 21
10679.7533896065
 31
0.0
  0
LINE
  5
2EA
330
1F
100
AcDbEntity
  8
0
  6
Continuous
 62
     7
100
AcDbLine
 10
10239.4055840785
 20
10679.7533896065
 30
0.0
 11
10104.3217816785
 21
10608.9670837865
 31
0.0
  0
LINE
  5
2EB
330
1F
100
AcDbEntity
  8
0
  6
Continuous
 62
     7
100
AcDbLine
 10
10104.3217816785
 20
10608.9670837865
 30
0.0
 11
9963.4715996285
 21
10542.0310248665
 31
0.0
  0
LINE
  5
2EC
330
1F
100
AcDbEntity
  8
0
  6
Continuous
 62
     7
100
AcDbLine
 10
9963.4715996285
 20
10542.0310248665
 30
0.0
 11
9817.1840000535
 21
10479.1015451165
 31
0.0
  0
LINE
  5
2ED
330
1F
100
AcDbEntity
  8
0
  6
Continuous
 62
     7
100
AcDbLine
 10
9817.1840000535
 20
10479.1015451165
 30
0.0
 11
9665.8006444235
 21
10420.3256192565
 31
0.0
  0
LINE
  5
2EE
330
1F
100
AcDbEntity
  8
0
  6
Continuous
 62
     7
100
AcDbLine
 10
9665.8006444235
 20
10420.3256192565
 30
0.0
 11
9509.6750955785
 21
10365.8405211765
 31
0.0
  0
LINE
  5
2EF
330
1F
100
AcDbEntity
  8
0
  6
Continuous
 62
     7
100
AcDbLine
 10
9509.6750955785
 20
10365.8405211765
 30
0.0
 11
9349.1719919735
 21
10315.7735033465
 31
0.0
  0
LINE
  5
2F0
330
1F
100
AcDbEntity
  8
0
  6
Continuous
 62
     7
100
AcDbLine
 10
9349.1719919735
 20
10315.7735033465
 30
0.0
 11
9184.6661960385
 21
10270.2414996165
 31
0.0
  0
LINE
  5
2F1
330
1F
100
AcDbEntity
  8
0
  6
Continuous
 62
     7
100
AcDbLine
 10
9184.6661960385
 20
10270.2414996165
 30
0.0
 11
9016.5419186885
 21
10229.3508520865
 31
0.0
  0
LINE
  5
2F2
330
1F
100
AcDbEntity
  8
0
  6
Continuous
 62
     7
100
AcDbLine
 10
9016.5419186885
 20
10229.3508520865
 30
0.0
 11
8845.1918219635
 21
10193.1970627565
 31
0.0
  0
LINE
  5
2F3
330
1F
100
AcDbEntity
  8
0
  6
Continuous
 62
     7
100
AcDbLine
 10
8845.1918219635
 20
10193.1970627565
 30
0.0
 11
8671.0161019485
 21
10161.8645704765
 31
0.0
  0
LINE
  5
2F4
330
1F
100
AcDbEntity
  8
0
  6
Continuous
 62
     7
100
AcDbLine
 10
8671.0161019485
 20
10161.8645704765
 30
0.0
 11
8494.4215541135
 21
10135.4265537365
 31
0.0
  0
LINE
  5
2F5
330
1F
100
AcDbEntity
  8
0
  6
Continuous
 62
     7
100
AcDbLine
 10
8494.4215541135
 20
10135.4265537365
 30
0.0
 11
8315.8206232035
 21
10113.9447597465
 31
0.0
  0
LINE
  5
2F6
330
1F
100
AcDbEntity
  8
0
  6
Continuous
 62
     7
100
AcDbLine
 10
8315.8206232035
 20
10113.9447597465
 30
0.0
 11
8135.6304399685
 21
10097.4693602365
 31
0.0
  0
LINE
  5
2F7
330
1F
100
AcDbEntity
  8
0
  6
Continuous
 62
     7
100
AcDbLine
 10
8135.6304399685
 20
10097.4693602365
 30
0.0
 11
7954.2718469335
 21
10086.0388342615
 31
0.0
  0
LINE
  5
2F8
330
1F
100
AcDbEntity
  8
0
  6
Continuous
 62
     7
100
AcDbLine
 10
7954.2718469335
 20
10086.0388342615
 30
0.0
 11
7772.1684154985
 21
10079.6798783465
 31
0.0
  0
LINE
  5
2F9
330
1F
100
AcDbEntity
  8
0
  6
Continuous
 62
     7
100
AcDbLine
 10
7772.1684154985
 20
10079.6798783465
 30
0.0
 11
7589.7454566585
 21
10078.4073441265
 31
0.0
  0
LINE
  5
2FA
330
1F
100
AcDbEntity
  8
0
  6
Continuous
 62
     7
100
AcDbLine
 10
7589.7454566585
 20
10078.4073441265
 30
0.0
 11
7407.4290276885
 21
10082.2242036615
 31
0.0
  0
LINE
  5
2FB
330
1F
100
AcDbEntity
  8
0
  6
Continuous
 62
     7
100
AcDbLine
 10
7407.4290276885
 20
10082.2242036615
 30
0.0
 11
7225.6449370535
 21
10091.1215425065
 31
0.0
  0
LINE
  5
2FC
330
1F
100
AcDbEntity
  8
0
  6
Continuous
 62
     7
100
AcDbLine
 10
7225.6449370535
 20
10091.1215425065
 30
0.0
 11
7044.8177499285
 21
10105.0785805065
 31
0.0
  0
LINE
  5
2FD
330
1F
100
AcDbEntity
  8
0
  6
Continuous
 62
     7
100
AcDbLine
 10
7044.8177499285
 20
10105.0785805065
 30
0.0
 11
6865.3697965835
 21
10124.0627203565
 31
0.0
  0
LINE
  5
2FE
330
1F
100
AcDbEntity
  8
0
  6
Continuous
 62
     7
100
AcDbLine
 10
6865.3697965835
 20
10124.0627203565
 30
0.0
 11
6687.7201860235
 21
10148.0296237215
 31
0.0
  0
LINE
  5
2FF
330
1F
100
AcDbEntity
  8
0
  6
Continuous
 62
     7
100
AcDbLine
 10
6687.7201860235
 20
10148.0296237215
 30
0.0
 11
6512.2838271535
 21
10176.9233147815
 31
0.0
  0
LINE
  5
300
330
1F
100
AcDbEntity
  8
0
  6
Continuous
 62
     7
100
AcDbLine
 10
6512.2838271535
 20
10176.9233147815
 30
0.0
 11
6339.4704597135
 21
10210.6763109865
 31
0.0
  0
LINE
  5
301
330
1F
100
AcDbEntity
  8
0
  6
Continuous
 62
     7
100
AcDbLine
 10
6339.4704597135
 20
10210.6763109865
 30
0.0
 11
6169.6836973285
 21
10249.2097806465
 31
0.0
  0
LINE
  5
302
330
1F
100
AcDbEntity
  8
0
  6
Continuous
 62
     7
100
AcDbLine
 10
6169.6836973285
 20
10249.2097806465
 30
0.0
 11
6003.3200848535
 21
10292.4337270615
 31
0.0
  0
LINE
  5
303
330
1F
100
AcDbEntity
  8
0
  6
Continuous
 62
     7
100
AcDbLine
 10
6003.3200848535
 20
10292.4337270615
 30
0.0
 11
5840.7681722185
 21
10340.2471987015
 31
0.0
  0
LINE
  5
304
330
1F
100
AcDbEntity
  8
0
  6
Continuous
 62
     7
100
AcDbLine
 10
5840.7681722185
 20
10340.2471987015
 30
0.0
 11
5682.4076069335
 21
10392.5385249865
 31
0.0
  0
LINE
  5
305
330
1F
100
AcDbEntity
  8
0
  6
Continuous
 62
     7
100
AcDbLine
 10
5682.4076069335
 20
10392.5385249865
 30
0.0
 11
5528.6082474485
 21
10449.1855771015
 31
0.0
  0
LINE
  5
306
330
1F
100
AcDbEntity
  8
0
  6
Continuous
 62
     7
100
AcDbLine
 10
5528.6082474485
 20
10449.1855771015
 30
0.0
 11
5379.7292992935
 21
10510.0560532265
 31
0.0
  0
LINE
  5
307
330
1F
100
AcDbEntity
  8
0
  6
Continuous
 62
     7
100
AcDbLine
 10
5379.7292992935
 20
10510.0560532265
 30
0.0
 11
5236.1184761385
 21
10575.0077875515
 31
0.0
  0
LINE
  5
308
330
1F
100
AcDbEntity
  8
0
  6
Continuous
 62
     7
100
AcDbLine
 10
5236.1184761385
 20
10575.0077875515
 30
0.0
 11
5098.1111877285
 21
10643.8890822915
 31
0.0
  0
LINE
  5
309
330
1F
100
AcDbEntity
  8
0
  6
Continuous
 62
     7
100
AcDbLine
 10
5098.1111877285
 20
10643.8890822915
 30
0.0
 11
4966.0297564785
 21
10716.5390619865
 31
0.0
  0
LINE
  5
30A
330
1F
100
AcDbEntity
  8
0
  6
Continuous
 62
     7
100
AcDbLine
 10
3889.4806958535
 20
11930.8318647765
 30
0.0
 11
3906.8343697085
 21
11860.0942396165
 31
0.0
  0
LINE
  5
30B
330
1F
100
AcDbEntity
  8
0
  6
Continuous
 62
     7
100
AcDbLine
 10
3906.8343697085
 20
11860.0942396165
 30
0.0
 11
3939.7194276335
 21
11756.5011411915
 31
0.0
  0
LINE
  5
30C
330
1F
100
AcDbEntity
  8
0
  6
Continuous
 62
     7
100
AcDbLine
 10
3939.7194276335
 20
11756.5011411915
 30
0.0
 11
3981.2358203485
 21
11653.9462039565
 31
0.0
  0
LINE
  5
30D
330
1F
100
AcDbEntity
  8
0
  6
Continuous
 62
     7
100
AcDbLine
 10
3981.2358203485
 20
11653.9462039565
 30
0.0
 11
4031.2865843885
 21
11552.6689497265
 31
0.0
  0
LINE
  5
30E
330
1F
100
AcDbEntity
  8
0
  6
Continuous
 62
     7
100
AcDbLine
 10
4031.2865843885
 20
11552.6689497265
 30
0.0
 11
4089.7548238735
 21
11452.9059162215
 31
0.0
  0
LINE
  5
30F
330
1F
100
AcDbEntity
  8
0
  6
Continuous
 62
     7
100
AcDbLine
 10
4089.7548238735
 20
11452.9059162215
 30
0.0
 11
4156.5039835335
 21
11354.8901046215
 31
0.0
  0
LINE
  5
310
330
1F
100
AcDbEntity
  8
0
  6
Continuous
 62
     7
100
AcDbLine
 10
4156.5039835335
 20
11354.8901046215
 30
0.0
 11
4231.3781675985
 21
11258.8504354015
 31
0.0
  0
LINE
  5
311
330
1F
100
AcDbEntity
  8
0
  6
Continuous
 62
     7
100
AcDbLine
 10
4231.3781675985
 20
11258.8504354015
 30
0.0
 11
4314.2025039535
 21
11165.0112136615
 31
0.0
  0
LINE
  5
312
330
1F
100
AcDbEntity
  8
0
  6
Continuous
 62
     7
100
AcDbLine
 10
4314.2025039535
 20
11165.0112136615
 30
0.0
 11
4404.7835525185
 21
11073.5916052465
 31
0.0
  0
LINE
  5
313
330
1F
100
AcDbEntity
  8
0
  6
Continuous
 62
     7
100
AcDbLine
 10
4404.7835525185
 20
11073.5916052465
 30
0.0
 11
4502.9097570585
 21
10984.8051248865
 31
0.0
  0
LINE
  5
314
330
1F
100
AcDbEntity
  8
0
  6
Continuous
 62
     7
100
AcDbLine
 10
4502.9097570585
 20
10984.8051248865
 30
0.0
 11
4608.3519392735
 21
10898.8591375265
 31
0.0
  0
LINE
  5
315
330
1F
100
AcDbEntity
  8
0
  6
Continuous
 62
     7
100
AcDbLine
 10
4608.3519392735
 20
10898.8591375265
 30
0.0
 11
4720.8638340635
 21
10815.9543740015
 31
0.0
  0
LINE
  5
316
330
1F
100
AcDbEntity
  8
0
  6
Continuous
 62
     7
100
AcDbLine
 10
4720.8638340635
 20
10815.9543740015
 30
0.0
 11
4840.1826646835
 21
10736.2844622215
 31
0.0
  0
LINE
  5
317
330
1F
100
AcDbEntity
  8
0
  6
Continuous
 62
     7
100
AcDbLine
 10
4840.1826646835
 20
10736.2844622215
 30
0.0
 11
4966.0297564785
 21
10660.0354749665
 31
0.0
  0
LINE
  5
318
330
1F
100
AcDbEntity
  8
0
  6
Continuous
 62
     7
100
AcDbLine
 10
4966.0297564785
 20
10660.0354749665
 30
0.0
 11
5098.1111877285
 21
10587.3854952715
 31
0.0
  0
LINE
  5
319
330
1F
100
AcDbEntity
  8
0
  6
Continuous
 62
     7
100
AcDbLine
 10
5098.1111877285
 20
10587.3854952715
 30
0.0
 11
5236.1184761385
 21
10518.5042005315
 31
0.0
  0
LINE
  5
31A
330
1F
100
AcDbEntity
  8
0
  6
Continuous
 62
     7
100
AcDbLine
 10
5236.1184761385
 20
10518.5042005315
 30
0.0
 11
5379.7292992935
 21
10453.5524662065
 31
0.0
  0
LINE
  5
31B
330
1F
100
AcDbEntity
  8
0
  6
Continuous
 62
     7
100
AcDbLine
 10
5379.7292992935
 20
10453.5524662065
 30
0.0
 11
5528.6082474485
 21
10392.6819900765
 31
0.0
  0
LINE
  5
31C
330
1F
100
AcDbEntity
  8
0
  6
Continuous
 62
     7
100
AcDbLine
 10
5528.6082474485
 20
10392.6819900765
 30
0.0
 11
5682.4076069335
 21
10336.0349379665
 31
0.0
  0
LINE
  5
31D
330
1F
100
AcDbEntity
  8
0
  6
Continuous
 62
     7
100
AcDbLine
 10
5682.4076069335
 20
10336.0349379665
 30
0.0
 11
5840.7681722185
 21
10283.7436116815
 31
0.0
  0
LINE
  5
31E
330
1F
100
AcDbEntity
  8
0
  6
Continuous
 62
     7
100
AcDbLine
 10
5840.7681722185
 20
10283.7436116815
 30
0.0
 11
6003.3200848535
 21
10235.9301400415
 31
0.0
  0
LINE
  5
31F
330
1F
100
AcDbEntity
  8
0
  6
Continuous
 62
     7
100
AcDbLine
 10
6003.3200848535
 20
10235.9301400415
 30
0.0
 11
6169.6836973285
 21
10192.7061936265
 31
0.0
  0
LINE
  5
320
330
1F
100
AcDbEntity
  8
0
  6
Continuous
 62
     7
100
AcDbLine
 10
6169.6836973285
 20
10192.7061936265
 30
0.0
 11
6339.4704597135
 21
10154.1727239665
 31
0.0
  0
LINE
  5
321
330
1F
100
AcDbEntity
  8
0
  6
Continuous
 62
     7
100
AcDbLine
 10
6339.4704597135
 20
10154.1727239665
 30
0.0
 11
6512.2838271535
 21
10120.4197277615
 31
0.0
  0
LINE
  5
322
330
1F
100
AcDbEntity
  8
0
  6
Continuous
 62
     7
100
AcDbLine
 10
6512.2838271535
 20
10120.4197277615
 30
0.0
 11
6687.7201860235
 21
10091.5260367015
 31
0.0
  0
LINE
  5
323
330
1F
100
AcDbEntity
  8
0
  6
Continuous
 62
     7
100
AcDbLine
 10
6687.7201860235
 20
10091.5260367015
 30
0.0
 11
6865.3697965835
 21
10067.5591333365
 31
0.0
  0
LINE
  5
324
330
1F
100
AcDbEntity
  8
0
  6
Continuous
 62
     7
100
AcDbLine
 10
6865.3697965835
 20
10067.5591333365
 30
0.0
 11
7044.8177499285
 21
10048.5749934865
 31
0.0
  0
LINE
  5
325
330
1F
100
AcDbEntity
  8
0
  6
Continuous
 62
     7
100
AcDbLine
 10
7044.8177499285
 20
10048.5749934865
 30
0.0
 11
7225.6449370535
 21
10034.6179554865
 31
0.0
  0
LINE
  5
326
330
1F
100
AcDbEntity
  8
0
  6
Continuous
 62
     7
100
AcDbLine
 10
7225.6449370535
 20
10034.6179554865
 30
0.0
 11
7407.4290276885
 21
10025.7206166415
 31
0.0
  0
LINE
  5
327
330
1F
100
AcDbEntity
  8
0
  6
Continuous
 62
     7
100
AcDbLine
 10
7407.4290276885
 20
10025.7206166415
 30
0.0
 11
7589.7454566585
 21
10021.9037571015
 31
0.0
  0
LINE
  5
328
330
1F
100
AcDbEntity
  8
0
  6
Continuous
 62
     7
100
AcDbLine
 10
7589.7454566585
 20
10021.9037571015
 30
0.0
 11
7772.1684154985
 21
10023.1762913265
 31
0.0
  0
LINE
  5
329
330
1F
100
AcDbEntity
  8
0
  6
Continuous
 62
     7
100
AcDbLine
 10
7772.1684154985
 20
10023.1762913265
 30
0.0
 11
7954.2718469335
 21
10029.5352472415
 31
0.0
  0
LINE
  5
32A
330
1F
100
AcDbEntity
  8
0
  6
Continuous
 62
     7
100
AcDbLine
 10
7954.2718469335
 20
10029.5352472415
 30
0.0
 11
8135.6304399685
 21
10040.9657732165
 31
0.0
  0
LINE
  5
32B
330
1F
100
AcDbEntity
  8
0
  6
Continuous
 62
     7
100
AcDbLine
 10
8135.6304399685
 20
10040.9657732165
 30
0.0
 11
8315.8206232035
 21
10057.4411727265
 31
0.0
  0
LINE
  5
32C
330
1F
100
AcDbEntity
  8
0
  6
Continuous
 62
     7
100
AcDbLine
 10
8315.8206232035
 20
10057.4411727265
 30
0.0
 11
8494.4215541135
 21
10078.9229667165
 31
0.0
  0
LINE
  5
32D
330
1F
100
AcDbEntity
  8
0
  6
Continuous
 62
     7
100
AcDbLine
 10
8494.4215541135
 20
10078.9229667165
 30
0.0
 11
8671.0161019485
 21
10105.3609834565
 31
0.0
  0
LINE
  5
32E
330
1F
100
AcDbEntity
  8
0
  6
Continuous
 62
     7
100
AcDbLine
 10
8671.0161019485
 20
10105.3609834565
 30
0.0
 11
8845.1918219635
 21
10136.6934757365
 31
0.0
  0
LINE
  5
32F
330
1F
100
AcDbEntity
  8
0
  6
Continuous
 62
     7
100
AcDbLine
 10
8845.1918219635
 20
10136.6934757365
 30
0.0
 11
9016.5419186885
 21
10172.8472650665
 31
0.0
  0
LINE
  5
330
330
1F
100
AcDbEntity
  8
0
  6
Continuous
 62
     7
100
AcDbLine
 10
9016.5419186885
 20
10172.8472650665
 30
0.0
 11
9184.6661960385
 21
10213.7379125965
 31
0.0
  0
LINE
  5
331
330
1F
100
AcDbEntity
  8
0
  6
Continuous
 62
     7
100
AcDbLine
 10
9184.6661960385
 20
10213.7379125965
 30
0.0
 11
9349.1719919735
 21
10259.2699163265
 31
0.0
  0
LINE
  5
332
330
1F
100
AcDbEntity
  8
0
  6
Continuous
 62
     7
100
AcDbLine
 10
9349.1719919735
 20
10259.2699163265
 30
0.0
 11
9509.6750955785
 21
10309.3369341515
 31
0.0
  0
LINE
  5
333
330
1F
100
AcDbEntity
  8
0
  6
Continuous
 62
     7
100
AcDbLine
 10
9509.6750955785
 20
10309.3369341515
 30
0.0
 11
9665.8006444235
 21
10363.8220322315
 31
0.0
  0
LINE
  5
334
330
1F
100
AcDbEntity
  8
0
  6
Continuous
 62
     7
100
AcDbLine
 10
9665.8006444235
 20
10363.8220322315
 30
0.0
 11
9817.1840000535
 21
10422.5979580965
 31
0.0
  0
LINE
  5
335
330
1F
100
AcDbEntity
  8
0
  6
Continuous
 62
     7
100
AcDbLine
 10
9817.1840000535
 20
10422.5979580965
 30
0.0
 11
9963.4715996285
 21
10485.5274378465
 31
0.0
  0
LINE
  5
336
330
1F
100
AcDbEntity
  8
0
  6
Continuous
 62
     7
100
AcDbLine
 10
9963.4715996285
 20
10485.5274378465
 30
0.0
 11
10104.3217816785
 21
10552.4634967665
 31
0.0
  0
LINE
  5
337
330
1F
100
AcDbEntity
  8
0
  6
Continuous
 62
     7
100
AcDbLine
 10
10104.3217816785
 20
10552.4634967665
 30
0.0
 11
10239.4055840785
 21
10623.2498025865
 31
0.0
  0
LINE
  5
338
330
1F
100
AcDbEntity
  8
0
  6
Continuous
 62
     7
100
AcDbLine
 10
10239.4055840785
 20
10623.2498025865
 30
0.0
 11
10368.4075123485
 21
10697.7210306115
 31
0.0
  0
LINE
  5
339
330
1F
100
AcDbEntity
  8
0
  6
Continuous
 62
     7
100
AcDbLine
 10
10368.4075123485
 20
10697.7210306115
 30
0.0
 11
10491.0262765085
 21
10775.7032498415
 31
0.0
  0
LINE
  5
33A
330
1F
100
AcDbEntity
  8
0
  6
Continuous
 62
     7
100
AcDbLine
 10
10491.0262765085
 20
10775.7032498415
 30
0.0
 11
10606.9754947535
 21
10857.0143291815
 31
0.0
  0
LINE
  5
33B
330
1F
100
AcDbEntity
  8
0
  6
Continuous
 62
     7
100
AcDbLine
 10
10606.9754947535
 20
10857.0143291815
 30
0.0
 11
10715.9843623135
 21
10941.4643628465
 31
0.0
  0
LINE
  5
33C
330
1F
100
AcDbEntity
  8
0
  6
Continuous
 62
     7
100
AcDbLine
 10
10715.9843623135
 20
10941.4643628465
 30
0.0
 11
10817.7982839185
 21
11028.8561138665
 31
0.0
  0
LINE
  5
33D
330
1F
100
AcDbEntity
  8
0
  6
Continuous
 62
     7
100
AcDbLine
 10
10817.7982839185
 20
11028.8561138665
 30
0.0
 11
10912.1794684485
 21
11118.9854747565
 31
0.0
  0
LINE
  5
33E
330
1F
100
AcDbEntity
  8
0
  6
Continuous
 62
     7
100
AcDbLine
 10
10912.1794684485
 20
11118.9854747565
 30
0.0
 11
10998.9074842685
 21
11211.6419442215
 31
0.0
  0
LINE
  5
33F
330
1F
100
AcDbEntity
  8
0
  6
Continuous
 62
     7
100
AcDbLine
 10
10998.9074842685
 20
11211.6419442215
 30
0.0
 11
11077.7797740785
 21
11306.6091187815
 31
0.0
  0
LINE
  5
340
330
1F
100
AcDbEntity
  8
0
  6
Continuous
 62
     7
100
AcDbLine
 10
11077.7797740785
 20
11306.6091187815
 30
0.0
 11
11148.6121279885
 21
11403.6651981965
 31
0.0
  0
LINE
  5
341
330
1F
100
AcDbEntity
  8
0
  6
Continuous
 62
     7
100
AcDbLine
 10
11148.6121279885
 20
11403.6651981965
 30
0.0
 11
11211.2391137585
 21
11502.5835035015
 31
0.0
  0
LINE
  5
342
330
1F
100
AcDbEntity
  8
0
  6
Continuous
 62
     7
100
AcDbLine
 10
11211.2391137585
 20
11502.5835035015
 30
0.0
 11
11265.5144631635
 21
11603.1330064115
 31
0.0
  0
LINE
  5
343
330
1F
100
AcDbEntity
  8
0
  6
Continuous
 62
     7
100
AcDbLine
 10
11265.5144631635
 20
11603.1330064115
 30
0.0
 11
11311.3114136035
 21
11705.0788688965
 31
0.0
  0
LINE
  5
344
330
1F
100
AcDbEntity
  8
0
  6
Continuous
 62
     7
100
AcDbLine
 10
11311.3114136035
 20
11705.0788688965
 30
0.0
 11
11348.5230041835
 21
11808.1829916765
 31
0.0
  0
LINE
  5
345
330
1F
100
AcDbEntity
  8
0
  6
Continuous
 62
     7
100
AcDbLine
 10
11348.5230041835
 20
11808.1829916765
 30
0.0
 11
11377.0623255035
 21
11912.2045702965
 31
0.0
  0
LINE
  5
346
330
1F
100
AcDbEntity
  8
0
  6
Continuous
 62
     7
100
AcDbLine
 10
11377.0623255035
 20
11912.2045702965
 30
0.0
 11
11380.9016514635
 21
11929.2959720515
 31
0.0
  0
LINE
  5
347
330
1F
100
AcDbEntity
  8
0
  6
Continuous
 62
     7
100
AcDbLine
 10
11203.6741232985
 20
12383.6490666365
 30
0.0
 11
11196.7539011335
 21
12437.3817061415
 31
0.0
  0
LINE
  5
348
330
1F
100
AcDbEntity
  8
0
  6
Continuous
 62
     7
100
AcDbLine
 10
11196.7539011335
 20
12437.3817061415
 30
0.0
 11
11176.7957354835
 21
12539.6387680115
 31
0.0
  0
LINE
  5
349
330
1F
100
AcDbEntity
  8
0
  6
Continuous
 62
     7
100
AcDbLine
 10
11176.7957354835
 20
12539.6387680115
 30
0.0
 11
11148.0329972635
 21
12641.1944117515
 31
0.0
  0
LINE
  5
34A
330
1F
100
AcDbEntity
  8
0
  6
Continuous
 62
     7
100
AcDbLine
 10
11148.0329972635
 20
12641.1944117515
 30
0.0
 11
11110.5371951785
 21
12741.7961540315
 31
0.0
  0
LINE
  5
34B
330
1F
100
AcDbEntity
  8
0
  6
Continuous
 62
     7
100
AcDbLine
 10
11110.5371951785
 20
12741.7961540315
 30
0.0
 11
11064.4015496985
 21
12841.1938830665
 31
0.0
  0
LINE
  5
34C
330
1F
100
AcDbEntity
  8
0
  6
Continuous
 62
     7
100
AcDbLine
 10
11064.4015496985
 20
12841.1938830665
 30
0.0
 11
11009.7407613085
 21
12939.1404804415
 31
0.0
  0
LINE
  5
34D
330
1F
100
AcDbEntity
  8
0
  6
Continuous
 62
     7
100
AcDbLine
 10
11009.7407613085
 20
12939.1404804415
 30
0.0
 11
10946.6907253385
 21
13035.3924354915
 31
0.0
  0
LINE
  5
34E
330
1F
100
AcDbEntity
  8
0
  6
Continuous
 62
     7
100
AcDbLine
 10
10946.6907253385
 20
13035.3924354915
 30
0.0
 11
10875.4081941135
 21
13129.7104506765
 31
0.0
  0
LINE
  5
34F
330
1F
100
AcDbEntity
  8
0
  6
Continuous
 62
     7
100
AcDbLine
 10
10875.4081941135
 20
13129.7104506765
 30
0.0
 11
10796.0703872335
 21
13221.8600365615
 31
0.0
  0
LINE
  5
350
330
1F
100
AcDbEntity
  8
0
  6
Continuous
 62
     7
100
AcDbLine
 10
10796.0703872335
 20
13221.8600365615
 30
0.0
 11
10708.8745509935
 21
13311.6120947465
 31
0.0
  0
LINE
  5
351
330
1F
100
AcDbEntity
  8
0
  6
Continuous
 62
     7
100
AcDbLine
 10
10708.8745509935
 20
13311.6120947465
 30
0.0
 11
10614.0374679785
 21
13398.7434874815
 31
0.0
  0
LINE
  5
352
330
1F
100
AcDbEntity
  8
0
  6
Continuous
 62
     7
100
AcDbLine
 10
10614.0374679785
 20
13398.7434874815
 30
0.0
 11
10511.7949181235
 21
13483.0375923965
 31
0.0
  0
LINE
  5
353
330
1F
100
AcDbEntity
  8
0
  6
Continuous
 62
     7
100
AcDbLine
 10
10511.7949181235
 20
13483.0375923965
 30
0.0
 11
10402.4010925085
 21
13564.2848410565
 31
0.0
  0
LINE
  5
354
330
1F
100
AcDbEntity
  8
0
  6
Continuous
 62
     7
100
AcDbLine
 10
10402.4010925085
 20
13564.2848410565
 30
0.0
 11
10286.1279614235
 21
13642.2832400065
 31
0.0
  0
LINE
  5
355
330
1F
100
AcDbEntity
  8
0
  6
Continuous
 62
     7
100
AcDbLine
 10
10286.1279614235
 20
13642.2832400065
 30
0.0
 11
10163.2645981985
 21
13716.8388729365
 31
0.0
  0
LINE
  5
356
330
1F
100
AcDbEntity
  8
0
  6
Continuous
 62
     7
100
AcDbLine
 10
10163.2645981985
 20
13716.8388729365
 30
0.0
 11
10034.1164605035
 21
13787.7663827915
 31
0.0
  0
LINE
  5
357
330
1F
100
AcDbEntity
  8
0
  6
Continuous
 62
     7
100
AcDbLine
 10
10034.1164605035
 20
13787.7663827915
 30
0.0
 11
9899.0046309685
 21
13854.8894326115
 31
0.0
  0
LINE
  5
358
330
1F
100
AcDbEntity
  8
0
  6
Continuous
 62
     7
100
AcDbLine
 10
9899.0046309685
 20
13854.8894326115
 30
0.0
 11
9758.2650188835
 21
13918.0411439165
 31
0.0
  0
LINE
  5
359
330
1F
100
AcDbEntity
  8
0
  6
Continuous
 62
     7
100
AcDbLine
 10
9758.2650188835
 20
13918.0411439165
 30
0.0
 11
9612.2475250985
 21
13977.0645116015
 31
0.0
  0
LINE
  5
35A
330
1F
100
AcDbEntity
  8
0
  6
Continuous
 62
     7
100
AcDbLine
 10
9612.2475250985
 20
13977.0645116015
 30
0.0
 11
9461.3151721085
 21
14031.8127942765
 31
0.0
  0
LINE
  5
35B
330
1F
100
AcDbEntity
  8
0
  6
Continuous
 62
     7
100
AcDbLine
 10
9461.3151721085
 20
14031.8127942765
 30
0.0
 11
9305.8432015335
 21
14082.1498790815
 31
0.0
  0
LINE
  5
35C
330
1F
100
AcDbEntity
  8
0
  6
Continuous
 62
     7
100
AcDbLine
 10
9305.8432015335
 20
14082.1498790815
 30
0.0
 11
9146.2181411785
 21
14127.9506200965
 31
0.0
  0
LINE
  5
35D
330
1F
100
AcDbEntity
  8
0
  6
Continuous
 62
     7
100
AcDbLine
 10
9146.2181411785
 20
14127.9506200965
 30
0.0
 11
8982.8368440985
 21
14169.1011494615
 31
0.0
  0
LINE
  5
35E
330
1F
100
AcDbEntity
  8
0
  6
Continuous
 62
     7
100
AcDbLine
 10
8982.8368440985
 20
14169.1011494615
 30
0.0
 11
8816.1055019435
 21
14205.4991604715
 31
0.0
  0
LINE
  5
35F
330
1F
100
AcDbEntity
  8
0
  6
Continuous
 62
     7
100
AcDbLine
 10
8816.1055019435
 20
14205.4991604715
 30
0.0
 11
8646.4386350985
 21
14237.0541619415
 31
0.0
  0
LINE
  5
360
330
1F
100
AcDbEntity
  8
0
  6
Continuous
 62
     7
100
AcDbLine
 10
8646.4386350985
 20
14237.0541619415
 30
0.0
 11
8474.2580621285
 21
14263.6877031665
 31
0.0
  0
LINE
  5
361
330
1F
100
AcDbEntity
  8
0
  6
Continuous
 62
     7
100
AcDbLine
 10
8474.2580621285
 20
14263.6877031665
 30
0.0
 11
8299.9918510635
 21
14285.3335689665
 31
0.0
  0
LINE
  5
362
330
1F
100
AcDbEntity
  8
0
  6
Continuous
 62
     7
100
AcDbLine
 10
8299.9918510635
 20
14285.3335689665
 30
0.0
 11
8124.0732551635
 21
14301.9379443065
 31
0.0
  0
LINE
  5
363
330
1F
100
AcDbEntity
  8
0
  6
Continuous
 62
     7
100
AcDbLine
 10
8124.0732551635
 20
14301.9379443065
 30
0.0
 11
7946.9396357785
 21
14313.4595480915
 31
0.0
  0
LINE
  5
364
330
1F
100
AcDbEntity
  8
0
  6
Continuous
 62
     7
100
AcDbLine
 10
7946.9396357785
 20
14313.4595480915
 30
0.0
 11
7769.0313749935
 21
14319.8697358015
 31
0.0
  0
LINE
  5
365
330
1F
100
AcDbEntity
  8
0
  6
Continuous
 62
     7
100
AcDbLine
 10
7769.0313749935
 20
14319.8697358015
 30
0.0
 11
7590.7907807785
 21
14321.1525707015
 31
0.0
  0
LINE
  5
366
330
1F
100
AcDbEntity
  8
0
  6
Continuous
 62
     7
100
AcDbLine
 10
7590.7907807785
 20
14321.1525707015
 30
0.0
 11
7412.6609873285
 21
14317.3048634615
 31
0.0
  0
LINE
  5
367
330
1F
100
AcDbEntity
  8
0
  6
Continuous
 62
     7
100
AcDbLine
 10
7412.6609873285
 20
14317.3048634615
 30
0.0
 11
7235.0848533885
 21
14308.3361800815
 31
0.0
  0
LINE
  5
368
330
1F
100
AcDbEntity
  8
0
  6
Continuous
 62
     7
100
AcDbLine
 10
7235.0848533885
 20
14308.3361800815
 30
0.0
 11
7058.5038611935
 21
14294.2688181315
 31
0.0
  0
LINE
  5
369
330
1F
100
AcDbEntity
  8
0
  6
Continuous
 62
     7
100
AcDbLine
 10
7058.5038611935
 20
14294.2688181315
 30
0.0
 11
6883.3570189185
 21
14275.1377512815
 31
0.0
  0
LINE
  5
36A
330
1F
100
AcDbEntity
  8
0
  6
Continuous
 62
     7
100
AcDbLine
 10
6883.3570189185
 20
14275.1377512815
 30
0.0
 11
6710.0797692135
 21
14250.9905423815
 31
0.0
  0
LINE
  5
36B
330
1F
100
AcDbEntity
  8
0
  6
Continuous
 62
     7
100
AcDbLine
 10
6710.0797692135
 20
14250.9905423815
 30
0.0
 11
6539.1029066185
 21
14221.8872252015
 31
0.0
  0
LINE
  5
36C
330
1F
100
AcDbEntity
  8
0
  6
Continuous
 62
     7
100
AcDbLine
 10
6539.1029066185
 20
14221.8872252015
 30
0.0
 11
6370.8515065535
 21
14187.9001551665
 31
0.0
  0
LINE
  5
36D
330
1F
100
AcDbEntity
  8
0
  6
Continuous
 62
     7
100
AcDbLine
 10
6370.8515065535
 20
14187.9001551665
 30
0.0
 11
6205.7438685135
 21
14149.1138294915
 31
0.0
  0
LINE
  5
36E
330
1F
100
AcDbEntity
  8
0
  6
Continuous
 62
     7
100
AcDbLine
 10
6205.7438685135
 20
14149.1138294915
 30
0.0
 11
6044.1904760935
 21
14105.6246770915
 31
0.0
  0
LINE
  5
36F
330
1F
100
AcDbEntity
  8
0
  6
Continuous
 62
     7
100
AcDbLine
 10
6044.1904760935
 20
14105.6246770915
 30
0.0
 11
5886.5929764885
 21
14057.5408188515
 31
0.0
  0
LINE
  5
370
330
1F
100
AcDbEntity
  8
0
  6
Continuous
 62
     7
100
AcDbLine
 10
5886.5929764885
 20
14057.5408188515
 30
0.0
 11
5733.3431819135
 21
14004.9817988215
 31
0.0
  0
LINE
  5
371
330
1F
100
AcDbEntity
  8
0
  6
Continuous
 62
     7
100
AcDbLine
 10
5733.3431819135
 20
14004.9817988215
 30
0.0
 11
5584.8220954985
 21
13948.0782870065
 31
0.0
  0
LINE
  5
372
330
1F
100
AcDbEntity
  8
0
  6
Continuous
 62
     7
100
AcDbLine
 10
5584.8220954985
 20
13948.0782870065
 30
0.0
 11
5441.3989640735
 21
13886.9717545015
 31
0.0
  0
LINE
  5
373
330
1F
100
AcDbEntity
  8
0
  6
Continuous
 62
     7
100
AcDbLine
 10
5441.3989640735
 20
13886.9717545015
 30
0.0
 11
5303.4303601385
 21
13821.8141217715
 31
0.0
  0
LINE
  5
374
330
1F
100
AcDbEntity
  8
0
  6
Continuous
 62
     7
100
AcDbLine
 10
5303.4303601385
 20
13821.8141217715
 30
0.0
 11
5171.2592953735
 21
13752.7673809665
 31
0.0
  0
LINE
  5
375
330
1F
100
AcDbEntity
  8
0
  6
Continuous
 62
     7
100
AcDbLine
 10
5171.2592953735
 20
13752.7673809665
 30
0.0
 11
5045.2143678835
 21
13680.0031931515
 31
0.0
  0
LINE
  5
376
330
1F
100
AcDbEntity
  8
0
  6
Continuous
 62
     7
100
AcDbLine
 10
5045.2143678835
 20
13680.0031931515
 30
0.0
 11
4925.6089452085
 21
13603.7024615715
 31
0.0
  0
LINE
  5
377
330
1F
100
AcDbEntity
  8
0
  6
Continuous
 62
     7
100
AcDbLine
 10
4925.6089452085
 20
13603.7024615715
 30
0.0
 11
4812.7403852835
 21
13524.0548818665
 31
0.0
  0
LINE
  5
378
330
1F
100
AcDbEntity
  8
0
  6
Continuous
 62
     7
100
AcDbLine
 10
4812.7403852835
 20
13524.0548818665
 30
0.0
 11
4706.8892971235
 21
13441.2584704665
 31
0.0
  0
LINE
  5
379
330
1F
100
AcDbEntity
  8
0
  6
Continuous
 62
     7
100
AcDbLine
 10
4706.8892971235
 20
13441.2584704665
 30
0.0
 11
4608.3188432135
 21
13355.5190722915
 31
0.0
  0
LINE
  5
37A
330
1F
100
AcDbEntity
  8
0
  6
Continuous
 62
     7
100
AcDbLine
 10
4608.3188432135
 20
13355.5190722915
 30
0.0
 11
4517.2740852385
 21
13267.0498490065
 31
0.0
  0
LINE
  5
37B
330
1F
100
AcDbEntity
  8
0
  6
Continuous
 62
     7
100
AcDbLine
 10
4517.2740852385
 20
13267.0498490065
 30
0.0
 11
4433.9813748085
 21
13176.0707490265
 31
0.0
  0
LINE
  5
37C
330
1F
100
AcDbEntity
  8
0
  6
Continuous
 62
     7
100
AcDbLine
 10
4433.9813748085
 20
13176.0707490265
 30
0.0
 11
4358.6477907185
 21
13082.8079607415
 31
0.0
  0
LINE
  5
37D
330
1F
100
AcDbEntity
  8
0
  6
Continuous
 62
     7
100
AcDbLine
 10
4358.6477907185
 20
13082.8079607415
 30
0.0
 11
4291.4606241435
 21
12987.4933501265
 31
0.0
  0
LINE
  5
37E
330
1F
100
AcDbEntity
  8
0
  6
Continuous
 62
     7
100
AcDbLine
 10
4291.4606241435
 20
12987.4933501265
 30
0.0
 11
4232.5869129535
 21
12890.3638843265
 31
0.0
  0
LINE
  5
37F
330
1F
100
AcDbEntity
  8
0
  6
Continuous
 62
     7
100
AcDbLine
 10
4232.5869129535
 20
12890.3638843265
 30
0.0
 11
4182.1730264735
 21
12791.6610425015
 31
0.0
  0
LINE
  5
380
330
1F
100
AcDbEntity
  8
0
  6
Continuous
 62
     7
100
AcDbLine
 10
4182.1730264735
 20
12791.6610425015
 30
0.0
 11
4140.3443015685
 21
12691.6302154615
 31
0.0
  0
LINE
  5
381
330
1F
100
AcDbEntity
  8
0
  6
Continuous
 62
     7
100
AcDbLine
 10
4140.3443015685
 20
12691.6302154615
 30
0.0
 11
4107.2047310435
 21
12590.5200956065
 31
0.0
  0
LINE
  5
382
330
1F
100
AcDbEntity
  8
0
  6
Continuous
 62
     7
100
AcDbLine
 10
4107.2047310435
 20
12590.5200956065
 30
0.0
 11
4082.8367050885
 21
12488.5820586265
 31
0.0
  0
LINE
  5
383
330
1F
100
AcDbEntity
  8
0
  6
Continuous
 62
     7
100
AcDbLine
 10
4082.8367050885
 20
12488.5820586265
 30
0.0
 11
4069.0841600535
 21
12401.6197773265
 31
0.0
  0
LWPOLYLINE
  5
384
330
1F
100
AcDbEntity
  8
0
  6
Continuous
 62
     7
100
AcDbPolyline
 90
        3
 70
   128
 43
0.0
 10
3960.3576660156
 20
2671.0371532577
 10
3896.7842834271
 20
2504.999115673
 10
3863.0879906393
 20
2372.5035157832
  0
LWPOLYLINE
  5
385
330
1F
100
AcDbEntity
  8
0
  6
Continuous
 62
     7
100
AcDbPolyline
 90
        3
 70
   128
 43
0.0
 10
11405.9371948242
 20
2379.1709506466
 10
11361.49957783
 20
2543.3365183587
 10
11310.3578554559
 20
2670.1964310397
  0
LWPOLYLINE
  5
386
330
1F
100
AcDbEntity
  8
0
  6
Continuous
 62
     7
100
AcDbPolyline
 90
       13
 70
   128
 43
0.0
 10
3845.8194732666
 20
1892.1995588958
 10
4033.4484688062
 20
1336.4857660674
 10
4447.5830699542
 20
832.5055647459
 10
5057.6938320869
 20
408.5824856178
 10
5825.8956142391
 20
87.5177065076
 10
6705.4410336935
 20
-112.5656737453
 10
7642.3794708154
 20
-179.9276075876
 10
8578.8840747396
 20
-110.5469998387
 10
9457.1575613689
 20
91.4350309865
 10
10223.3342875419
 20
414.1719159929
 10
10830.792411528
 20
839.4596278963
 10
11241.7761571712
 20
1344.4341420907
 10
11426.4074946893
 20
1900.6161070368
  0
LWPOLYLINE
  5
387
330
1F
100
AcDbEntity
  8
0
  6
Continuous
 62
     7
100
AcDbPolyline
 90
       13
 70
   128
 43
0.0
 10
11399.5819091797
 20
12419.3683702748
 10
11211.9969963333
 20
12969.9240166848
 10
10800.7986160791
 20
13469.1273597272
 10
10196.0078825096
 20
13889.1016125903
 10
9434.9831439541
 20
14207.3956910736
 10
8563.7918985707
 20
14406.1467587123
 10
7635.5939942223
 20
14473.757806824
 10
6707.3815809543
 20
14406.2144819257
 10
5836.1477919107
 20
14207.5271323745
 10
5075.0552592963
 20
13889.2892110698
 10
4470.1756062147
 20
13469.3607419232
 10
4058.8716450012
 20
12970.1904882275
 10
3871.3093365392
 20
12419.6449855902
  0
LWPOLYLINE
  5
388
330
1F
100
AcDbEntity
  8
0
  6
Continuous
 62
     7
100
AcDbPolyline
 90
        5
 70
   128
 43
0.0
 10
9670.8984375
 20
10347.3523938137
 10
10378.9869074638
 20
10687.6151131391
 10
10924.8307168075
 20
11119.1161840552
 10
11218.5956234194
 20
11506.6360295338
 10
11379.2333365907
 20
11922.3499298647
  0
LWPOLYLINE
  5
389
330
1F
100
AcDbEntity
  8
0
  6
Continuous
 62
     7
100
AcDbPolyline
 90
        5
 70
   128
 43
0.0
 10
3891.1838531494
 20
11923.9048463186
 10
4110.572986586
 20
11411.1023758951
 10
4530.7751594152
 20
10946.869609156
 10
4984.9219192447
 20
10632.2334738492
 10
5531.4762451635
 20
10373.1687163891
  0
LWPOLYLINE
  5
38A
330
1F
100
AcDbEntity
  8
0
  6
Continuous
 62
     7
100
AcDbPolyline
 90
        9
 70
   128
 43
0.0
 10
11201.0345458984
 20
12118.9588394577
 10
10992.1870837628
 20
11564.1781057953
 10
10509.6000765517
 20
11056.4228470049
 10
9789.11248612
 20
10642.4780578462
 10
8890.4759100578
 20
10360.6719599409
 10
7888.4458177155
 20
10235.8181903556
 10
6865.611452805
 20
10278.5977116967
 10
5906.0985848453
 20
10485.3701448715
 10
5089.325713913
 20
10838.2412937343
  0
LWPOLYLINE
  5
38B
330
1F
100
AcDbEntity
  8
0
  6
Continuous
 62
     7
100
AcDbPolyline
 90
        5
 70
   128
 43
0.0
 10
5089.3249511719
 20
10838.2412937343
 10
4639.0838677529
 20
11156.2049561242
 10
4311.1186225911
 20
11515.8094272939
 10
4147.0285420451
 20
11816.7204739977
 10
4068.7608462688
 20
12125.5252959905
  0
ENDSEC
  0
SECTION
  2
OBJECTS
  0
DICTIONARY
  5
C
330
0
100
AcDbDictionary
281
     1
  3
ACAD_GROUP
350
D
  3
ACAD_LAYOUT
350
1A
  3
ACAD_MLINESTYLE
350
17
  3
ACAD_PLOTSETTINGS
350
19
  3
ACAD_PLOTSTYLENAME
350
E
  3
ACAD_SCALELIST
350
47
  3
DWGPROPS
350
38C
  0
DICTIONARY
  5
D
102
{ACAD_REACTORS
330
C
102
}
330
C
100
AcDbDictionary
281
     1
  0
DICTIONARY
  5
1A
102
{ACAD_REACTORS
330
C
102
}
330
C
100
AcDbDictionary
281
     1
  3
Layout1
350
1E
  3
Layout2
350
26
  3
Model
350
22
  0
DICTIONARY
  5
17
102
{ACAD_REACTORS
330
C
102
}
330
C
100
AcDbDictionary
281
     1
  3
Standard
350
18
  0
DICTIONARY
  5
19
102
{ACAD_REACTORS
330
C
102
}
330
C
100
AcDbDictionary
281
     1
  0
ACDBDICTIONARYWDFLT
  5
E
102
{ACAD_REACTORS
330
C
102
}
330
C
100
AcDbDictionary
281
     1
  3
Normal
350
F
100
AcDbDictionaryWithDefault
340
F
  0
DICTIONARY
  5
47
102
{ACAD_REACTORS
330
C
102
}
330
C
100
AcDbDictionary
281
     1
  3
A0
350
48
  3
A1
350
49
  3
A2
350
4A
  3
A3
350
4B
  3
A4
350
4C
  3
A5
350
4D
  3
A6
350
4E
  3
A7
350
4F
  3
A8
350
50
  3
A9
350
51
  3
B0
350
52
  3
B1
350
53
  3
B2
350
54
  3
B3
350
55
  3
B4
350
56
  3
B5
350
57
  3
B6
350
58
  3
B7
350
59
  3
B8
350
5A
  3
B9
350
5B
  3
C0
350
5C
  3
C1
350
5D
  3
C2
350
5E
  3
C3
350
5F
  3
C4
350
60
  3
C5
350
61
  3
C6
350
62
  3
C7
350
63
  3
C8
350
64
  3
C9
350
65
  3
D0
350
66
  3
D1
350
67
  3
D2
350
68
  0
XRECORD
  5
38C
102
{ACAD_REACTORS
330
C
102
}
330
C
100
AcDbXrecord
280
     1
  1
DWGPROPS COOKIE
  2

  3

  4

  6

  7

  8
radek.stransky
  9

300
=
301
=
302
=
303
=
304
=
305
=
306
=
307
=
308
=
309
=
 40
0.0
 41
2459103.232040208
 42
2459103.232114977
  1

 90
        0
  0
LAYOUT
  5
1E
102
{ACAD_REACTORS
330
1A
102
}
330
1A
100
AcDbPlotSettings
  1

  2
none_device
  4

  6

 40
0.0
 41
0.0
 42
0.0
 43
0.0
 44
0.0
 45
0.0
 46
0.0
 47
0.0
 48
0.0
 49
0.0
140
0.0
141
0.0
142
1.0
143
1.0
 70
   688
 72
     1
 73
     0
 74
     5
  7

 75
    16
147
1.0
148
0.0
149
0.0
100
AcDbLayout
  1
Layout1
 70
     1
 71
     1
 10
0.0
 20
0.0
 11
420.0
 21
297.0
 12
0.0
 22
0.0
 32
0.0
 14
1.0000000000E+20
 24
1.0000000000E+20
 34
1.0000000000E+20
 15
-1.0000000000E+20
 25
-1.0000000000E+20
 35
-1.0000000000E+20
146
0.0
 13
0.0
 23
0.0
 33
0.0
 16
1.0
 26
0.0
 36
0.0
 17
0.0
 27
1.0
 37
0.0
 76
     0
330
1B
  0
LAYOUT
  5
26
102
{ACAD_REACTORS
330
1A
102
}
330
1A
100
AcDbPlotSettings
  1

  2
none_device
  4

  6

 40
0.0
 41
0.0
 42
0.0
 43
0.0
 44
0.0
 45
0.0
 46
0.0
 47
0.0
 48
0.0
 49
0.0
140
0.0
141
0.0
142
1.0
143
1.0
 70
   688
 72
     1
 73
     0
 74
     5
  7

 75
    16
147
1.0
148
0.0
149
0.0
100
AcDbLayout
  1
Layout2
 70
     1
 71
     2
 10
0.0
 20
0.0
 11
0.0
 21
0.0
 12
0.0
 22
0.0
 32
0.0
 14
0.0
 24
0.0
 34
0.0
 15
0.0
 25
0.0
 35
0.0
146
0.0
 13
0.0
 23
0.0
 33
0.0
 16
1.0
 26
0.0
 36
0.0
 17
0.0
 27
1.0
 37
0.0
 76
     0
330
23
  0
LAYOUT
  5
22
102
{ACAD_REACTORS
330
1A
102
}
330
1A
100
AcDbPlotSettings
  1

  2
none_device
  4
ANSI_A_(11.00_x_8.50_Inches)
  6

 40
6.35
 41
19.05
 42
6.35000508
 43
19.05000254
 44
279.4
 45
215.9
 46
122.0106838884
 47
77.4803006029
 48
0.0
 49
0.0
140
0.0
141
0.0
142
0.0003217613
143
1.0
 70
  1696
 72
     0
 73
     0
 74
     0
  7

 75
     0
147
0.0179189148
148
-1300.4909072572
149
0.0
100
AcDbLayout
  1
Model
 70
     1
 71
     0
 10
0.0
 20
0.0
 11
420.0
 21
297.0
 12
0.0
 22
0.0
 32
0.0
 14
-8660.4452941515
 24
-11679.1738508385
 34
0.0
 15
11435.3578554535
 25
14473.757806824
 35
0.0
146
0.0
 13
0.0
 23
0.0
 33
0.0
 16
1.0
 26
0.0
 36
0.0
 17
0.0
 27
1.0
 37
0.0
 76
     0
330
1F
331
29
  0
MLINESTYLE
  5
18
102
{ACAD_REACTORS
330
17
102
}
330
17
100
AcDbMlineStyle
  2
Standard
 70
     0
  3

 62
   256
 51
90.0
 52
90.0
 71
     2
 49
0.5
 62
   256
  6
BYLAYER
 49
-0.5
 62
   256
  6
BYLAYER
  0
ACDBPLACEHOLDER
  5
F
102
{ACAD_REACTORS
330
E
102
}
330
E
  0
SCALE
  5
48
102
{ACAD_REACTORS
330
47
102
}
330
47
100
AcDbScale
 70
     0
300
1:1
140
1.0
141
1.0
290
     1
  0
SCALE
  5
49
102
{ACAD_REACTORS
330
47
102
}
330
47
100
AcDbScale
 70
     0
300
1:2
140
1.0
141
2.0
290
     0
  0
SCALE
  5
4A
102
{ACAD_REACTORS
330
47
102
}
330
47
100
AcDbScale
 70
     0
300
1:4
140
1.0
141
4.0
290
     0
  0
SCALE
  5
4B
102
{ACAD_REACTORS
330
47
102
}
330
47
100
AcDbScale
 70
     0
300
1:5
140
1.0
141
5.0
290
     0
  0
SCALE
  5
4C
102
{ACAD_REACTORS
330
47
102
}
330
47
100
AcDbScale
 70
     0
300
1:8
140
1.0
141
8.0
290
     0
  0
SCALE
  5
4D
102
{ACAD_REACTORS
330
47
102
}
330
47
100
AcDbScale
 70
     0
300
1:10
140
1.0
141
10.0
290
     0
  0
SCALE
  5
4E
102
{ACAD_REACTORS
330
47
102
}
330
47
100
AcDbScale
 70
     0
300
1:16
140
1.0
141
16.0
290
     0
  0
SCALE
  5
4F
102
{ACAD_REACTORS
330
47
102
}
330
47
100
AcDbScale
 70
     0
300
1:20
140
1.0
141
20.0
290
     0
  0
SCALE
  5
50
102
{ACAD_REACTORS
330
47
102
}
330
47
100
AcDbScale
 70
     0
300
1:30
140
1.0
141
30.0
290
     0
  0
SCALE
  5
51
102
{ACAD_REACTORS
330
47
102
}
330
47
100
AcDbScale
 70
     0
300
1:40
140
1.0
141
40.0
290
     0
  0
SCALE
  5
52
102
{ACAD_REACTORS
330
47
102
}
330
47
100
AcDbScale
 70
     0
300
1:50
140
1.0
141
50.0
290
     0
  0
SCALE
  5
53
102
{ACAD_REACTORS
330
47
102
}
330
47
100
AcDbScale
 70
     0
300
1:100
140
1.0
141
100.0
290
     0
  0
SCALE
  5
54
102
{ACAD_REACTORS
330
47
102
}
330
47
100
AcDbScale
 70
     0
300
2:1
140
2.0
141
1.0
290
     0
  0
SCALE
  5
55
102
{ACAD_REACTORS
330
47
102
}
330
47
100
AcDbScale
 70
     0
300
4:1
140
4.0
141
1.0
290
     0
  0
SCALE
  5
56
102
{ACAD_REACTORS
330
47
102
}
330
47
100
AcDbScale
 70
     0
300
8:1
140
8.0
141
1.0
290
     0
  0
SCALE
  5
57
102
{ACAD_REACTORS
330
47
102
}
330
47
100
AcDbScale
 70
     0
300
10:1
140
10.0
141
1.0
290
     0
  0
SCALE
  5
58
102
{ACAD_REACTORS
330
47
102
}
330
47
100
AcDbScale
 70
     0
300
100:1
140
100.0
141
1.0
290
     0
  0
SCALE
  5
59
102
{ACAD_REACTORS
330
47
102
}
330
47
100
AcDbScale
 70
     0
300
1/128" = 1'-0"
140
0.0078125
141
12.0
290
     0
  0
SCALE
  5
5A
102
{ACAD_REACTORS
330
47
102
}
330
47
100
AcDbScale
 70
     0
300
1/64" = 1'-0"
140
0.015625
141
12.0
290
     0
  0
SCALE
  5
5B
102
{ACAD_REACTORS
330
47
102
}
330
47
100
AcDbScale
 70
     0
300
1/32" = 1'-0"
140
0.03125
141
12.0
290
     0
  0
SCALE
  5
5C
102
{ACAD_REACTORS
330
47
102
}
330
47
100
AcDbScale
 70
     0
300
1/16" = 1'-0"
140
0.0625
141
12.0
290
     0
  0
SCALE
  5
5D
102
{ACAD_REACTORS
330
47
102
}
330
47
100
AcDbScale
 70
     0
300
3/32" = 1'-0"
140
0.09375
141
12.0
290
     0
  0
SCALE
  5
5E
102
{ACAD_REACTORS
330
47
102
}
330
47
100
AcDbScale
 70
     0
300
1/8" = 1'-0"
140
0.125
141
12.0
290
     0
  0
SCALE
  5
5F
102
{ACAD_REACTORS
330
47
102
}
330
47
100
AcDbScale
 70
     0
300
3/16" = 1'-0"
140
0.1875
141
12.0
290
     0
  0
SCALE
  5
60
102
{ACAD_REACTORS
330
47
102
}
330
47
100
AcDbScale
 70
     0
300
1/4" = 1'-0"
140
0.25
141
12.0
290
     0
  0
SCALE
  5
61
102
{ACAD_REACTORS
330
47
102
}
330
47
100
AcDbScale
 70
     0
300
3/8" = 1'-0"
140
0.375
141
12.0
290
     0
  0
SCALE
  5
62
102
{ACAD_REACTORS
330
47
102
}
330
47
100
AcDbScale
 70
     0
300
1/2" = 1'-0"
140
0.5
141
12.0
290
     0
  0
SCALE
  5
63
102
{ACAD_REACTORS
330
47
102
}
330
47
100
AcDbScale
 70
     0
300
3/4" = 1'-0"
140
0.75
141
12.0
290
     0
  0
SCALE
  5
64
102
{ACAD_REACTORS
330
47
102
}
330
47
100
AcDbScale
 70
     0
300
1" = 1'-0"
140
1.0
141
12.0
290
     0
  0
SCALE
  5
65
102
{ACAD_REACTORS
330
47
102
}
330
47
100
AcDbScale
 70
     0
300
1-1/2" = 1'-0"
140
1.5
141
12.0
290
     0
  0
SCALE
  5
66
102
{ACAD_REACTORS
330
47
102
}
330
47
100
AcDbScale
 70
     0
300
3" = 1'-0"
140
3.0
141
12.0
290
     0
  0
SCALE
  5
67
102
{ACAD_REACTORS
330
47
102
}
330
47
100
AcDbScale
 70
     0
300
6" = 1'-0"
140
6.0
141
12.0
290
     0
  0
SCALE
  5
68
102
{ACAD_REACTORS
330
47
102
}
330
47
100
AcDbScale
 70
     0
300
1'-0" = 1'-0"
140
12.0
141
12.0
290
     0
  0
ENDSEC
  0
EOF
