  0
SECTION
  2
HEADER
  9
$ACADVER
  1
AC1015
  9
$ACADMAINTVER
 70
     6
  9
$DWGCODEPAGE
  3
ANSI_1250
  9
$INSBASE
 10
0.0
 20
0.0
 30
0.0
  9
$EXTMIN
 10
-7626.2683040068
 20
-9679.8872312856
 30
0.0
  9
$EXTMAX
 10
10201.9566678732
 20
10458.8508241358
 30
0.0
  9
$LIMMIN
 10
0.0
 20
0.0
  9
$LIMMAX
 10
420.0
 20
297.0
  9
$ORTHOMODE
 70
     0
  9
$REGENMODE
 70
     1
  9
$FILLMODE
 70
     1
  9
$QTEXTMODE
 70
     0
  9
$MIRRTEXT
 70
     1
  9
$LTSCALE
 40
1.0
  9
$ATTMODE
 70
     1
  9
$TEXTSIZE
 40
3.5
  9
$TRACEWID
 40
1.0
  9
$TEXTSTYLE
  7
Standard
  9
$CLAYER
  8
0
  9
$CELTYPE
  6
ByLayer
  9
$CECOLOR
 62
   256
  9
$CELTSCALE
 40
1.0
  9
$DISPSILH
 70
     0
  9
$DIMSCALE
 40
1.0
  9
$DIMASZ
 40
3.302
  9
$DIMEXO
 40
0.0
  9
$DIMDLI
 40
3.75
  9
$DIMRND
 40
0.0
  9
$DIMDLE
 40
0.0
  9
$DIMEXE
 40
1.0
  9
$DIMTP
 40
0.0
  9
$DIMTM
 40
0.0
  9
$DIMTXT
 40
3.5
  9
$DIMCEN
 40
2.5
  9
$DIMTSZ
 40
0.0
  9
$DIMTOL
 70
     0
  9
$DIMLIM
 70
     0
  9
$DIMTIH
 70
     1
  9
$DIMTOH
 70
     1
  9
$DIMSE1
 70
     0
  9
$DIMSE2
 70
     0
  9
$DIMTAD
 70
     1
  9
$DIMZIN
 70
     0
  9
$DIMBLK
  1

  9
$DIMASO
 70
     1
  9
$DIMSHO
 70
     1
  9
$DIMPOST
  1

  9
$DIMAPOST
  1

  9
$DIMALT
 70
     0
  9
$DIMALTD
 70
     3
  9
$DIMALTF
 40
0.0393700787
  9
$DIMLFAC
 40
1.0
  9
$DIMTOFL
 70
     1
  9
$DIMTVP
 40
0.0
  9
$DIMTIX
 70
     0
  9
$DIMSOXD
 70
     0
  9
$DIMSAH
 70
     0
  9
$DIMBLK1
  1

  9
$DIMBLK2
  1

  9
$DIMSTYLE
  2
ISO-25
  9
$DIMCLRD
 70
     0
  9
$DIMCLRE
 70
     0
  9
$DIMCLRT
 70
     0
  9
$DIMTFAC
 40
1.0
  9
$DIMGAP
 40
1.524
  9
$DIMJUST
 70
     0
  9
$DIMSD1
 70
     0
  9
$DIMSD2
 70
     0
  9
$DIMTOLJ
 70
     0
  9
$DIMTZIN
 70
     0
  9
$DIMALTZ
 70
     0
  9
$DIMALTTZ
 70
     0
  9
$DIMUPT
 70
     0
  9
$DIMDEC
 70
     2
  9
$DIMTDEC
 70
     2
  9
$DIMALTU
 70
     2
  9
$DIMALTTD
 70
     3
  9
$DIMTXSTY
  7
Standard
  9
$DIMAUNIT
 70
     0
  9
$DIMADEC
 70
     2
  9
$DIMALTRND
 40
0.0
  9
$DIMAZIN
 70
     0
  9
$DIMDSEP
 70
    44
  9
$DIMATFIT
 70
     3
  9
$DIMFRAC
 70
     0
  9
$DIMLDRBLK
  1

  9
$DIMLUNIT
 70
     2
  9
$DIMLWD
 70
    -2
  9
$DIMLWE
 70
    -2
  9
$DIMTMOVE
 70
     0
  9
$LUNITS
 70
     2
  9
$LUPREC
 70
     2
  9
$SKETCHINC
 40
1.0
  9
$FILLETRAD
 40
10.0
  9
$AUNITS
 70
     0
  9
$AUPREC
 70
     2
  9
$MENU
  1
.
  9
$ELEVATION
 40
0.0
  9
$PELEVATION
 40
0.0
  9
$THICKNESS
 40
0.0
  9
$LIMCHECK
 70
     0
  9
$CHAMFERA
 40
0.0
  9
$CHAMFERB
 40
0.0
  9
$CHAMFERC
 40
0.0
  9
$CHAMFERD
 40
0.0
  9
$SKPOLY
 70
     0
  9
$TDCREATE
 40
2459103.312159664
  9
$TDUCREATE
 40
2459103.228826331
  9
$TDUPDATE
 40
2459103.312254213
  9
$TDUUPDATE
 40
2459103.22892088
  9
$TDINDWG
 40
0.0000000116
  9
$TDUSRTIMER
 40
0.0000000116
  9
$USRTIMER
 70
     1
  9
$ANGBASE
 50
0.0
  9
$ANGDIR
 70
     0
  9
$PDMODE
 70
     0
  9
$PDSIZE
 40
-1.0
  9
$PLINEWID
 40
0.0
  9
$SPLFRAME
 70
     0
  9
$SPLINETYPE
 70
     6
  9
$SPLINESEGS
 70
     8
  9
$HANDSEED
  5
38D
  9
$SURFTAB1
 70
     6
  9
$SURFTAB2
 70
     6
  9
$SURFTYPE
 70
     6
  9
$SURFU
 70
     6
  9
$SURFV
 70
     6
  9
$UCSBASE
  2

  9
$UCSNAME
  2

  9
$UCSORG
 10
0.0
 20
0.0
 30
0.0
  9
$UCSXDIR
 10
1.0
 20
0.0
 30
0.0
  9
$UCSYDIR
 10
0.0
 20
1.0
 30
0.0
  9
$UCSORTHOREF
  2

  9
$UCSORTHOVIEW
 70
     0
  9
$UCSORGTOP
 10
0.0
 20
0.0
 30
0.0
  9
$UCSORGBOTTOM
 10
0.0
 20
0.0
 30
0.0
  9
$UCSORGLEFT
 10
0.0
 20
0.0
 30
0.0
  9
$UCSORGRIGHT
 10
0.0
 20
0.0
 30
0.0
  9
$UCSORGFRONT
 10
0.0
 20
0.0
 30
0.0
  9
$UCSORGBACK
 10
0.0
 20
0.0
 30
0.0
  9
$PUCSBASE
  2

  9
$PUCSNAME
  2

  9
$PUCSORG
 10
0.0
 20
0.0
 30
0.0
  9
$PUCSXDIR
 10
1.0
 20
0.0
 30
0.0
  9
$PUCSYDIR
 10
0.0
 20
1.0
 30
0.0
  9
$PUCSORTHOREF
  2

  9
$PUCSORTHOVIEW
 70
     0
  9
$PUCSORGTOP
 10
0.0
 20
0.0
 30
0.0
  9
$PUCSORGBOTTOM
 10
0.0
 20
0.0
 30
0.0
  9
$PUCSORGLEFT
 10
0.0
 20
0.0
 30
0.0
  9
$PUCSORGRIGHT
 10
0.0
 20
0.0
 30
0.0
  9
$PUCSORGFRONT
 10
0.0
 20
0.0
 30
0.0
  9
$PUCSORGBACK
 10
0.0
 20
0.0
 30
0.0
  9
$USERI1
 70
     0
  9
$USERI2
 70
     0
  9
$USERI3
 70
     0
  9
$USERI4
 70
     0
  9
$USERI5
 70
     0
  9
$USERR1
 40
0.0
  9
$USERR2
 40
0.0
  9
$USERR3
 40
0.0
  9
$USERR4
 40
0.0
  9
$USERR5
 40
0.0
  9
$WORLDVIEW
 70
     1
  9
$SHADEDGE
 70
     3
  9
$SHADEDIF
 70
    70
  9
$TILEMODE
 70
     1
  9
$MAXACTVP
 70
    64
  9
$PINSBASE
 10
0.0
 20
0.0
 30
0.0
  9
$PLIMCHECK
 70
     0
  9
$PEXTMIN
 10
1.0000000000E+20
 20
1.0000000000E+20
 30
1.0000000000E+20
  9
$PEXTMAX
 10
-1.0000000000E+20
 20
-1.0000000000E+20
 30
-1.0000000000E+20
  9
$PLIMMIN
 10
0.0
 20
0.0
  9
$PLIMMAX
 10
420.0
 20
297.0
  9
$UNITMODE
 70
     0
  9
$VISRETAIN
 70
     1
  9
$PLINEGEN
 70
     0
  9
$PSLTSCALE
 70
     1
  9
$TREEDEPTH
 70
  3020
  9
$CMLSTYLE
  2
Standard
  9
$CMLJUST
 70
     0
  9
$CMLSCALE
 40
20.0
  9
$PROXYGRAPHICS
 70
     1
  9
$MEASUREMENT
 70
     1
  9
$CELWEIGHT
370
    -1
  9
$ENDCAPS
280
     0
  9
$JOINSTYLE
280
     0
  9
$LWDISPLAY
290
     1
  9
$INSUNITS
 70
     4
  9
$HYPERLINKBASE
  1

  9
$STYLESHEET
  1

  9
$XEDIT
290
     1
  9
$CEPSNTYPE
380
     0
  9
$PSTYLEMODE
290
     1
  9
$FINGERPRINTGUID
  2
{2dfb6fed-fd95-45c2-bf5d-c8e9f09e444b}
  9
$VERSIONGUID
  2
{FAEB1C32-E019-11D5-929B-00C0DF256EC4}
  9
$EXTNAMES
290
     1
  9
$PSVPSCALE
 40
0.0
  9
$OLESTARTUP
290
     0
  0
ENDSEC
  0
SECTION
  2
CLASSES
  0
CLASS
  1
ACDBDICTIONARYWDFLT
  2
AcDbDictionaryWithDefault
  3
ObjectDBX Classes
 90
        0
280
     0
281
     0
  0
CLASS
  1
VISUALSTYLE
  2
AcDbVisualStyle
  3
ObjectDBX Classes
 90
     4095
280
     0
281
     0
  0
CLASS
  1
MATERIAL
  2
AcDbMaterial
  3
ObjectDBX Classes
 90
     1153
280
     0
281
     0
  0
CLASS
  1
SCALE
  2
AcDbScale
  3
ObjectDBX Classes
 90
     1153
280
     0
281
     0
  0
CLASS
  1
TABLESTYLE
  2
AcDbTableStyle
  3
ObjectDBX Classes
 90
     4095
280
     0
281
     0
  0
CLASS
  1
MLEADERSTYLE
  2
AcDbMLeaderStyle
  3
ACDB_MLEADERSTYLE_CLASS
 90
     4095
280
     0
281
     0
  0
CLASS
  1
SUN
  2
AcDbSun
  3
SCENEOE
 90
     1153
280
     0
281
     0
  0
CLASS
  1
ACDBPLACEHOLDER
  2
AcDbPlaceHolder
  3
ObjectDBX Classes
 90
        0
280
     0
281
     0
  0
CLASS
  1
LAYOUT
  2
AcDbLayout
  3
ObjectDBX Classes
 90
        0
280
     0
281
     0
  0
ENDSEC
  0
SECTION
  2
TABLES
  0
TABLE
  2
VPORT
  5
8
330
0
100
AcDbSymbolTable
 70
     1
  0
VPORT
  5
29
330
8
100
AcDbSymbolTableRecord
100
AcDbViewportTableRecord
  2
*Active
 70
     0
 10
0.0
 20
0.0
 11
1.0
 21
1.0
 12
1287.8441819332
 22
389.4817964251
 13
0.0
 23
0.0
 14
10.0
 24
10.0
 15
10.0
 25
10.0
 16
0.0
 26
0.0
 36
1.0
 17
0.0
 27
0.0
 37
0.0
 40
20541.5128165298
 41
0.8852702152
 42
50.0
 43
0.0
 44
0.0
 50
0.0
 51
0.0
 71
     0
 72
   100
 73
     1
 74
     3
 75
     0
 76
     0
 77
     0
 78
     0
281
     0
 65
     1
110
0.0
120
0.0
130
0.0
111
1.0
121
0.0
131
0.0
112
0.0
122
1.0
132
0.0
 79
     0
146
0.0
  0
ENDTAB
  0
TABLE
  2
LTYPE
  5
5
330
0
100
AcDbSymbolTable
 70
     6
  0
LTYPE
  5
14
330
5
100
AcDbSymbolTableRecord
100
AcDbLinetypeTableRecord
  2
ByBlock
 70
     0
  3

 72
    65
 73
     0
 40
0.0
  0
LTYPE
  5
15
330
5
100
AcDbSymbolTableRecord
100
AcDbLinetypeTableRecord
  2
ByLayer
 70
     0
  3

 72
    65
 73
     0
 40
0.0
  0
LTYPE
  5
16
330
5
100
AcDbSymbolTableRecord
100
AcDbLinetypeTableRecord
  2
Continuous
 70
     0
  3
Solid line
 72
    65
 73
     0
 40
0.0
  0
LTYPE
  5
6E
330
5
100
AcDbSymbolTableRecord
100
AcDbLinetypeTableRecord
  2
HIDDEN
 70
     0
  3
Hidden __ __ __ __ __ __ __ __ __ __ __ __ __ __
 72
    65
 73
     2
 40
1.905
 49
1.27
 74
     0
 49
-0.635
 74
     0
  0
LTYPE
  5
6F
330
5
100
AcDbSymbolTableRecord
100
AcDbLinetypeTableRecord
  2
PHANTOM
 70
     0
  3
Phantom ______  __  __  ______  __  __  ______
 72
    65
 73
     6
 40
12.7
 49
6.35
 74
     0
 49
-1.27
 74
     0
 49
1.27
 74
     0
 49
-1.27
 74
     0
 49
1.27
 74
     0
 49
-1.27
 74
     0
  0
LTYPE
  5
70
330
5
100
AcDbSymbolTableRecord
100
AcDbLinetypeTableRecord
  2
CENTER
 70
     0
  3
Center ____ _ ____ _ ____ _ ____ _ ____ _ ____
 72
    65
 73
     4
 40
10.16
 49
6.35
 74
     0
 49
-1.27
 74
     0
 49
1.27
 74
     0
 49
-1.27
 74
     0
  0
LTYPE
  5
71
330
5
100
AcDbSymbolTableRecord
100
AcDbLinetypeTableRecord
  2
CENTERX2
 70
     0
  3
Center (2x) ________  __  ________  __  _____
 72
    65
 73
     4
 40
20.32
 49
12.7
 74
     0
 49
-2.54
 74
     0
 49
2.54
 74
     0
 49
-2.54
 74
     0
  0
LTYPE
  5
72
330
5
100
AcDbSymbolTableRecord
100
AcDbLinetypeTableRecord
  2
DOT2
 70
     0
  3
Dot (.5x) ........................................
 72
    65
 73
     2
 40
0.635
 49
0.0
 74
     0
 49
-0.635
 74
     0
  0
ENDTAB
  0
TABLE
  2
LAYER
  5
2
330
0
100
AcDbSymbolTable
 70
     1
  0
LAYER
  5
10
330
2
100
AcDbSymbolTableRecord
100
AcDbLayerTableRecord
  2
0
 70
     0
 62
     7
  6
Continuous
370
    -3
390
F
  0
ENDTAB
  0
TABLE
  2
STYLE
  5
3
330
0
100
AcDbSymbolTable
 70
     1
  0
STYLE
  5
11
330
3
100
AcDbSymbolTableRecord
100
AcDbTextStyleTableRecord
  2
Standard
 70
     0
 40
0.0
 41
1.0
 50
0.0
 71
     0
 42
3.5
  3
txt
  4

  0
ENDTAB
  0
TABLE
  2
VIEW
  5
6
330
0
100
AcDbSymbolTable
 70
     0
  0
ENDTAB
  0
TABLE
  2
UCS
  5
7
330
0
100
AcDbSymbolTable
 70
     0
  0
ENDTAB
  0
TABLE
  2
APPID
  5
9
330
0
100
AcDbSymbolTable
 70
     1
  0
APPID
  5
12
330
9
100
AcDbSymbolTableRecord
100
AcDbRegAppTableRecord
  2
ACAD
 70
     0
  0
ENDTAB
  0
TABLE
  2
DIMSTYLE
  5
A
330
0
100
AcDbSymbolTable
 70
     1
100
AcDbDimStyleTable
  0
DIMSTYLE
105
27
330
A
100
AcDbSymbolTableRecord
100
AcDbDimStyleTableRecord
  2
ISO-25
 70
     0
 41
2.5
 42
0.625
 43
3.75
 44
1.25
 73
     0
 74
     0
 77
     1
 78
     8
140
2.5
141
2.5
143
0.0393700787
147
0.625
171
     3
172
     1
178
     0
271
     2
272
     2
274
     3
278
    44
283
     0
284
     8
340
11
  0
ENDTAB
  0
TABLE
  2
BLOCK_RECORD
  5
1
330
0
100
AcDbSymbolTable
 70
     1
  0
BLOCK_RECORD
  5
1F
330
1
100
AcDbSymbolTableRecord
100
AcDbBlockTableRecord
  2
*Model_Space
340
22
  0
BLOCK_RECORD
  5
1B
330
1
100
AcDbSymbolTableRecord
100
AcDbBlockTableRecord
  2
*Paper_Space
340
1E
  0
BLOCK_RECORD
  5
23
330
1
100
AcDbSymbolTableRecord
100
AcDbBlockTableRecord
  2
*Paper_Space0
340
26
  0
ENDTAB
  0
ENDSEC
  0
SECTION
  2
BLOCKS
  0
BLOCK
  5
20
330
1F
100
AcDbEntity
  8
0
100
AcDbBlockBegin
  2
*Model_Space
 70
     0
 10
0.0
 20
0.0
 30
0.0
  3
*Model_Space
  1

  0
ENDBLK
  5
21
330
1F
100
AcDbEntity
  8
0
100
AcDbBlockEnd
  0
BLOCK
  5
1C
330
1B
100
AcDbEntity
 67
     1
  8
0
100
AcDbBlockBegin
  2
*Paper_Space
 70
     0
 10
0.0
 20
0.0
 30
0.0
  3
*Paper_Space
  1

  0
ENDBLK
  5
1D
330
1B
100
AcDbEntity
 67
     1
  8
0
100
AcDbBlockEnd
  0
BLOCK
  5
24
330
23
100
AcDbEntity
  8
0
100
AcDbBlockBegin
  2
*Paper_Space0
 70
     0
 10
0.0
 20
0.0
 30
0.0
  3
*Paper_Space0
  1

  0
ENDBLK
  5
25
330
23
100
AcDbEntity
  8
0
100
AcDbBlockEnd
  0
ENDSEC
  0
SECTION
  2
ENTITIES
  0
ARC
  5
73
330
1F
100
AcDbEntity
  8
0
  6
Continuous
 62
     7
100
AcDbCircle
 10
-113.7683040068
 20
-9592.3872312856
 30
0.0
 40
87.50000000000546
100
AcDbArc
 50
270.0
 51
360.0
  0
ARC
  5
74
330
1F
100
AcDbEntity
  8
0
  6
Continuous
 62
     7
100
AcDbCircle
 10
-7538.7683040068
 20
-9592.3872312856
 30
0.0
 40
87.50000000000546
100
AcDbArc
 50
180.0
 51
270.0
  0
ARC
  5
75
330
1F
100
AcDbEntity
  8
0
  6
Continuous
 62
     7
100
AcDbCircle
 10
-7576.2683040068
 20
-9523.1885014748
 30
0.0
 40
50.00000000000091
100
AcDbArc
 50
120.0
 51
180.0000000009
  0
ARC
  5
76
330
1F
100
AcDbEntity
  8
0
  6
Continuous
 62
     7
100
AcDbCircle
 10
-76.2683040068
 20
-9523.1885014748
 30
0.0
 40
49.99999999999893
100
AcDbArc
 50
359.9999999991
 51
60.0
  0
ARC
  5
77
330
1F
100
AcDbEntity
  8
0
  6
Continuous
 62
     7
100
AcDbCircle
 10
-101.2683040068
 20
-1286.5859610964
 30
0.0
 40
49.99999999999893
100
AcDbArc
 50
300.0
 51
0.0000000009
  0
ARC
  5
78
330
1F
100
AcDbEntity
  8
0
  6
Continuous
 62
     7
100
AcDbCircle
 10
-7551.2683040068
 20
-1286.5859610964
 30
0.0
 40
50.00000000000364
100
AcDbArc
 50
179.9999999991
 51
240.0
  0
ARC
  5
79
330
1F
100
AcDbEntity
  8
0
  6
Continuous
 62
     7
100
AcDbCircle
 10
-7513.7683040068
 20
-1217.3872312856
 30
0.0
 40
87.50000000000273
100
AcDbArc
 50
90.0
 51
180.0
  0
ARC
  5
7A
330
1F
100
AcDbEntity
  8
0
  6
Continuous
 62
     7
100
AcDbCircle
 10
-138.7683040068
 20
-1217.3872312856
 30
0.0
 40
87.50000000000034
100
AcDbArc
 50
0.0
 51
90.0
  0
CIRCLE
  5
7B
330
1F
100
AcDbEntity
  8
0
  6
Continuous
 62
     7
100
AcDbCircle
 10
-3826.2683040068
 20
5595.2792479044
 30
0.0
 40
3549.999999999995
  0
CIRCLE
  5
7C
330
1F
100
AcDbEntity
  8
0
  6
Continuous
 62
     7
100
AcDbCircle
 10
-3826.2683040068
 20
5595.2792479044
 30
0.0
 40
3799.999999999999
  0
CIRCLE
  5
7D
330
1F
100
AcDbEntity
  8
0
  6
Continuous
 62
     7
100
AcDbCircle
 10
-3826.2683040068
 20
5595.2792479044
 30
0.0
 40
3575.0
  0
CIRCLE
  5
7E
330
1F
100
AcDbEntity
  8
0
  6
Continuous
 62
     7
100
AcDbCircle
 10
-3826.2683040068
 20
5595.2792479044
 30
0.0
 40
3662.499999999995
  0
CIRCLE
  5
7F
330
1F
100
AcDbEntity
  8
0
  6
Continuous
 62
     7
100
AcDbCircle
 10
-3826.2683040068
 20
5595.2792479044
 30
0.0
 40
3687.499999999995
  0
CIRCLE
  5
80
330
1F
100
AcDbEntity
  8
0
  6
Continuous
 62
     7
100
AcDbCircle
 10
-3826.2683040068
 20
5595.2792479044
 30
0.0
 40
3774.999999999995
  0
ARC
  5
81
330
1F
100
AcDbEntity
  8
0
  6
Continuous
 62
     7
100
AcDbCircle
 10
3881.9150517131
 20
1460.5398090188
 30
0.0
 40
1279.867864846252
100
AcDbArc
 50
168.3402043157
 51
192.4517469296
  0
ARC
  5
82
330
1F
100
AcDbEntity
  8
0
  6
Continuous
 62
     7
100
AcDbCircle
 10
8922.0160498989
 20
1460.5614861762
 30
0.0
 40
1279.851027007558
100
AcDbArc
 50
347.7268699779
 51
11.9578163619
  0
ARC
  5
83
330
1F
100
AcDbEntity
  8
0
  6
Continuous
 62
     7
100
AcDbCircle
 10
3874.1671052806
 20
1404.2401790359
 30
0.0
 40
1272.210448379884
100
AcDbArc
 50
180.0075250519
 51
186.8543307675
  0
ARC
  5
84
330
1F
100
AcDbEntity
  8
0
  6
Continuous
 62
     7
100
AcDbCircle
 10
3904.1642400983
 20
1392.6484466329
 30
0.0
 40
1277.241575944267
100
AcDbArc
 50
168.2017560746
 51
177.6553873812
  0
ARC
  5
85
330
1F
100
AcDbEntity
  8
0
  6
Continuous
 62
     7
100
AcDbCircle
 10
8895.3059745984
 20
1392.099934038
 30
0.0
 40
1281.703469282251
100
AcDbArc
 50
2.3609866534
 51
11.823354078
  0
ARC
  5
86
330
1F
100
AcDbEntity
  8
0
  6
Continuous
 62
     7
100
AcDbCircle
 10
8691.2520223002
 20
1377.0836866271
 30
0.0
 40
1385.913236017287
100
AcDbArc
 50
323.6554381721
 51
359.0059178838
  0
ARC
  5
87
330
1F
100
AcDbEntity
  8
0
  6
Continuous
 62
     7
100
AcDbCircle
 10
4112.661313446
 20
1377.0836866206
 30
0.0
 40
1385.913236017018
100
AcDbArc
 50
180.9940821159
 51
216.3445618276
  0
ARC
  5
88
330
1F
100
AcDbEntity
  8
0
  6
Continuous
 62
     7
100
AcDbCircle
 10
3889.0456067125
 20
8242.6102822988
 30
0.0
 40
1262.081605438566
100
AcDbArc
 50
172.9444122779
 51
186.5900648131
  0
ARC
  5
89
330
1F
100
AcDbEntity
  8
0
  6
Continuous
 62
     7
100
AcDbCircle
 10
8914.8218944192
 20
8242.6105864263
 30
0.0
 40
1262.126994898171
100
AcDbArc
 50
353.4689807339
 51
7.0425536411
  0
ARC
  5
8A
330
1F
100
AcDbEntity
  8
0
  6
Continuous
 62
     7
100
AcDbCircle
 10
3902.6937499033
 20
8186.9576710102
 30
0.0
 40
1275.737371138943
100
AcDbArc
 50
180.0385733751
 51
192.2660768562
  0
ARC
  5
8B
330
1F
100
AcDbEntity
  8
0
  6
Continuous
 62
     7
100
AcDbCircle
 10
8901.6883184442
 20
8186.8997282817
 30
0.0
 40
1275.268600937058
100
AcDbArc
 50
347.6613809416
 51
359.9640157206
  0
ARC
  5
8C
330
1F
100
AcDbEntity
  8
0
  6
Continuous
 62
     7
100
AcDbCircle
 10
8781.7709476592
 20
8242.5907125824
 30
0.0
 40
1195.178289673194
100
AcDbArc
 50
353.0005855953
 51
6.058869931
  0
ARC
  5
8D
330
1F
100
AcDbEntity
  8
0
  6
Continuous
 62
     7
100
AcDbCircle
 10
4022.269238122
 20
8242.6062343594
 30
0.0
 40
1195.304842520963
100
AcDbArc
 50
173.0755477581
 51
186.6654856345
  0
ARC
  5
8E
330
1F
100
AcDbEntity
  8
0
  6
Continuous
 62
     7
100
AcDbCircle
 10
4004.1907624032
 20
1370.3114773794
 30
0.0
 40
1379.722778985534
100
AcDbArc
 50
157.7768606301
 51
168.1430766023
  0
ARC
  5
8F
330
1F
100
AcDbEntity
  8
0
  6
Continuous
 62
     7
100
AcDbCircle
 10
8800.1211922032
 20
1370.4242992794
 30
0.0
 40
1379.311100243579
100
AcDbArc
 50
11.8945059244
 51
22.2250635693
  0
ARC
  5
90
330
1F
100
AcDbEntity
  8
0
  6
Continuous
 62
     7
100
AcDbCircle
 10
8863.9487366032
 20
1352.9602988294
 30
0.0
 40
1262.834245302681
100
AcDbArc
 50
343.1637476966
 51
16.1485018138
  0
ARC
  5
91
330
1F
100
AcDbEntity
  8
0
  6
Continuous
 62
     7
100
AcDbCircle
 10
3939.7288433632
 20
1352.9588838644
 30
0.0
 40
1262.60818680659
100
AcDbArc
 50
163.8484610037
 51
196.8392894859
  0
LINE
  5
92
330
1F
100
AcDbEntity
  8
0
  6
Continuous
 62
     7
100
AcDbLine
 10
-7626.2683040068
 20
-9523.1885014756
 30
0.0
 11
-7626.2683040068
 21
-9592.3872312856
 31
0.0
  0
LINE
  5
93
330
1F
100
AcDbEntity
  8
0
  6
Continuous
 62
     7
100
AcDbLine
 10
-26.2683040068
 20
-9592.3872312856
 30
0.0
 11
-26.2683040068
 21
-9523.1885014756
 31
0.0
  0
LINE
  5
94
330
1F
100
AcDbEntity
  8
0
  6
Continuous
 62
     7
100
AcDbLine
 10
-151.2683040068
 20
-9479.8872312856
 30
0.0
 11
-151.2683040068
 21
-1329.8872312856
 31
0.0
  0
LINE
  5
95
330
1F
100
AcDbEntity
  8
0
  6
Continuous
 62
     7
100
AcDbLine
 10
-7501.2683040068
 20
-1329.8872312856
 30
0.0
 11
-7501.2683040068
 21
-9479.8872312856
 31
0.0
  0
LINE
  5
96
330
1F
100
AcDbEntity
  8
0
  6
Continuous
 62
     7
100
AcDbLine
 10
-7601.2683040068
 20
-1217.3872312856
 30
0.0
 11
-7601.2683040068
 21
-1286.5859610956
 31
0.0
  0
LINE
  5
97
330
1F
100
AcDbEntity
  8
0
  6
Continuous
 62
     7
100
AcDbLine
 10
-51.2683040068
 20
-1286.5859610956
 30
0.0
 11
-51.2683040068
 21
-1217.3872312856
 31
0.0
  0
LINE
  5
98
330
1F
100
AcDbEntity
  8
0
  6
Continuous
 62
     7
100
AcDbLine
 10
-113.7683040068
 20
-9679.8872312856
 30
0.0
 11
-7538.7683040068
 21
-9679.8872312856
 31
0.0
  0
LINE
  5
99
330
1F
100
AcDbEntity
  8
0
  6
Continuous
 62
     7
100
AcDbLine
 10
-3826.2683040068
 20
-9479.8872312856
 30
0.0
 11
-51.2683040068
 21
-9479.8872312856
 31
0.0
  0
LINE
  5
9A
330
1F
100
AcDbEntity
  8
0
  6
Continuous
 62
     7
100
AcDbLine
 10
-7601.2683040068
 20
-9479.8872312856
 30
0.0
 11
-3826.2683040068
 21
-9479.8872312856
 31
0.0
  0
LINE
  5
9B
330
1F
100
AcDbEntity
  8
0
  6
Continuous
 62
     7
100
AcDbLine
 10
-3826.2683040068
 20
-1329.8872312856
 30
0.0
 11
-76.2683040068
 21
-1329.8872312856
 31
0.0
  0
LINE
  5
9C
330
1F
100
AcDbEntity
  8
0
  6
Continuous
 62
     7
100
AcDbLine
 10
-7576.2683040068
 20
-1329.8872312856
 30
0.0
 11
-3826.2683040068
 21
-1329.8872312856
 31
0.0
  0
LINE
  5
9D
330
1F
100
AcDbEntity
  8
0
  6
Continuous
 62
     7
100
AcDbLine
 10
-3826.2683040068
 20
-1129.8872312856
 30
0.0
 11
-138.7683040068
 21
-1129.8872312856
 31
0.0
  0
LINE
  5
9E
330
1F
100
AcDbEntity
  8
0
  6
Continuous
 62
     7
100
AcDbLine
 10
-7513.7683040068
 20
-1129.8872312856
 30
0.0
 11
-3826.2683040068
 21
-1129.8872312856
 31
0.0
  0
LINE
  5
9F
330
1F
100
AcDbEntity
  8
0
  6
Continuous
 62
     7
100
AcDbLine
 10
-3826.2683040068
 20
-9523.1885014756
 30
0.0
 11
-7626.2683040068
 21
-9523.1885014756
 31
0.0
  0
LINE
  5
A0
330
1F
100
AcDbEntity
  8
0
  6
Continuous
 62
     7
100
AcDbLine
 10
-26.2683040068
 20
-9523.1885014756
 30
0.0
 11
-3826.2683040068
 21
-9523.1885014756
 31
0.0
  0
LINE
  5
A1
330
1F
100
AcDbEntity
  8
0
  6
Continuous
 62
     7
100
AcDbLine
 10
-7626.2683040068
 20
-9592.3872312856
 30
0.0
 11
-26.2683040068
 21
-9592.3872312856
 31
0.0
  0
LINE
  5
A2
330
1F
100
AcDbEntity
  8
0
  6
Continuous
 62
     7
100
AcDbLine
 10
-7601.2683040068
 20
-1286.5859610956
 30
0.0
 11
-51.2683040068
 21
-1286.5859610956
 31
0.0
  0
LINE
  5
A3
330
1F
100
AcDbEntity
  8
0
  6
Continuous
 62
     7
100
AcDbLine
 10
-3826.2683040068
 20
-1217.3872312856
 30
0.0
 11
-7601.2683040068
 21
-1217.3872312856
 31
0.0
  0
LINE
  5
A4
330
1F
100
AcDbEntity
  8
0
  6
Continuous
 62
     7
100
AcDbLine
 10
-51.2683040068
 20
-1217.3872312856
 30
0.0
 11
-3826.2683040068
 21
-1217.3872312856
 31
0.0
  0
LINE
  5
A5
330
1F
100
AcDbEntity
  8
0
  6
Continuous
 62
     7
100
AcDbLine
 10
2601.9566678732
 20
1460.5766778394
 30
0.0
 11
2601.9566678732
 21
1404.0730908194
 31
0.0
  0
LINE
  5
A6
330
1F
100
AcDbEntity
  8
0
  6
Continuous
 62
     7
100
AcDbLine
 10
10201.9566678732
 20
1404.0730908194
 30
0.0
 11
10201.9566678732
 21
1460.5766778394
 31
0.0
  0
LINE
  5
A7
330
1F
100
AcDbEntity
  8
0
  6
Continuous
 62
     7
100
AcDbLine
 10
10076.9566678732
 20
1353.0392900794
 30
0.0
 11
10076.9566678732
 21
7683.8332027744
 31
0.0
  0
LINE
  5
A8
330
1F
100
AcDbEntity
  8
0
  6
Continuous
 62
     7
100
AcDbLine
 10
2726.9566678732
 20
7682.7061183144
 30
0.0
 11
2726.9566678732
 21
1353.0392900794
 31
0.0
  0
LINE
  5
A9
330
1F
100
AcDbEntity
  8
0
  6
Continuous
 62
     7
100
AcDbLine
 10
2626.9566678732
 20
8242.6023903644
 30
0.0
 11
2626.9566678732
 21
8186.0988033444
 31
0.0
  0
LINE
  5
AA
330
1F
100
AcDbEntity
  8
0
  6
Continuous
 62
     7
100
AcDbLine
 10
10176.9566678732
 20
8186.0988033444
 30
0.0
 11
10176.9566678732
 21
8242.6023903644
 31
0.0
  0
LINE
  5
AB
330
1F
100
AcDbEntity
  8
0
  6
Continuous
 62
     7
100
AcDbLine
 10
3732.6285688932
 20
-45.0363789106
 30
0.0
 11
3864.7100001482
 21
-117.6863586006
 31
0.0
  0
LINE
  5
AC
330
1F
100
AcDbEntity
  8
0
  6
Continuous
 62
     7
100
AcDbLine
 10
3864.7100001482
 20
-117.6863586006
 30
0.0
 11
4002.7172885582
 21
-186.5676533406
 31
0.0
  0
LINE
  5
AD
330
1F
100
AcDbEntity
  8
0
  6
Continuous
 62
     7
100
AcDbLine
 10
4002.7172885582
 20
-186.5676533406
 30
0.0
 11
4146.3281117082
 21
-251.5193876656
 31
0.0
  0
LINE
  5
AE
330
1F
100
AcDbEntity
  8
0
  6
Continuous
 62
     7
100
AcDbLine
 10
4146.3281117082
 20
-251.5193876656
 30
0.0
 11
4295.2070598682
 21
-312.3898637956
 31
0.0
  0
LINE
  5
AF
330
1F
100
AcDbEntity
  8
0
  6
Continuous
 62
     7
100
AcDbLine
 10
4295.2070598682
 20
-312.3898637956
 30
0.0
 11
4449.0064193532
 21
-369.0369159106
 31
0.0
  0
LINE
  5
B0
330
1F
100
AcDbEntity
  8
0
  6
Continuous
 62
     7
100
AcDbLine
 10
4449.0064193532
 20
-369.0369159106
 30
0.0
 11
4607.3669846332
 21
-421.3282421906
 31
0.0
  0
LINE
  5
B1
330
1F
100
AcDbEntity
  8
0
  6
Continuous
 62
     7
100
AcDbLine
 10
4607.3669846332
 20
-421.3282421906
 30
0.0
 11
4769.9188972732
 21
-469.1417138306
 31
0.0
  0
LINE
  5
B2
330
1F
100
AcDbEntity
  8
0
  6
Continuous
 62
     7
100
AcDbLine
 10
4769.9188972732
 20
-469.1417138306
 30
0.0
 11
4936.2825097482
 21
-512.3656602456
 31
0.0
  0
LINE
  5
B3
330
1F
100
AcDbEntity
  8
0
  6
Continuous
 62
     7
100
AcDbLine
 10
4936.2825097482
 20
-512.3656602456
 30
0.0
 11
5106.0692721282
 21
-550.8991299056
 31
0.0
  0
LINE
  5
B4
330
1F
100
AcDbEntity
  8
0
  6
Continuous
 62
     7
100
AcDbLine
 10
5106.0692721282
 20
-550.8991299056
 30
0.0
 11
5278.8826395682
 21
-584.6521261106
 31
0.0
  0
LINE
  5
B5
330
1F
100
AcDbEntity
  8
0
  6
Continuous
 62
     7
100
AcDbLine
 10
5278.8826395682
 20
-584.6521261106
 30
0.0
 11
5454.3189984432
 21
-613.5458171706
 31
0.0
  0
LINE
  5
B6
330
1F
100
AcDbEntity
  8
0
  6
Continuous
 62
     7
100
AcDbLine
 10
5454.3189984432
 20
-613.5458171706
 30
0.0
 11
5631.9686089982
 21
-637.5127205356
 31
0.0
  0
LINE
  5
B7
330
1F
100
AcDbEntity
  8
0
  6
Continuous
 62
     7
100
AcDbLine
 10
5631.9686089982
 20
-637.5127205356
 30
0.0
 11
5811.4165623432
 21
-656.4968603856
 31
0.0
  0
LINE
  5
B8
330
1F
100
AcDbEntity
  8
0
  6
Continuous
 62
     7
100
AcDbLine
 10
5811.4165623432
 20
-656.4968603856
 30
0.0
 11
5992.2437494732
 21
-670.4538983906
 31
0.0
  0
LINE
  5
B9
330
1F
100
AcDbEntity
  8
0
  6
Continuous
 62
     7
100
AcDbLine
 10
5992.2437494732
 20
-670.4538983906
 30
0.0
 11
6174.0278401032
 21
-679.3512372306
 31
0.0
  0
LINE
  5
BA
330
1F
100
AcDbEntity
  8
0
  6
Continuous
 62
     7
100
AcDbLine
 10
6174.0278401032
 20
-679.3512372306
 30
0.0
 11
6356.3442690732
 21
-683.1680967706
 31
0.0
  0
LINE
  5
BB
330
1F
100
AcDbEntity
  8
0
  6
Continuous
 62
     7
100
AcDbLine
 10
6356.3442690732
 20
-683.1680967706
 30
0.0
 11
6538.7672279132
 21
-681.8955625506
 31
0.0
  0
LINE
  5
BC
330
1F
100
AcDbEntity
  8
0
  6
Continuous
 62
     7
100
AcDbLine
 10
6538.7672279132
 20
-681.8955625506
 30
0.0
 11
6720.8706593532
 21
-675.5366066306
 31
0.0
  0
LINE
  5
BD
330
1F
100
AcDbEntity
  8
0
  6
Continuous
 62
     7
100
AcDbLine
 10
6720.8706593532
 20
-675.5366066306
 30
0.0
 11
6902.2292523882
 21
-664.1060806556
 31
0.0
  0
LINE
  5
BE
330
1F
100
AcDbEntity
  8
0
  6
Continuous
 62
     7
100
AcDbLine
 10
6902.2292523882
 20
-664.1060806556
 30
0.0
 11
7082.4194356182
 21
-647.6306811456
 31
0.0
  0
LINE
  5
BF
330
1F
100
AcDbEntity
  8
0
  6
Continuous
 62
     7
100
AcDbLine
 10
7082.4194356182
 20
-647.6306811456
 30
0.0
 11
7261.0203665282
 21
-626.1488871556
 31
0.0
  0
LINE
  5
C0
330
1F
100
AcDbEntity
  8
0
  6
Continuous
 62
     7
100
AcDbLine
 10
7261.0203665282
 20
-626.1488871556
 30
0.0
 11
7437.6149143632
 21
-599.7108704156
 31
0.0
  0
LINE
  5
C1
330
1F
100
AcDbEntity
  8
0
  6
Continuous
 62
     7
100
AcDbLine
 10
7437.6149143632
 20
-599.7108704156
 30
0.0
 11
7611.7906343782
 21
-568.3783781406
 31
0.0
  0
LINE
  5
C2
330
1F
100
AcDbEntity
  8
0
  6
Continuous
 62
     7
100
AcDbLine
 10
7611.7906343782
 20
-568.3783781406
 30
0.0
 11
7783.1407311082
 21
-532.2245888056
 31
0.0
  0
LINE
  5
C3
330
1F
100
AcDbEntity
  8
0
  6
Continuous
 62
     7
100
AcDbLine
 10
7783.1407311082
 20
-532.2245888056
 30
0.0
 11
7951.2650084582
 21
-491.3339412756
 31
0.0
  0
LINE
  5
C4
330
1F
100
AcDbEntity
  8
0
  6
Continuous
 62
     7
100
AcDbLine
 10
7951.2650084582
 20
-491.3339412756
 30
0.0
 11
8115.7708043882
 21
-445.8019375456
 31
0.0
  0
LINE
  5
C5
330
1F
100
AcDbEntity
  8
0
  6
Continuous
 62
     7
100
AcDbLine
 10
8115.7708043882
 20
-445.8019375456
 30
0.0
 11
8276.2739079982
 21
-395.7349197206
 31
0.0
  0
LINE
  5
C6
330
1F
100
AcDbEntity
  8
0
  6
Continuous
 62
     7
100
AcDbLine
 10
8276.2739079982
 20
-395.7349197206
 30
0.0
 11
8432.3994568432
 21
-341.2498216406
 31
0.0
  0
LINE
  5
C7
330
1F
100
AcDbEntity
  8
0
  6
Continuous
 62
     7
100
AcDbLine
 10
8432.3994568432
 20
-341.2498216406
 30
0.0
 11
8583.7828124732
 21
-282.4738957756
 31
0.0
  0
LINE
  5
C8
330
1F
100
AcDbEntity
  8
0
  6
Continuous
 62
     7
100
AcDbLine
 10
8583.7828124732
 20
-282.4738957756
 30
0.0
 11
8730.0704120432
 21
-219.5444160256
 31
0.0
  0
LINE
  5
C9
330
1F
100
AcDbEntity
  8
0
  6
Continuous
 62
     7
100
AcDbLine
 10
8730.0704120432
 20
-219.5444160256
 30
0.0
 11
8870.9205940932
 21
-152.6083571106
 31
0.0
  0
LINE
  5
CA
330
1F
100
AcDbEntity
  8
0
  6
Continuous
 62
     7
100
AcDbLine
 10
8870.9205940932
 20
-152.6083571106
 30
0.0
 11
9006.0043964982
 21
-81.8220512856
 31
0.0
  0
LINE
  5
CB
330
1F
100
AcDbEntity
  8
0
  6
Continuous
 62
     7
100
AcDbLine
 10
9006.0043964982
 20
-81.8220512856
 30
0.0
 11
9135.0063247682
 21
-7.3508232606
 31
0.0
  0
LINE
  5
CC
330
1F
100
AcDbEntity
  8
0
  6
Continuous
 62
     7
100
AcDbLine
 10
9135.0063247682
 20
-7.3508232606
 30
0.0
 11
9257.6250889282
 21
70.6313959644
 31
0.0
  0
LINE
  5
CD
330
1F
100
AcDbEntity
  8
0
  6
Continuous
 62
     7
100
AcDbLine
 10
9257.6250889282
 20
70.6313959644
 30
0.0
 11
9373.5743071732
 21
151.9424753094
 31
0.0
  0
LINE
  5
CE
330
1F
100
AcDbEntity
  8
0
  6
Continuous
 62
     7
100
AcDbLine
 10
9373.5743071732
 20
151.9424753094
 30
0.0
 11
9482.5831747282
 21
236.3925089744
 31
0.0
  0
LINE
  5
CF
330
1F
100
AcDbEntity
  8
0
  6
Continuous
 62
     7
100
AcDbLine
 10
9482.5831747282
 20
236.3925089744
 30
0.0
 11
9584.3970963382
 21
323.7842599944
 31
0.0
  0
LINE
  5
D0
330
1F
100
AcDbEntity
  8
0
  6
Continuous
 62
     7
100
AcDbLine
 10
9584.3970963382
 20
323.7842599944
 30
0.0
 11
9678.7782808632
 21
413.9136208844
 31
0.0
  0
LINE
  5
D1
330
1F
100
AcDbEntity
  8
0
  6
Continuous
 62
     7
100
AcDbLine
 10
9678.7782808632
 20
413.9136208844
 30
0.0
 11
9765.5062966832
 21
506.5700903494
 31
0.0
  0
LINE
  5
D2
330
1F
100
AcDbEntity
  8
0
  6
Continuous
 62
     7
100
AcDbLine
 10
9765.5062966832
 20
506.5700903494
 30
0.0
 11
9844.3785864932
 21
601.5372649044
 31
0.0
  0
LINE
  5
D3
330
1F
100
AcDbEntity
  8
0
  6
Continuous
 62
     7
100
AcDbLine
 10
9844.3785864932
 20
601.5372649044
 30
0.0
 11
9915.2109404032
 21
698.5933443244
 31
0.0
  0
LINE
  5
D4
330
1F
100
AcDbEntity
  8
0
  6
Continuous
 62
     7
100
AcDbLine
 10
9915.2109404032
 20
698.5933443244
 30
0.0
 11
9977.8379261782
 21
797.5116496294
 31
0.0
  0
LINE
  5
D5
330
1F
100
AcDbEntity
  8
0
  6
Continuous
 62
     7
100
AcDbLine
 10
9977.8379261782
 20
797.5116496294
 30
0.0
 11
10032.1132755782
 21
898.0611525344
 31
0.0
  0
LINE
  5
D6
330
1F
100
AcDbEntity
  8
0
  6
Continuous
 62
     7
100
AcDbLine
 10
10032.1132755782
 20
898.0611525344
 30
0.0
 11
10077.9102260182
 21
1000.0070150244
 31
0.0
  0
LINE
  5
D7
330
1F
100
AcDbEntity
  8
0
  6
Continuous
 62
     7
100
AcDbLine
 10
10077.9102260182
 20
1000.0070150244
 30
0.0
 11
10115.1218165982
 21
1103.1111378044
 31
0.0
  0
LINE
  5
D8
330
1F
100
AcDbEntity
  8
0
  6
Continuous
 62
     7
100
AcDbLine
 10
10115.1218165982
 20
1103.1111378044
 30
0.0
 11
10143.6611379232
 21
1207.1327164244
 31
0.0
  0
LINE
  5
D9
330
1F
100
AcDbEntity
  8
0
  6
Continuous
 62
     7
100
AcDbLine
 10
10143.6611379232
 20
1207.1327164244
 30
0.0
 11
10163.4615350832
 21
1311.8288036644
 31
0.0
  0
LINE
  5
DA
330
1F
100
AcDbEntity
  8
0
  6
Continuous
 62
     7
100
AcDbLine
 10
10163.4615350832
 20
1311.8288036644
 30
0.0
 11
10174.4767633332
 21
1416.9548769594
 31
0.0
  0
LINE
  5
DB
330
1F
100
AcDbEntity
  8
0
  6
Continuous
 62
     7
100
AcDbLine
 10
10174.4767633332
 20
1416.9548769594
 30
0.0
 11
10176.6810961032
 21
1522.2654095044
 31
0.0
  0
LINE
  5
DC
330
1F
100
AcDbEntity
  8
0
  6
Continuous
 62
     7
100
AcDbLine
 10
10176.6810961032
 20
1522.2654095044
 30
0.0
 11
10170.0693850632
 21
1627.5144436594
 31
0.0
  0
LINE
  5
DD
330
1F
100
AcDbEntity
  8
0
  6
Continuous
 62
     7
100
AcDbLine
 10
10170.0693850632
 20
1627.5144436594
 30
0.0
 11
10154.6570721832
 21
1732.4561654344
 31
0.0
  0
LINE
  5
DE
330
1F
100
AcDbEntity
  8
0
  6
Continuous
 62
     7
100
AcDbLine
 10
10154.6570721832
 20
1732.4561654344
 30
0.0
 11
10130.4801536182
 21
1836.8454785694
 31
0.0
  0
LINE
  5
DF
330
1F
100
AcDbEntity
  8
0
  6
Continuous
 62
     7
100
AcDbLine
 10
10130.4801536182
 20
1836.8454785694
 30
0.0
 11
10097.5950956932
 21
1940.4385769994
 31
0.0
  0
LINE
  5
E0
330
1F
100
AcDbEntity
  8
0
  6
Continuous
 62
     7
100
AcDbLine
 10
10097.5950956932
 20
1940.4385769994
 30
0.0
 11
10076.9566678732
 21
1994.2104832644
 31
0.0
  0
LINE
  5
E1
330
1F
100
AcDbEntity
  8
0
  6
Continuous
 62
     7
100
AcDbLine
 10
2726.9566678732
 20
1994.2104832644
 30
0.0
 11
2726.0031097282
 21
1991.8608492894
 31
0.0
  0
LINE
  5
E2
330
1F
100
AcDbEntity
  8
0
  6
Continuous
 62
     7
100
AcDbLine
 10
2726.0031097282
 20
1991.8608492894
 30
0.0
 11
2688.7915191482
 21
1888.7567265094
 31
0.0
  0
LINE
  5
E3
330
1F
100
AcDbEntity
  8
0
  6
Continuous
 62
     7
100
AcDbLine
 10
2688.7915191482
 20
1888.7567265094
 30
0.0
 11
2660.2521978232
 21
1784.7351478894
 31
0.0
  0
LINE
  5
E4
330
1F
100
AcDbEntity
  8
0
  6
Continuous
 62
     7
100
AcDbLine
 10
2660.2521978232
 20
1784.7351478894
 30
0.0
 11
2640.4518006632
 21
1680.0390606494
 31
0.0
  0
LINE
  5
E5
330
1F
100
AcDbEntity
  8
0
  6
Continuous
 62
     7
100
AcDbLine
 10
2640.4518006632
 20
1680.0390606494
 30
0.0
 11
2629.4365724132
 21
1574.9129873544
 31
0.0
  0
LINE
  5
E6
330
1F
100
AcDbEntity
  8
0
  6
Continuous
 62
     7
100
AcDbLine
 10
2629.4365724132
 20
1574.9129873544
 30
0.0
 11
2627.2322396432
 21
1469.6024548094
 31
0.0
  0
LINE
  5
E7
330
1F
100
AcDbEntity
  8
0
  6
Continuous
 62
     7
100
AcDbLine
 10
2627.2322396432
 20
1469.6024548094
 30
0.0
 11
2633.8439506782
 21
1364.3534206544
 31
0.0
  0
LINE
  5
E8
330
1F
100
AcDbEntity
  8
0
  6
Continuous
 62
     7
100
AcDbLine
 10
2633.8439506782
 20
1364.3534206544
 30
0.0
 11
2649.2562635632
 21
1259.4116988794
 31
0.0
  0
LINE
  5
E9
330
1F
100
AcDbEntity
  8
0
  6
Continuous
 62
     7
100
AcDbLine
 10
2649.2562635632
 20
1259.4116988794
 30
0.0
 11
2673.4331821282
 21
1155.0223857444
 31
0.0
  0
LINE
  5
EA
330
1F
100
AcDbEntity
  8
0
  6
Continuous
 62
     7
100
AcDbLine
 10
2673.4331821282
 20
1155.0223857444
 30
0.0
 11
2706.3182400532
 21
1051.4292873144
 31
0.0
  0
LINE
  5
EB
330
1F
100
AcDbEntity
  8
0
  6
Continuous
 62
     7
100
AcDbLine
 10
2706.3182400532
 20
1051.4292873144
 30
0.0
 11
2747.8346327632
 21
948.8743500844
 31
0.0
  0
LINE
  5
EC
330
1F
100
AcDbEntity
  8
0
  6
Continuous
 62
     7
100
AcDbLine
 10
2747.8346327632
 20
948.8743500844
 30
0.0
 11
2797.8853968032
 21
847.5970958544
 31
0.0
  0
LINE
  5
ED
330
1F
100
AcDbEntity
  8
0
  6
Continuous
 62
     7
100
AcDbLine
 10
2797.8853968032
 20
847.5970958544
 30
0.0
 11
2856.3536362932
 21
747.8340623494
 31
0.0
  0
LINE
  5
EE
330
1F
100
AcDbEntity
  8
0
  6
Continuous
 62
     7
100
AcDbLine
 10
2856.3536362932
 20
747.8340623494
 30
0.0
 11
2923.1027959482
 21
649.8182507494
 31
0.0
  0
LINE
  5
EF
330
1F
100
AcDbEntity
  8
0
  6
Continuous
 62
     7
100
AcDbLine
 10
2923.1027959482
 20
649.8182507494
 30
0.0
 11
2997.9769800182
 21
553.7785815294
 31
0.0
  0
LINE
  5
F0
330
1F
100
AcDbEntity
  8
0
  6
Continuous
 62
     7
100
AcDbLine
 10
2997.9769800182
 20
553.7785815294
 30
0.0
 11
3080.8013163682
 21
459.9393597894
 31
0.0
  0
LINE
  5
F1
330
1F
100
AcDbEntity
  8
0
  6
Continuous
 62
     7
100
AcDbLine
 10
3080.8013163682
 20
459.9393597894
 30
0.0
 11
3171.3823649332
 21
368.5197513694
 31
0.0
  0
LINE
  5
F2
330
1F
100
AcDbEntity
  8
0
  6
Continuous
 62
     7
100
AcDbLine
 10
3171.3823649332
 20
368.5197513694
 30
0.0
 11
3269.5085694732
 21
279.7332710144
 31
0.0
  0
LINE
  5
F3
330
1F
100
AcDbEntity
  8
0
  6
Continuous
 62
     7
100
AcDbLine
 10
3269.5085694732
 20
279.7332710144
 30
0.0
 11
3374.9507516882
 21
193.7872836544
 31
0.0
  0
LINE
  5
F4
330
1F
100
AcDbEntity
  8
0
  6
Continuous
 62
     7
100
AcDbLine
 10
3374.9507516882
 20
193.7872836544
 30
0.0
 11
3487.4626464782
 21
110.8825201244
 31
0.0
  0
LINE
  5
F5
330
1F
100
AcDbEntity
  8
0
  6
Continuous
 62
     7
100
AcDbLine
 10
3487.4626464782
 20
110.8825201244
 30
0.0
 11
3606.7814770982
 21
31.2126083494
 31
0.0
  0
LINE
  5
F6
330
1F
100
AcDbEntity
  8
0
  6
Continuous
 62
     7
100
AcDbLine
 10
3606.7814770982
 20
31.2126083494
 30
0.0
 11
3732.6285688932
 21
-45.0363789106
 31
0.0
  0
LINE
  5
F7
330
1F
100
AcDbEntity
  8
0
  6
Continuous
 62
     7
100
AcDbLine
 10
10193.8087942632
 20
1260.4949500394
 30
0.0
 11
10199.4603401232
 21
1324.5709955244
 31
0.0
  0
LINE
  5
F8
330
1F
100
AcDbEntity
  8
0
  6
Continuous
 62
     7
100
AcDbLine
 10
10199.4603401232
 20
1324.5709955244
 30
0.0
 11
10201.9566678732
 21
1404.0730908194
 31
0.0
  0
LINE
  5
F9
330
1F
100
AcDbEntity
  8
0
  6
Continuous
 62
     7
100
AcDbLine
 10
3794.5004122482
 20
6808.7972552294
 30
0.0
 11
3925.5830218732
 21
6736.7511604344
 31
0.0
  0
LINE
  5
FA
330
1F
100
AcDbEntity
  8
0
  6
Continuous
 62
     7
100
AcDbLine
 10
3925.5830218732
 20
6736.7511604344
 30
0.0
 11
4062.6314325182
 21
6668.5049160044
 31
0.0
  0
LINE
  5
FB
330
1F
100
AcDbEntity
  8
0
  6
Continuous
 62
     7
100
AcDbLine
 10
4062.6314325182
 20
6668.5049160044
 30
0.0
 11
4205.3154825582
 21
6604.2229331194
 31
0.0
  0
LINE
  5
FC
330
1F
100
AcDbEntity
  8
0
  6
Continuous
 62
     7
100
AcDbLine
 10
4205.3154825582
 20
6604.2229331194
 30
0.0
 11
4353.2914336132
 21
6544.0600727094
 31
0.0
  0
LINE
  5
FD
330
1F
100
AcDbEntity
  8
0
  6
Continuous
 62
     7
100
AcDbLine
 10
4353.2914336132
 20
6544.0600727094
 30
0.0
 11
4506.2027986582
 21
6488.1612723644
 31
0.0
  0
LINE
  5
FE
330
1F
100
AcDbEntity
  8
0
  6
Continuous
 62
     7
100
AcDbLine
 10
4506.2027986582
 20
6488.1612723644
 30
0.0
 11
4663.6812008282
 21
6436.6611972044
 31
0.0
  0
LINE
  5
FF
330
1F
100
AcDbEntity
  8
0
  6
Continuous
 62
     7
100
AcDbLine
 10
4663.6812008282
 20
6436.6611972044
 30
0.0
 11
4825.3472608482
 21
6389.6839154144
 31
0.0
  0
LINE
  5
100
330
1F
100
AcDbEntity
  8
0
  6
Continuous
 62
     7
100
AcDbLine
 10
4825.3472608482
 20
6389.6839154144
 30
0.0
 11
4990.8115110282
 21
6347.3425993794
 31
0.0
  0
LINE
  5
101
330
1F
100
AcDbEntity
  8
0
  6
Continuous
 62
     7
100
AcDbLine
 10
4990.8115110282
 20
6347.3425993794
 30
0.0
 11
5159.6753334882
 21
6309.7392530394
 31
0.0
  0
LINE
  5
102
330
1F
100
AcDbEntity
  8
0
  6
Continuous
 62
     7
100
AcDbLine
 10
5159.6753334882
 20
6309.7392530394
 30
0.0
 11
5331.5319204982
 21
6276.9644661544
 31
0.0
  0
LINE
  5
103
330
1F
100
AcDbEntity
  8
0
  6
Continuous
 62
     7
100
AcDbLine
 10
5331.5319204982
 20
6276.9644661544
 30
0.0
 11
5505.9672544782
 21
6249.0971960494
 31
0.0
  0
LINE
  5
104
330
1F
100
AcDbEntity
  8
0
  6
Continuous
 62
     7
100
AcDbLine
 10
5505.9672544782
 20
6249.0971960494
 30
0.0
 11
5682.5611054382
 21
6226.2045774244
 31
0.0
  0
LINE
  5
105
330
1F
100
AcDbEntity
  8
0
  6
Continuous
 62
     7
100
AcDbLine
 10
5682.5611054382
 20
6226.2045774244
 30
0.0
 11
5860.8880433182
 21
6208.3417605994
 31
0.0
  0
LINE
  5
106
330
1F
100
AcDbEntity
  8
0
  6
Continuous
 62
     7
100
AcDbLine
 10
5860.8880433182
 20
6208.3417605994
 30
0.0
 11
6040.5184629082
 21
6195.5517786644
 31
0.0
  0
LINE
  5
107
330
1F
100
AcDbEntity
  8
0
  6
Continuous
 62
     7
100
AcDbLine
 10
6040.5184629082
 20
6195.5517786644
 30
0.0
 11
6221.0196187882
 21
6187.8654438094
 31
0.0
  0
LINE
  5
108
330
1F
100
AcDbEntity
  8
0
  6
Continuous
 62
     7
100
AcDbLine
 10
6221.0196187882
 20
6187.8654438094
 30
0.0
 11
6401.9566678732
 21
6185.3012730894
 31
0.0
  0
LINE
  5
109
330
1F
100
AcDbEntity
  8
0
  6
Continuous
 62
     7
100
AcDbLine
 10
6401.9566678732
 20
6185.3012730894
 30
0.0
 11
6582.8937169532
 21
6187.8654438094
 31
0.0
  0
LINE
  5
10A
330
1F
100
AcDbEntity
  8
0
  6
Continuous
 62
     7
100
AcDbLine
 10
6582.8937169532
 20
6187.8654438094
 30
0.0
 11
6763.3948728382
 21
6195.5517786644
 31
0.0
  0
LINE
  5
10B
330
1F
100
AcDbEntity
  8
0
  6
Continuous
 62
     7
100
AcDbLine
 10
6763.3948728382
 20
6195.5517786644
 30
0.0
 11
6943.0252924282
 21
6208.3417605994
 31
0.0
  0
LINE
  5
10C
330
1F
100
AcDbEntity
  8
0
  6
Continuous
 62
     7
100
AcDbLine
 10
6943.0252924282
 20
6208.3417605994
 30
0.0
 11
7121.3522303082
 21
6226.2045774244
 31
0.0
  0
LINE
  5
10D
330
1F
100
AcDbEntity
  8
0
  6
Continuous
 62
     7
100
AcDbLine
 10
7121.3522303082
 20
6226.2045774244
 30
0.0
 11
7297.9460812682
 21
6249.0971960494
 31
0.0
  0
LINE
  5
10E
330
1F
100
AcDbEntity
  8
0
  6
Continuous
 62
     7
100
AcDbLine
 10
7297.9460812682
 20
6249.0971960494
 30
0.0
 11
7472.3814152482
 21
6276.9644661544
 31
0.0
  0
LINE
  5
10F
330
1F
100
AcDbEntity
  8
0
  6
Continuous
 62
     7
100
AcDbLine
 10
7472.3814152482
 20
6276.9644661544
 30
0.0
 11
7644.2380022582
 21
6309.7392530394
 31
0.0
  0
LINE
  5
110
330
1F
100
AcDbEntity
  8
0
  6
Continuous
 62
     7
100
AcDbLine
 10
7644.2380022582
 20
6309.7392530394
 30
0.0
 11
7813.1018247182
 21
6347.3425993794
 31
0.0
  0
LINE
  5
111
330
1F
100
AcDbEntity
  8
0
  6
Continuous
 62
     7
100
AcDbLine
 10
7813.1018247182
 20
6347.3425993794
 30
0.0
 11
7978.5660748982
 21
6389.6839154144
 31
0.0
  0
LINE
  5
112
330
1F
100
AcDbEntity
  8
0
  6
Continuous
 62
     7
100
AcDbLine
 10
7978.5660748982
 20
6389.6839154144
 30
0.0
 11
8140.2321349182
 21
6436.6611972044
 31
0.0
  0
LINE
  5
113
330
1F
100
AcDbEntity
  8
0
  6
Continuous
 62
     7
100
AcDbLine
 10
8140.2321349182
 20
6436.6611972044
 30
0.0
 11
8297.7105370832
 21
6488.1612723644
 31
0.0
  0
LINE
  5
114
330
1F
100
AcDbEntity
  8
0
  6
Continuous
 62
     7
100
AcDbLine
 10
8297.7105370832
 20
6488.1612723644
 30
0.0
 11
8450.6219021332
 21
6544.0600727094
 31
0.0
  0
LINE
  5
115
330
1F
100
AcDbEntity
  8
0
  6
Continuous
 62
     7
100
AcDbLine
 10
8450.6219021332
 20
6544.0600727094
 30
0.0
 11
8598.5978531882
 21
6604.2229331194
 31
0.0
  0
LINE
  5
116
330
1F
100
AcDbEntity
  8
0
  6
Continuous
 62
     7
100
AcDbLine
 10
8598.5978531882
 20
6604.2229331194
 30
0.0
 11
8741.2819032282
 21
6668.5049160044
 31
0.0
  0
LINE
  5
117
330
1F
100
AcDbEntity
  8
0
  6
Continuous
 62
     7
100
AcDbLine
 10
8741.2819032282
 20
6668.5049160044
 30
0.0
 11
8878.3303138732
 21
6736.7511604344
 31
0.0
  0
LINE
  5
118
330
1F
100
AcDbEntity
  8
0
  6
Continuous
 62
     7
100
AcDbLine
 10
8878.3303138732
 20
6736.7511604344
 30
0.0
 11
9009.4129234982
 21
6808.7972552294
 31
0.0
  0
LINE
  5
119
330
1F
100
AcDbEntity
  8
0
  6
Continuous
 62
     7
100
AcDbLine
 10
9009.4129234982
 20
6808.7972552294
 30
0.0
 11
9134.2139426182
 21
6884.4696350344
 31
0.0
  0
LINE
  5
11A
330
1F
100
AcDbEntity
  8
0
  6
Continuous
 62
     7
100
AcDbLine
 10
9134.2139426182
 20
6884.4696350344
 30
0.0
 11
9252.4327146482
 21
6963.5859984644
 31
0.0
  0
LINE
  5
11B
330
1F
100
AcDbEntity
  8
0
  6
Continuous
 62
     7
100
AcDbLine
 10
9252.4327146482
 20
6963.5859984644
 30
0.0
 11
9363.7844402082
 21
7045.9557472594
 31
0.0
  0
LINE
  5
11C
330
1F
100
AcDbEntity
  8
0
  6
Continuous
 62
     7
100
AcDbLine
 10
9363.7844402082
 20
7045.9557472594
 30
0.0
 11
9468.0008632382
 21
7131.3804454894
 31
0.0
  0
LINE
  5
11D
330
1F
100
AcDbEntity
  8
0
  6
Continuous
 62
     7
100
AcDbLine
 10
9468.0008632382
 20
7131.3804454894
 30
0.0
 11
9564.8309172482
 21
7219.6542975694
 31
0.0
  0
LINE
  5
11E
330
1F
100
AcDbEntity
  8
0
  6
Continuous
 62
     7
100
AcDbLine
 10
9564.8309172482
 20
7219.6542975694
 30
0.0
 11
9654.0413301582
 21
7310.5646440594
 31
0.0
  0
LINE
  5
11F
330
1F
100
AcDbEntity
  8
0
  6
Continuous
 62
     7
100
AcDbLine
 10
9654.0413301582
 20
7310.5646440594
 30
0.0
 11
9735.4171862632
 21
7403.8924739694
 31
0.0
  0
LINE
  5
120
330
1F
100
AcDbEntity
  8
0
  6
Continuous
 62
     7
100
AcDbLine
 10
9735.4171862632
 20
7403.8924739694
 30
0.0
 11
9808.7624440082
 21
7499.4129523844
 31
0.0
  0
LINE
  5
121
330
1F
100
AcDbEntity
  8
0
  6
Continuous
 62
     7
100
AcDbLine
 10
9808.7624440082
 20
7499.4129523844
 30
0.0
 11
9873.9004082332
 21
7596.8959621094
 31
0.0
  0
LINE
  5
122
330
1F
100
AcDbEntity
  8
0
  6
Continuous
 62
     7
100
AcDbLine
 10
9873.9004082332
 20
7596.8959621094
 30
0.0
 11
9930.6741558832
 21
7696.1066580294
 31
0.0
  0
LINE
  5
123
330
1F
100
AcDbEntity
  8
0
  6
Continuous
 62
     7
100
AcDbLine
 10
9930.6741558832
 20
7696.1066580294
 30
0.0
 11
9978.9469140282
 21
7796.8060328944
 31
0.0
  0
LINE
  5
124
330
1F
100
AcDbEntity
  8
0
  6
Continuous
 62
     7
100
AcDbLine
 10
9978.9469140282
 20
7796.8060328944
 30
0.0
 11
10018.6023893582
 21
7898.7514930794
 31
0.0
  0
LINE
  5
125
330
1F
100
AcDbEntity
  8
0
  6
Continuous
 62
     7
100
AcDbLine
 10
10018.6023893582
 20
7898.7514930794
 30
0.0
 11
10049.5450483682
 21
8001.6974430544
 31
0.0
  0
LINE
  5
126
330
1F
100
AcDbEntity
  8
0
  6
Continuous
 62
     7
100
AcDbLine
 10
10049.5450483682
 20
8001.6974430544
 30
0.0
 11
10071.7003474782
 21
8105.3958769994
 31
0.0
  0
LINE
  5
127
330
1F
100
AcDbEntity
  8
0
  6
Continuous
 62
     7
100
AcDbLine
 10
10071.7003474782
 20
8105.3958769994
 30
0.0
 11
10085.0149126282
 21
8209.5969763044
 31
0.0
  0
LINE
  5
128
330
1F
100
AcDbEntity
  8
0
  6
Continuous
 62
     7
100
AcDbLine
 10
10085.0149126282
 20
8209.5969763044
 30
0.0
 11
10089.4566678732
 21
8314.0497114044
 31
0.0
  0
LINE
  5
129
330
1F
100
AcDbEntity
  8
0
  6
Continuous
 62
     7
100
AcDbLine
 10
10089.4566678732
 20
8314.0497114044
 30
0.0
 11
10085.0149126282
 21
8418.5024464994
 31
0.0
  0
LINE
  5
12A
330
1F
100
AcDbEntity
  8
0
  6
Continuous
 62
     7
100
AcDbLine
 10
10085.0149126282
 20
8418.5024464994
 30
0.0
 11
10071.7003474782
 21
8522.7035458094
 31
0.0
  0
LINE
  5
12B
330
1F
100
AcDbEntity
  8
0
  6
Continuous
 62
     7
100
AcDbLine
 10
10071.7003474782
 20
8522.7035458094
 30
0.0
 11
10049.5450483682
 21
8626.4019797544
 31
0.0
  0
LINE
  5
12C
330
1F
100
AcDbEntity
  8
0
  6
Continuous
 62
     7
100
AcDbLine
 10
10049.5450483682
 20
8626.4019797544
 30
0.0
 11
10018.6023893582
 21
8729.3479297244
 31
0.0
  0
LINE
  5
12D
330
1F
100
AcDbEntity
  8
0
  6
Continuous
 62
     7
100
AcDbLine
 10
10018.6023893582
 20
8729.3479297244
 30
0.0
 11
9978.9469140282
 21
8831.2933899144
 31
0.0
  0
LINE
  5
12E
330
1F
100
AcDbEntity
  8
0
  6
Continuous
 62
     7
100
AcDbLine
 10
9978.9469140282
 20
8831.2933899144
 30
0.0
 11
9930.6741558832
 21
8931.9927647744
 31
0.0
  0
LINE
  5
12F
330
1F
100
AcDbEntity
  8
0
  6
Continuous
 62
     7
100
AcDbLine
 10
9930.6741558832
 20
8931.9927647744
 30
0.0
 11
9873.9004082332
 21
9031.2034606944
 31
0.0
  0
LINE
  5
130
330
1F
100
AcDbEntity
  8
0
  6
Continuous
 62
     7
100
AcDbLine
 10
9873.9004082332
 20
9031.2034606944
 30
0.0
 11
9808.7624440082
 21
9128.6864704194
 31
0.0
  0
LINE
  5
131
330
1F
100
AcDbEntity
  8
0
  6
Continuous
 62
     7
100
AcDbLine
 10
9808.7624440082
 20
9128.6864704194
 30
0.0
 11
9735.4171862632
 21
9224.2069488344
 31
0.0
  0
LINE
  5
132
330
1F
100
AcDbEntity
  8
0
  6
Continuous
 62
     7
100
AcDbLine
 10
9735.4171862632
 20
9224.2069488344
 30
0.0
 11
9654.0413301582
 21
9317.5347787494
 31
0.0
  0
LINE
  5
133
330
1F
100
AcDbEntity
  8
0
  6
Continuous
 62
     7
100
AcDbLine
 10
9654.0413301582
 20
9317.5347787494
 30
0.0
 11
9564.8309172482
 21
9408.4451252394
 31
0.0
  0
LINE
  5
134
330
1F
100
AcDbEntity
  8
0
  6
Continuous
 62
     7
100
AcDbLine
 10
9564.8309172482
 20
9408.4451252394
 30
0.0
 11
9468.0008632382
 21
9496.7189773194
 31
0.0
  0
LINE
  5
135
330
1F
100
AcDbEntity
  8
0
  6
Continuous
 62
     7
100
AcDbLine
 10
9468.0008632382
 20
9496.7189773194
 30
0.0
 11
9363.7844402082
 21
9582.1436755494
 31
0.0
  0
LINE
  5
136
330
1F
100
AcDbEntity
  8
0
  6
Continuous
 62
     7
100
AcDbLine
 10
9363.7844402082
 20
9582.1436755494
 30
0.0
 11
9252.4327146482
 21
9664.5134243444
 31
0.0
  0
LINE
  5
137
330
1F
100
AcDbEntity
  8
0
  6
Continuous
 62
     7
100
AcDbLine
 10
9252.4327146482
 20
9664.5134243444
 30
0.0
 11
9134.2139426182
 21
9743.6297877694
 31
0.0
  0
LINE
  5
138
330
1F
100
AcDbEntity
  8
0
  6
Continuous
 62
     7
100
AcDbLine
 10
9134.2139426182
 20
9743.6297877694
 30
0.0
 11
9009.4129234982
 21
9819.3021675744
 31
0.0
  0
LINE
  5
139
330
1F
100
AcDbEntity
  8
0
  6
Continuous
 62
     7
100
AcDbLine
 10
9009.4129234982
 20
9819.3021675744
 30
0.0
 11
8878.3303138732
 21
9891.3482623694
 31
0.0
  0
LINE
  5
13A
330
1F
100
AcDbEntity
  8
0
  6
Continuous
 62
     7
100
AcDbLine
 10
8878.3303138732
 20
9891.3482623694
 30
0.0
 11
8741.2819032282
 21
9959.5945067994
 31
0.0
  0
LINE
  5
13B
330
1F
100
AcDbEntity
  8
0
  6
Continuous
 62
     7
100
AcDbLine
 10
8741.2819032282
 20
9959.5945067994
 30
0.0
 11
8598.5978531882
 21
10023.8764896844
 31
0.0
  0
LINE
  5
13C
330
1F
100
AcDbEntity
  8
0
  6
Continuous
 62
     7
100
AcDbLine
 10
8598.5978531882
 20
10023.8764896844
 30
0.0
 11
8450.6219021332
 21
10084.0393500994
 31
0.0
  0
LINE
  5
13D
330
1F
100
AcDbEntity
  8
0
  6
Continuous
 62
     7
100
AcDbLine
 10
8450.6219021332
 20
10084.0393500994
 30
0.0
 11
8297.7105370832
 21
10139.9381504394
 31
0.0
  0
LINE
  5
13E
330
1F
100
AcDbEntity
  8
0
  6
Continuous
 62
     7
100
AcDbLine
 10
8297.7105370832
 20
10139.9381504394
 30
0.0
 11
8140.2321349182
 21
10191.4382255994
 31
0.0
  0
LINE
  5
13F
330
1F
100
AcDbEntity
  8
0
  6
Continuous
 62
     7
100
AcDbLine
 10
8140.2321349182
 20
10191.4382255994
 30
0.0
 11
7978.5660748982
 21
10238.4155073944
 31
0.0
  0
LINE
  5
140
330
1F
100
AcDbEntity
  8
0
  6
Continuous
 62
     7
100
AcDbLine
 10
7978.5660748982
 20
10238.4155073944
 30
0.0
 11
7813.1018247182
 21
10280.7568234294
 31
0.0
  0
LINE
  5
141
330
1F
100
AcDbEntity
  8
0
  6
Continuous
 62
     7
100
AcDbLine
 10
7813.1018247182
 20
10280.7568234294
 30
0.0
 11
7644.2380022582
 21
10318.3601697644
 31
0.0
  0
LINE
  5
142
330
1F
100
AcDbEntity
  8
0
  6
Continuous
 62
     7
100
AcDbLine
 10
7644.2380022582
 20
10318.3601697644
 30
0.0
 11
7472.3814152482
 21
10351.1349566544
 31
0.0
  0
LINE
  5
143
330
1F
100
AcDbEntity
  8
0
  6
Continuous
 62
     7
100
AcDbLine
 10
7472.3814152482
 20
10351.1349566544
 30
0.0
 11
7297.9460812632
 21
10379.0022267594
 31
0.0
  0
LINE
  5
144
330
1F
100
AcDbEntity
  8
0
  6
Continuous
 62
     7
100
AcDbLine
 10
7297.9460812632
 20
10379.0022267594
 30
0.0
 11
7121.3522303082
 21
10401.8948453844
 31
0.0
  0
LINE
  5
145
330
1F
100
AcDbEntity
  8
0
  6
Continuous
 62
     7
100
AcDbLine
 10
7121.3522303082
 20
10401.8948453844
 30
0.0
 11
6943.0252924282
 21
10419.7576622094
 31
0.0
  0
LINE
  5
146
330
1F
100
AcDbEntity
  8
0
  6
Continuous
 62
     7
100
AcDbLine
 10
6943.0252924282
 20
10419.7576622094
 30
0.0
 11
6763.3948728382
 21
10432.5476441444
 31
0.0
  0
LINE
  5
147
330
1F
100
AcDbEntity
  8
0
  6
Continuous
 62
     7
100
AcDbLine
 10
6763.3948728382
 20
10432.5476441444
 30
0.0
 11
6582.8937169532
 21
10440.2339789944
 31
0.0
  0
LINE
  5
148
330
1F
100
AcDbEntity
  8
0
  6
Continuous
 62
     7
100
AcDbLine
 10
6582.8937169532
 20
10440.2339789944
 30
0.0
 11
6401.9566678732
 21
10442.7981497194
 31
0.0
  0
LINE
  5
149
330
1F
100
AcDbEntity
  8
0
  6
Continuous
 62
     7
100
AcDbLine
 10
6401.9566678732
 20
10442.7981497194
 30
0.0
 11
6221.0196187882
 21
10440.2339789944
 31
0.0
  0
LINE
  5
14A
330
1F
100
AcDbEntity
  8
0
  6
Continuous
 62
     7
100
AcDbLine
 10
6221.0196187882
 20
10440.2339789944
 30
0.0
 11
6040.5184629082
 21
10432.5476441444
 31
0.0
  0
LINE
  5
14B
330
1F
100
AcDbEntity
  8
0
  6
Continuous
 62
     7
100
AcDbLine
 10
6040.5184629082
 20
10432.5476441444
 30
0.0
 11
5860.8880433182
 21
10419.7576622094
 31
0.0
  0
LINE
  5
14C
330
1F
100
AcDbEntity
  8
0
  6
Continuous
 62
     7
100
AcDbLine
 10
5860.8880433182
 20
10419.7576622094
 30
0.0
 11
5682.5611054382
 21
10401.8948453844
 31
0.0
  0
LINE
  5
14D
330
1F
100
AcDbEntity
  8
0
  6
Continuous
 62
     7
100
AcDbLine
 10
5682.5611054382
 20
10401.8948453844
 30
0.0
 11
5505.9672544782
 21
10379.0022267594
 31
0.0
  0
LINE
  5
14E
330
1F
100
AcDbEntity
  8
0
  6
Continuous
 62
     7
100
AcDbLine
 10
5505.9672544782
 20
10379.0022267594
 30
0.0
 11
5331.5319204982
 21
10351.1349566544
 31
0.0
  0
LINE
  5
14F
330
1F
100
AcDbEntity
  8
0
  6
Continuous
 62
     7
100
AcDbLine
 10
5331.5319204982
 20
10351.1349566544
 30
0.0
 11
5159.6753334882
 21
10318.3601697644
 31
0.0
  0
LINE
  5
150
330
1F
100
AcDbEntity
  8
0
  6
Continuous
 62
     7
100
AcDbLine
 10
5159.6753334882
 20
10318.3601697644
 30
0.0
 11
4990.8115110282
 21
10280.7568234294
 31
0.0
  0
LINE
  5
151
330
1F
100
AcDbEntity
  8
0
  6
Continuous
 62
     7
100
AcDbLine
 10
4990.8115110282
 20
10280.7568234294
 30
0.0
 11
4825.3472608482
 21
10238.4155073944
 31
0.0
  0
LINE
  5
152
330
1F
100
AcDbEntity
  8
0
  6
Continuous
 62
     7
100
AcDbLine
 10
4825.3472608482
 20
10238.4155073944
 30
0.0
 11
4663.6812008282
 21
10191.4382255994
 31
0.0
  0
LINE
  5
153
330
1F
100
AcDbEntity
  8
0
  6
Continuous
 62
     7
100
AcDbLine
 10
4663.6812008282
 20
10191.4382255994
 30
0.0
 11
4506.2027986582
 21
10139.9381504394
 31
0.0
  0
LINE
  5
154
330
1F
100
AcDbEntity
  8
0
  6
Continuous
 62
     7
100
AcDbLine
 10
4506.2027986582
 20
10139.9381504394
 30
0.0
 11
4353.2914336132
 21
10084.0393500994
 31
0.0
  0
LINE
  5
155
330
1F
100
AcDbEntity
  8
0
  6
Continuous
 62
     7
100
AcDbLine
 10
4353.2914336132
 20
10084.0393500994
 30
0.0
 11
4205.3154825582
 21
10023.8764896844
 31
0.0
  0
LINE
  5
156
330
1F
100
AcDbEntity
  8
0
  6
Continuous
 62
     7
100
AcDbLine
 10
4205.3154825582
 20
10023.8764896844
 30
0.0
 11
4062.6314325182
 21
9959.5945067994
 31
0.0
  0
LINE
  5
157
330
1F
100
AcDbEntity
  8
0
  6
Continuous
 62
     7
100
AcDbLine
 10
4062.6314325182
 20
9959.5945067994
 30
0.0
 11
3925.5830218732
 21
9891.3482623694
 31
0.0
  0
LINE
  5
158
330
1F
100
AcDbEntity
  8
0
  6
Continuous
 62
     7
100
AcDbLine
 10
3925.5830218732
 20
9891.3482623694
 30
0.0
 11
3794.5004122482
 21
9819.3021675744
 31
0.0
  0
LINE
  5
159
330
1F
100
AcDbEntity
  8
0
  6
Continuous
 62
     7
100
AcDbLine
 10
3794.5004122482
 20
9819.3021675744
 30
0.0
 11
3669.6993931282
 21
9743.6297877694
 31
0.0
  0
LINE
  5
15A
330
1F
100
AcDbEntity
  8
0
  6
Continuous
 62
     7
100
AcDbLine
 10
3669.6993931282
 20
9743.6297877694
 30
0.0
 11
3551.4806210982
 21
9664.5134243444
 31
0.0
  0
LINE
  5
15B
330
1F
100
AcDbEntity
  8
0
  6
Continuous
 62
     7
100
AcDbLine
 10
3551.4806210982
 20
9664.5134243444
 30
0.0
 11
3440.1288955382
 21
9582.1436755494
 31
0.0
  0
LINE
  5
15C
330
1F
100
AcDbEntity
  8
0
  6
Continuous
 62
     7
100
AcDbLine
 10
3440.1288955382
 20
9582.1436755494
 30
0.0
 11
3335.9124725082
 21
9496.7189773194
 31
0.0
  0
LINE
  5
15D
330
1F
100
AcDbEntity
  8
0
  6
Continuous
 62
     7
100
AcDbLine
 10
3335.9124725082
 20
9496.7189773194
 30
0.0
 11
3239.0824184982
 21
9408.4451252394
 31
0.0
  0
LINE
  5
15E
330
1F
100
AcDbEntity
  8
0
  6
Continuous
 62
     7
100
AcDbLine
 10
3239.0824184982
 20
9408.4451252394
 30
0.0
 11
3149.8720055882
 21
9317.5347787494
 31
0.0
  0
LINE
  5
15F
330
1F
100
AcDbEntity
  8
0
  6
Continuous
 62
     7
100
AcDbLine
 10
3149.8720055882
 20
9317.5347787494
 30
0.0
 11
3068.4961494782
 21
9224.2069488344
 31
0.0
  0
LINE
  5
160
330
1F
100
AcDbEntity
  8
0
  6
Continuous
 62
     7
100
AcDbLine
 10
3068.4961494782
 20
9224.2069488344
 30
0.0
 11
2995.1508917382
 21
9128.6864704194
 31
0.0
  0
LINE
  5
161
330
1F
100
AcDbEntity
  8
0
  6
Continuous
 62
     7
100
AcDbLine
 10
2995.1508917382
 20
9128.6864704194
 30
0.0
 11
2930.0129275082
 21
9031.2034606944
 31
0.0
  0
LINE
  5
162
330
1F
100
AcDbEntity
  8
0
  6
Continuous
 62
     7
100
AcDbLine
 10
2930.0129275082
 20
9031.2034606944
 30
0.0
 11
2873.2391798582
 21
8931.9927647744
 31
0.0
  0
LINE
  5
163
330
1F
100
AcDbEntity
  8
0
  6
Continuous
 62
     7
100
AcDbLine
 10
2873.2391798582
 20
8931.9927647744
 30
0.0
 11
2824.9664217182
 21
8831.2933899144
 31
0.0
  0
LINE
  5
164
330
1F
100
AcDbEntity
  8
0
  6
Continuous
 62
     7
100
AcDbLine
 10
2824.9664217182
 20
8831.2933899144
 30
0.0
 11
2785.3109463832
 21
8729.3479297244
 31
0.0
  0
LINE
  5
165
330
1F
100
AcDbEntity
  8
0
  6
Continuous
 62
     7
100
AcDbLine
 10
2785.3109463832
 20
8729.3479297244
 30
0.0
 11
2754.3682873782
 21
8626.4019797544
 31
0.0
  0
LINE
  5
166
330
1F
100
AcDbEntity
  8
0
  6
Continuous
 62
     7
100
AcDbLine
 10
2754.3682873782
 20
8626.4019797544
 30
0.0
 11
2732.2129882682
 21
8522.7035458094
 31
0.0
  0
LINE
  5
167
330
1F
100
AcDbEntity
  8
0
  6
Continuous
 62
     7
100
AcDbLine
 10
2732.2129882682
 20
8522.7035458094
 30
0.0
 11
2718.8984231182
 21
8418.5024464994
 31
0.0
  0
LINE
  5
168
330
1F
100
AcDbEntity
  8
0
  6
Continuous
 62
     7
100
AcDbLine
 10
2718.8984231182
 20
8418.5024464994
 30
0.0
 11
2714.4566678732
 21
8314.0497114044
 31
0.0
  0
LINE
  5
169
330
1F
100
AcDbEntity
  8
0
  6
Continuous
 62
     7
100
AcDbLine
 10
2714.4566678732
 20
8314.0497114044
 30
0.0
 11
2718.8984231182
 21
8209.5969763044
 31
0.0
  0
LINE
  5
16A
330
1F
100
AcDbEntity
  8
0
  6
Continuous
 62
     7
100
AcDbLine
 10
2718.8984231182
 20
8209.5969763044
 30
0.0
 11
2732.2129882682
 21
8105.3958769994
 31
0.0
  0
LINE
  5
16B
330
1F
100
AcDbEntity
  8
0
  6
Continuous
 62
     7
100
AcDbLine
 10
2732.2129882682
 20
8105.3958769994
 30
0.0
 11
2754.3682873782
 21
8001.6974430544
 31
0.0
  0
LINE
  5
16C
330
1F
100
AcDbEntity
  8
0
  6
Continuous
 62
     7
100
AcDbLine
 10
2754.3682873782
 20
8001.6974430544
 30
0.0
 11
2785.3109463832
 21
7898.7514930794
 31
0.0
  0
LINE
  5
16D
330
1F
100
AcDbEntity
  8
0
  6
Continuous
 62
     7
100
AcDbLine
 10
2785.3109463832
 20
7898.7514930794
 30
0.0
 11
2824.9664217182
 21
7796.8060328944
 31
0.0
  0
LINE
  5
16E
330
1F
100
AcDbEntity
  8
0
  6
Continuous
 62
     7
100
AcDbLine
 10
2824.9664217182
 20
7796.8060328944
 30
0.0
 11
2873.2391798582
 21
7696.1066580294
 31
0.0
  0
LINE
  5
16F
330
1F
100
AcDbEntity
  8
0
  6
Continuous
 62
     7
100
AcDbLine
 10
2873.2391798582
 20
7696.1066580294
 30
0.0
 11
2930.0129275082
 21
7596.8959621094
 31
0.0
  0
LINE
  5
170
330
1F
100
AcDbEntity
  8
0
  6
Continuous
 62
     7
100
AcDbLine
 10
2930.0129275082
 20
7596.8959621094
 30
0.0
 11
2995.1508917382
 21
7499.4129523844
 31
0.0
  0
LINE
  5
171
330
1F
100
AcDbEntity
  8
0
  6
Continuous
 62
     7
100
AcDbLine
 10
2995.1508917382
 20
7499.4129523844
 30
0.0
 11
3068.4961494782
 21
7403.8924739694
 31
0.0
  0
LINE
  5
172
330
1F
100
AcDbEntity
  8
0
  6
Continuous
 62
     7
100
AcDbLine
 10
3068.4961494782
 20
7403.8924739694
 30
0.0
 11
3149.8720055882
 21
7310.5646440594
 31
0.0
  0
LINE
  5
173
330
1F
100
AcDbEntity
  8
0
  6
Continuous
 62
     7
100
AcDbLine
 10
3149.8720055882
 20
7310.5646440594
 30
0.0
 11
3239.0824184982
 21
7219.6542975694
 31
0.0
  0
LINE
  5
174
330
1F
100
AcDbEntity
  8
0
  6
Continuous
 62
     7
100
AcDbLine
 10
3239.0824184982
 20
7219.6542975694
 30
0.0
 11
3335.9124725082
 21
7131.3804454894
 31
0.0
  0
LINE
  5
175
330
1F
100
AcDbEntity
  8
0
  6
Continuous
 62
     7
100
AcDbLine
 10
3335.9124725082
 20
7131.3804454894
 30
0.0
 11
3440.1288955382
 21
7045.9557472594
 31
0.0
  0
LINE
  5
176
330
1F
100
AcDbEntity
  8
0
  6
Continuous
 62
     7
100
AcDbLine
 10
3440.1288955382
 20
7045.9557472594
 30
0.0
 11
3551.4806210982
 21
6963.5859984644
 31
0.0
  0
LINE
  5
177
330
1F
100
AcDbEntity
  8
0
  6
Continuous
 62
     7
100
AcDbLine
 10
3551.4806210982
 20
6963.5859984644
 30
0.0
 11
3669.6993931282
 21
6884.4696350344
 31
0.0
  0
LINE
  5
178
330
1F
100
AcDbEntity
  8
0
  6
Continuous
 62
     7
100
AcDbLine
 10
3669.6993931282
 20
6884.4696350344
 30
0.0
 11
3794.5004122482
 21
6808.7972552294
 31
0.0
  0
LINE
  5
179
330
1F
100
AcDbEntity
  8
0
  6
Continuous
 62
     7
100
AcDbLine
 10
4305.0771448132
 20
6355.9804874644
 30
0.0
 11
4309.1590440232
 21
6354.3934073544
 31
0.0
  0
LINE
  5
17A
330
1F
100
AcDbEntity
  8
0
  6
Continuous
 62
     7
100
AcDbLine
 10
4309.1590440232
 20
6354.3934073544
 30
0.0
 11
4461.9398647082
 21
6298.1215012794
 31
0.0
  0
LINE
  5
17B
330
1F
100
AcDbEntity
  8
0
  6
Continuous
 62
     7
100
AcDbLine
 10
4461.9398647082
 20
6298.1215012794
 30
0.0
 11
4619.2516845232
 21
6246.1764751694
 31
0.0
  0
LINE
  5
17C
330
1F
100
AcDbEntity
  8
0
  6
Continuous
 62
     7
100
AcDbLine
 10
4619.2516845232
 20
6246.1764751694
 30
0.0
 11
4780.7270944282
 21
6198.6796490394
 31
0.0
  0
LINE
  5
17D
330
1F
100
AcDbEntity
  8
0
  6
Continuous
 62
     7
100
AcDbLine
 10
4780.7270944282
 20
6198.6796490394
 30
0.0
 11
4945.9889611232
 21
6155.7419539244
 31
0.0
  0
LINE
  5
17E
330
1F
100
AcDbEntity
  8
0
  6
Continuous
 62
     7
100
AcDbLine
 10
4945.9889611232
 20
6155.7419539244
 30
0.0
 11
5114.6513078632
 21
6117.4636728044
 31
0.0
  0
LINE
  5
17F
330
1F
100
AcDbEntity
  8
0
  6
Continuous
 62
     7
100
AcDbLine
 10
5114.6513078632
 20
6117.4636728044
 30
0.0
 11
5286.3202159132
 21
6083.9342063744
 31
0.0
  0
LINE
  5
180
330
1F
100
AcDbEntity
  8
0
  6
Continuous
 62
     7
100
AcDbLine
 10
5286.3202159132
 20
6083.9342063744
 30
0.0
 11
5460.5947445982
 21
6055.2318642594
 31
0.0
  0
LINE
  5
181
330
1F
100
AcDbEntity
  8
0
  6
Continuous
 62
     7
100
AcDbLine
 10
5460.5947445982
 20
6055.2318642594
 30
0.0
 11
5637.0678676682
 21
6031.4236821144
 31
0.0
  0
LINE
  5
182
330
1F
100
AcDbEntity
  8
0
  6
Continuous
 62
     7
100
AcDbLine
 10
5637.0678676682
 20
6031.4236821144
 30
0.0
 11
5815.3274239732
 21
6012.5652650444
 31
0.0
  0
LINE
  5
183
330
1F
100
AcDbEntity
  8
0
  6
Continuous
 62
     7
100
AcDbLine
 10
5815.3274239732
 20
6012.5652650444
 30
0.0
 11
5994.9570800582
 21
5998.7006577544
 31
0.0
  0
LINE
  5
184
330
1F
100
AcDbEntity
  8
0
  6
Continuous
 62
     7
100
AcDbLine
 10
5994.9570800582
 20
5998.7006577544
 30
0.0
 11
6175.5373025382
 21
5989.8622416844
 31
0.0
  0
LINE
  5
185
330
1F
100
AcDbEntity
  8
0
  6
Continuous
 62
     7
100
AcDbLine
 10
6175.5373025382
 20
5989.8622416844
 30
0.0
 11
6356.6463379382
 21
5986.0706593644
 31
0.0
  0
LINE
  5
186
330
1F
100
AcDbEntity
  8
0
  6
Continuous
 62
     7
100
AcDbLine
 10
6356.6463379382
 20
5986.0706593644
 30
0.0
 11
6537.8611977132
 21
5987.3347662044
 31
0.0
  0
LINE
  5
187
330
1F
100
AcDbEntity
  8
0
  6
Continuous
 62
     7
100
AcDbLine
 10
6537.8611977132
 20
5987.3347662044
 30
0.0
 11
6718.7586461632
 21
5993.6516098294
 31
0.0
  0
LINE
  5
188
330
1F
100
AcDbEntity
  8
0
  6
Continuous
 62
     7
100
AcDbLine
 10
6718.7586461632
 20
5993.6516098294
 30
0.0
 11
6898.9161889132
 21
6005.0064369594
 31
0.0
  0
LINE
  5
189
330
1F
100
AcDbEntity
  8
0
  6
Continuous
 62
     7
100
AcDbLine
 10
6898.9161889132
 20
6005.0064369594
 30
0.0
 11
7077.9130596732
 21
6021.3727278644
 31
0.0
  0
LINE
  5
18A
330
1F
100
AcDbEntity
  8
0
  6
Continuous
 62
     7
100
AcDbLine
 10
7077.9130596732
 20
6021.3727278644
 30
0.0
 11
7255.3312029632
 21
6042.7122583144
 31
0.0
  0
LINE
  5
18B
330
1F
100
AcDbEntity
  8
0
  6
Continuous
 62
     7
100
AcDbLine
 10
7255.3312029632
 20
6042.7122583144
 30
0.0
 11
7430.7562504832
 21
6068.9751888544
 31
0.0
  0
LINE
  5
18C
330
1F
100
AcDbEntity
  8
0
  6
Continuous
 62
     7
100
AcDbLine
 10
7430.7562504832
 20
6068.9751888544
 30
0.0
 11
7603.7784889082
 21
6100.1001811844
 31
0.0
  0
LINE
  5
18D
330
1F
100
AcDbEntity
  8
0
  6
Continuous
 62
     7
100
AcDbLine
 10
7603.7784889082
 20
6100.1001811844
 30
0.0
 11
7773.9938167832
 21
6136.0145414444
 31
0.0
  0
LINE
  5
18E
330
1F
100
AcDbEntity
  8
0
  6
Continuous
 62
     7
100
AcDbLine
 10
7773.9938167832
 20
6136.0145414444
 30
0.0
 11
7941.0046883182
 21
6176.6343899844
 31
0.0
  0
LINE
  5
18F
330
1F
100
AcDbEntity
  8
0
  6
Continuous
 62
     7
100
AcDbLine
 10
7941.0046883182
 20
6176.6343899844
 30
0.0
 11
8104.4210418982
 21
6221.8648572694
 31
0.0
  0
LINE
  5
190
330
1F
100
AcDbEntity
  8
0
  6
Continuous
 62
     7
100
AcDbLine
 10
8104.4210418982
 20
6221.8648572694
 30
0.0
 11
8263.8612110432
 21
6271.6003054394
 31
0.0
  0
LINE
  5
191
330
1F
100
AcDbEntity
  8
0
  6
Continuous
 62
     7
100
AcDbLine
 10
8263.8612110432
 20
6271.6003054394
 30
0.0
 11
8418.9528158532
 21
6325.7245750544
 31
0.0
  0
LINE
  5
192
330
1F
100
AcDbEntity
  8
0
  6
Continuous
 62
     7
100
AcDbLine
 10
8418.9528158532
 20
6325.7245750544
 30
0.0
 11
8433.8948663032
 21
6331.2567689944
 31
0.0
  0
LINE
  5
193
330
1F
100
AcDbEntity
  8
0
  6
Continuous
 62
     7
100
AcDbLine
 10
3812.1780817782
 20
6819.0023566294
 30
0.0
 11
3688.2231712582
 21
6894.1617033494
 31
0.0
  0
LINE
  5
194
330
1F
100
AcDbEntity
  8
0
  6
Continuous
 62
     7
100
AcDbLine
 10
3688.2231712582
 20
6894.1617033494
 30
0.0
 11
3570.8058824332
 21
6972.7416846494
 31
0.0
  0
LINE
  5
195
330
1F
100
AcDbEntity
  8
0
  6
Continuous
 62
     7
100
AcDbLine
 10
3570.8058824332
 20
6972.7416846494
 30
0.0
 11
3460.2090838232
 21
7054.5529944744
 31
0.0
  0
LINE
  5
196
330
1F
100
AcDbEntity
  8
0
  6
Continuous
 62
     7
100
AcDbLine
 10
3460.2090838232
 20
7054.5529944744
 30
0.0
 11
3356.6992128132
 21
7139.3985422044
 31
0.0
  0
LINE
  5
197
330
1F
100
AcDbEntity
  8
0
  6
Continuous
 62
     7
100
AcDbLine
 10
3356.6992128132
 20
7139.3985422044
 30
0.0
 11
3260.5256337482
 21
7227.0739274944
 31
0.0
  0
LINE
  5
198
330
1F
100
AcDbEntity
  8
0
  6
Continuous
 62
     7
100
AcDbLine
 10
3260.5256337482
 20
7227.0739274944
 30
0.0
 11
3171.9200371982
 21
7317.3679326494
 31
0.0
  0
LINE
  5
199
330
1F
100
AcDbEntity
  8
0
  6
Continuous
 62
     7
100
AcDbLine
 10
3171.9200371982
 20
7317.3679326494
 30
0.0
 11
3091.0958818082
 21
7410.0630315094
 31
0.0
  0
LINE
  5
19A
330
1F
100
AcDbEntity
  8
0
  6
Continuous
 62
     7
100
AcDbLine
 10
3091.0958818082
 20
7410.0630315094
 30
0.0
 11
3018.2478800482
 21
7504.9359134644
 31
0.0
  0
LINE
  5
19B
330
1F
100
AcDbEntity
  8
0
  6
Continuous
 62
     7
100
AcDbLine
 10
3018.2478800482
 20
7504.9359134644
 30
0.0
 11
2953.5515291382
 21
7601.7580214294
 31
0.0
  0
LINE
  5
19C
330
1F
100
AcDbEntity
  8
0
  6
Continuous
 62
     7
100
AcDbLine
 10
2953.5515291382
 20
7601.7580214294
 30
0.0
 11
2897.1626882532
 21
7700.2961024594
 31
0.0
  0
LINE
  5
19D
330
1F
100
AcDbEntity
  8
0
  6
Continuous
 62
     7
100
AcDbLine
 10
2897.1626882532
 20
7700.2961024594
 30
0.0
 11
2849.2172030482
 21
7800.3127696944
 31
0.0
  0
LINE
  5
19E
330
1F
100
AcDbEntity
  8
0
  6
Continuous
 62
     7
100
AcDbLine
 10
2849.2172030482
 20
7800.3127696944
 30
0.0
 11
2809.8305783932
 21
7901.5670742244
 31
0.0
  0
LINE
  5
19F
330
1F
100
AcDbEntity
  8
0
  6
Continuous
 62
     7
100
AcDbLine
 10
2809.8305783932
 20
7901.5670742244
 30
0.0
 11
2779.0977001282
 21
8003.8150855494
 31
0.0
  0
LINE
  5
1A0
330
1F
100
AcDbEntity
  8
0
  6
Continuous
 62
     7
100
AcDbLine
 10
2779.0977001282
 20
8003.8150855494
 30
0.0
 11
2757.0926064332
 21
8106.8104792644
 31
0.0
  0
LINE
  5
1A1
330
1F
100
AcDbEntity
  8
0
  6
Continuous
 62
     7
100
AcDbLine
 10
2757.0926064332
 20
8106.8104792644
 30
0.0
 11
2743.8683095232
 21
8210.3051304444
 31
0.0
  0
LINE
  5
1A2
330
1F
100
AcDbEntity
  8
0
  6
Continuous
 62
     7
100
AcDbLine
 10
2743.8683095232
 20
8210.3051304444
 30
0.0
 11
2739.4566678732
 21
8314.0497114044
 31
0.0
  0
LINE
  5
1A3
330
1F
100
AcDbEntity
  8
0
  6
Continuous
 62
     7
100
AcDbLine
 10
2739.4566678732
 20
8314.0497114044
 30
0.0
 11
2743.8683095232
 21
8417.7942923644
 31
0.0
  0
LINE
  5
1A4
330
1F
100
AcDbEntity
  8
0
  6
Continuous
 62
     7
100
AcDbLine
 10
2743.8683095232
 20
8417.7942923644
 30
0.0
 11
2757.0926064332
 21
8521.2889435394
 31
0.0
  0
LINE
  5
1A5
330
1F
100
AcDbEntity
  8
0
  6
Continuous
 62
     7
100
AcDbLine
 10
2757.0926064332
 20
8521.2889435394
 30
0.0
 11
2779.0977001282
 21
8624.2843372544
 31
0.0
  0
LINE
  5
1A6
330
1F
100
AcDbEntity
  8
0
  6
Continuous
 62
     7
100
AcDbLine
 10
2779.0977001282
 20
8624.2843372544
 30
0.0
 11
2809.8305783932
 21
8726.5323485844
 31
0.0
  0
LINE
  5
1A7
330
1F
100
AcDbEntity
  8
0
  6
Continuous
 62
     7
100
AcDbLine
 10
2809.8305783932
 20
8726.5323485844
 30
0.0
 11
2849.2172030482
 21
8827.7866531094
 31
0.0
  0
LINE
  5
1A8
330
1F
100
AcDbEntity
  8
0
  6
Continuous
 62
     7
100
AcDbLine
 10
2849.2172030482
 20
8827.7866531094
 30
0.0
 11
2897.1626882532
 21
8927.8033203444
 31
0.0
  0
LINE
  5
1A9
330
1F
100
AcDbEntity
  8
0
  6
Continuous
 62
     7
100
AcDbLine
 10
2897.1626882532
 20
8927.8033203444
 30
0.0
 11
2953.5515291382
 21
9026.3414013794
 31
0.0
  0
LINE
  5
1AA
330
1F
100
AcDbEntity
  8
0
  6
Continuous
 62
     7
100
AcDbLine
 10
2953.5515291382
 20
9026.3414013794
 30
0.0
 11
3018.2478800482
 21
9123.1635093394
 31
0.0
  0
LINE
  5
1AB
330
1F
100
AcDbEntity
  8
0
  6
Continuous
 62
     7
100
AcDbLine
 10
3018.2478800482
 20
9123.1635093394
 30
0.0
 11
3091.0958818082
 21
9218.0363912944
 31
0.0
  0
LINE
  5
1AC
330
1F
100
AcDbEntity
  8
0
  6
Continuous
 62
     7
100
AcDbLine
 10
3091.0958818082
 20
9218.0363912944
 30
0.0
 11
3171.9200371982
 21
9310.7314901544
 31
0.0
  0
LINE
  5
1AD
330
1F
100
AcDbEntity
  8
0
  6
Continuous
 62
     7
100
AcDbLine
 10
3171.9200371982
 20
9310.7314901544
 30
0.0
 11
3260.5256337482
 21
9401.0254953144
 31
0.0
  0
LINE
  5
1AE
330
1F
100
AcDbEntity
  8
0
  6
Continuous
 62
     7
100
AcDbLine
 10
3260.5256337482
 20
9401.0254953144
 30
0.0
 11
3356.6992128132
 21
9488.7008805994
 31
0.0
  0
LINE
  5
1AF
330
1F
100
AcDbEntity
  8
0
  6
Continuous
 62
     7
100
AcDbLine
 10
3356.6992128132
 20
9488.7008805994
 30
0.0
 11
3460.2090838232
 21
9573.5464283344
 31
0.0
  0
LINE
  5
1B0
330
1F
100
AcDbEntity
  8
0
  6
Continuous
 62
     7
100
AcDbLine
 10
3460.2090838232
 20
9573.5464283344
 30
0.0
 11
3570.8058824332
 21
9655.3577381544
 31
0.0
  0
LINE
  5
1B1
330
1F
100
AcDbEntity
  8
0
  6
Continuous
 62
     7
100
AcDbLine
 10
3570.8058824332
 20
9655.3577381544
 30
0.0
 11
3688.2231712582
 21
9733.9377194544
 31
0.0
  0
LINE
  5
1B2
330
1F
100
AcDbEntity
  8
0
  6
Continuous
 62
     7
100
AcDbLine
 10
3688.2231712582
 20
9733.9377194544
 30
0.0
 11
3812.1780817782
 21
9809.0970661794
 31
0.0
  0
LINE
  5
1B3
330
1F
100
AcDbEntity
  8
0
  6
Continuous
 62
     7
100
AcDbLine
 10
3812.1780817782
 20
9809.0970661794
 30
0.0
 11
3942.3719957432
 21
9880.6547128744
 31
0.0
  0
LINE
  5
1B4
330
1F
100
AcDbEntity
  8
0
  6
Continuous
 62
     7
100
AcDbLine
 10
3942.3719957432
 20
9880.6547128744
 30
0.0
 11
4078.4912646232
 21
9948.4382708994
 31
0.0
  0
LINE
  5
1B5
330
1F
100
AcDbEntity
  8
0
  6
Continuous
 62
     7
100
AcDbLine
 10
4078.4912646232
 20
9948.4382708994
 30
0.0
 11
4220.2079651682
 21
10012.2844437294
 31
0.0
  0
LINE
  5
1B6
330
1F
100
AcDbEntity
  8
0
  6
Continuous
 62
     7
100
AcDbLine
 10
4220.2079651682
 20
10012.2844437294
 30
0.0
 11
4367.1806894382
 21
10072.0394203444
 31
0.0
  0
LINE
  5
1B7
330
1F
100
AcDbEntity
  8
0
  6
Continuous
 62
     7
100
AcDbLine
 10
4367.1806894382
 20
10072.0394203444
 30
0.0
 11
4519.0553672632
 21
10127.5592457694
 31
0.0
  0
LINE
  5
1B8
330
1F
100
AcDbEntity
  8
0
  6
Continuous
 62
     7
100
AcDbLine
 10
4519.0553672632
 20
10127.5592457694
 30
0.0
 11
4675.4661192482
 21
10178.7101678794
 31
0.0
  0
LINE
  5
1B9
330
1F
100
AcDbEntity
  8
0
  6
Continuous
 62
     7
100
AcDbLine
 10
4675.4661192482
 20
10178.7101678794
 30
0.0
 11
4836.0361381832
 21
10225.3689596244
 31
0.0
  0
LINE
  5
1BA
330
1F
100
AcDbEntity
  8
0
  6
Continuous
 62
     7
100
AcDbLine
 10
4836.0361381832
 20
10225.3689596244
 30
0.0
 11
5000.3785968332
 21
10267.4232158894
 31
0.0
  0
LINE
  5
1BB
330
1F
100
AcDbEntity
  8
0
  6
Continuous
 62
     7
100
AcDbLine
 10
5000.3785968332
 20
10267.4232158894
 30
0.0
 11
5168.0975798232
 21
10304.7716242844
 31
0.0
  0
LINE
  5
1BC
330
1F
100
AcDbEntity
  8
0
  6
Continuous
 62
     7
100
AcDbLine
 10
5168.0975798232
 20
10304.7716242844
 30
0.0
 11
5338.7890374282
 21
10337.3242092294
 31
0.0
  0
LINE
  5
1BD
330
1F
100
AcDbEntity
  8
0
  6
Continuous
 62
     7
100
AcDbLine
 10
5338.7890374282
 20
10337.3242092294
 30
0.0
 11
5512.0417589782
 21
10365.0025486894
 31
0.0
  0
LINE
  5
1BE
330
1F
100
AcDbEntity
  8
0
  6
Continuous
 62
     7
100
AcDbLine
 10
5512.0417589782
 20
10365.0025486894
 30
0.0
 11
5687.4383634882
 21
10387.7399631194
 31
0.0
  0
LINE
  5
1BF
330
1F
100
AcDbEntity
  8
0
  6
Continuous
 62
     7
100
AcDbLine
 10
5687.4383634882
 20
10387.7399631194
 30
0.0
 11
5864.5563051782
 21
10405.4816760994
 31
0.0
  0
LINE
  5
1C0
330
1F
100
AcDbEntity
  8
0
  6
Continuous
 62
     7
100
AcDbLine
 10
5864.5563051782
 20
10405.4816760994
 30
0.0
 11
6042.9688914132
 21
10418.1849462944
 31
0.0
  0
LINE
  5
1C1
330
1F
100
AcDbEntity
  8
0
  6
Continuous
 62
     7
100
AcDbLine
 10
6042.9688914132
 20
10418.1849462944
 30
0.0
 11
6222.2463106482
 21
10425.8191704044
 31
0.0
  0
LINE
  5
1C2
330
1F
100
AcDbEntity
  8
0
  6
Continuous
 62
     7
100
AcDbLine
 10
6222.2463106482
 20
10425.8191704044
 30
0.0
 11
6401.9566678732
 21
10428.3659569144
 31
0.0
  0
LINE
  5
1C3
330
1F
100
AcDbEntity
  8
0
  6
Continuous
 62
     7
100
AcDbLine
 10
6401.9566678732
 20
10428.3659569144
 30
0.0
 11
6581.6670250982
 21
10425.8191704044
 31
0.0
  0
LINE
  5
1C4
330
1F
100
AcDbEntity
  8
0
  6
Continuous
 62
     7
100
AcDbLine
 10
6581.6670250982
 20
10425.8191704044
 30
0.0
 11
6760.9444443282
 21
10418.1849462944
 31
0.0
  0
LINE
  5
1C5
330
1F
100
AcDbEntity
  8
0
  6
Continuous
 62
     7
100
AcDbLine
 10
6760.9444443282
 20
10418.1849462944
 30
0.0
 11
6939.3570305632
 21
10405.4816760994
 31
0.0
  0
LINE
  5
1C6
330
1F
100
AcDbEntity
  8
0
  6
Continuous
 62
     7
100
AcDbLine
 10
6939.3570305632
 20
10405.4816760994
 30
0.0
 11
7116.4749722582
 21
10387.7399631194
 31
0.0
  0
LINE
  5
1C7
330
1F
100
AcDbEntity
  8
0
  6
Continuous
 62
     7
100
AcDbLine
 10
7116.4749722582
 20
10387.7399631194
 30
0.0
 11
7291.8715767682
 21
10365.0025486894
 31
0.0
  0
LINE
  5
1C8
330
1F
100
AcDbEntity
  8
0
  6
Continuous
 62
     7
100
AcDbLine
 10
7291.8715767682
 20
10365.0025486894
 30
0.0
 11
7465.1242983182
 21
10337.3242092294
 31
0.0
  0
LINE
  5
1C9
330
1F
100
AcDbEntity
  8
0
  6
Continuous
 62
     7
100
AcDbLine
 10
7465.1242983182
 20
10337.3242092294
 30
0.0
 11
7635.8157559232
 21
10304.7716242844
 31
0.0
  0
LINE
  5
1CA
330
1F
100
AcDbEntity
  8
0
  6
Continuous
 62
     7
100
AcDbLine
 10
7635.8157559232
 20
10304.7716242844
 30
0.0
 11
7803.5347389082
 21
10267.4232158894
 31
0.0
  0
LINE
  5
1CB
330
1F
100
AcDbEntity
  8
0
  6
Continuous
 62
     7
100
AcDbLine
 10
7803.5347389082
 20
10267.4232158894
 30
0.0
 11
7967.8771975632
 21
10225.3689596244
 31
0.0
  0
LINE
  5
1CC
330
1F
100
AcDbEntity
  8
0
  6
Continuous
 62
     7
100
AcDbLine
 10
7967.8771975632
 20
10225.3689596244
 30
0.0
 11
8128.4472164982
 21
10178.7101678794
 31
0.0
  0
LINE
  5
1CD
330
1F
100
AcDbEntity
  8
0
  6
Continuous
 62
     7
100
AcDbLine
 10
8128.4472164982
 20
10178.7101678794
 30
0.0
 11
8284.8579684782
 21
10127.5592457694
 31
0.0
  0
LINE
  5
1CE
330
1F
100
AcDbEntity
  8
0
  6
Continuous
 62
     7
100
AcDbLine
 10
8284.8579684782
 20
10127.5592457694
 30
0.0
 11
8436.7326463082
 21
10072.0394203444
 31
0.0
  0
LINE
  5
1CF
330
1F
100
AcDbEntity
  8
0
  6
Continuous
 62
     7
100
AcDbLine
 10
8436.7326463082
 20
10072.0394203444
 30
0.0
 11
8583.7053705782
 21
10012.2844437294
 31
0.0
  0
LINE
  5
1D0
330
1F
100
AcDbEntity
  8
0
  6
Continuous
 62
     7
100
AcDbLine
 10
8583.7053705782
 20
10012.2844437294
 30
0.0
 11
8725.4220711232
 21
9948.4382708994
 31
0.0
  0
LINE
  5
1D1
330
1F
100
AcDbEntity
  8
0
  6
Continuous
 62
     7
100
AcDbLine
 10
8725.4220711232
 20
9948.4382708994
 30
0.0
 11
8861.5413399982
 21
9880.6547128744
 31
0.0
  0
LINE
  5
1D2
330
1F
100
AcDbEntity
  8
0
  6
Continuous
 62
     7
100
AcDbLine
 10
8861.5413399982
 20
9880.6547128744
 30
0.0
 11
8991.7352539682
 21
9809.0970661794
 31
0.0
  0
LINE
  5
1D3
330
1F
100
AcDbEntity
  8
0
  6
Continuous
 62
     7
100
AcDbLine
 10
8991.7352539682
 20
9809.0970661794
 30
0.0
 11
9115.6901644832
 21
9733.9377194544
 31
0.0
  0
LINE
  5
1D4
330
1F
100
AcDbEntity
  8
0
  6
Continuous
 62
     7
100
AcDbLine
 10
9115.6901644832
 20
9733.9377194544
 30
0.0
 11
9233.1074533132
 21
9655.3577381544
 31
0.0
  0
LINE
  5
1D5
330
1F
100
AcDbEntity
  8
0
  6
Continuous
 62
     7
100
AcDbLine
 10
9233.1074533132
 20
9655.3577381544
 30
0.0
 11
9343.7042519182
 21
9573.5464283344
 31
0.0
  0
LINE
  5
1D6
330
1F
100
AcDbEntity
  8
0
  6
Continuous
 62
     7
100
AcDbLine
 10
9343.7042519182
 20
9573.5464283344
 30
0.0
 11
9447.2141229282
 21
9488.7008805994
 31
0.0
  0
LINE
  5
1D7
330
1F
100
AcDbEntity
  8
0
  6
Continuous
 62
     7
100
AcDbLine
 10
9447.2141229282
 20
9488.7008805994
 30
0.0
 11
9543.3877019982
 21
9401.0254953144
 31
0.0
  0
LINE
  5
1D8
330
1F
100
AcDbEntity
  8
0
  6
Continuous
 62
     7
100
AcDbLine
 10
9543.3877019982
 20
9401.0254953144
 30
0.0
 11
9631.9932985482
 21
9310.7314901544
 31
0.0
  0
LINE
  5
1D9
330
1F
100
AcDbEntity
  8
0
  6
Continuous
 62
     7
100
AcDbLine
 10
9631.9932985482
 20
9310.7314901544
 30
0.0
 11
9712.8174539382
 21
9218.0363912944
 31
0.0
  0
LINE
  5
1DA
330
1F
100
AcDbEntity
  8
0
  6
Continuous
 62
     7
100
AcDbLine
 10
9712.8174539382
 20
9218.0363912944
 30
0.0
 11
9785.6654556932
 21
9123.1635093394
 31
0.0
  0
LINE
  5
1DB
330
1F
100
AcDbEntity
  8
0
  6
Continuous
 62
     7
100
AcDbLine
 10
9785.6654556932
 20
9123.1635093394
 30
0.0
 11
9850.3618066032
 21
9026.3414013794
 31
0.0
  0
LINE
  5
1DC
330
1F
100
AcDbEntity
  8
0
  6
Continuous
 62
     7
100
AcDbLine
 10
9850.3618066032
 20
9026.3414013794
 30
0.0
 11
9906.7506474932
 21
8927.8033203444
 31
0.0
  0
LINE
  5
1DD
330
1F
100
AcDbEntity
  8
0
  6
Continuous
 62
     7
100
AcDbLine
 10
9906.7506474932
 20
8927.8033203444
 30
0.0
 11
9954.6961326982
 21
8827.7866531094
 31
0.0
  0
LINE
  5
1DE
330
1F
100
AcDbEntity
  8
0
  6
Continuous
 62
     7
100
AcDbLine
 10
9954.6961326982
 20
8827.7866531094
 30
0.0
 11
9994.0827573482
 21
8726.5323485844
 31
0.0
  0
LINE
  5
1DF
330
1F
100
AcDbEntity
  8
0
  6
Continuous
 62
     7
100
AcDbLine
 10
9994.0827573482
 20
8726.5323485844
 30
0.0
 11
10024.8156356182
 21
8624.2843372544
 31
0.0
  0
LINE
  5
1E0
330
1F
100
AcDbEntity
  8
0
  6
Continuous
 62
     7
100
AcDbLine
 10
10024.8156356182
 20
8624.2843372544
 30
0.0
 11
10046.8207293082
 21
8521.2889435394
 31
0.0
  0
LINE
  5
1E1
330
1F
100
AcDbEntity
  8
0
  6
Continuous
 62
     7
100
AcDbLine
 10
10046.8207293082
 20
8521.2889435394
 30
0.0
 11
10060.0450262232
 21
8417.7942923644
 31
0.0
  0
LINE
  5
1E2
330
1F
100
AcDbEntity
  8
0
  6
Continuous
 62
     7
100
AcDbLine
 10
10060.0450262232
 20
8417.7942923644
 30
0.0
 11
10064.4566678732
 21
8314.0497114044
 31
0.0
  0
LINE
  5
1E3
330
1F
100
AcDbEntity
  8
0
  6
Continuous
 62
     7
100
AcDbLine
 10
10064.4566678732
 20
8314.0497114044
 30
0.0
 11
10060.0450262232
 21
8210.3051304444
 31
0.0
  0
LINE
  5
1E4
330
1F
100
AcDbEntity
  8
0
  6
Continuous
 62
     7
100
AcDbLine
 10
10060.0450262232
 20
8210.3051304444
 30
0.0
 11
10046.8207293082
 21
8106.8104792644
 31
0.0
  0
LINE
  5
1E5
330
1F
100
AcDbEntity
  8
0
  6
Continuous
 62
     7
100
AcDbLine
 10
10046.8207293082
 20
8106.8104792644
 30
0.0
 11
10024.8156356182
 21
8003.8150855494
 31
0.0
  0
LINE
  5
1E6
330
1F
100
AcDbEntity
  8
0
  6
Continuous
 62
     7
100
AcDbLine
 10
10024.8156356182
 20
8003.8150855494
 30
0.0
 11
9994.0827573482
 21
7901.5670742244
 31
0.0
  0
LINE
  5
1E7
330
1F
100
AcDbEntity
  8
0
  6
Continuous
 62
     7
100
AcDbLine
 10
9994.0827573482
 20
7901.5670742244
 30
0.0
 11
9954.6961326982
 21
7800.3127696944
 31
0.0
  0
LINE
  5
1E8
330
1F
100
AcDbEntity
  8
0
  6
Continuous
 62
     7
100
AcDbLine
 10
9954.6961326982
 20
7800.3127696944
 30
0.0
 11
9906.7506474932
 21
7700.2961024594
 31
0.0
  0
LINE
  5
1E9
330
1F
100
AcDbEntity
  8
0
  6
Continuous
 62
     7
100
AcDbLine
 10
9906.7506474932
 20
7700.2961024594
 30
0.0
 11
9850.3618066032
 21
7601.7580214294
 31
0.0
  0
LINE
  5
1EA
330
1F
100
AcDbEntity
  8
0
  6
Continuous
 62
     7
100
AcDbLine
 10
9850.3618066032
 20
7601.7580214294
 30
0.0
 11
9785.6654556932
 21
7504.9359134644
 31
0.0
  0
LINE
  5
1EB
330
1F
100
AcDbEntity
  8
0
  6
Continuous
 62
     7
100
AcDbLine
 10
9785.6654556932
 20
7504.9359134644
 30
0.0
 11
9712.8174539382
 21
7410.0630315094
 31
0.0
  0
LINE
  5
1EC
330
1F
100
AcDbEntity
  8
0
  6
Continuous
 62
     7
100
AcDbLine
 10
9712.8174539382
 20
7410.0630315094
 30
0.0
 11
9631.9932985482
 21
7317.3679326494
 31
0.0
  0
LINE
  5
1ED
330
1F
100
AcDbEntity
  8
0
  6
Continuous
 62
     7
100
AcDbLine
 10
9631.9932985482
 20
7317.3679326494
 30
0.0
 11
9543.3877019982
 21
7227.0739274944
 31
0.0
  0
LINE
  5
1EE
330
1F
100
AcDbEntity
  8
0
  6
Continuous
 62
     7
100
AcDbLine
 10
9543.3877019982
 20
7227.0739274944
 30
0.0
 11
9447.2141229282
 21
7139.3985422044
 31
0.0
  0
LINE
  5
1EF
330
1F
100
AcDbEntity
  8
0
  6
Continuous
 62
     7
100
AcDbLine
 10
9447.2141229282
 20
7139.3985422044
 30
0.0
 11
9343.7042519182
 21
7054.5529944744
 31
0.0
  0
LINE
  5
1F0
330
1F
100
AcDbEntity
  8
0
  6
Continuous
 62
     7
100
AcDbLine
 10
9343.7042519182
 20
7054.5529944744
 30
0.0
 11
9233.1074533132
 21
6972.7416846494
 31
0.0
  0
LINE
  5
1F1
330
1F
100
AcDbEntity
  8
0
  6
Continuous
 62
     7
100
AcDbLine
 10
9233.1074533132
 20
6972.7416846494
 30
0.0
 11
9115.6901644832
 21
6894.1617033494
 31
0.0
  0
LINE
  5
1F2
330
1F
100
AcDbEntity
  8
0
  6
Continuous
 62
     7
100
AcDbLine
 10
9115.6901644832
 20
6894.1617033494
 30
0.0
 11
8991.7352539682
 21
6819.0023566294
 31
0.0
  0
LINE
  5
1F3
330
1F
100
AcDbEntity
  8
0
  6
Continuous
 62
     7
100
AcDbLine
 10
8991.7352539682
 20
6819.0023566294
 30
0.0
 11
8861.5413399982
 21
6747.4447099344
 31
0.0
  0
LINE
  5
1F4
330
1F
100
AcDbEntity
  8
0
  6
Continuous
 62
     7
100
AcDbLine
 10
8861.5413399982
 20
6747.4447099344
 30
0.0
 11
8725.4220711232
 21
6679.6611519044
 31
0.0
  0
LINE
  5
1F5
330
1F
100
AcDbEntity
  8
0
  6
Continuous
 62
     7
100
AcDbLine
 10
8725.4220711232
 20
6679.6611519044
 30
0.0
 11
8583.7053705782
 21
6615.8149790744
 31
0.0
  0
LINE
  5
1F6
330
1F
100
AcDbEntity
  8
0
  6
Continuous
 62
     7
100
AcDbLine
 10
8583.7053705782
 20
6615.8149790744
 30
0.0
 11
8436.7326463082
 21
6556.0600024594
 31
0.0
  0
LINE
  5
1F7
330
1F
100
AcDbEntity
  8
0
  6
Continuous
 62
     7
100
AcDbLine
 10
8436.7326463082
 20
6556.0600024594
 30
0.0
 11
8284.8579684782
 21
6500.5401770394
 31
0.0
  0
LINE
  5
1F8
330
1F
100
AcDbEntity
  8
0
  6
Continuous
 62
     7
100
AcDbLine
 10
8284.8579684782
 20
6500.5401770394
 30
0.0
 11
8128.4472164982
 21
6449.3892549294
 31
0.0
  0
LINE
  5
1F9
330
1F
100
AcDbEntity
  8
0
  6
Continuous
 62
     7
100
AcDbLine
 10
8128.4472164982
 20
6449.3892549294
 30
0.0
 11
7967.8771975632
 21
6402.7304631844
 31
0.0
  0
LINE
  5
1FA
330
1F
100
AcDbEntity
  8
0
  6
Continuous
 62
     7
100
AcDbLine
 10
7967.8771975632
 20
6402.7304631844
 30
0.0
 11
7803.5347389082
 21
6360.6762069194
 31
0.0
  0
LINE
  5
1FB
330
1F
100
AcDbEntity
  8
0
  6
Continuous
 62
     7
100
AcDbLine
 10
7803.5347389082
 20
6360.6762069194
 30
0.0
 11
7635.8157559232
 21
6323.3277985194
 31
0.0
  0
LINE
  5
1FC
330
1F
100
AcDbEntity
  8
0
  6
Continuous
 62
     7
100
AcDbLine
 10
7635.8157559232
 20
6323.3277985194
 30
0.0
 11
7465.1242983182
 21
6290.7752135794
 31
0.0
  0
LINE
  5
1FD
330
1F
100
AcDbEntity
  8
0
  6
Continuous
 62
     7
100
AcDbLine
 10
7465.1242983182
 20
6290.7752135794
 30
0.0
 11
7291.8715767682
 21
6263.0968741194
 31
0.0
  0
LINE
  5
1FE
330
1F
100
AcDbEntity
  8
0
  6
Continuous
 62
     7
100
AcDbLine
 10
7291.8715767682
 20
6263.0968741194
 30
0.0
 11
7116.4749722582
 21
6240.3594596844
 31
0.0
  0
LINE
  5
1FF
330
1F
100
AcDbEntity
  8
0
  6
Continuous
 62
     7
100
AcDbLine
 10
7116.4749722582
 20
6240.3594596844
 30
0.0
 11
6939.3570305632
 21
6222.6177467044
 31
0.0
  0
LINE
  5
200
330
1F
100
AcDbEntity
  8
0
  6
Continuous
 62
     7
100
AcDbLine
 10
6939.3570305632
 20
6222.6177467044
 30
0.0
 11
6760.9444443282
 21
6209.9144765144
 31
0.0
  0
LINE
  5
201
330
1F
100
AcDbEntity
  8
0
  6
Continuous
 62
     7
100
AcDbLine
 10
6760.9444443282
 20
6209.9144765144
 30
0.0
 11
6581.6670250982
 21
6202.2802524044
 31
0.0
  0
LINE
  5
202
330
1F
100
AcDbEntity
  8
0
  6
Continuous
 62
     7
100
AcDbLine
 10
6581.6670250982
 20
6202.2802524044
 30
0.0
 11
6401.9566678732
 21
6199.7334658894
 31
0.0
  0
LINE
  5
203
330
1F
100
AcDbEntity
  8
0
  6
Continuous
 62
     7
100
AcDbLine
 10
6401.9566678732
 20
6199.7334658894
 30
0.0
 11
6222.2463106482
 21
6202.2802524044
 31
0.0
  0
LINE
  5
204
330
1F
100
AcDbEntity
  8
0
  6
Continuous
 62
     7
100
AcDbLine
 10
6222.2463106482
 20
6202.2802524044
 30
0.0
 11
6042.9688914132
 21
6209.9144765144
 31
0.0
  0
LINE
  5
205
330
1F
100
AcDbEntity
  8
0
  6
Continuous
 62
     7
100
AcDbLine
 10
6042.9688914132
 20
6209.9144765144
 30
0.0
 11
5864.5563051782
 21
6222.6177467044
 31
0.0
  0
LINE
  5
206
330
1F
100
AcDbEntity
  8
0
  6
Continuous
 62
     7
100
AcDbLine
 10
5864.5563051782
 20
6222.6177467044
 30
0.0
 11
5687.4383634882
 21
6240.3594596844
 31
0.0
  0
LINE
  5
207
330
1F
100
AcDbEntity
  8
0
  6
Continuous
 62
     7
100
AcDbLine
 10
5687.4383634882
 20
6240.3594596844
 30
0.0
 11
5512.0417589782
 21
6263.0968741194
 31
0.0
  0
LINE
  5
208
330
1F
100
AcDbEntity
  8
0
  6
Continuous
 62
     7
100
AcDbLine
 10
5512.0417589782
 20
6263.0968741194
 30
0.0
 11
5338.7890374282
 21
6290.7752135794
 31
0.0
  0
LINE
  5
209
330
1F
100
AcDbEntity
  8
0
  6
Continuous
 62
     7
100
AcDbLine
 10
5338.7890374282
 20
6290.7752135794
 30
0.0
 11
5168.0975798232
 21
6323.3277985194
 31
0.0
  0
LINE
  5
20A
330
1F
100
AcDbEntity
  8
0
  6
Continuous
 62
     7
100
AcDbLine
 10
5168.0975798232
 20
6323.3277985194
 30
0.0
 11
5000.3785968332
 21
6360.6762069194
 31
0.0
  0
LINE
  5
20B
330
1F
100
AcDbEntity
  8
0
  6
Continuous
 62
     7
100
AcDbLine
 10
5000.3785968332
 20
6360.6762069194
 30
0.0
 11
4836.0361381832
 21
6402.7304631844
 31
0.0
  0
LINE
  5
20C
330
1F
100
AcDbEntity
  8
0
  6
Continuous
 62
     7
100
AcDbLine
 10
4836.0361381832
 20
6402.7304631844
 30
0.0
 11
4675.4661192482
 21
6449.3892549294
 31
0.0
  0
LINE
  5
20D
330
1F
100
AcDbEntity
  8
0
  6
Continuous
 62
     7
100
AcDbLine
 10
4675.4661192482
 20
6449.3892549294
 30
0.0
 11
4519.0553672632
 21
6500.5401770394
 31
0.0
  0
LINE
  5
20E
330
1F
100
AcDbEntity
  8
0
  6
Continuous
 62
     7
100
AcDbLine
 10
4519.0553672632
 20
6500.5401770394
 30
0.0
 11
4367.1806894382
 21
6556.0600024594
 31
0.0
  0
LINE
  5
20F
330
1F
100
AcDbEntity
  8
0
  6
Continuous
 62
     7
100
AcDbLine
 10
4367.1806894382
 20
6556.0600024594
 30
0.0
 11
4220.2079651682
 21
6615.8149790744
 31
0.0
  0
LINE
  5
210
330
1F
100
AcDbEntity
  8
0
  6
Continuous
 62
     7
100
AcDbLine
 10
4220.2079651682
 20
6615.8149790744
 30
0.0
 11
4078.4912646232
 21
6679.6611519044
 31
0.0
  0
LINE
  5
211
330
1F
100
AcDbEntity
  8
0
  6
Continuous
 62
     7
100
AcDbLine
 10
4078.4912646232
 20
6679.6611519044
 30
0.0
 11
3942.3719957432
 21
6747.4447099344
 31
0.0
  0
LINE
  5
212
330
1F
100
AcDbEntity
  8
0
  6
Continuous
 62
     7
100
AcDbLine
 10
3942.3719957432
 20
6747.4447099344
 30
0.0
 11
3812.1780817782
 21
6819.0023566294
 31
0.0
  0
LINE
  5
213
330
1F
100
AcDbEntity
  8
0
  6
Continuous
 62
     7
100
AcDbLine
 10
9956.5145726382
 20
8024.0988786094
 30
0.0
 11
9943.3945478982
 21
8085.8410989344
 31
0.0
  0
LINE
  5
214
330
1F
100
AcDbEntity
  8
0
  6
Continuous
 62
     7
100
AcDbLine
 10
9943.3945478982
 20
8085.8410989344
 30
0.0
 11
9914.6318096832
 21
8187.3967426744
 31
0.0
  0
LINE
  5
215
330
1F
100
AcDbEntity
  8
0
  6
Continuous
 62
     7
100
AcDbLine
 10
9914.6318096832
 20
8187.3967426744
 30
0.0
 11
9877.1360075982
 21
8287.9984849544
 31
0.0
  0
LINE
  5
216
330
1F
100
AcDbEntity
  8
0
  6
Continuous
 62
     7
100
AcDbLine
 10
9877.1360075982
 20
8287.9984849544
 30
0.0
 11
9831.0003621182
 21
8387.3962139894
 31
0.0
  0
LINE
  5
217
330
1F
100
AcDbEntity
  8
0
  6
Continuous
 62
     7
100
AcDbLine
 10
9831.0003621182
 20
8387.3962139894
 30
0.0
 11
9776.3395737232
 21
8485.3428113694
 31
0.0
  0
LINE
  5
218
330
1F
100
AcDbEntity
  8
0
  6
Continuous
 62
     7
100
AcDbLine
 10
9776.3395737232
 20
8485.3428113694
 30
0.0
 11
9713.2895377532
 21
8581.5947664144
 31
0.0
  0
LINE
  5
219
330
1F
100
AcDbEntity
  8
0
  6
Continuous
 62
     7
100
AcDbLine
 10
9713.2895377532
 20
8581.5947664144
 30
0.0
 11
9642.0070065282
 21
8675.9127815994
 31
0.0
  0
LINE
  5
21A
330
1F
100
AcDbEntity
  8
0
  6
Continuous
 62
     7
100
AcDbLine
 10
9642.0070065282
 20
8675.9127815994
 30
0.0
 11
9562.6691996532
 21
8768.0623674844
 31
0.0
  0
LINE
  5
21B
330
1F
100
AcDbEntity
  8
0
  6
Continuous
 62
     7
100
AcDbLine
 10
9562.6691996532
 20
8768.0623674844
 30
0.0
 11
9475.4733634132
 21
8857.8144256694
 31
0.0
  0
LINE
  5
21C
330
1F
100
AcDbEntity
  8
0
  6
Continuous
 62
     7
100
AcDbLine
 10
9475.4733634132
 20
8857.8144256694
 30
0.0
 11
9380.6362803982
 21
8944.9458184044
 31
0.0
  0
LINE
  5
21D
330
1F
100
AcDbEntity
  8
0
  6
Continuous
 62
     7
100
AcDbLine
 10
9380.6362803982
 20
8944.9458184044
 30
0.0
 11
9278.3937305382
 21
9029.2399233194
 31
0.0
  0
LINE
  5
21E
330
1F
100
AcDbEntity
  8
0
  6
Continuous
 62
     7
100
AcDbLine
 10
9278.3937305382
 20
9029.2399233194
 30
0.0
 11
9168.9999049232
 21
9110.4871719794
 31
0.0
  0
LINE
  5
21F
330
1F
100
AcDbEntity
  8
0
  6
Continuous
 62
     7
100
AcDbLine
 10
9168.9999049232
 20
9110.4871719794
 30
0.0
 11
9052.7267738432
 21
9188.4855709294
 31
0.0
  0
LINE
  5
220
330
1F
100
AcDbEntity
  8
0
  6
Continuous
 62
     7
100
AcDbLine
 10
9052.7267738432
 20
9188.4855709294
 30
0.0
 11
8929.8634106132
 21
9263.0412038594
 31
0.0
  0
LINE
  5
221
330
1F
100
AcDbEntity
  8
0
  6
Continuous
 62
     7
100
AcDbLine
 10
8929.8634106132
 20
9263.0412038594
 30
0.0
 11
8800.7152729232
 21
9333.9687137144
 31
0.0
  0
LINE
  5
222
330
1F
100
AcDbEntity
  8
0
  6
Continuous
 62
     7
100
AcDbLine
 10
8800.7152729232
 20
9333.9687137144
 30
0.0
 11
8665.6034433832
 21
9401.0917635344
 31
0.0
  0
LINE
  5
223
330
1F
100
AcDbEntity
  8
0
  6
Continuous
 62
     7
100
AcDbLine
 10
8665.6034433832
 20
9401.0917635344
 30
0.0
 11
8524.8638312982
 21
9464.2434748394
 31
0.0
  0
LINE
  5
224
330
1F
100
AcDbEntity
  8
0
  6
Continuous
 62
     7
100
AcDbLine
 10
8524.8638312982
 20
9464.2434748394
 30
0.0
 11
8378.8463375132
 21
9523.2668425244
 31
0.0
  0
LINE
  5
225
330
1F
100
AcDbEntity
  8
0
  6
Continuous
 62
     7
100
AcDbLine
 10
8378.8463375132
 20
9523.2668425244
 30
0.0
 11
8227.9139845282
 21
9578.0151251994
 31
0.0
  0
LINE
  5
226
330
1F
100
AcDbEntity
  8
0
  6
Continuous
 62
     7
100
AcDbLine
 10
8227.9139845282
 20
9578.0151251994
 30
0.0
 11
8072.4420139482
 21
9628.3522100044
 31
0.0
  0
LINE
  5
227
330
1F
100
AcDbEntity
  8
0
  6
Continuous
 62
     7
100
AcDbLine
 10
8072.4420139482
 20
9628.3522100044
 30
0.0
 11
7912.8169535932
 21
9674.1529510194
 31
0.0
  0
LINE
  5
228
330
1F
100
AcDbEntity
  8
0
  6
Continuous
 62
     7
100
AcDbLine
 10
7912.8169535932
 20
9674.1529510194
 30
0.0
 11
7749.4356565182
 21
9715.3034803844
 31
0.0
  0
LINE
  5
229
330
1F
100
AcDbEntity
  8
0
  6
Continuous
 62
     7
100
AcDbLine
 10
7749.4356565182
 20
9715.3034803844
 30
0.0
 11
7582.7043143632
 21
9751.7014913944
 31
0.0
  0
LINE
  5
22A
330
1F
100
AcDbEntity
  8
0
  6
Continuous
 62
     7
100
AcDbLine
 10
7582.7043143632
 20
9751.7014913944
 30
0.0
 11
7413.0374475182
 21
9783.2564928644
 31
0.0
  0
LINE
  5
22B
330
1F
100
AcDbEntity
  8
0
  6
Continuous
 62
     7
100
AcDbLine
 10
7413.0374475182
 20
9783.2564928644
 30
0.0
 11
7240.8568745432
 21
9809.8900340894
 31
0.0
  0
LINE
  5
22C
330
1F
100
AcDbEntity
  8
0
  6
Continuous
 62
     7
100
AcDbLine
 10
7240.8568745432
 20
9809.8900340894
 30
0.0
 11
7066.5906634782
 21
9831.5358998894
 31
0.0
  0
LINE
  5
22D
330
1F
100
AcDbEntity
  8
0
  6
Continuous
 62
     7
100
AcDbLine
 10
7066.5906634782
 20
9831.5358998894
 30
0.0
 11
6890.6720675832
 21
9848.1402752294
 31
0.0
  0
LINE
  5
22E
330
1F
100
AcDbEntity
  8
0
  6
Continuous
 62
     7
100
AcDbLine
 10
6890.6720675832
 20
9848.1402752294
 30
0.0
 11
6713.5384481932
 21
9859.6618790144
 31
0.0
  0
LINE
  5
22F
330
1F
100
AcDbEntity
  8
0
  6
Continuous
 62
     7
100
AcDbLine
 10
6713.5384481932
 20
9859.6618790144
 30
0.0
 11
6535.6301874082
 21
9866.0720667244
 31
0.0
  0
LINE
  5
230
330
1F
100
AcDbEntity
  8
0
  6
Continuous
 62
     7
100
AcDbLine
 10
6535.6301874082
 20
9866.0720667244
 30
0.0
 11
6357.3895931932
 21
9867.3549016244
 31
0.0
  0
LINE
  5
231
330
1F
100
AcDbEntity
  8
0
  6
Continuous
 62
     7
100
AcDbLine
 10
6357.3895931932
 20
9867.3549016244
 30
0.0
 11
6179.2597997482
 21
9863.5071943844
 31
0.0
  0
LINE
  5
232
330
1F
100
AcDbEntity
  8
0
  6
Continuous
 62
     7
100
AcDbLine
 10
6179.2597997482
 20
9863.5071943844
 30
0.0
 11
6001.6836658032
 21
9854.5385110044
 31
0.0
  0
LINE
  5
233
330
1F
100
AcDbEntity
  8
0
  6
Continuous
 62
     7
100
AcDbLine
 10
6001.6836658032
 20
9854.5385110044
 30
0.0
 11
5825.1026736082
 21
9840.4711490544
 31
0.0
  0
LINE
  5
234
330
1F
100
AcDbEntity
  8
0
  6
Continuous
 62
     7
100
AcDbLine
 10
5825.1026736082
 20
9840.4711490544
 30
0.0
 11
5649.9558313382
 21
9821.3400822044
 31
0.0
  0
LINE
  5
235
330
1F
100
AcDbEntity
  8
0
  6
Continuous
 62
     7
100
AcDbLine
 10
5649.9558313382
 20
9821.3400822044
 30
0.0
 11
5476.6785816332
 21
9797.1928733044
 31
0.0
  0
LINE
  5
236
330
1F
100
AcDbEntity
  8
0
  6
Continuous
 62
     7
100
AcDbLine
 10
5476.6785816332
 20
9797.1928733044
 30
0.0
 11
5305.7017190382
 21
9768.0895561244
 31
0.0
  0
LINE
  5
237
330
1F
100
AcDbEntity
  8
0
  6
Continuous
 62
     7
100
AcDbLine
 10
5305.7017190382
 20
9768.0895561244
 30
0.0
 11
5137.4503189732
 21
9734.1024860894
 31
0.0
  0
LINE
  5
238
330
1F
100
AcDbEntity
  8
0
  6
Continuous
 62
     7
100
AcDbLine
 10
5137.4503189732
 20
9734.1024860894
 30
0.0
 11
4972.3426809282
 21
9695.3161604144
 31
0.0
  0
LINE
  5
239
330
1F
100
AcDbEntity
  8
0
  6
Continuous
 62
     7
100
AcDbLine
 10
4972.3426809282
 20
9695.3161604144
 30
0.0
 11
4810.7892885132
 21
9651.8270080144
 31
0.0
  0
LINE
  5
23A
330
1F
100
AcDbEntity
  8
0
  6
Continuous
 62
     7
100
AcDbLine
 10
4810.7892885132
 20
9651.8270080144
 30
0.0
 11
4653.1917889082
 21
9603.7431497744
 31
0.0
  0
LINE
  5
23B
330
1F
100
AcDbEntity
  8
0
  6
Continuous
 62
     7
100
AcDbLine
 10
4653.1917889082
 20
9603.7431497744
 30
0.0
 11
4499.9419943282
 21
9551.1841297444
 31
0.0
  0
LINE
  5
23C
330
1F
100
AcDbEntity
  8
0
  6
Continuous
 62
     7
100
AcDbLine
 10
4499.9419943282
 20
9551.1841297444
 30
0.0
 11
4351.4209079182
 21
9494.2806179294
 31
0.0
  0
LINE
  5
23D
330
1F
100
AcDbEntity
  8
0
  6
Continuous
 62
     7
100
AcDbLine
 10
4351.4209079182
 20
9494.2806179294
 30
0.0
 11
4207.9977764932
 21
9433.1740854244
 31
0.0
  0
LINE
  5
23E
330
1F
100
AcDbEntity
  8
0
  6
Continuous
 62
     7
100
AcDbLine
 10
4207.9977764932
 20
9433.1740854244
 30
0.0
 11
4070.0291725532
 21
9368.0164526944
 31
0.0
  0
LINE
  5
23F
330
1F
100
AcDbEntity
  8
0
  6
Continuous
 62
     7
100
AcDbLine
 10
4070.0291725532
 20
9368.0164526944
 30
0.0
 11
3937.8581077932
 21
9298.9697118894
 31
0.0
  0
LINE
  5
240
330
1F
100
AcDbEntity
  8
0
  6
Continuous
 62
     7
100
AcDbLine
 10
3937.8581077932
 20
9298.9697118894
 30
0.0
 11
3811.8131802982
 21
9226.2055240744
 31
0.0
  0
LINE
  5
241
330
1F
100
AcDbEntity
  8
0
  6
Continuous
 62
     7
100
AcDbLine
 10
3811.8131802982
 20
9226.2055240744
 30
0.0
 11
3692.2077576282
 21
9149.9047924944
 31
0.0
  0
LINE
  5
242
330
1F
100
AcDbEntity
  8
0
  6
Continuous
 62
     7
100
AcDbLine
 10
3692.2077576282
 20
9149.9047924944
 30
0.0
 11
3579.3391976982
 21
9070.2572127894
 31
0.0
  0
LINE
  5
243
330
1F
100
AcDbEntity
  8
0
  6
Continuous
 62
     7
100
AcDbLine
 10
3579.3391976982
 20
9070.2572127894
 30
0.0
 11
3473.4881095382
 21
8987.4608013894
 31
0.0
  0
LINE
  5
244
330
1F
100
AcDbEntity
  8
0
  6
Continuous
 62
     7
100
AcDbLine
 10
3473.4881095382
 20
8987.4608013894
 30
0.0
 11
3374.9176556332
 21
8901.7214032144
 31
0.0
  0
LINE
  5
245
330
1F
100
AcDbEntity
  8
0
  6
Continuous
 62
     7
100
AcDbLine
 10
3374.9176556332
 20
8901.7214032144
 30
0.0
 11
3283.8728976532
 21
8813.2521799294
 31
0.0
  0
LINE
  5
246
330
1F
100
AcDbEntity
  8
0
  6
Continuous
 62
     7
100
AcDbLine
 10
3283.8728976532
 20
8813.2521799294
 30
0.0
 11
3200.5801872232
 21
8722.2730799494
 31
0.0
  0
LINE
  5
247
330
1F
100
AcDbEntity
  8
0
  6
Continuous
 62
     7
100
AcDbLine
 10
3200.5801872232
 20
8722.2730799494
 30
0.0
 11
3125.2466031382
 21
8629.0102916644
 31
0.0
  0
LINE
  5
248
330
1F
100
AcDbEntity
  8
0
  6
Continuous
 62
     7
100
AcDbLine
 10
3125.2466031382
 20
8629.0102916644
 30
0.0
 11
3058.0594365582
 21
8533.6956810494
 31
0.0
  0
LINE
  5
249
330
1F
100
AcDbEntity
  8
0
  6
Continuous
 62
     7
100
AcDbLine
 10
3058.0594365582
 20
8533.6956810494
 30
0.0
 11
2999.1857253682
 21
8436.5662152494
 31
0.0
  0
LINE
  5
24A
330
1F
100
AcDbEntity
  8
0
  6
Continuous
 62
     7
100
AcDbLine
 10
2999.1857253682
 20
8436.5662152494
 30
0.0
 11
2948.7718388882
 21
8337.8633734244
 31
0.0
  0
LINE
  5
24B
330
1F
100
AcDbEntity
  8
0
  6
Continuous
 62
     7
100
AcDbLine
 10
2948.7718388882
 20
8337.8633734244
 30
0.0
 11
2906.9431139882
 21
8237.8325463844
 31
0.0
  0
LINE
  5
24C
330
1F
100
AcDbEntity
  8
0
  6
Continuous
 62
     7
100
AcDbLine
 10
2906.9431139882
 20
8237.8325463844
 30
0.0
 11
2873.8035434582
 21
8136.7224265294
 31
0.0
  0
LINE
  5
24D
330
1F
100
AcDbEntity
  8
0
  6
Continuous
 62
     7
100
AcDbLine
 10
2873.8035434582
 20
8136.7224265294
 30
0.0
 11
2849.4355175032
 21
8034.7843895494
 31
0.0
  0
LINE
  5
24E
330
1F
100
AcDbEntity
  8
0
  6
Continuous
 62
     7
100
AcDbLine
 10
2849.4355175032
 20
8034.7843895494
 30
0.0
 11
2846.0079424482
 21
8016.4903242094
 31
0.0
  0
LINE
  5
24F
330
1F
100
AcDbEntity
  8
0
  6
Continuous
 62
     7
100
AcDbLine
 10
3714.9508993632
 20
-90.5987346206
 30
0.0
 11
3588.2703831182
 21
-13.8447871856
 31
0.0
  0
LINE
  5
250
330
1F
100
AcDbEntity
  8
0
  6
Continuous
 62
     7
100
AcDbLine
 10
3588.2703831182
 20
-13.8447871856
 30
0.0
 11
3468.1613615682
 21
66.3527399044
 31
0.0
  0
LINE
  5
251
330
1F
100
AcDbEntity
  8
0
  6
Continuous
 62
     7
100
AcDbLine
 10
3468.1613615682
 20
66.3527399044
 30
0.0
 11
3354.9043548932
 21
149.8065415994
 31
0.0
  0
LINE
  5
252
330
1F
100
AcDbEntity
  8
0
  6
Continuous
 62
     7
100
AcDbLine
 10
3354.9043548932
 20
149.8065415994
 30
0.0
 11
3248.7638800782
 21
236.3217076844
 31
0.0
  0
LINE
  5
253
330
1F
100
AcDbEntity
  8
0
  6
Continuous
 62
     7
100
AcDbLine
 10
3248.7638800782
 20
236.3217076844
 30
0.0
 11
3149.9878331282
 21
325.6961779794
 31
0.0
  0
LINE
  5
254
330
1F
100
AcDbEntity
  8
0
  6
Continuous
 62
     7
100
AcDbLine
 10
3149.9878331282
 20
325.6961779794
 30
0.0
 11
3058.8069100682
 21
417.7212142644
 31
0.0
  0
LINE
  5
255
330
1F
100
AcDbEntity
  8
0
  6
Continuous
 62
     7
100
AcDbLine
 10
3058.8069100682
 20
417.7212142644
 30
0.0
 11
2975.4340681782
 21
512.1818878044
 31
0.0
  0
LINE
  5
256
330
1F
100
AcDbEntity
  8
0
  6
Continuous
 62
     7
100
AcDbLine
 10
2975.4340681782
 20
512.1818878044
 30
0.0
 11
2900.0640285832
 21
608.8575813244
 31
0.0
  0
LINE
  5
257
330
1F
100
AcDbEntity
  8
0
  6
Continuous
 62
     7
100
AcDbLine
 10
2900.0640285832
 20
608.8575813244
 30
0.0
 11
2832.8728215132
 21
707.5225042594
 31
0.0
  0
LINE
  5
258
330
1F
100
AcDbEntity
  8
0
  6
Continuous
 62
     7
100
AcDbLine
 10
2832.8728215132
 20
707.5225042594
 30
0.0
 11
2774.0173751382
 21
807.9462201044
 31
0.0
  0
LINE
  5
259
330
1F
100
AcDbEntity
  8
0
  6
Continuous
 62
     7
100
AcDbLine
 10
2774.0173751382
 20
807.9462201044
 30
0.0
 11
2723.6351490882
 21
909.8941846294
 31
0.0
  0
LINE
  5
25A
330
1F
100
AcDbEntity
  8
0
  6
Continuous
 62
     7
100
AcDbLine
 10
2723.6351490882
 20
909.8941846294
 30
0.0
 11
2681.8438133782
 21
1013.1282936294
 31
0.0
  0
LINE
  5
25B
330
1F
100
AcDbEntity
  8
0
  6
Continuous
 62
     7
100
AcDbLine
 10
2681.8438133782
 20
1013.1282936294
 30
0.0
 11
2648.7409736132
 21
1117.4074390644
 31
0.0
  0
LINE
  5
25C
330
1F
100
AcDbEntity
  8
0
  6
Continuous
 62
     7
100
AcDbLine
 10
2648.7409736132
 20
1117.4074390644
 30
0.0
 11
2632.1523144282
 21
1184.5781233444
 31
0.0
  0
LINE
  5
25D
330
1F
100
AcDbEntity
  8
0
  6
Continuous
 62
     7
100
AcDbLine
 10
10172.6165574832
 20
1188.5007911794
 30
0.0
 11
10168.4406377232
 21
1169.8628712744
 31
0.0
  0
LINE
  5
25E
330
1F
100
AcDbEntity
  8
0
  6
Continuous
 62
     7
100
AcDbLine
 10
10168.4406377232
 20
1169.8628712744
 30
0.0
 11
10139.7123142732
 21
1065.1524080294
 31
0.0
  0
LINE
  5
25F
330
1F
100
AcDbEntity
  8
0
  6
Continuous
 62
     7
100
AcDbLine
 10
10139.7123142732
 20
1065.1524080294
 30
0.0
 11
10102.2542893182
 21
961.3654764894
 31
0.0
  0
LINE
  5
260
330
1F
100
AcDbEntity
  8
0
  6
Continuous
 62
     7
100
AcDbLine
 10
10102.2542893182
 20
961.3654764894
 30
0.0
 11
10056.1540478132
 21
858.7444758394
 31
0.0
  0
LINE
  5
261
330
1F
100
AcDbEntity
  8
0
  6
Continuous
 62
     7
100
AcDbLine
 10
10056.1540478132
 20
858.7444758394
 30
0.0
 11
10001.5192590132
 21
757.5290821844
 31
0.0
  0
LINE
  5
262
330
1F
100
AcDbEntity
  8
0
  6
Continuous
 62
     7
100
AcDbLine
 10
10001.5192590132
 20
757.5290821844
 30
0.0
 11
9938.4775249932
 21
657.9556887644
 31
0.0
  0
LINE
  5
263
330
1F
100
AcDbEntity
  8
0
  6
Continuous
 62
     7
100
AcDbLine
 10
9938.4775249932
 20
657.9556887644
 30
0.0
 11
9867.1760826432
 21
560.2568538544
 31
0.0
  0
LINE
  5
264
330
1F
100
AcDbEntity
  8
0
  6
Continuous
 62
     7
100
AcDbLine
 10
9867.1760826432
 20
560.2568538544
 30
0.0
 11
9787.7814597882
 21
464.6607576094
 31
0.0
  0
LINE
  5
265
330
1F
100
AcDbEntity
  8
0
  6
Continuous
 62
     7
100
AcDbLine
 10
9787.7814597882
 20
464.6607576094
 30
0.0
 11
9700.4790862482
 21
371.3906691444
 31
0.0
  0
LINE
  5
266
330
1F
100
AcDbEntity
  8
0
  6
Continuous
 62
     7
100
AcDbLine
 10
9700.4790862482
 20
371.3906691444
 30
0.0
 11
9605.4728607632
 21
280.6644250644
 31
0.0
  0
LINE
  5
267
330
1F
100
AcDbEntity
  8
0
  6
Continuous
 62
     7
100
AcDbLine
 10
9605.4728607632
 20
280.6644250644
 30
0.0
 11
9502.9846747732
 21
192.6939207294
 31
0.0
  0
LINE
  5
268
330
1F
100
AcDbEntity
  8
0
  6
Continuous
 62
     7
100
AcDbLine
 10
9502.9846747732
 20
192.6939207294
 30
0.0
 11
9393.2538941882
 21
107.6846153194
 31
0.0
  0
LINE
  5
269
330
1F
100
AcDbEntity
  8
0
  6
Continuous
 62
     7
100
AcDbLine
 10
9393.2538941882
 20
107.6846153194
 30
0.0
 11
9276.5368003232
 21
25.8350520044
 31
0.0
  0
LINE
  5
26A
330
1F
100
AcDbEntity
  8
0
  6
Continuous
 62
     7
100
AcDbLine
 10
9276.5368003232
 20
25.8350520044
 30
0.0
 11
9153.1059913682
 21
-52.6636057606
 31
0.0
  0
LINE
  5
26B
330
1F
100
AcDbEntity
  8
0
  6
Continuous
 62
     7
100
AcDbLine
 10
9153.1059913682
 20
-52.6636057606
 30
0.0
 11
9023.2497456932
 21
-127.6280207256
 31
0.0
  0
LINE
  5
26C
330
1F
100
AcDbEntity
  8
0
  6
Continuous
 62
     7
100
AcDbLine
 10
9023.2497456932
 20
-127.6280207256
 30
0.0
 11
8887.2713485732
 21
-198.8831100306
 31
0.0
  0
LINE
  5
26D
330
1F
100
AcDbEntity
  8
0
  6
Continuous
 62
     7
100
AcDbLine
 10
8887.2713485732
 20
-198.8831100306
 30
0.0
 11
8745.4883838632
 21
-266.2624541056
 31
0.0
  0
LINE
  5
26E
330
1F
100
AcDbEntity
  8
0
  6
Continuous
 62
     7
100
AcDbLine
 10
8745.4883838632
 20
-266.2624541056
 30
0.0
 11
8598.2319922382
 21
-329.6086853756
 31
0.0
  0
LINE
  5
26F
330
1F
100
AcDbEntity
  8
0
  6
Continuous
 62
     7
100
AcDbLine
 10
8598.2319922382
 20
-329.6086853756
 30
0.0
 11
8445.8460978282
 21
-388.7738557806
 31
0.0
  0
LINE
  5
270
330
1F
100
AcDbEntity
  8
0
  6
Continuous
 62
     7
100
AcDbLine
 10
8445.8460978282
 20
-388.7738557806
 30
0.0
 11
8288.6866049482
 21
-443.6197823256
 31
0.0
  0
LINE
  5
271
330
1F
100
AcDbEntity
  8
0
  6
Continuous
 62
     7
100
AcDbLine
 10
8288.6866049482
 20
-443.6197823256
 30
0.0
 11
8127.1205668832
 21
-494.0183698056
 31
0.0
  0
LINE
  5
272
330
1F
100
AcDbEntity
  8
0
  6
Continuous
 62
     7
100
AcDbLine
 10
8127.1205668832
 20
-494.0183698056
 30
0.0
 11
7961.5253285932
 21
-539.8519099856
 31
0.0
  0
LINE
  5
273
330
1F
100
AcDbEntity
  8
0
  6
Continuous
 62
     7
100
AcDbLine
 10
7961.5253285932
 20
-539.8519099856
 30
0.0
 11
7792.2876454332
 21
-581.0133565056
 31
0.0
  0
LINE
  5
274
330
1F
100
AcDbEntity
  8
0
  6
Continuous
 62
     7
100
AcDbLine
 10
7792.2876454332
 20
-581.0133565056
 30
0.0
 11
7619.8027798532
 21
-617.4065749056
 31
0.0
  0
LINE
  5
275
330
1F
100
AcDbEntity
  8
0
  6
Continuous
 62
     7
100
AcDbLine
 10
7619.8027798532
 20
-617.4065749056
 30
0.0
 11
7444.4735782482
 21
-648.9465671356
 31
0.0
  0
LINE
  5
276
330
1F
100
AcDbEntity
  8
0
  6
Continuous
 62
     7
100
AcDbLine
 10
7444.4735782482
 20
-648.9465671356
 30
0.0
 11
7266.7095300982
 21
-675.5596700806
 31
0.0
  0
LINE
  5
277
330
1F
100
AcDbEntity
  8
0
  6
Continuous
 62
     7
100
AcDbLine
 10
7266.7095300982
 20
-675.5596700806
 30
0.0
 11
7086.9258115632
 21
-697.1837276056
 31
0.0
  0
LINE
  5
278
330
1F
100
AcDbEntity
  8
0
  6
Continuous
 62
     7
100
AcDbLine
 10
7086.9258115632
 20
-697.1837276056
 30
0.0
 11
6905.5423158582
 21
-713.7682357206
 31
0.0
  0
LINE
  5
279
330
1F
100
AcDbEntity
  8
0
  6
Continuous
 62
     7
100
AcDbLine
 10
6905.5423158582
 20
-713.7682357206
 30
0.0
 11
6722.9826725432
 21
-725.2744605456
 31
0.0
  0
LINE
  5
27A
330
1F
100
AcDbEntity
  8
0
  6
Continuous
 62
     7
100
AcDbLine
 10
6722.9826725432
 20
-725.2744605456
 30
0.0
 11
6539.6732581132
 21
-731.6755287506
 31
0.0
  0
LINE
  5
27B
330
1F
100
AcDbEntity
  8
0
  6
Continuous
 62
     7
100
AcDbLine
 10
6539.6732581132
 20
-731.6755287506
 30
0.0
 11
6356.0422002082
 21
-732.9564903506
 31
0.0
  0
LINE
  5
27C
330
1F
100
AcDbEntity
  8
0
  6
Continuous
 62
     7
100
AcDbLine
 10
6356.0422002082
 20
-732.9564903506
 30
0.0
 11
6172.5183776682
 21
-729.1143535956
 31
0.0
  0
LINE
  5
27D
330
1F
100
AcDbEntity
  8
0
  6
Continuous
 62
     7
100
AcDbLine
 10
6172.5183776682
 20
-729.1143535956
 30
0.0
 11
5989.5304188882
 21
-720.1580919806
 31
0.0
  0
LINE
  5
27E
330
1F
100
AcDbEntity
  8
0
  6
Continuous
 62
     7
100
AcDbLine
 10
5989.5304188882
 20
-720.1580919806
 30
0.0
 11
5807.5057007182
 21
-706.1086232606
 31
0.0
  0
LINE
  5
27F
330
1F
100
AcDbEntity
  8
0
  6
Continuous
 62
     7
100
AcDbLine
 10
5807.5057007182
 20
-706.1086232606
 30
0.0
 11
5626.8693503282
 21
-686.9987606306
 31
0.0
  0
LINE
  5
280
330
1F
100
AcDbEntity
  8
0
  6
Continuous
 62
     7
100
AcDbLine
 10
5626.8693503282
 20
-686.9987606306
 30
0.0
 11
5448.0432522832
 21
-662.8731360556
 31
0.0
  0
LINE
  5
281
330
1F
100
AcDbEntity
  8
0
  6
Continuous
 62
     7
100
AcDbLine
 10
5448.0432522832
 20
-662.8731360556
 30
0.0
 11
5271.4450632232
 21
-633.7880960456
 31
0.0
  0
LINE
  5
282
330
1F
100
AcDbEntity
  8
0
  6
Continuous
 62
     7
100
AcDbLine
 10
5271.4450632232
 20
-633.7880960456
 30
0.0
 11
5097.4872363932
 21
-599.8115700656
 31
0.0
  0
LINE
  5
283
330
1F
100
AcDbEntity
  8
0
  6
Continuous
 62
     7
100
AcDbLine
 10
5097.4872363932
 20
-599.8115700656
 30
0.0
 11
4926.5760583682
 21
-561.0229118606
 31
0.0
  0
LINE
  5
284
330
1F
100
AcDbEntity
  8
0
  6
Continuous
 62
     7
100
AcDbLine
 10
4926.5760583682
 20
-561.0229118606
 30
0.0
 11
4759.1107001182
 21
-517.5127141456
 31
0.0
  0
LINE
  5
285
330
1F
100
AcDbEntity
  8
0
  6
Continuous
 62
     7
100
AcDbLine
 10
4759.1107001182
 20
-517.5127141456
 30
0.0
 11
4595.4822847432
 21
-469.3825970006
 31
0.0
  0
LINE
  5
286
330
1F
100
AcDbEntity
  8
0
  6
Continuous
 62
     7
100
AcDbLine
 10
4595.4822847432
 20
-469.3825970006
 30
0.0
 11
4436.0729739982
 21
-416.7449705406
 31
0.0
  0
LINE
  5
287
330
1F
100
AcDbEntity
  8
0
  6
Continuous
 62
     7
100
AcDbLine
 10
4436.0729739982
 20
-416.7449705406
 30
0.0
 11
4281.2550757082
 21
-359.7227723906
 31
0.0
  0
LINE
  5
288
330
1F
100
AcDbEntity
  8
0
  6
Continuous
 62
     7
100
AcDbLine
 10
4281.2550757082
 20
-359.7227723906
 30
0.0
 11
4131.3901742482
 21
-298.4491805256
 31
0.0
  0
LINE
  5
289
330
1F
100
AcDbEntity
  8
0
  6
Continuous
 62
     7
100
AcDbLine
 10
4131.3901742482
 20
-298.4491805256
 30
0.0
 11
3986.8282860432
 21
-233.0673022606
 31
0.0
  0
LINE
  5
28A
330
1F
100
AcDbEntity
  8
0
  6
Continuous
 62
     7
100
AcDbLine
 10
3986.8282860432
 20
-233.0673022606
 30
0.0
 11
3847.9070420832
 21
-163.7298400106
 31
0.0
  0
LINE
  5
28B
330
1F
100
AcDbEntity
  8
0
  6
Continuous
 62
     7
100
AcDbLine
 10
3847.9070420832
 20
-163.7298400106
 30
0.0
 11
3714.9508993632
 21
-90.5987346206
 31
0.0
  0
LINE
  5
28C
330
1F
100
AcDbEntity
  8
0
  6
Continuous
 62
     7
100
AcDbLine
 10
2611.0494184482
 20
1252.4075930144
 30
0.0
 11
2624.4039430082
 21
1165.9844851394
 31
0.0
  0
LINE
  5
28D
330
1F
100
AcDbEntity
  8
0
  6
Continuous
 62
     7
100
AcDbLine
 10
2624.4039430082
 20
1165.9844851394
 30
0.0
 11
2648.7409736132
 21
1060.9038520444
 31
0.0
  0
LINE
  5
28E
330
1F
100
AcDbEntity
  8
0
  6
Continuous
 62
     7
100
AcDbLine
 10
2648.7409736132
 20
1060.9038520444
 30
0.0
 11
2681.8438133782
 21
956.6247066094
 31
0.0
  0
LINE
  5
28F
330
1F
100
AcDbEntity
  8
0
  6
Continuous
 62
     7
100
AcDbLine
 10
2681.8438133782
 20
956.6247066094
 30
0.0
 11
2723.6351490882
 21
853.3905976094
 31
0.0
  0
LINE
  5
290
330
1F
100
AcDbEntity
  8
0
  6
Continuous
 62
     7
100
AcDbLine
 10
2723.6351490882
 20
853.3905976094
 30
0.0
 11
2774.0173751382
 21
751.4426330844
 31
0.0
  0
LINE
  5
291
330
1F
100
AcDbEntity
  8
0
  6
Continuous
 62
     7
100
AcDbLine
 10
2774.0173751382
 20
751.4426330844
 30
0.0
 11
2832.8728215132
 21
651.0189172344
 31
0.0
  0
LINE
  5
292
330
1F
100
AcDbEntity
  8
0
  6
Continuous
 62
     7
100
AcDbLine
 10
2832.8728215132
 20
651.0189172344
 30
0.0
 11
2900.0640285832
 21
552.3539943044
 31
0.0
  0
LINE
  5
293
330
1F
100
AcDbEntity
  8
0
  6
Continuous
 62
     7
100
AcDbLine
 10
2900.0640285832
 20
552.3539943044
 30
0.0
 11
2975.4340681782
 21
455.6783007844
 31
0.0
  0
LINE
  5
294
330
1F
100
AcDbEntity
  8
0
  6
Continuous
 62
     7
100
AcDbLine
 10
2975.4340681782
 20
455.6783007844
 30
0.0
 11
3058.8069100682
 21
361.2176272444
 31
0.0
  0
LINE
  5
295
330
1F
100
AcDbEntity
  8
0
  6
Continuous
 62
     7
100
AcDbLine
 10
3058.8069100682
 20
361.2176272444
 30
0.0
 11
3149.9878331282
 21
269.1925909544
 31
0.0
  0
LINE
  5
296
330
1F
100
AcDbEntity
  8
0
  6
Continuous
 62
     7
100
AcDbLine
 10
3149.9878331282
 20
269.1925909544
 30
0.0
 11
3248.7638800782
 21
179.8181206644
 31
0.0
  0
LINE
  5
297
330
1F
100
AcDbEntity
  8
0
  6
Continuous
 62
     7
100
AcDbLine
 10
3248.7638800782
 20
179.8181206644
 30
0.0
 11
3354.9043548932
 21
93.3029545794
 31
0.0
  0
LINE
  5
298
330
1F
100
AcDbEntity
  8
0
  6
Continuous
 62
     7
100
AcDbLine
 10
3354.9043548932
 20
93.3029545794
 30
0.0
 11
3468.1613615682
 21
9.8491528844
 31
0.0
  0
LINE
  5
299
330
1F
100
AcDbEntity
  8
0
  6
Continuous
 62
     7
100
AcDbLine
 10
3468.1613615682
 20
9.8491528844
 30
0.0
 11
3588.2703831182
 21
-70.3483742056
 31
0.0
  0
LINE
  5
29A
330
1F
100
AcDbEntity
  8
0
  6
Continuous
 62
     7
100
AcDbLine
 10
3588.2703831182
 20
-70.3483742056
 30
0.0
 11
3714.9508993632
 21
-147.1023216456
 31
0.0
  0
LINE
  5
29B
330
1F
100
AcDbEntity
  8
0
  6
Continuous
 62
     7
100
AcDbLine
 10
3714.9508993632
 20
-147.1023216456
 30
0.0
 11
3847.9070420832
 21
-220.2334270306
 31
0.0
  0
LINE
  5
29C
330
1F
100
AcDbEntity
  8
0
  6
Continuous
 62
     7
100
AcDbLine
 10
3847.9070420832
 20
-220.2334270306
 30
0.0
 11
3986.8282860432
 21
-289.5708892856
 31
0.0
  0
LINE
  5
29D
330
1F
100
AcDbEntity
  8
0
  6
Continuous
 62
     7
100
AcDbLine
 10
3986.8282860432
 20
-289.5708892856
 30
0.0
 11
4131.3901742482
 21
-354.9527675456
 31
0.0
  0
LINE
  5
29E
330
1F
100
AcDbEntity
  8
0
  6
Continuous
 62
     7
100
AcDbLine
 10
4131.3901742482
 20
-354.9527675456
 30
0.0
 11
4281.2550757082
 21
-416.2263594106
 31
0.0
  0
LINE
  5
29F
330
1F
100
AcDbEntity
  8
0
  6
Continuous
 62
     7
100
AcDbLine
 10
4281.2550757082
 20
-416.2263594106
 30
0.0
 11
4436.0729739982
 21
-473.2485575656
 31
0.0
  0
LINE
  5
2A0
330
1F
100
AcDbEntity
  8
0
  6
Continuous
 62
     7
100
AcDbLine
 10
4436.0729739982
 20
-473.2485575656
 30
0.0
 11
4595.4822847432
 21
-525.8861840206
 31
0.0
  0
LINE
  5
2A1
330
1F
100
AcDbEntity
  8
0
  6
Continuous
 62
     7
100
AcDbLine
 10
4595.4822847432
 20
-525.8861840206
 30
0.0
 11
4759.1107001182
 21
-574.0163011656
 31
0.0
  0
LINE
  5
2A2
330
1F
100
AcDbEntity
  8
0
  6
Continuous
 62
     7
100
AcDbLine
 10
4759.1107001182
 20
-574.0163011656
 30
0.0
 11
4926.5760583682
 21
-617.5264988856
 31
0.0
  0
LINE
  5
2A3
330
1F
100
AcDbEntity
  8
0
  6
Continuous
 62
     7
100
AcDbLine
 10
4926.5760583682
 20
-617.5264988856
 30
0.0
 11
5097.4872363932
 21
-656.3151570856
 31
0.0
  0
LINE
  5
2A4
330
1F
100
AcDbEntity
  8
0
  6
Continuous
 62
     7
100
AcDbLine
 10
5097.4872363932
 20
-656.3151570856
 30
0.0
 11
5271.4450632232
 21
-690.2916830656
 31
0.0
  0
LINE
  5
2A5
330
1F
100
AcDbEntity
  8
0
  6
Continuous
 62
     7
100
AcDbLine
 10
5271.4450632232
 20
-690.2916830656
 30
0.0
 11
5448.0432522832
 21
-719.3767230756
 31
0.0
  0
LINE
  5
2A6
330
1F
100
AcDbEntity
  8
0
  6
Continuous
 62
     7
100
AcDbLine
 10
5448.0432522832
 20
-719.3767230756
 30
0.0
 11
5626.8693503282
 21
-743.5023476506
 31
0.0
  0
LINE
  5
2A7
330
1F
100
AcDbEntity
  8
0
  6
Continuous
 62
     7
100
AcDbLine
 10
5626.8693503282
 20
-743.5023476506
 30
0.0
 11
5807.5057007182
 21
-762.6122102856
 31
0.0
  0
LINE
  5
2A8
330
1F
100
AcDbEntity
  8
0
  6
Continuous
 62
     7
100
AcDbLine
 10
5807.5057007182
 20
-762.6122102856
 30
0.0
 11
5989.5304188882
 21
-776.6616790006
 31
0.0
  0
LINE
  5
2A9
330
1F
100
AcDbEntity
  8
0
  6
Continuous
 62
     7
100
AcDbLine
 10
5989.5304188882
 20
-776.6616790006
 30
0.0
 11
6172.5183776682
 21
-785.6179406156
 31
0.0
  0
LINE
  5
2AA
330
1F
100
AcDbEntity
  8
0
  6
Continuous
 62
     7
100
AcDbLine
 10
6172.5183776682
 20
-785.6179406156
 30
0.0
 11
6356.0422002082
 21
-789.4600773706
 31
0.0
  0
LINE
  5
2AB
330
1F
100
AcDbEntity
  8
0
  6
Continuous
 62
     7
100
AcDbLine
 10
6356.0422002082
 20
-789.4600773706
 30
0.0
 11
6539.6732581132
 21
-788.1791157706
 31
0.0
  0
LINE
  5
2AC
330
1F
100
AcDbEntity
  8
0
  6
Continuous
 62
     7
100
AcDbLine
 10
6539.6732581132
 20
-788.1791157706
 30
0.0
 11
6722.9826725432
 21
-781.7780475656
 31
0.0
  0
LINE
  5
2AD
330
1F
100
AcDbEntity
  8
0
  6
Continuous
 62
     7
100
AcDbLine
 10
6722.9826725432
 20
-781.7780475656
 30
0.0
 11
6905.5423158582
 21
-770.2718227406
 31
0.0
  0
LINE
  5
2AE
330
1F
100
AcDbEntity
  8
0
  6
Continuous
 62
     7
100
AcDbLine
 10
6905.5423158582
 20
-770.2718227406
 30
0.0
 11
7086.9258115632
 21
-753.6873146256
 31
0.0
  0
LINE
  5
2AF
330
1F
100
AcDbEntity
  8
0
  6
Continuous
 62
     7
100
AcDbLine
 10
7086.9258115632
 20
-753.6873146256
 30
0.0
 11
7266.7095300982
 21
-732.0632571006
 31
0.0
  0
LINE
  5
2B0
330
1F
100
AcDbEntity
  8
0
  6
Continuous
 62
     7
100
AcDbLine
 10
7266.7095300982
 20
-732.0632571006
 30
0.0
 11
7444.4735782482
 21
-705.4501541556
 31
0.0
  0
LINE
  5
2B1
330
1F
100
AcDbEntity
  8
0
  6
Continuous
 62
     7
100
AcDbLine
 10
7444.4735782482
 20
-705.4501541556
 30
0.0
 11
7619.8027798532
 21
-673.9101619256
 31
0.0
  0
LINE
  5
2B2
330
1F
100
AcDbEntity
  8
0
  6
Continuous
 62
     7
100
AcDbLine
 10
7619.8027798532
 20
-673.9101619256
 30
0.0
 11
7792.2876454332
 21
-637.5169435306
 31
0.0
  0
LINE
  5
2B3
330
1F
100
AcDbEntity
  8
0
  6
Continuous
 62
     7
100
AcDbLine
 10
7792.2876454332
 20
-637.5169435306
 30
0.0
 11
7961.5253285932
 21
-596.3554970056
 31
0.0
  0
LINE
  5
2B4
330
1F
100
AcDbEntity
  8
0
  6
Continuous
 62
     7
100
AcDbLine
 10
7961.5253285932
 20
-596.3554970056
 30
0.0
 11
8127.1205668832
 21
-550.5219568256
 31
0.0
  0
LINE
  5
2B5
330
1F
100
AcDbEntity
  8
0
  6
Continuous
 62
     7
100
AcDbLine
 10
8127.1205668832
 20
-550.5219568256
 30
0.0
 11
8288.6866049482
 21
-500.1233693456
 31
0.0
  0
LINE
  5
2B6
330
1F
100
AcDbEntity
  8
0
  6
Continuous
 62
     7
100
AcDbLine
 10
8288.6866049482
 20
-500.1233693456
 30
0.0
 11
8445.8460978282
 21
-445.2774428056
 31
0.0
  0
LINE
  5
2B7
330
1F
100
AcDbEntity
  8
0
  6
Continuous
 62
     7
100
AcDbLine
 10
8445.8460978282
 20
-445.2774428056
 30
0.0
 11
8598.2319922382
 21
-386.1122723956
 31
0.0
  0
LINE
  5
2B8
330
1F
100
AcDbEntity
  8
0
  6
Continuous
 62
     7
100
AcDbLine
 10
8598.2319922382
 20
-386.1122723956
 30
0.0
 11
8745.4883838632
 21
-322.7660411256
 31
0.0
  0
LINE
  5
2B9
330
1F
100
AcDbEntity
  8
0
  6
Continuous
 62
     7
100
AcDbLine
 10
8745.4883838632
 20
-322.7660411256
 30
0.0
 11
8887.2713485732
 21
-255.3866970506
 31
0.0
  0
LINE
  5
2BA
330
1F
100
AcDbEntity
  8
0
  6
Continuous
 62
     7
100
AcDbLine
 10
8887.2713485732
 20
-255.3866970506
 30
0.0
 11
9023.2497456932
 21
-184.1316077456
 31
0.0
  0
LINE
  5
2BB
330
1F
100
AcDbEntity
  8
0
  6
Continuous
 62
     7
100
AcDbLine
 10
9023.2497456932
 20
-184.1316077456
 30
0.0
 11
9153.1059913682
 21
-109.1671927806
 31
0.0
  0
LINE
  5
2BC
330
1F
100
AcDbEntity
  8
0
  6
Continuous
 62
     7
100
AcDbLine
 10
9153.1059913682
 20
-109.1671927806
 30
0.0
 11
9276.5368003232
 21
-30.6685350156
 31
0.0
  0
LINE
  5
2BD
330
1F
100
AcDbEntity
  8
0
  6
Continuous
 62
     7
100
AcDbLine
 10
9276.5368003232
 20
-30.6685350156
 30
0.0
 11
9393.2538941882
 21
51.1810282994
 31
0.0
  0
LINE
  5
2BE
330
1F
100
AcDbEntity
  8
0
  6
Continuous
 62
     7
100
AcDbLine
 10
9393.2538941882
 20
51.1810282994
 30
0.0
 11
9502.9846747732
 21
136.1903337094
 31
0.0
  0
LINE
  5
2BF
330
1F
100
AcDbEntity
  8
0
  6
Continuous
 62
     7
100
AcDbLine
 10
9502.9846747732
 20
136.1903337094
 30
0.0
 11
9605.4728607632
 21
224.1608380444
 31
0.0
  0
LINE
  5
2C0
330
1F
100
AcDbEntity
  8
0
  6
Continuous
 62
     7
100
AcDbLine
 10
9605.4728607632
 20
224.1608380444
 30
0.0
 11
9700.4790862482
 21
314.8870821194
 31
0.0
  0
LINE
  5
2C1
330
1F
100
AcDbEntity
  8
0
  6
Continuous
 62
     7
100
AcDbLine
 10
9700.4790862482
 20
314.8870821194
 30
0.0
 11
9787.7814597882
 21
408.1571705894
 31
0.0
  0
LINE
  5
2C2
330
1F
100
AcDbEntity
  8
0
  6
Continuous
 62
     7
100
AcDbLine
 10
9787.7814597882
 20
408.1571705894
 30
0.0
 11
9867.1760826432
 21
503.7532668344
 31
0.0
  0
LINE
  5
2C3
330
1F
100
AcDbEntity
  8
0
  6
Continuous
 62
     7
100
AcDbLine
 10
9867.1760826432
 20
503.7532668344
 30
0.0
 11
9938.4775249932
 21
601.4521017444
 31
0.0
  0
LINE
  5
2C4
330
1F
100
AcDbEntity
  8
0
  6
Continuous
 62
     7
100
AcDbLine
 10
9938.4775249932
 20
601.4521017444
 30
0.0
 11
10001.5192590132
 21
701.0254951644
 31
0.0
  0
LINE
  5
2C5
330
1F
100
AcDbEntity
  8
0
  6
Continuous
 62
     7
100
AcDbLine
 10
10001.5192590132
 20
701.0254951644
 30
0.0
 11
10056.1540478132
 21
802.2408888194
 31
0.0
  0
LINE
  5
2C6
330
1F
100
AcDbEntity
  8
0
  6
Continuous
 62
     7
100
AcDbLine
 10
10056.1540478132
 20
802.2408888194
 30
0.0
 11
10102.2542893182
 21
904.8618894694
 31
0.0
  0
LINE
  5
2C7
330
1F
100
AcDbEntity
  8
0
  6
Continuous
 62
     7
100
AcDbLine
 10
10102.2542893182
 20
904.8618894694
 30
0.0
 11
10139.7123142732
 21
1008.6488210094
 31
0.0
  0
LINE
  5
2C8
330
1F
100
AcDbEntity
  8
0
  6
Continuous
 62
     7
100
AcDbLine
 10
10139.7123142732
 20
1008.6488210094
 30
0.0
 11
10168.4406377232
 21
1113.3592842544
 31
0.0
  0
LINE
  5
2C9
330
1F
100
AcDbEntity
  8
0
  6
Continuous
 62
     7
100
AcDbLine
 10
10168.4406377232
 20
1113.3592842544
 30
0.0
 11
10188.3721633432
 21
1218.7487230644
 31
0.0
  0
LINE
  5
2CA
330
1F
100
AcDbEntity
  8
0
  6
Continuous
 62
     7
100
AcDbLine
 10
10188.3721633432
 20
1218.7487230644
 30
0.0
 11
10193.8087942632
 21
1260.4949500394
 31
0.0
  0
LINE
  5
2CB
330
1F
100
AcDbEntity
  8
0
  6
Continuous
 62
     7
100
AcDbLine
 10
3732.6285688932
 20
6701.6320792994
 30
0.0
 11
3606.7814770982
 21
6777.8810665544
 31
0.0
  0
LINE
  5
2CC
330
1F
100
AcDbEntity
  8
0
  6
Continuous
 62
     7
100
AcDbLine
 10
3606.7814770982
 20
6777.8810665544
 30
0.0
 11
3487.4626464782
 21
6857.5509783344
 31
0.0
  0
LINE
  5
2CD
330
1F
100
AcDbEntity
  8
0
  6
Continuous
 62
     7
100
AcDbLine
 10
3487.4626464782
 20
6857.5509783344
 30
0.0
 11
3374.9507516882
 21
6940.4557418594
 31
0.0
  0
LINE
  5
2CE
330
1F
100
AcDbEntity
  8
0
  6
Continuous
 62
     7
100
AcDbLine
 10
3374.9507516882
 20
6940.4557418594
 30
0.0
 11
3269.5085694732
 21
7026.4017292194
 31
0.0
  0
LINE
  5
2CF
330
1F
100
AcDbEntity
  8
0
  6
Continuous
 62
     7
100
AcDbLine
 10
3269.5085694732
 20
7026.4017292194
 30
0.0
 11
3171.3823649332
 21
7115.1882095794
 31
0.0
  0
LINE
  5
2D0
330
1F
100
AcDbEntity
  8
0
  6
Continuous
 62
     7
100
AcDbLine
 10
3171.3823649332
 20
7115.1882095794
 30
0.0
 11
3080.8013163682
 21
7206.6078179944
 31
0.0
  0
LINE
  5
2D1
330
1F
100
AcDbEntity
  8
0
  6
Continuous
 62
     7
100
AcDbLine
 10
3080.8013163682
 20
7206.6078179944
 30
0.0
 11
2997.9769800182
 21
7300.4470397344
 31
0.0
  0
LINE
  5
2D2
330
1F
100
AcDbEntity
  8
0
  6
Continuous
 62
     7
100
AcDbLine
 10
2997.9769800182
 20
7300.4470397344
 30
0.0
 11
2923.1027959482
 21
7396.4867089544
 31
0.0
  0
LINE
  5
2D3
330
1F
100
AcDbEntity
  8
0
  6
Continuous
 62
     7
100
AcDbLine
 10
2923.1027959482
 20
7396.4867089544
 30
0.0
 11
2856.3536362932
 21
7494.5025205544
 31
0.0
  0
LINE
  5
2D4
330
1F
100
AcDbEntity
  8
0
  6
Continuous
 62
     7
100
AcDbLine
 10
2856.3536362932
 20
7494.5025205544
 30
0.0
 11
2797.8853968032
 21
7594.2655540594
 31
0.0
  0
LINE
  5
2D5
330
1F
100
AcDbEntity
  8
0
  6
Continuous
 62
     7
100
AcDbLine
 10
2797.8853968032
 20
7594.2655540594
 30
0.0
 11
2747.8346327632
 21
7695.5428082894
 31
0.0
  0
LINE
  5
2D6
330
1F
100
AcDbEntity
  8
0
  6
Continuous
 62
     7
100
AcDbLine
 10
2747.8346327632
 20
7695.5428082894
 30
0.0
 11
2706.3182400532
 21
7798.0977455244
 31
0.0
  0
LINE
  5
2D7
330
1F
100
AcDbEntity
  8
0
  6
Continuous
 62
     7
100
AcDbLine
 10
2706.3182400532
 20
7798.0977455244
 30
0.0
 11
2673.4331821282
 21
7901.6908439494
 31
0.0
  0
LINE
  5
2D8
330
1F
100
AcDbEntity
  8
0
  6
Continuous
 62
     7
100
AcDbLine
 10
2673.4331821282
 20
7901.6908439494
 30
0.0
 11
2649.2562635632
 21
8006.0801570894
 31
0.0
  0
LINE
  5
2D9
330
1F
100
AcDbEntity
  8
0
  6
Continuous
 62
     7
100
AcDbLine
 10
2649.2562635632
 20
8006.0801570894
 30
0.0
 11
2635.3029770882
 21
8097.7676178344
 31
0.0
  0
LINE
  5
2DA
330
1F
100
AcDbEntity
  8
0
  6
Continuous
 62
     7
100
AcDbLine
 10
10168.7582192182
 20
8099.0548669294
 30
0.0
 11
10163.4615350832
 21
8058.4972618694
 31
0.0
  0
LINE
  5
2DB
330
1F
100
AcDbEntity
  8
0
  6
Continuous
 62
     7
100
AcDbLine
 10
10163.4615350832
 20
8058.4972618694
 30
0.0
 11
10143.6611379232
 21
7953.8011746294
 31
0.0
  0
LINE
  5
2DC
330
1F
100
AcDbEntity
  8
0
  6
Continuous
 62
     7
100
AcDbLine
 10
10143.6611379232
 20
7953.8011746294
 30
0.0
 11
10115.1218165982
 21
7849.7795960094
 31
0.0
  0
LINE
  5
2DD
330
1F
100
AcDbEntity
  8
0
  6
Continuous
 62
     7
100
AcDbLine
 10
10115.1218165982
 20
7849.7795960094
 30
0.0
 11
10077.9102260182
 21
7746.6754732294
 31
0.0
  0
LINE
  5
2DE
330
1F
100
AcDbEntity
  8
0
  6
Continuous
 62
     7
100
AcDbLine
 10
10077.9102260182
 20
7746.6754732294
 30
0.0
 11
10032.1132755782
 21
7644.7296107444
 31
0.0
  0
LINE
  5
2DF
330
1F
100
AcDbEntity
  8
0
  6
Continuous
 62
     7
100
AcDbLine
 10
10032.1132755782
 20
7644.7296107444
 30
0.0
 11
9977.8379261782
 21
7544.1801078344
 31
0.0
  0
LINE
  5
2E0
330
1F
100
AcDbEntity
  8
0
  6
Continuous
 62
     7
100
AcDbLine
 10
9977.8379261782
 20
7544.1801078344
 30
0.0
 11
9915.2109404032
 21
7445.2618025294
 31
0.0
  0
LINE
  5
2E1
330
1F
100
AcDbEntity
  8
0
  6
Continuous
 62
     7
100
AcDbLine
 10
9915.2109404032
 20
7445.2618025294
 30
0.0
 11
9844.3785864932
 21
7348.2057231144
 31
0.0
  0
LINE
  5
2E2
330
1F
100
AcDbEntity
  8
0
  6
Continuous
 62
     7
100
AcDbLine
 10
9844.3785864932
 20
7348.2057231144
 30
0.0
 11
9765.5062966832
 21
7253.2385485544
 31
0.0
  0
LINE
  5
2E3
330
1F
100
AcDbEntity
  8
0
  6
Continuous
 62
     7
100
AcDbLine
 10
9765.5062966832
 20
7253.2385485544
 30
0.0
 11
9678.7782808632
 21
7160.5820790894
 31
0.0
  0
LINE
  5
2E4
330
1F
100
AcDbEntity
  8
0
  6
Continuous
 62
     7
100
AcDbLine
 10
9678.7782808632
 20
7160.5820790894
 30
0.0
 11
9584.3970963382
 21
7070.4527181994
 31
0.0
  0
LINE
  5
2E5
330
1F
100
AcDbEntity
  8
0
  6
Continuous
 62
     7
100
AcDbLine
 10
9584.3970963382
 20
7070.4527181994
 30
0.0
 11
9482.5831747282
 21
6983.0609671794
 31
0.0
  0
LINE
  5
2E6
330
1F
100
AcDbEntity
  8
0
  6
Continuous
 62
     7
100
AcDbLine
 10
9482.5831747282
 20
6983.0609671794
 30
0.0
 11
9373.5743071732
 21
6898.6109335144
 31
0.0
  0
LINE
  5
2E7
330
1F
100
AcDbEntity
  8
0
  6
Continuous
 62
     7
100
AcDbLine
 10
9373.5743071732
 20
6898.6109335144
 30
0.0
 11
9257.6250889282
 21
6817.2998541744
 31
0.0
  0
LINE
  5
2E8
330
1F
100
AcDbEntity
  8
0
  6
Continuous
 62
     7
100
AcDbLine
 10
9257.6250889282
 20
6817.2998541744
 30
0.0
 11
9135.0063247682
 21
6739.3176349444
 31
0.0
  0
LINE
  5
2E9
330
1F
100
AcDbEntity
  8
0
  6
Continuous
 62
     7
100
AcDbLine
 10
9135.0063247682
 20
6739.3176349444
 30
0.0
 11
9006.0043964982
 21
6664.8464069194
 31
0.0
  0
LINE
  5
2EA
330
1F
100
AcDbEntity
  8
0
  6
Continuous
 62
     7
100
AcDbLine
 10
9006.0043964982
 20
6664.8464069194
 30
0.0
 11
8870.9205940932
 21
6594.0601010994
 31
0.0
  0
LINE
  5
2EB
330
1F
100
AcDbEntity
  8
0
  6
Continuous
 62
     7
100
AcDbLine
 10
8870.9205940932
 20
6594.0601010994
 30
0.0
 11
8730.0704120432
 21
6527.1240421794
 31
0.0
  0
LINE
  5
2EC
330
1F
100
AcDbEntity
  8
0
  6
Continuous
 62
     7
100
AcDbLine
 10
8730.0704120432
 20
6527.1240421794
 30
0.0
 11
8583.7828124732
 21
6464.1945624294
 31
0.0
  0
LINE
  5
2ED
330
1F
100
AcDbEntity
  8
0
  6
Continuous
 62
     7
100
AcDbLine
 10
8583.7828124732
 20
6464.1945624294
 30
0.0
 11
8432.3994568432
 21
6405.4186365644
 31
0.0
  0
LINE
  5
2EE
330
1F
100
AcDbEntity
  8
0
  6
Continuous
 62
     7
100
AcDbLine
 10
8432.3994568432
 20
6405.4186365644
 30
0.0
 11
8276.2739079982
 21
6350.9335384844
 31
0.0
  0
LINE
  5
2EF
330
1F
100
AcDbEntity
  8
0
  6
Continuous
 62
     7
100
AcDbLine
 10
8276.2739079982
 20
6350.9335384844
 30
0.0
 11
8115.7708043882
 21
6300.8665206594
 31
0.0
  0
LINE
  5
2F0
330
1F
100
AcDbEntity
  8
0
  6
Continuous
 62
     7
100
AcDbLine
 10
8115.7708043882
 20
6300.8665206594
 30
0.0
 11
7951.2650084582
 21
6255.3345169294
 31
0.0
  0
LINE
  5
2F1
330
1F
100
AcDbEntity
  8
0
  6
Continuous
 62
     7
100
AcDbLine
 10
7951.2650084582
 20
6255.3345169294
 30
0.0
 11
7783.1407311082
 21
6214.4438693994
 31
0.0
  0
LINE
  5
2F2
330
1F
100
AcDbEntity
  8
0
  6
Continuous
 62
     7
100
AcDbLine
 10
7783.1407311082
 20
6214.4438693994
 30
0.0
 11
7611.7906343782
 21
6178.2900800694
 31
0.0
  0
LINE
  5
2F3
330
1F
100
AcDbEntity
  8
0
  6
Continuous
 62
     7
100
AcDbLine
 10
7611.7906343782
 20
6178.2900800694
 30
0.0
 11
7437.6149143632
 21
6146.9575877894
 31
0.0
  0
LINE
  5
2F4
330
1F
100
AcDbEntity
  8
0
  6
Continuous
 62
     7
100
AcDbLine
 10
7437.6149143632
 20
6146.9575877894
 30
0.0
 11
7261.0203665282
 21
6120.5195710494
 31
0.0
  0
LINE
  5
2F5
330
1F
100
AcDbEntity
  8
0
  6
Continuous
 62
     7
100
AcDbLine
 10
7261.0203665282
 20
6120.5195710494
 30
0.0
 11
7082.4194356182
 21
6099.0377770594
 31
0.0
  0
LINE
  5
2F6
330
1F
100
AcDbEntity
  8
0
  6
Continuous
 62
     7
100
AcDbLine
 10
7082.4194356182
 20
6099.0377770594
 30
0.0
 11
6902.2292523882
 21
6082.5623775494
 31
0.0
  0
LINE
  5
2F7
330
1F
100
AcDbEntity
  8
0
  6
Continuous
 62
     7
100
AcDbLine
 10
6902.2292523882
 20
6082.5623775494
 30
0.0
 11
6720.8706593532
 21
6071.1318515744
 31
0.0
  0
LINE
  5
2F8
330
1F
100
AcDbEntity
  8
0
  6
Continuous
 62
     7
100
AcDbLine
 10
6720.8706593532
 20
6071.1318515744
 30
0.0
 11
6538.7672279132
 21
6064.7728956594
 31
0.0
  0
LINE
  5
2F9
330
1F
100
AcDbEntity
  8
0
  6
Continuous
 62
     7
100
AcDbLine
 10
6538.7672279132
 20
6064.7728956594
 30
0.0
 11
6356.3442690732
 21
6063.5003614344
 31
0.0
  0
LINE
  5
2FA
330
1F
100
AcDbEntity
  8
0
  6
Continuous
 62
     7
100
AcDbLine
 10
6356.3442690732
 20
6063.5003614344
 30
0.0
 11
6174.0278401032
 21
6067.3172209744
 31
0.0
  0
LINE
  5
2FB
330
1F
100
AcDbEntity
  8
0
  6
Continuous
 62
     7
100
AcDbLine
 10
6174.0278401032
 20
6067.3172209744
 30
0.0
 11
5992.2437494732
 21
6076.2145598194
 31
0.0
  0
LINE
  5
2FC
330
1F
100
AcDbEntity
  8
0
  6
Continuous
 62
     7
100
AcDbLine
 10
5992.2437494732
 20
6076.2145598194
 30
0.0
 11
5811.4165623432
 21
6090.1715978194
 31
0.0
  0
LINE
  5
2FD
330
1F
100
AcDbEntity
  8
0
  6
Continuous
 62
     7
100
AcDbLine
 10
5811.4165623432
 20
6090.1715978194
 30
0.0
 11
5631.9686089982
 21
6109.1557376694
 31
0.0
  0
LINE
  5
2FE
330
1F
100
AcDbEntity
  8
0
  6
Continuous
 62
     7
100
AcDbLine
 10
5631.9686089982
 20
6109.1557376694
 30
0.0
 11
5454.3189984432
 21
6133.1226410344
 31
0.0
  0
LINE
  5
2FF
330
1F
100
AcDbEntity
  8
0
  6
Continuous
 62
     7
100
AcDbLine
 10
5454.3189984432
 20
6133.1226410344
 30
0.0
 11
5278.8826395682
 21
6162.0163320944
 31
0.0
  0
LINE
  5
300
330
1F
100
AcDbEntity
  8
0
  6
Continuous
 62
     7
100
AcDbLine
 10
5278.8826395682
 20
6162.0163320944
 30
0.0
 11
5106.0692721282
 21
6195.7693282994
 31
0.0
  0
LINE
  5
301
330
1F
100
AcDbEntity
  8
0
  6
Continuous
 62
     7
100
AcDbLine
 10
5106.0692721282
 20
6195.7693282994
 30
0.0
 11
4936.2825097482
 21
6234.3027979594
 31
0.0
  0
LINE
  5
302
330
1F
100
AcDbEntity
  8
0
  6
Continuous
 62
     7
100
AcDbLine
 10
4936.2825097482
 20
6234.3027979594
 30
0.0
 11
4769.9188972732
 21
6277.5267443744
 31
0.0
  0
LINE
  5
303
330
1F
100
AcDbEntity
  8
0
  6
Continuous
 62
     7
100
AcDbLine
 10
4769.9188972732
 20
6277.5267443744
 30
0.0
 11
4607.3669846332
 21
6325.3402160144
 31
0.0
  0
LINE
  5
304
330
1F
100
AcDbEntity
  8
0
  6
Continuous
 62
     7
100
AcDbLine
 10
4607.3669846332
 20
6325.3402160144
 30
0.0
 11
4449.0064193532
 21
6377.6315422994
 31
0.0
  0
LINE
  5
305
330
1F
100
AcDbEntity
  8
0
  6
Continuous
 62
     7
100
AcDbLine
 10
4449.0064193532
 20
6377.6315422994
 30
0.0
 11
4295.2070598682
 21
6434.2785944094
 31
0.0
  0
LINE
  5
306
330
1F
100
AcDbEntity
  8
0
  6
Continuous
 62
     7
100
AcDbLine
 10
4295.2070598682
 20
6434.2785944094
 30
0.0
 11
4146.3281117082
 21
6495.1490705394
 31
0.0
  0
LINE
  5
307
330
1F
100
AcDbEntity
  8
0
  6
Continuous
 62
     7
100
AcDbLine
 10
4146.3281117082
 20
6495.1490705394
 30
0.0
 11
4002.7172885582
 21
6560.1008048644
 31
0.0
  0
LINE
  5
308
330
1F
100
AcDbEntity
  8
0
  6
Continuous
 62
     7
100
AcDbLine
 10
4002.7172885582
 20
6560.1008048644
 30
0.0
 11
3864.7100001482
 21
6628.9820996044
 31
0.0
  0
LINE
  5
309
330
1F
100
AcDbEntity
  8
0
  6
Continuous
 62
     7
100
AcDbLine
 10
3864.7100001482
 20
6628.9820996044
 30
0.0
 11
3732.6285688932
 21
6701.6320792994
 31
0.0
  0
LINE
  5
30A
330
1F
100
AcDbEntity
  8
0
  6
Continuous
 62
     7
100
AcDbLine
 10
2656.0795082682
 20
7915.9248820844
 30
0.0
 11
2673.4331821282
 21
7845.1872569294
 31
0.0
  0
LINE
  5
30B
330
1F
100
AcDbEntity
  8
0
  6
Continuous
 62
     7
100
AcDbLine
 10
2673.4331821282
 20
7845.1872569294
 30
0.0
 11
2706.3182400532
 21
7741.5941584994
 31
0.0
  0
LINE
  5
30C
330
1F
100
AcDbEntity
  8
0
  6
Continuous
 62
     7
100
AcDbLine
 10
2706.3182400532
 20
7741.5941584994
 30
0.0
 11
2747.8346327632
 21
7639.0392212694
 31
0.0
  0
LINE
  5
30D
330
1F
100
AcDbEntity
  8
0
  6
Continuous
 62
     7
100
AcDbLine
 10
2747.8346327632
 20
7639.0392212694
 30
0.0
 11
2797.8853968032
 21
7537.7619670394
 31
0.0
  0
LINE
  5
30E
330
1F
100
AcDbEntity
  8
0
  6
Continuous
 62
     7
100
AcDbLine
 10
2797.8853968032
 20
7537.7619670394
 30
0.0
 11
2856.3536362932
 21
7437.9989335344
 31
0.0
  0
LINE
  5
30F
330
1F
100
AcDbEntity
  8
0
  6
Continuous
 62
     7
100
AcDbLine
 10
2856.3536362932
 20
7437.9989335344
 30
0.0
 11
2923.1027959482
 21
7339.9831219344
 31
0.0
  0
LINE
  5
310
330
1F
100
AcDbEntity
  8
0
  6
Continuous
 62
     7
100
AcDbLine
 10
2923.1027959482
 20
7339.9831219344
 30
0.0
 11
2997.9769800182
 21
7243.9434527144
 31
0.0
  0
LINE
  5
311
330
1F
100
AcDbEntity
  8
0
  6
Continuous
 62
     7
100
AcDbLine
 10
2997.9769800182
 20
7243.9434527144
 30
0.0
 11
3080.8013163682
 21
7150.1042309744
 31
0.0
  0
LINE
  5
312
330
1F
100
AcDbEntity
  8
0
  6
Continuous
 62
     7
100
AcDbLine
 10
3080.8013163682
 20
7150.1042309744
 30
0.0
 11
3171.3823649332
 21
7058.6846225544
 31
0.0
  0
LINE
  5
313
330
1F
100
AcDbEntity
  8
0
  6
Continuous
 62
     7
100
AcDbLine
 10
3171.3823649332
 20
7058.6846225544
 30
0.0
 11
3269.5085694732
 21
6969.8981421994
 31
0.0
  0
LINE
  5
314
330
1F
100
AcDbEntity
  8
0
  6
Continuous
 62
     7
100
AcDbLine
 10
3269.5085694732
 20
6969.8981421994
 30
0.0
 11
3374.9507516882
 21
6883.9521548394
 31
0.0
  0
LINE
  5
315
330
1F
100
AcDbEntity
  8
0
  6
Continuous
 62
     7
100
AcDbLine
 10
3374.9507516882
 20
6883.9521548394
 30
0.0
 11
3487.4626464782
 21
6801.0473913094
 31
0.0
  0
LINE
  5
316
330
1F
100
AcDbEntity
  8
0
  6
Continuous
 62
     7
100
AcDbLine
 10
3487.4626464782
 20
6801.0473913094
 30
0.0
 11
3606.7814770982
 21
6721.3774795344
 31
0.0
  0
LINE
  5
317
330
1F
100
AcDbEntity
  8
0
  6
Continuous
 62
     7
100
AcDbLine
 10
3606.7814770982
 20
6721.3774795344
 30
0.0
 11
3732.6285688932
 21
6645.1284922744
 31
0.0
  0
LINE
  5
318
330
1F
100
AcDbEntity
  8
0
  6
Continuous
 62
     7
100
AcDbLine
 10
3732.6285688932
 20
6645.1284922744
 30
0.0
 11
3864.7100001482
 21
6572.4785125844
 31
0.0
  0
LINE
  5
319
330
1F
100
AcDbEntity
  8
0
  6
Continuous
 62
     7
100
AcDbLine
 10
3864.7100001482
 20
6572.4785125844
 30
0.0
 11
4002.7172885582
 21
6503.5972178444
 31
0.0
  0
LINE
  5
31A
330
1F
100
AcDbEntity
  8
0
  6
Continuous
 62
     7
100
AcDbLine
 10
4002.7172885582
 20
6503.5972178444
 30
0.0
 11
4146.3281117082
 21
6438.6454835194
 31
0.0
  0
LINE
  5
31B
330
1F
100
AcDbEntity
  8
0
  6
Continuous
 62
     7
100
AcDbLine
 10
4146.3281117082
 20
6438.6454835194
 30
0.0
 11
4295.2070598682
 21
6377.7750073894
 31
0.0
  0
LINE
  5
31C
330
1F
100
AcDbEntity
  8
0
  6
Continuous
 62
     7
100
AcDbLine
 10
4295.2070598682
 20
6377.7750073894
 30
0.0
 11
4449.0064193532
 21
6321.1279552744
 31
0.0
  0
LINE
  5
31D
330
1F
100
AcDbEntity
  8
0
  6
Continuous
 62
     7
100
AcDbLine
 10
4449.0064193532
 20
6321.1279552744
 30
0.0
 11
4607.3669846332
 21
6268.8366289944
 31
0.0
  0
LINE
  5
31E
330
1F
100
AcDbEntity
  8
0
  6
Continuous
 62
     7
100
AcDbLine
 10
4607.3669846332
 20
6268.8366289944
 30
0.0
 11
4769.9188972732
 21
6221.0231573544
 31
0.0
  0
LINE
  5
31F
330
1F
100
AcDbEntity
  8
0
  6
Continuous
 62
     7
100
AcDbLine
 10
4769.9188972732
 20
6221.0231573544
 30
0.0
 11
4936.2825097482
 21
6177.7992109394
 31
0.0
  0
LINE
  5
320
330
1F
100
AcDbEntity
  8
0
  6
Continuous
 62
     7
100
AcDbLine
 10
4936.2825097482
 20
6177.7992109394
 30
0.0
 11
5106.0692721282
 21
6139.2657412794
 31
0.0
  0
LINE
  5
321
330
1F
100
AcDbEntity
  8
0
  6
Continuous
 62
     7
100
AcDbLine
 10
5106.0692721282
 20
6139.2657412794
 30
0.0
 11
5278.8826395682
 21
6105.5127450744
 31
0.0
  0
LINE
  5
322
330
1F
100
AcDbEntity
  8
0
  6
Continuous
 62
     7
100
AcDbLine
 10
5278.8826395682
 20
6105.5127450744
 30
0.0
 11
5454.3189984432
 21
6076.6190540144
 31
0.0
  0
LINE
  5
323
330
1F
100
AcDbEntity
  8
0
  6
Continuous
 62
     7
100
AcDbLine
 10
5454.3189984432
 20
6076.6190540144
 30
0.0
 11
5631.9686089982
 21
6052.6521506494
 31
0.0
  0
LINE
  5
324
330
1F
100
AcDbEntity
  8
0
  6
Continuous
 62
     7
100
AcDbLine
 10
5631.9686089982
 20
6052.6521506494
 30
0.0
 11
5811.4165623432
 21
6033.6680107994
 31
0.0
  0
LINE
  5
325
330
1F
100
AcDbEntity
  8
0
  6
Continuous
 62
     7
100
AcDbLine
 10
5811.4165623432
 20
6033.6680107994
 30
0.0
 11
5992.2437494732
 21
6019.7109727944
 31
0.0
  0
LINE
  5
326
330
1F
100
AcDbEntity
  8
0
  6
Continuous
 62
     7
100
AcDbLine
 10
5992.2437494732
 20
6019.7109727944
 30
0.0
 11
6174.0278401032
 21
6010.8136339544
 31
0.0
  0
LINE
  5
327
330
1F
100
AcDbEntity
  8
0
  6
Continuous
 62
     7
100
AcDbLine
 10
6174.0278401032
 20
6010.8136339544
 30
0.0
 11
6356.3442690732
 21
6006.9967744144
 31
0.0
  0
LINE
  5
328
330
1F
100
AcDbEntity
  8
0
  6
Continuous
 62
     7
100
AcDbLine
 10
6356.3442690732
 20
6006.9967744144
 30
0.0
 11
6538.7672279132
 21
6008.2693086344
 31
0.0
  0
LINE
  5
329
330
1F
100
AcDbEntity
  8
0
  6
Continuous
 62
     7
100
AcDbLine
 10
6538.7672279132
 20
6008.2693086344
 30
0.0
 11
6720.8706593532
 21
6014.6282645544
 31
0.0
  0
LINE
  5
32A
330
1F
100
AcDbEntity
  8
0
  6
Continuous
 62
     7
100
AcDbLine
 10
6720.8706593532
 20
6014.6282645544
 30
0.0
 11
6902.2292523882
 21
6026.0587905294
 31
0.0
  0
LINE
  5
32B
330
1F
100
AcDbEntity
  8
0
  6
Continuous
 62
     7
100
AcDbLine
 10
6902.2292523882
 20
6026.0587905294
 30
0.0
 11
7082.4194356182
 21
6042.5341900394
 31
0.0
  0
LINE
  5
32C
330
1F
100
AcDbEntity
  8
0
  6
Continuous
 62
     7
100
AcDbLine
 10
7082.4194356182
 20
6042.5341900394
 30
0.0
 11
7261.0203665282
 21
6064.0159840244
 31
0.0
  0
LINE
  5
32D
330
1F
100
AcDbEntity
  8
0
  6
Continuous
 62
     7
100
AcDbLine
 10
7261.0203665282
 20
6064.0159840244
 30
0.0
 11
7437.6149143632
 21
6090.4540007694
 31
0.0
  0
LINE
  5
32E
330
1F
100
AcDbEntity
  8
0
  6
Continuous
 62
     7
100
AcDbLine
 10
7437.6149143632
 20
6090.4540007694
 30
0.0
 11
7611.7906343782
 21
6121.7864930444
 31
0.0
  0
LINE
  5
32F
330
1F
100
AcDbEntity
  8
0
  6
Continuous
 62
     7
100
AcDbLine
 10
7611.7906343782
 20
6121.7864930444
 30
0.0
 11
7783.1407311082
 21
6157.9402823794
 31
0.0
  0
LINE
  5
330
330
1F
100
AcDbEntity
  8
0
  6
Continuous
 62
     7
100
AcDbLine
 10
7783.1407311082
 20
6157.9402823794
 30
0.0
 11
7951.2650084582
 21
6198.8309299094
 31
0.0
  0
LINE
  5
331
330
1F
100
AcDbEntity
  8
0
  6
Continuous
 62
     7
100
AcDbLine
 10
7951.2650084582
 20
6198.8309299094
 30
0.0
 11
8115.7708043882
 21
6244.3629336394
 31
0.0
  0
LINE
  5
332
330
1F
100
AcDbEntity
  8
0
  6
Continuous
 62
     7
100
AcDbLine
 10
8115.7708043882
 20
6244.3629336394
 30
0.0
 11
8276.2739079982
 21
6294.4299514644
 31
0.0
  0
LINE
  5
333
330
1F
100
AcDbEntity
  8
0
  6
Continuous
 62
     7
100
AcDbLine
 10
8276.2739079982
 20
6294.4299514644
 30
0.0
 11
8432.3994568432
 21
6348.9150495444
 31
0.0
  0
LINE
  5
334
330
1F
100
AcDbEntity
  8
0
  6
Continuous
 62
     7
100
AcDbLine
 10
8432.3994568432
 20
6348.9150495444
 30
0.0
 11
8583.7828124732
 21
6407.6909754094
 31
0.0
  0
LINE
  5
335
330
1F
100
AcDbEntity
  8
0
  6
Continuous
 62
     7
100
AcDbLine
 10
8583.7828124732
 20
6407.6909754094
 30
0.0
 11
8730.0704120432
 21
6470.6204551594
 31
0.0
  0
LINE
  5
336
330
1F
100
AcDbEntity
  8
0
  6
Continuous
 62
     7
100
AcDbLine
 10
8730.0704120432
 20
6470.6204551594
 30
0.0
 11
8870.9205940932
 21
6537.5565140744
 31
0.0
  0
LINE
  5
337
330
1F
100
AcDbEntity
  8
0
  6
Continuous
 62
     7
100
AcDbLine
 10
8870.9205940932
 20
6537.5565140744
 30
0.0
 11
9006.0043964982
 21
6608.3428198994
 31
0.0
  0
LINE
  5
338
330
1F
100
AcDbEntity
  8
0
  6
Continuous
 62
     7
100
AcDbLine
 10
9006.0043964982
 20
6608.3428198994
 30
0.0
 11
9135.0063247682
 21
6682.8140479244
 31
0.0
  0
LINE
  5
339
330
1F
100
AcDbEntity
  8
0
  6
Continuous
 62
     7
100
AcDbLine
 10
9135.0063247682
 20
6682.8140479244
 30
0.0
 11
9257.6250889282
 21
6760.7962671494
 31
0.0
  0
LINE
  5
33A
330
1F
100
AcDbEntity
  8
0
  6
Continuous
 62
     7
100
AcDbLine
 10
9257.6250889282
 20
6760.7962671494
 30
0.0
 11
9373.5743071732
 21
6842.1073464944
 31
0.0
  0
LINE
  5
33B
330
1F
100
AcDbEntity
  8
0
  6
Continuous
 62
     7
100
AcDbLine
 10
9373.5743071732
 20
6842.1073464944
 30
0.0
 11
9482.5831747282
 21
6926.5573801594
 31
0.0
  0
LINE
  5
33C
330
1F
100
AcDbEntity
  8
0
  6
Continuous
 62
     7
100
AcDbLine
 10
9482.5831747282
 20
6926.5573801594
 30
0.0
 11
9584.3970963382
 21
7013.9491311794
 31
0.0
  0
LINE
  5
33D
330
1F
100
AcDbEntity
  8
0
  6
Continuous
 62
     7
100
AcDbLine
 10
9584.3970963382
 20
7013.9491311794
 30
0.0
 11
9678.7782808632
 21
7104.0784920694
 31
0.0
  0
LINE
  5
33E
330
1F
100
AcDbEntity
  8
0
  6
Continuous
 62
     7
100
AcDbLine
 10
9678.7782808632
 20
7104.0784920694
 30
0.0
 11
9765.5062966832
 21
7196.7349615344
 31
0.0
  0
LINE
  5
33F
330
1F
100
AcDbEntity
  8
0
  6
Continuous
 62
     7
100
AcDbLine
 10
9765.5062966832
 20
7196.7349615344
 30
0.0
 11
9844.3785864932
 21
7291.7021360894
 31
0.0
  0
LINE
  5
340
330
1F
100
AcDbEntity
  8
0
  6
Continuous
 62
     7
100
AcDbLine
 10
9844.3785864932
 20
7291.7021360894
 30
0.0
 11
9915.2109404032
 21
7388.7582155094
 31
0.0
  0
LINE
  5
341
330
1F
100
AcDbEntity
  8
0
  6
Continuous
 62
     7
100
AcDbLine
 10
9915.2109404032
 20
7388.7582155094
 30
0.0
 11
9977.8379261782
 21
7487.6765208144
 31
0.0
  0
LINE
  5
342
330
1F
100
AcDbEntity
  8
0
  6
Continuous
 62
     7
100
AcDbLine
 10
9977.8379261782
 20
7487.6765208144
 30
0.0
 11
10032.1132755782
 21
7588.2260237194
 31
0.0
  0
LINE
  5
343
330
1F
100
AcDbEntity
  8
0
  6
Continuous
 62
     7
100
AcDbLine
 10
10032.1132755782
 20
7588.2260237194
 30
0.0
 11
10077.9102260182
 21
7690.1718862094
 31
0.0
  0
LINE
  5
344
330
1F
100
AcDbEntity
  8
0
  6
Continuous
 62
     7
100
AcDbLine
 10
10077.9102260182
 20
7690.1718862094
 30
0.0
 11
10115.1218165982
 21
7793.2760089894
 31
0.0
  0
LINE
  5
345
330
1F
100
AcDbEntity
  8
0
  6
Continuous
 62
     7
100
AcDbLine
 10
10115.1218165982
 20
7793.2760089894
 30
0.0
 11
10143.6611379232
 21
7897.2975876094
 31
0.0
  0
LINE
  5
346
330
1F
100
AcDbEntity
  8
0
  6
Continuous
 62
     7
100
AcDbLine
 10
10143.6611379232
 20
7897.2975876094
 30
0.0
 11
10147.5004638782
 21
7914.3889893644
 31
0.0
  0
LINE
  5
347
330
1F
100
AcDbEntity
  8
0
  6
Continuous
 62
     7
100
AcDbLine
 10
9970.2729357132
 20
8368.7420839494
 30
0.0
 11
9963.3527135482
 21
8422.4747234544
 31
0.0
  0
LINE
  5
348
330
1F
100
AcDbEntity
  8
0
  6
Continuous
 62
     7
100
AcDbLine
 10
9963.3527135482
 20
8422.4747234544
 30
0.0
 11
9943.3945478982
 21
8524.7317853194
 31
0.0
  0
LINE
  5
349
330
1F
100
AcDbEntity
  8
0
  6
Continuous
 62
     7
100
AcDbLine
 10
9943.3945478982
 20
8524.7317853194
 30
0.0
 11
9914.6318096832
 21
8626.2874290594
 31
0.0
  0
LINE
  5
34A
330
1F
100
AcDbEntity
  8
0
  6
Continuous
 62
     7
100
AcDbLine
 10
9914.6318096832
 20
8626.2874290594
 30
0.0
 11
9877.1360075982
 21
8726.8891713394
 31
0.0
  0
LINE
  5
34B
330
1F
100
AcDbEntity
  8
0
  6
Continuous
 62
     7
100
AcDbLine
 10
9877.1360075982
 20
8726.8891713394
 30
0.0
 11
9831.0003621182
 21
8826.2869003794
 31
0.0
  0
LINE
  5
34C
330
1F
100
AcDbEntity
  8
0
  6
Continuous
 62
     7
100
AcDbLine
 10
9831.0003621182
 20
8826.2869003794
 30
0.0
 11
9776.3395737232
 21
8924.2334977544
 31
0.0
  0
LINE
  5
34D
330
1F
100
AcDbEntity
  8
0
  6
Continuous
 62
     7
100
AcDbLine
 10
9776.3395737232
 20
8924.2334977544
 30
0.0
 11
9713.2895377532
 21
9020.4854527994
 31
0.0
  0
LINE
  5
34E
330
1F
100
AcDbEntity
  8
0
  6
Continuous
 62
     7
100
AcDbLine
 10
9713.2895377532
 20
9020.4854527994
 30
0.0
 11
9642.0070065282
 21
9114.8034679894
 31
0.0
  0
LINE
  5
34F
330
1F
100
AcDbEntity
  8
0
  6
Continuous
 62
     7
100
AcDbLine
 10
9642.0070065282
 20
9114.8034679894
 30
0.0
 11
9562.6691996532
 21
9206.9530538694
 31
0.0
  0
LINE
  5
350
330
1F
100
AcDbEntity
  8
0
  6
Continuous
 62
     7
100
AcDbLine
 10
9562.6691996532
 20
9206.9530538694
 30
0.0
 11
9475.4733634132
 21
9296.7051120594
 31
0.0
  0
LINE
  5
351
330
1F
100
AcDbEntity
  8
0
  6
Continuous
 62
     7
100
AcDbLine
 10
9475.4733634132
 20
9296.7051120594
 30
0.0
 11
9380.6362803982
 21
9383.8365047944
 31
0.0
  0
LINE
  5
352
330
1F
100
AcDbEntity
  8
0
  6
Continuous
 62
     7
100
AcDbLine
 10
9380.6362803982
 20
9383.8365047944
 30
0.0
 11
9278.3937305382
 21
9468.1306097044
 31
0.0
  0
LINE
  5
353
330
1F
100
AcDbEntity
  8
0
  6
Continuous
 62
     7
100
AcDbLine
 10
9278.3937305382
 20
9468.1306097044
 30
0.0
 11
9168.9999049232
 21
9549.3778583694
 31
0.0
  0
LINE
  5
354
330
1F
100
AcDbEntity
  8
0
  6
Continuous
 62
     7
100
AcDbLine
 10
9168.9999049232
 20
9549.3778583694
 30
0.0
 11
9052.7267738432
 21
9627.3762573194
 31
0.0
  0
LINE
  5
355
330
1F
100
AcDbEntity
  8
0
  6
Continuous
 62
     7
100
AcDbLine
 10
9052.7267738432
 20
9627.3762573194
 30
0.0
 11
8929.8634106132
 21
9701.9318902444
 31
0.0
  0
LINE
  5
356
330
1F
100
AcDbEntity
  8
0
  6
Continuous
 62
     7
100
AcDbLine
 10
8929.8634106132
 20
9701.9318902444
 30
0.0
 11
8800.7152729232
 21
9772.8594001044
 31
0.0
  0
LINE
  5
357
330
1F
100
AcDbEntity
  8
0
  6
Continuous
 62
     7
100
AcDbLine
 10
8800.7152729232
 20
9772.8594001044
 30
0.0
 11
8665.6034433832
 21
9839.9824499244
 31
0.0
  0
LINE
  5
358
330
1F
100
AcDbEntity
  8
0
  6
Continuous
 62
     7
100
AcDbLine
 10
8665.6034433832
 20
9839.9824499244
 30
0.0
 11
8524.8638312982
 21
9903.1341612294
 31
0.0
  0
LINE
  5
359
330
1F
100
AcDbEntity
  8
0
  6
Continuous
 62
     7
100
AcDbLine
 10
8524.8638312982
 20
9903.1341612294
 30
0.0
 11
8378.8463375132
 21
9962.1575289144
 31
0.0
  0
LINE
  5
35A
330
1F
100
AcDbEntity
  8
0
  6
Continuous
 62
     7
100
AcDbLine
 10
8378.8463375132
 20
9962.1575289144
 30
0.0
 11
8227.9139845282
 21
10016.9058115894
 31
0.0
  0
LINE
  5
35B
330
1F
100
AcDbEntity
  8
0
  6
Continuous
 62
     7
100
AcDbLine
 10
8227.9139845282
 20
10016.9058115894
 30
0.0
 11
8072.4420139482
 21
10067.2428963944
 31
0.0
  0
LINE
  5
35C
330
1F
100
AcDbEntity
  8
0
  6
Continuous
 62
     7
100
AcDbLine
 10
8072.4420139482
 20
10067.2428963944
 30
0.0
 11
7912.8169535932
 21
10113.0436374094
 31
0.0
  0
LINE
  5
35D
330
1F
100
AcDbEntity
  8
0
  6
Continuous
 62
     7
100
AcDbLine
 10
7912.8169535932
 20
10113.0436374094
 30
0.0
 11
7749.4356565182
 21
10154.1941667694
 31
0.0
  0
LINE
  5
35E
330
1F
100
AcDbEntity
  8
0
  6
Continuous
 62
     7
100
AcDbLine
 10
7749.4356565182
 20
10154.1941667694
 30
0.0
 11
7582.7043143632
 21
10190.5921777844
 31
0.0
  0
LINE
  5
35F
330
1F
100
AcDbEntity
  8
0
  6
Continuous
 62
     7
100
AcDbLine
 10
7582.7043143632
 20
10190.5921777844
 30
0.0
 11
7413.0374475182
 21
10222.1471792544
 31
0.0
  0
LINE
  5
360
330
1F
100
AcDbEntity
  8
0
  6
Continuous
 62
     7
100
AcDbLine
 10
7413.0374475182
 20
10222.1471792544
 30
0.0
 11
7240.8568745432
 21
10248.7807204794
 31
0.0
  0
LINE
  5
361
330
1F
100
AcDbEntity
  8
0
  6
Continuous
 62
     7
100
AcDbLine
 10
7240.8568745432
 20
10248.7807204794
 30
0.0
 11
7066.5906634782
 21
10270.4265862794
 31
0.0
  0
LINE
  5
362
330
1F
100
AcDbEntity
  8
0
  6
Continuous
 62
     7
100
AcDbLine
 10
7066.5906634782
 20
10270.4265862794
 30
0.0
 11
6890.6720675832
 21
10287.0309616144
 31
0.0
  0
LINE
  5
363
330
1F
100
AcDbEntity
  8
0
  6
Continuous
 62
     7
100
AcDbLine
 10
6890.6720675832
 20
10287.0309616144
 30
0.0
 11
6713.5384481932
 21
10298.5525654044
 31
0.0
  0
LINE
  5
364
330
1F
100
AcDbEntity
  8
0
  6
Continuous
 62
     7
100
AcDbLine
 10
6713.5384481932
 20
10298.5525654044
 30
0.0
 11
6535.6301874082
 21
10304.9627531144
 31
0.0
  0
LINE
  5
365
330
1F
100
AcDbEntity
  8
0
  6
Continuous
 62
     7
100
AcDbLine
 10
6535.6301874082
 20
10304.9627531144
 30
0.0
 11
6357.3895931932
 21
10306.2455880144
 31
0.0
  0
LINE
  5
366
330
1F
100
AcDbEntity
  8
0
  6
Continuous
 62
     7
100
AcDbLine
 10
6357.3895931932
 20
10306.2455880144
 30
0.0
 11
6179.2597997482
 21
10302.3978807694
 31
0.0
  0
LINE
  5
367
330
1F
100
AcDbEntity
  8
0
  6
Continuous
 62
     7
100
AcDbLine
 10
6179.2597997482
 20
10302.3978807694
 30
0.0
 11
6001.6836658032
 21
10293.4291973944
 31
0.0
  0
LINE
  5
368
330
1F
100
AcDbEntity
  8
0
  6
Continuous
 62
     7
100
AcDbLine
 10
6001.6836658032
 20
10293.4291973944
 30
0.0
 11
5825.1026736082
 21
10279.3618354444
 31
0.0
  0
LINE
  5
369
330
1F
100
AcDbEntity
  8
0
  6
Continuous
 62
     7
100
AcDbLine
 10
5825.1026736082
 20
10279.3618354444
 30
0.0
 11
5649.9558313382
 21
10260.2307685944
 31
0.0
  0
LINE
  5
36A
330
1F
100
AcDbEntity
  8
0
  6
Continuous
 62
     7
100
AcDbLine
 10
5649.9558313382
 20
10260.2307685944
 30
0.0
 11
5476.6785816332
 21
10236.0835596944
 31
0.0
  0
LINE
  5
36B
330
1F
100
AcDbEntity
  8
0
  6
Continuous
 62
     7
100
AcDbLine
 10
5476.6785816332
 20
10236.0835596944
 30
0.0
 11
5305.7017190382
 21
10206.9802425144
 31
0.0
  0
LINE
  5
36C
330
1F
100
AcDbEntity
  8
0
  6
Continuous
 62
     7
100
AcDbLine
 10
5305.7017190382
 20
10206.9802425144
 30
0.0
 11
5137.4503189732
 21
10172.9931724794
 31
0.0
  0
LINE
  5
36D
330
1F
100
AcDbEntity
  8
0
  6
Continuous
 62
     7
100
AcDbLine
 10
5137.4503189732
 20
10172.9931724794
 30
0.0
 11
4972.3426809282
 21
10134.2068467994
 31
0.0
  0
LINE
  5
36E
330
1F
100
AcDbEntity
  8
0
  6
Continuous
 62
     7
100
AcDbLine
 10
4972.3426809282
 20
10134.2068467994
 30
0.0
 11
4810.7892885132
 21
10090.7176943994
 31
0.0
  0
LINE
  5
36F
330
1F
100
AcDbEntity
  8
0
  6
Continuous
 62
     7
100
AcDbLine
 10
4810.7892885132
 20
10090.7176943994
 30
0.0
 11
4653.1917889082
 21
10042.6338361644
 31
0.0
  0
LINE
  5
370
330
1F
100
AcDbEntity
  8
0
  6
Continuous
 62
     7
100
AcDbLine
 10
4653.1917889082
 20
10042.6338361644
 30
0.0
 11
4499.9419943282
 21
9990.0748161344
 31
0.0
  0
LINE
  5
371
330
1F
100
AcDbEntity
  8
0
  6
Continuous
 62
     7
100
AcDbLine
 10
4499.9419943282
 20
9990.0748161344
 30
0.0
 11
4351.4209079182
 21
9933.1713043194
 31
0.0
  0
LINE
  5
372
330
1F
100
AcDbEntity
  8
0
  6
Continuous
 62
     7
100
AcDbLine
 10
4351.4209079182
 20
9933.1713043194
 30
0.0
 11
4207.9977764932
 21
9872.0647718144
 31
0.0
  0
LINE
  5
373
330
1F
100
AcDbEntity
  8
0
  6
Continuous
 62
     7
100
AcDbLine
 10
4207.9977764932
 20
9872.0647718144
 30
0.0
 11
4070.0291725532
 21
9806.9071390844
 31
0.0
  0
LINE
  5
374
330
1F
100
AcDbEntity
  8
0
  6
Continuous
 62
     7
100
AcDbLine
 10
4070.0291725532
 20
9806.9071390844
 30
0.0
 11
3937.8581077932
 21
9737.8603982744
 31
0.0
  0
LINE
  5
375
330
1F
100
AcDbEntity
  8
0
  6
Continuous
 62
     7
100
AcDbLine
 10
3937.8581077932
 20
9737.8603982744
 30
0.0
 11
3811.8131802982
 21
9665.0962104644
 31
0.0
  0
LINE
  5
376
330
1F
100
AcDbEntity
  8
0
  6
Continuous
 62
     7
100
AcDbLine
 10
3811.8131802982
 20
9665.0962104644
 30
0.0
 11
3692.2077576282
 21
9588.7954788844
 31
0.0
  0
LINE
  5
377
330
1F
100
AcDbEntity
  8
0
  6
Continuous
 62
     7
100
AcDbLine
 10
3692.2077576282
 20
9588.7954788844
 30
0.0
 11
3579.3391976982
 21
9509.1478991794
 31
0.0
  0
LINE
  5
378
330
1F
100
AcDbEntity
  8
0
  6
Continuous
 62
     7
100
AcDbLine
 10
3579.3391976982
 20
9509.1478991794
 30
0.0
 11
3473.4881095382
 21
9426.3514877794
 31
0.0
  0
LINE
  5
379
330
1F
100
AcDbEntity
  8
0
  6
Continuous
 62
     7
100
AcDbLine
 10
3473.4881095382
 20
9426.3514877794
 30
0.0
 11
3374.9176556332
 21
9340.6120896044
 31
0.0
  0
LINE
  5
37A
330
1F
100
AcDbEntity
  8
0
  6
Continuous
 62
     7
100
AcDbLine
 10
3374.9176556332
 20
9340.6120896044
 30
0.0
 11
3283.8728976532
 21
9252.1428663144
 31
0.0
  0
LINE
  5
37B
330
1F
100
AcDbEntity
  8
0
  6
Continuous
 62
     7
100
AcDbLine
 10
3283.8728976532
 20
9252.1428663144
 30
0.0
 11
3200.5801872232
 21
9161.1637663394
 31
0.0
  0
LINE
  5
37C
330
1F
100
AcDbEntity
  8
0
  6
Continuous
 62
     7
100
AcDbLine
 10
3200.5801872232
 20
9161.1637663394
 30
0.0
 11
3125.2466031382
 21
9067.9009780494
 31
0.0
  0
LINE
  5
37D
330
1F
100
AcDbEntity
  8
0
  6
Continuous
 62
     7
100
AcDbLine
 10
3125.2466031382
 20
9067.9009780494
 30
0.0
 11
3058.0594365582
 21
8972.5863674394
 31
0.0
  0
LINE
  5
37E
330
1F
100
AcDbEntity
  8
0
  6
Continuous
 62
     7
100
AcDbLine
 10
3058.0594365582
 20
8972.5863674394
 30
0.0
 11
2999.1857253682
 21
8875.4569016394
 31
0.0
  0
LINE
  5
37F
330
1F
100
AcDbEntity
  8
0
  6
Continuous
 62
     7
100
AcDbLine
 10
2999.1857253682
 20
8875.4569016394
 30
0.0
 11
2948.7718388882
 21
8776.7540598144
 31
0.0
  0
LINE
  5
380
330
1F
100
AcDbEntity
  8
0
  6
Continuous
 62
     7
100
AcDbLine
 10
2948.7718388882
 20
8776.7540598144
 30
0.0
 11
2906.9431139882
 21
8676.7232327744
 31
0.0
  0
LINE
  5
381
330
1F
100
AcDbEntity
  8
0
  6
Continuous
 62
     7
100
AcDbLine
 10
2906.9431139882
 20
8676.7232327744
 30
0.0
 11
2873.8035434582
 21
8575.6131129194
 31
0.0
  0
LINE
  5
382
330
1F
100
AcDbEntity
  8
0
  6
Continuous
 62
     7
100
AcDbLine
 10
2873.8035434582
 20
8575.6131129194
 30
0.0
 11
2849.4355175032
 21
8473.6750759394
 31
0.0
  0
LINE
  5
383
330
1F
100
AcDbEntity
  8
0
  6
Continuous
 62
     7
100
AcDbLine
 10
2849.4355175032
 20
8473.6750759394
 30
0.0
 11
2835.6829724682
 21
8386.7127946394
 31
0.0
  0
LWPOLYLINE
  5
384
330
1F
100
AcDbEntity
  8
0
  6
Continuous
 62
     7
100
AcDbPolyline
 90
        3
 70
   128
 43
0.0
 10
2726.9554138184
 20
2024.3610195981
 10
2663.3830958436
 20
1858.3229820134
 10
2629.6868030558
 20
1725.8273821237
  0
LWPOLYLINE
  5
385
330
1F
100
AcDbEntity
  8
0
  6
Continuous
 62
     7
100
AcDbPolyline
 90
        3
 70
   128
 43
0.0
 10
10172.5311279297
 20
1732.494816987
 10
10128.0983902466
 20
1896.6603846992
 10
10076.9566678724
 20
2023.5202973802
  0
LWPOLYLINE
  5
386
330
1F
100
AcDbEntity
  8
0
  6
Continuous
 62
     7
100
AcDbPolyline
 90
       13
 70
   128
 43
0.0
 10
2612.419128418
 20
1245.5234252363
 10
2800.0472812227
 20
689.8096324079
 10
3214.1818823708
 20
185.8294310863
 10
3824.2926445035
 20
-238.0936480417
 10
4592.4944266556
 20
-559.1584271519
 10
5472.03984611
 20
-759.2418074048
 10
6408.9782832319
 20
-826.6037412471
 10
7345.4828871561
 20
-757.2231334982
 10
8223.7563737854
 20
-555.241102673
 10
8989.9330999585
 20
-232.5042176666
 10
9597.3912239445
 20
192.7834942368
 10
10008.3749695877
 20
697.7580084312
 10
10193.0063071058
 20
1253.9399733773
  0
LWPOLYLINE
  5
387
330
1F
100
AcDbEntity
  8
0
  6
Continuous
 62
     7
100
AcDbPolyline
 90
       13
 70
   128
 43
0.0
 10
10166.1834716797
 20
8404.4613875866
 10
9978.5958087499
 20
8955.0170339966
 10
9567.3974284956
 20
9454.220377039
 10
8962.6066949261
 20
9874.1946299021
 10
8201.5819563706
 20
10192.4887083854
 10
7330.3907109873
 20
10391.2397760241
 10
6402.1928066388
 20
10458.8508241358
 10
5473.9803933709
 20
10391.3074992374
 10
4602.7466043272
 20
10192.6201496862
 10
3841.6540717128
 20
9874.3822283815
 10
3236.7744186312
 20
9454.453759235
 10
2825.4704574177
 20
8955.2835055392
 10
2637.9081489557
 20
8404.7380029019
  0
LWPOLYLINE
  5
388
330
1F
100
AcDbEntity
  8
0
  6
Continuous
 62
     7
100
AcDbPolyline
 90
        5
 70
   128
 43
0.0
 10
8437.5
 20
6332.4454111255
 10
9145.5857198803
 20
6672.7081304509
 10
9691.4295292241
 20
7104.2092013669
 10
9985.1944358359
 20
7491.7290468456
 10
10145.8321490072
 20
7907.4429471765
  0
LWPOLYLINE
  5
389
330
1F
100
AcDbEntity
  8
0
  6
Continuous
 62
     7
100
AcDbPolyline
 90
        5
 70
   128
 43
0.0
 10
2657.7835083008
 20
7908.9978636304
 10
2877.1717990025
 20
7396.1953932068
 10
3297.3739718318
 20
6931.9626264677
 10
3751.5207316612
 20
6617.326491161
 10
4298.07505758
 20
6358.2617337008
  0
LWPOLYLINE
  5
38A
330
1F
100
AcDbEntity
  8
0
  6
Continuous
 62
     7
100
AcDbPolyline
 90
        9
 70
   128
 43
0.0
 10
9967.6361083984
 20
8104.0518567695
 10
9758.7858961793
 20
7549.2711231071
 10
9276.1988889682
 20
7041.5158643167
 10
8555.7112985365
 20
6627.5710751579
 10
7657.0747224743
 20
6345.7649772527
 10
6655.044630132
 20
6220.9112076673
 10
5632.2102652215
 20
6263.6907290085
 10
4672.6973972618
 20
6470.4631621833
 10
3855.9245263295
 20
6823.3343110461
  0
LWPOLYLINE
  5
38B
330
1F
100
AcDbEntity
  8
0
  6
Continuous
 62
     7
100
AcDbPolyline
 90
        5
 70
   128
 43
0.0
 10
3855.9226989746
 20
6823.3343110461
 10
3405.6826801694
 20
7141.297973436
 10
3077.7174350077
 20
7500.9024446056
 10
2913.6273544616
 20
7801.8134913095
 10
2835.3596586854
 20
8110.6183133022
  0
ENDSEC
  0
SECTION
  2
OBJECTS
  0
DICTIONARY
  5
C
330
0
100
AcDbDictionary
281
     1
  3
ACAD_GROUP
350
D
  3
ACAD_LAYOUT
350
1A
  3
ACAD_MLINESTYLE
350
17
  3
ACAD_PLOTSETTINGS
350
19
  3
ACAD_PLOTSTYLENAME
350
E
  3
ACAD_SCALELIST
350
47
  3
DWGPROPS
350
38C
  0
DICTIONARY
  5
D
102
{ACAD_REACTORS
330
C
102
}
330
C
100
AcDbDictionary
281
     1
  0
DICTIONARY
  5
1A
102
{ACAD_REACTORS
330
C
102
}
330
C
100
AcDbDictionary
281
     1
  3
Layout1
350
1E
  3
Layout2
350
26
  3
Model
350
22
  0
DICTIONARY
  5
17
102
{ACAD_REACTORS
330
C
102
}
330
C
100
AcDbDictionary
281
     1
  3
Standard
350
18
  0
DICTIONARY
  5
19
102
{ACAD_REACTORS
330
C
102
}
330
C
100
AcDbDictionary
281
     1
  0
ACDBDICTIONARYWDFLT
  5
E
102
{ACAD_REACTORS
330
C
102
}
330
C
100
AcDbDictionary
281
     1
  3
Normal
350
F
100
AcDbDictionaryWithDefault
340
F
  0
DICTIONARY
  5
47
102
{ACAD_REACTORS
330
C
102
}
330
C
100
AcDbDictionary
281
     1
  3
A0
350
48
  3
A1
350
49
  3
A2
350
4A
  3
A3
350
4B
  3
A4
350
4C
  3
A5
350
4D
  3
A6
350
4E
  3
A7
350
4F
  3
A8
350
50
  3
A9
350
51
  3
B0
350
52
  3
B1
350
53
  3
B2
350
54
  3
B3
350
55
  3
B4
350
56
  3
B5
350
57
  3
B6
350
58
  3
B7
350
59
  3
B8
350
5A
  3
B9
350
5B
  3
C0
350
5C
  3
C1
350
5D
  3
C2
350
5E
  3
C3
350
5F
  3
C4
350
60
  3
C5
350
61
  3
C6
350
62
  3
C7
350
63
  3
C8
350
64
  3
C9
350
65
  3
D0
350
66
  3
D1
350
67
  3
D2
350
68
  0
XRECORD
  5
38C
102
{ACAD_REACTORS
330
C
102
}
330
C
100
AcDbXrecord
280
     1
  1
DWGPROPS COOKIE
  2

  3

  4

  6

  7

  8
radek.stransky
  9

300
=
301
=
302
=
303
=
304
=
305
=
306
=
307
=
308
=
309
=
 40
0.0
 41
2459103.228826331
 42
2459103.22892088
  1

 90
        0
  0
LAYOUT
  5
1E
102
{ACAD_REACTORS
330
1A
102
}
330
1A
100
AcDbPlotSettings
  1

  2
none_device
  4

  6

 40
0.0
 41
0.0
 42
0.0
 43
0.0
 44
0.0
 45
0.0
 46
0.0
 47
0.0
 48
0.0
 49
0.0
140
0.0
141
0.0
142
1.0
143
1.0
 70
   688
 72
     1
 73
     0
 74
     5
  7

 75
    16
147
1.0
148
0.0
149
0.0
100
AcDbLayout
  1
Layout1
 70
     1
 71
     1
 10
0.0
 20
0.0
 11
420.0
 21
297.0
 12
0.0
 22
0.0
 32
0.0
 14
1.0000000000E+20
 24
1.0000000000E+20
 34
1.0000000000E+20
 15
-1.0000000000E+20
 25
-1.0000000000E+20
 35
-1.0000000000E+20
146
0.0
 13
0.0
 23
0.0
 33
0.0
 16
1.0
 26
0.0
 36
0.0
 17
0.0
 27
1.0
 37
0.0
 76
     0
330
1B
  0
LAYOUT
  5
26
102
{ACAD_REACTORS
330
1A
102
}
330
1A
100
AcDbPlotSettings
  1

  2
none_device
  4

  6

 40
0.0
 41
0.0
 42
0.0
 43
0.0
 44
0.0
 45
0.0
 46
0.0
 47
0.0
 48
0.0
 49
0.0
140
0.0
141
0.0
142
1.0
143
1.0
 70
   688
 72
     1
 73
     0
 74
     5
  7

 75
    16
147
1.0
148
0.0
149
0.0
100
AcDbLayout
  1
Layout2
 70
     1
 71
     2
 10
0.0
 20
0.0
 11
0.0
 21
0.0
 12
0.0
 22
0.0
 32
0.0
 14
0.0
 24
0.0
 34
0.0
 15
0.0
 25
0.0
 35
0.0
146
0.0
 13
0.0
 23
0.0
 33
0.0
 16
1.0
 26
0.0
 36
0.0
 17
0.0
 27
1.0
 37
0.0
 76
     0
330
23
  0
LAYOUT
  5
22
102
{ACAD_REACTORS
330
1A
102
}
330
1A
100
AcDbPlotSettings
  1

  2
none_device
  4
ANSI_A_(11.00_x_8.50_Inches)
  6

 40
6.35
 41
19.05
 42
6.35000508
 43
19.05000254
 44
279.4
 45
215.9
 46
119.6815589246
 47
84.766262623
 48
0.0
 49
0.0
140
0.0
141
0.0
142
0.0004178514
143
1.0
 70
  1696
 72
     0
 73
     0
 74
     0
  7

 75
     0
147
0.0179189148
148
-1300.4909072572
149
0.0
100
AcDbLayout
  1
Model
 70
     1
 71
     0
 10
0.0
 20
0.0
 11
420.0
 21
297.0
 12
0.0
 22
0.0
 32
0.0
 14
-7626.2683040068
 24
-9679.8872312856
 34
0.0
 15
10201.9566678732
 25
10458.8508241358
 35
0.0
146
0.0
 13
0.0
 23
0.0
 33
0.0
 16
1.0
 26
0.0
 36
0.0
 17
0.0
 27
1.0
 37
0.0
 76
     0
330
1F
331
29
  0
MLINESTYLE
  5
18
102
{ACAD_REACTORS
330
17
102
}
330
17
100
AcDbMlineStyle
  2
Standard
 70
     0
  3

 62
   256
 51
90.0
 52
90.0
 71
     2
 49
0.5
 62
   256
  6
BYLAYER
 49
-0.5
 62
   256
  6
BYLAYER
  0
ACDBPLACEHOLDER
  5
F
102
{ACAD_REACTORS
330
E
102
}
330
E
  0
SCALE
  5
48
102
{ACAD_REACTORS
330
47
102
}
330
47
100
AcDbScale
 70
     0
300
1:1
140
1.0
141
1.0
290
     1
  0
SCALE
  5
49
102
{ACAD_REACTORS
330
47
102
}
330
47
100
AcDbScale
 70
     0
300
1:2
140
1.0
141
2.0
290
     0
  0
SCALE
  5
4A
102
{ACAD_REACTORS
330
47
102
}
330
47
100
AcDbScale
 70
     0
300
1:4
140
1.0
141
4.0
290
     0
  0
SCALE
  5
4B
102
{ACAD_REACTORS
330
47
102
}
330
47
100
AcDbScale
 70
     0
300
1:5
140
1.0
141
5.0
290
     0
  0
SCALE
  5
4C
102
{ACAD_REACTORS
330
47
102
}
330
47
100
AcDbScale
 70
     0
300
1:8
140
1.0
141
8.0
290
     0
  0
SCALE
  5
4D
102
{ACAD_REACTORS
330
47
102
}
330
47
100
AcDbScale
 70
     0
300
1:10
140
1.0
141
10.0
290
     0
  0
SCALE
  5
4E
102
{ACAD_REACTORS
330
47
102
}
330
47
100
AcDbScale
 70
     0
300
1:16
140
1.0
141
16.0
290
     0
  0
SCALE
  5
4F
102
{ACAD_REACTORS
330
47
102
}
330
47
100
AcDbScale
 70
     0
300
1:20
140
1.0
141
20.0
290
     0
  0
SCALE
  5
50
102
{ACAD_REACTORS
330
47
102
}
330
47
100
AcDbScale
 70
     0
300
1:30
140
1.0
141
30.0
290
     0
  0
SCALE
  5
51
102
{ACAD_REACTORS
330
47
102
}
330
47
100
AcDbScale
 70
     0
300
1:40
140
1.0
141
40.0
290
     0
  0
SCALE
  5
52
102
{ACAD_REACTORS
330
47
102
}
330
47
100
AcDbScale
 70
     0
300
1:50
140
1.0
141
50.0
290
     0
  0
SCALE
  5
53
102
{ACAD_REACTORS
330
47
102
}
330
47
100
AcDbScale
 70
     0
300
1:100
140
1.0
141
100.0
290
     0
  0
SCALE
  5
54
102
{ACAD_REACTORS
330
47
102
}
330
47
100
AcDbScale
 70
     0
300
2:1
140
2.0
141
1.0
290
     0
  0
SCALE
  5
55
102
{ACAD_REACTORS
330
47
102
}
330
47
100
AcDbScale
 70
     0
300
4:1
140
4.0
141
1.0
290
     0
  0
SCALE
  5
56
102
{ACAD_REACTORS
330
47
102
}
330
47
100
AcDbScale
 70
     0
300
8:1
140
8.0
141
1.0
290
     0
  0
SCALE
  5
57
102
{ACAD_REACTORS
330
47
102
}
330
47
100
AcDbScale
 70
     0
300
10:1
140
10.0
141
1.0
290
     0
  0
SCALE
  5
58
102
{ACAD_REACTORS
330
47
102
}
330
47
100
AcDbScale
 70
     0
300
100:1
140
100.0
141
1.0
290
     0
  0
SCALE
  5
59
102
{ACAD_REACTORS
330
47
102
}
330
47
100
AcDbScale
 70
     0
300
1/128" = 1'-0"
140
0.0078125
141
12.0
290
     0
  0
SCALE
  5
5A
102
{ACAD_REACTORS
330
47
102
}
330
47
100
AcDbScale
 70
     0
300
1/64" = 1'-0"
140
0.015625
141
12.0
290
     0
  0
SCALE
  5
5B
102
{ACAD_REACTORS
330
47
102
}
330
47
100
AcDbScale
 70
     0
300
1/32" = 1'-0"
140
0.03125
141
12.0
290
     0
  0
SCALE
  5
5C
102
{ACAD_REACTORS
330
47
102
}
330
47
100
AcDbScale
 70
     0
300
1/16" = 1'-0"
140
0.0625
141
12.0
290
     0
  0
SCALE
  5
5D
102
{ACAD_REACTORS
330
47
102
}
330
47
100
AcDbScale
 70
     0
300
3/32" = 1'-0"
140
0.09375
141
12.0
290
     0
  0
SCALE
  5
5E
102
{ACAD_REACTORS
330
47
102
}
330
47
100
AcDbScale
 70
     0
300
1/8" = 1'-0"
140
0.125
141
12.0
290
     0
  0
SCALE
  5
5F
102
{ACAD_REACTORS
330
47
102
}
330
47
100
AcDbScale
 70
     0
300
3/16" = 1'-0"
140
0.1875
141
12.0
290
     0
  0
SCALE
  5
60
102
{ACAD_REACTORS
330
47
102
}
330
47
100
AcDbScale
 70
     0
300
1/4" = 1'-0"
140
0.25
141
12.0
290
     0
  0
SCALE
  5
61
102
{ACAD_REACTORS
330
47
102
}
330
47
100
AcDbScale
 70
     0
300
3/8" = 1'-0"
140
0.375
141
12.0
290
     0
  0
SCALE
  5
62
102
{ACAD_REACTORS
330
47
102
}
330
47
100
AcDbScale
 70
     0
300
1/2" = 1'-0"
140
0.5
141
12.0
290
     0
  0
SCALE
  5
63
102
{ACAD_REACTORS
330
47
102
}
330
47
100
AcDbScale
 70
     0
300
3/4" = 1'-0"
140
0.75
141
12.0
290
     0
  0
SCALE
  5
64
102
{ACAD_REACTORS
330
47
102
}
330
47
100
AcDbScale
 70
     0
300
1" = 1'-0"
140
1.0
141
12.0
290
     0
  0
SCALE
  5
65
102
{ACAD_REACTORS
330
47
102
}
330
47
100
AcDbScale
 70
     0
300
1-1/2" = 1'-0"
140
1.5
141
12.0
290
     0
  0
SCALE
  5
66
102
{ACAD_REACTORS
330
47
102
}
330
47
100
AcDbScale
 70
     0
300
3" = 1'-0"
140
3.0
141
12.0
290
     0
  0
SCALE
  5
67
102
{ACAD_REACTORS
330
47
102
}
330
47
100
AcDbScale
 70
     0
300
6" = 1'-0"
140
6.0
141
12.0
290
     0
  0
SCALE
  5
68
102
{ACAD_REACTORS
330
47
102
}
330
47
100
AcDbScale
 70
     0
300
1'-0" = 1'-0"
140
12.0
141
12.0
290
     0
  0
ENDSEC
  0
EOF
