  0
SECTION
  2
HEADER
  9
$ACADVER
  1
AC1015
  9
$ACADMAINTVER
 70
     6
  9
$DWGCODEPAGE
  3
ANSI_1250
  9
$INSBASE
 10
0.0
 20
0.0
 30
0.0
  9
$EXTMIN
 10
2074.7159162547
 20
6254.8672156564
 30
0.0
  9
$EXTMAX
 10
6179.5648003048
 20
7992.0402331824
 30
0.0
  9
$LIMMIN
 10
0.0
 20
0.0
  9
$LIMMAX
 10
420.0
 20
297.0
  9
$ORTHOMODE
 70
     0
  9
$REGENMODE
 70
     1
  9
$FILLMODE
 70
     1
  9
$QTEXTMODE
 70
     0
  9
$MIRRTEXT
 70
     1
  9
$LTSCALE
 40
1.0
  9
$ATTMODE
 70
     1
  9
$TEXTSIZE
 40
3.5
  9
$TRACEWID
 40
1.0
  9
$TEXTSTYLE
  7
Standard
  9
$CLAYER
  8
0
  9
$CELTYPE
  6
ByLayer
  9
$CECOLOR
 62
   256
  9
$CELTSCALE
 40
1.0
  9
$DISPSILH
 70
     0
  9
$DIMSCALE
 40
1.0
  9
$DIMASZ
 40
3.302
  9
$DIMEXO
 40
0.0
  9
$DIMDLI
 40
3.75
  9
$DIMRND
 40
0.0
  9
$DIMDLE
 40
0.0
  9
$DIMEXE
 40
1.0
  9
$DIMTP
 40
0.0
  9
$DIMTM
 40
0.0
  9
$DIMTXT
 40
3.5
  9
$DIMCEN
 40
2.5
  9
$DIMTSZ
 40
0.0
  9
$DIMTOL
 70
     0
  9
$DIMLIM
 70
     0
  9
$DIMTIH
 70
     1
  9
$DIMTOH
 70
     1
  9
$DIMSE1
 70
     0
  9
$DIMSE2
 70
     0
  9
$DIMTAD
 70
     1
  9
$DIMZIN
 70
     0
  9
$DIMBLK
  1

  9
$DIMASO
 70
     1
  9
$DIMSHO
 70
     1
  9
$DIMPOST
  1

  9
$DIMAPOST
  1

  9
$DIMALT
 70
     0
  9
$DIMALTD
 70
     3
  9
$DIMALTF
 40
0.0393700787
  9
$DIMLFAC
 40
1.0
  9
$DIMTOFL
 70
     1
  9
$DIMTVP
 40
0.0
  9
$DIMTIX
 70
     0
  9
$DIMSOXD
 70
     0
  9
$DIMSAH
 70
     0
  9
$DIMBLK1
  1

  9
$DIMBLK2
  1

  9
$DIMSTYLE
  2
ISO-25
  9
$DIMCLRD
 70
     0
  9
$DIMCLRE
 70
     0
  9
$DIMCLRT
 70
     0
  9
$DIMTFAC
 40
1.0
  9
$DIMGAP
 40
1.524
  9
$DIMJUST
 70
     0
  9
$DIMSD1
 70
     0
  9
$DIMSD2
 70
     0
  9
$DIMTOLJ
 70
     0
  9
$DIMTZIN
 70
     0
  9
$DIMALTZ
 70
     0
  9
$DIMALTTZ
 70
     0
  9
$DIMUPT
 70
     0
  9
$DIMDEC
 70
     2
  9
$DIMTDEC
 70
     2
  9
$DIMALTU
 70
     2
  9
$DIMALTTD
 70
     3
  9
$DIMTXSTY
  7
Standard
  9
$DIMAUNIT
 70
     0
  9
$DIMADEC
 70
     2
  9
$DIMALTRND
 40
0.0
  9
$DIMAZIN
 70
     0
  9
$DIMDSEP
 70
    44
  9
$DIMATFIT
 70
     3
  9
$DIMFRAC
 70
     0
  9
$DIMLDRBLK
  1

  9
$DIMLUNIT
 70
     2
  9
$DIMLWD
 70
    -2
  9
$DIMLWE
 70
    -2
  9
$DIMTMOVE
 70
     0
  9
$LUNITS
 70
     2
  9
$LUPREC
 70
     2
  9
$SKETCHINC
 40
1.0
  9
$FILLETRAD
 40
10.0
  9
$AUNITS
 70
     0
  9
$AUPREC
 70
     2
  9
$MENU
  1
.
  9
$ELEVATION
 40
0.0
  9
$PELEVATION
 40
0.0
  9
$THICKNESS
 40
0.0
  9
$LIMCHECK
 70
     0
  9
$CHAMFERA
 40
0.0
  9
$CHAMFERB
 40
0.0
  9
$CHAMFERC
 40
0.0
  9
$CHAMFERD
 40
0.0
  9
$SKPOLY
 70
     0
  9
$TDCREATE
 40
2459100.343792303
  9
$TDUCREATE
 40
2459100.26045897
  9
$TDUPDATE
 40
2459100.344499942
  9
$TDUUPDATE
 40
2459100.261166609
  9
$TDINDWG
 40
0.0000000116
  9
$TDUSRTIMER
 40
0.0000000116
  9
$USRTIMER
 70
     1
  9
$ANGBASE
 50
0.0
  9
$ANGDIR
 70
     0
  9
$PDMODE
 70
     0
  9
$PDSIZE
 40
-1.0
  9
$PLINEWID
 40
0.0
  9
$SPLFRAME
 70
     0
  9
$SPLINETYPE
 70
     6
  9
$SPLINESEGS
 70
     8
  9
$HANDSEED
  5
508
  9
$SURFTAB1
 70
     6
  9
$SURFTAB2
 70
     6
  9
$SURFTYPE
 70
     6
  9
$SURFU
 70
     6
  9
$SURFV
 70
     6
  9
$UCSBASE
  2

  9
$UCSNAME
  2

  9
$UCSORG
 10
0.0
 20
0.0
 30
0.0
  9
$UCSXDIR
 10
1.0
 20
0.0
 30
0.0
  9
$UCSYDIR
 10
0.0
 20
1.0
 30
0.0
  9
$UCSORTHOREF
  2

  9
$UCSORTHOVIEW
 70
     0
  9
$UCSORGTOP
 10
0.0
 20
0.0
 30
0.0
  9
$UCSORGBOTTOM
 10
0.0
 20
0.0
 30
0.0
  9
$UCSORGLEFT
 10
0.0
 20
0.0
 30
0.0
  9
$UCSORGRIGHT
 10
0.0
 20
0.0
 30
0.0
  9
$UCSORGFRONT
 10
0.0
 20
0.0
 30
0.0
  9
$UCSORGBACK
 10
0.0
 20
0.0
 30
0.0
  9
$PUCSBASE
  2

  9
$PUCSNAME
  2

  9
$PUCSORG
 10
0.0
 20
0.0
 30
0.0
  9
$PUCSXDIR
 10
1.0
 20
0.0
 30
0.0
  9
$PUCSYDIR
 10
0.0
 20
1.0
 30
0.0
  9
$PUCSORTHOREF
  2

  9
$PUCSORTHOVIEW
 70
     0
  9
$PUCSORGTOP
 10
0.0
 20
0.0
 30
0.0
  9
$PUCSORGBOTTOM
 10
0.0
 20
0.0
 30
0.0
  9
$PUCSORGLEFT
 10
0.0
 20
0.0
 30
0.0
  9
$PUCSORGRIGHT
 10
0.0
 20
0.0
 30
0.0
  9
$PUCSORGFRONT
 10
0.0
 20
0.0
 30
0.0
  9
$PUCSORGBACK
 10
0.0
 20
0.0
 30
0.0
  9
$USERI1
 70
     0
  9
$USERI2
 70
     0
  9
$USERI3
 70
     0
  9
$USERI4
 70
     0
  9
$USERI5
 70
     0
  9
$USERR1
 40
0.0
  9
$USERR2
 40
0.0
  9
$USERR3
 40
0.0
  9
$USERR4
 40
0.0
  9
$USERR5
 40
0.0
  9
$WORLDVIEW
 70
     1
  9
$SHADEDGE
 70
     3
  9
$SHADEDIF
 70
    70
  9
$TILEMODE
 70
     1
  9
$MAXACTVP
 70
    64
  9
$PINSBASE
 10
0.0
 20
0.0
 30
0.0
  9
$PLIMCHECK
 70
     0
  9
$PEXTMIN
 10
1.0000000000E+20
 20
1.0000000000E+20
 30
1.0000000000E+20
  9
$PEXTMAX
 10
-1.0000000000E+20
 20
-1.0000000000E+20
 30
-1.0000000000E+20
  9
$PLIMMIN
 10
0.0
 20
0.0
  9
$PLIMMAX
 10
420.0
 20
297.0
  9
$UNITMODE
 70
     0
  9
$VISRETAIN
 70
     1
  9
$PLINEGEN
 70
     0
  9
$PSLTSCALE
 70
     1
  9
$TREEDEPTH
 70
  3020
  9
$CMLSTYLE
  2
Standard
  9
$CMLJUST
 70
     0
  9
$CMLSCALE
 40
20.0
  9
$PROXYGRAPHICS
 70
     1
  9
$MEASUREMENT
 70
     1
  9
$CELWEIGHT
370
    -1
  9
$ENDCAPS
280
     0
  9
$JOINSTYLE
280
     0
  9
$LWDISPLAY
290
     1
  9
$INSUNITS
 70
     4
  9
$HYPERLINKBASE
  1

  9
$STYLESHEET
  1

  9
$XEDIT
290
     1
  9
$CEPSNTYPE
380
     0
  9
$PSTYLEMODE
290
     1
  9
$FINGERPRINTGUID
  2
{78c6ef02-8661-47f8-b827-7dcd7eed11ea}
  9
$VERSIONGUID
  2
{FAEB1C32-E019-11D5-929B-00C0DF256EC4}
  9
$EXTNAMES
290
     1
  9
$PSVPSCALE
 40
0.0
  9
$OLESTARTUP
290
     0
  0
ENDSEC
  0
SECTION
  2
CLASSES
  0
CLASS
  1
ACDBDICTIONARYWDFLT
  2
AcDbDictionaryWithDefault
  3
ObjectDBX Classes
 90
        0
280
     0
281
     0
  0
CLASS
  1
VISUALSTYLE
  2
AcDbVisualStyle
  3
ObjectDBX Classes
 90
     4095
280
     0
281
     0
  0
CLASS
  1
MATERIAL
  2
AcDbMaterial
  3
ObjectDBX Classes
 90
     1153
280
     0
281
     0
  0
CLASS
  1
SCALE
  2
AcDbScale
  3
ObjectDBX Classes
 90
     1153
280
     0
281
     0
  0
CLASS
  1
TABLESTYLE
  2
AcDbTableStyle
  3
ObjectDBX Classes
 90
     4095
280
     0
281
     0
  0
CLASS
  1
MLEADERSTYLE
  2
AcDbMLeaderStyle
  3
ACDB_MLEADERSTYLE_CLASS
 90
     4095
280
     0
281
     0
  0
CLASS
  1
SUN
  2
AcDbSun
  3
SCENEOE
 90
     1153
280
     0
281
     0
  0
CLASS
  1
ACDBPLACEHOLDER
  2
AcDbPlaceHolder
  3
ObjectDBX Classes
 90
        0
280
     0
281
     0
  0
CLASS
  1
LAYOUT
  2
AcDbLayout
  3
ObjectDBX Classes
 90
        0
280
     0
281
     0
  0
ENDSEC
  0
SECTION
  2
TABLES
  0
TABLE
  2
VPORT
  5
8
330
0
100
AcDbSymbolTable
 70
     1
  0
VPORT
  5
29
330
8
100
AcDbSymbolTableRecord
100
AcDbViewportTableRecord
  2
*Active
 70
     0
 10
0.0
 20
0.0
 11
1.0
 21
1.0
 12
4127.1403582798
 22
7123.4537244194
 13
0.0
 23
0.0
 14
10.0
 24
10.0
 15
10.0
 25
10.0
 16
0.0
 26
0.0
 36
1.0
 17
0.0
 27
0.0
 37
0.0
 40
1771.9164778765
 41
2.3629476412
 42
50.0
 43
0.0
 44
0.0
 50
0.0
 51
0.0
 71
     0
 72
   100
 73
     1
 74
     3
 75
     0
 76
     0
 77
     0
 78
     0
281
     0
 65
     1
110
0.0
120
0.0
130
0.0
111
1.0
121
0.0
131
0.0
112
0.0
122
1.0
132
0.0
 79
     0
146
0.0
  0
ENDTAB
  0
TABLE
  2
LTYPE
  5
5
330
0
100
AcDbSymbolTable
 70
     6
  0
LTYPE
  5
14
330
5
100
AcDbSymbolTableRecord
100
AcDbLinetypeTableRecord
  2
ByBlock
 70
     0
  3

 72
    65
 73
     0
 40
0.0
  0
LTYPE
  5
15
330
5
100
AcDbSymbolTableRecord
100
AcDbLinetypeTableRecord
  2
ByLayer
 70
     0
  3

 72
    65
 73
     0
 40
0.0
  0
LTYPE
  5
16
330
5
100
AcDbSymbolTableRecord
100
AcDbLinetypeTableRecord
  2
Continuous
 70
     0
  3
Solid line
 72
    65
 73
     0
 40
0.0
  0
LTYPE
  5
6E
330
5
100
AcDbSymbolTableRecord
100
AcDbLinetypeTableRecord
  2
HIDDEN
 70
     0
  3
Hidden __ __ __ __ __ __ __ __ __ __ __ __ __ __
 72
    65
 73
     2
 40
1.905
 49
1.27
 74
     0
 49
-0.635
 74
     0
  0
LTYPE
  5
6F
330
5
100
AcDbSymbolTableRecord
100
AcDbLinetypeTableRecord
  2
PHANTOM
 70
     0
  3
Phantom ______  __  __  ______  __  __  ______
 72
    65
 73
     6
 40
12.7
 49
6.35
 74
     0
 49
-1.27
 74
     0
 49
1.27
 74
     0
 49
-1.27
 74
     0
 49
1.27
 74
     0
 49
-1.27
 74
     0
  0
LTYPE
  5
70
330
5
100
AcDbSymbolTableRecord
100
AcDbLinetypeTableRecord
  2
CENTER
 70
     0
  3
Center ____ _ ____ _ ____ _ ____ _ ____ _ ____
 72
    65
 73
     4
 40
10.16
 49
6.35
 74
     0
 49
-1.27
 74
     0
 49
1.27
 74
     0
 49
-1.27
 74
     0
  0
LTYPE
  5
71
330
5
100
AcDbSymbolTableRecord
100
AcDbLinetypeTableRecord
  2
CENTERX2
 70
     0
  3
Center (2x) ________  __  ________  __  _____
 72
    65
 73
     4
 40
20.32
 49
12.7
 74
     0
 49
-2.54
 74
     0
 49
2.54
 74
     0
 49
-2.54
 74
     0
  0
LTYPE
  5
72
330
5
100
AcDbSymbolTableRecord
100
AcDbLinetypeTableRecord
  2
DOT2
 70
     0
  3
Dot (.5x) ........................................
 72
    65
 73
     2
 40
0.635
 49
0.0
 74
     0
 49
-0.635
 74
     0
  0
ENDTAB
  0
TABLE
  2
LAYER
  5
2
330
0
100
AcDbSymbolTable
 70
     1
  0
LAYER
  5
10
330
2
100
AcDbSymbolTableRecord
100
AcDbLayerTableRecord
  2
0
 70
     0
 62
     7
  6
Continuous
370
    -3
390
F
  0
ENDTAB
  0
TABLE
  2
STYLE
  5
3
330
0
100
AcDbSymbolTable
 70
     1
  0
STYLE
  5
11
330
3
100
AcDbSymbolTableRecord
100
AcDbTextStyleTableRecord
  2
Standard
 70
     0
 40
0.0
 41
1.0
 50
0.0
 71
     0
 42
3.5
  3
txt
  4

  0
ENDTAB
  0
TABLE
  2
VIEW
  5
6
330
0
100
AcDbSymbolTable
 70
     0
  0
ENDTAB
  0
TABLE
  2
UCS
  5
7
330
0
100
AcDbSymbolTable
 70
     0
  0
ENDTAB
  0
TABLE
  2
APPID
  5
9
330
0
100
AcDbSymbolTable
 70
     1
  0
APPID
  5
12
330
9
100
AcDbSymbolTableRecord
100
AcDbRegAppTableRecord
  2
ACAD
 70
     0
  0
ENDTAB
  0
TABLE
  2
DIMSTYLE
  5
A
330
0
100
AcDbSymbolTable
 70
     1
100
AcDbDimStyleTable
  0
DIMSTYLE
105
27
330
A
100
AcDbSymbolTableRecord
100
AcDbDimStyleTableRecord
  2
ISO-25
 70
     0
 41
2.5
 42
0.625
 43
3.75
 44
1.25
 73
     0
 74
     0
 77
     1
 78
     8
140
2.5
141
2.5
143
0.0393700787
147
0.625
171
     3
172
     1
178
     0
271
     2
272
     2
274
     3
278
    44
283
     0
284
     8
340
11
  0
ENDTAB
  0
TABLE
  2
BLOCK_RECORD
  5
1
330
0
100
AcDbSymbolTable
 70
     1
  0
BLOCK_RECORD
  5
1F
330
1
100
AcDbSymbolTableRecord
100
AcDbBlockTableRecord
  2
*Model_Space
340
22
  0
BLOCK_RECORD
  5
1B
330
1
100
AcDbSymbolTableRecord
100
AcDbBlockTableRecord
  2
*Paper_Space
340
1E
  0
BLOCK_RECORD
  5
23
330
1
100
AcDbSymbolTableRecord
100
AcDbBlockTableRecord
  2
*Paper_Space0
340
26
  0
ENDTAB
  0
ENDSEC
  0
SECTION
  2
BLOCKS
  0
BLOCK
  5
20
330
1F
100
AcDbEntity
  8
0
100
AcDbBlockBegin
  2
*Model_Space
 70
     0
 10
0.0
 20
0.0
 30
0.0
  3
*Model_Space
  1

  0
ENDBLK
  5
21
330
1F
100
AcDbEntity
  8
0
100
AcDbBlockEnd
  0
BLOCK
  5
1C
330
1B
100
AcDbEntity
 67
     1
  8
0
100
AcDbBlockBegin
  2
*Paper_Space
 70
     0
 10
0.0
 20
0.0
 30
0.0
  3
*Paper_Space
  1

  0
ENDBLK
  5
1D
330
1B
100
AcDbEntity
 67
     1
  8
0
100
AcDbBlockEnd
  0
BLOCK
  5
24
330
23
100
AcDbEntity
  8
0
100
AcDbBlockBegin
  2
*Paper_Space0
 70
     0
 10
0.0
 20
0.0
 30
0.0
  3
*Paper_Space0
  1

  0
ENDBLK
  5
25
330
23
100
AcDbEntity
  8
0
100
AcDbBlockEnd
  0
ENDSEC
  0
SECTION
  2
ENTITIES
  0
CIRCLE
  5
73
330
1F
100
AcDbEntity
  8
0
  6
Continuous
 62
     7
100
AcDbCircle
 10
5966.7303851346
 20
7773.0969837424
 30
0.0
 40
1.875
  0
CIRCLE
  5
74
330
1F
100
AcDbEntity
  8
0
  6
Continuous
 62
     7
100
AcDbCircle
 10
5659.2303851346
 20
7773.0969837424
 30
0.0
 40
1.875
  0
CIRCLE
  5
75
330
1F
100
AcDbEntity
  8
0
  6
Continuous
 62
     7
100
AcDbCircle
 10
5812.347382771
 20
7773.0969837424
 30
0.0
 40
31.25
  0
ARC
  5
76
330
1F
100
AcDbEntity
  8
0
  6
Continuous
 62
     7
100
AcDbCircle
 10
5807.3299599444
 20
7794.9522673862
 30
0.0
 40
4.042607238099663
100
AcDbArc
 50
0.0
 51
180.0
  0
ARC
  5
77
330
1F
100
AcDbEntity
  8
0
  6
Continuous
 62
     7
100
AcDbCircle
 10
5798.6747270484
 20
7771.6370664167
 30
0.0
 40
6.422532214688741
100
AcDbArc
 50
44.0944057148
 51
105.4941474431
  0
ARC
  5
78
330
1F
100
AcDbEntity
  8
0
  6
Continuous
 62
     7
100
AcDbCircle
 10
5812.7653379759
 20
7764.2734029182
 30
0.0
 40
15.80632581932696
100
AcDbArc
 50
179.9999999994
 51
269.9999999999
  0
ARC
  5
79
330
1F
100
AcDbEntity
  8
0
  6
Continuous
 62
     7
100
AcDbCircle
 10
5818.6833989934
 20
7759.8560784755
 30
0.0
 40
11.38900137658857
100
AcDbArc
 50
270.0
 51
0.0
  0
ARC
  5
7A
330
1F
100
AcDbEntity
  8
0
  6
Continuous
 62
     7
100
AcDbCircle
 10
5826.6883722544
 20
7779.4480047961
 30
0.0
 40
3.384028115528054
100
AcDbArc
 50
0.0000000019
 51
89.9999999951
  0
ARC
  5
7B
330
1F
100
AcDbEntity
  8
0
  6
Continuous
 62
     7
100
AcDbCircle
 10
5825.452808593
 20
7779.448004796
 30
0.0
 40
3.384028115524251
100
AcDbArc
 50
90.0000000001
 51
118.7365577349
  0
ARC
  5
7C
330
1F
100
AcDbEntity
  8
0
  6
Continuous
 62
     7
100
AcDbCircle
 10
5820.4946589187
 20
7781.819454605
 30
0.0
 40
3.384028115514411
100
AcDbArc
 50
10.1404867603
 51
90.0000000001
  0
ARC
  5
7D
330
1F
100
AcDbEntity
  8
0
  6
Continuous
 62
     7
100
AcDbCircle
 10
5819.0463657134
 20
7781.8194546051
 30
0.0
 40
3.384028115478941
100
AcDbArc
 50
89.9999999977
 51
124.7440022263
  0
ARC
  5
7E
330
1F
100
AcDbEntity
  8
0
  6
Continuous
 62
     7
100
AcDbCircle
 10
5814.0882160391
 20
7783.092340193
 30
0.0
 40
3.384028115519868
100
AcDbArc
 50
26.4592691592
 51
90.0000000002
  0
ARC
  5
7F
330
1F
100
AcDbEntity
  8
0
  6
Continuous
 62
     7
100
AcDbCircle
 10
5812.9466887415
 20
7783.092340193
 30
0.0
 40
3.384028115554143
100
AcDbArc
 50
90.0000000008
 51
117.7207121288
  0
ARC
  5
80
330
1F
100
AcDbEntity
  8
0
  6
Continuous
 62
     7
100
AcDbCircle
 10
5810.4676139041
 20
7775.7751667009
 30
0.0
 40
1.669046721650375
100
AcDbArc
 50
180.0
 51
0.0
  0
ARC
  5
81
330
1F
100
AcDbEntity
  8
0
  6
Continuous
 62
     7
100
AcDbCircle
 10
5812.7369359165
 20
7783.1277455373
 30
0.0
 40
0.6002752907197646
100
AcDbArc
 50
90.0000000018
 51
179.999999998
  0
ARC
  5
82
330
1F
100
AcDbEntity
  8
0
  6
Continuous
 62
     7
100
AcDbCircle
 10
5814.2979688638
 20
7783.1277455373
 30
0.0
 40
0.6002752907197646
100
AcDbArc
 50
0.000000002
 51
89.9999999982
  0
ARC
  5
83
330
1F
100
AcDbEntity
  8
0
  6
Continuous
 62
     7
100
AcDbCircle
 10
5816.5672908762
 20
7775.7751667009
 30
0.0
 40
1.669046721650375
100
AcDbArc
 50
180.0
 51
0.0
  0
ARC
  5
84
330
1F
100
AcDbEntity
  8
0
  6
Continuous
 62
     7
100
AcDbCircle
 10
5818.8366128885
 20
7781.8548599494
 30
0.0
 40
0.6002752907197646
100
AcDbArc
 50
90.0000000019
 51
180.0000000077
  0
ARC
  5
85
330
1F
100
AcDbEntity
  8
0
  6
Continuous
 62
     7
100
AcDbCircle
 10
5820.7044117433
 20
7781.8548599494
 30
0.0
 40
0.6002752907188551
100
AcDbArc
 50
359.9999999923
 51
89.9999999984
  0
ARC
  5
86
330
1F
100
AcDbEntity
  8
0
  6
Continuous
 62
     7
100
AcDbCircle
 10
5822.9737337557
 20
7775.7751667009
 30
0.0
 40
1.669046721650375
100
AcDbArc
 50
180.0
 51
0.0
  0
ARC
  5
87
330
1F
100
AcDbEntity
  8
0
  6
Continuous
 62
     7
100
AcDbCircle
 10
5825.243055768
 20
7779.5639841778
 30
0.0
 40
0.6002752907188551
100
AcDbArc
 50
90.0000000017
 51
180.0000000076
  0
ARC
  5
88
330
1F
100
AcDbEntity
  8
0
  6
Continuous
 62
     7
100
AcDbCircle
 10
5826.8981250793
 20
7779.5639841778
 30
0.0
 40
0.6002752907197646
100
AcDbArc
 50
359.9999999822
 51
89.9999999958
  0
ARC
  5
89
330
1F
100
AcDbEntity
  8
0
  6
Continuous
 62
     7
100
AcDbCircle
 10
5818.6833989934
 20
7759.8560784755
 30
0.0
 40
8.815001376597138
100
AcDbArc
 50
270.0
 51
0.0
  0
ARC
  5
8A
330
1F
100
AcDbEntity
  8
0
  6
Continuous
 62
     7
100
AcDbCircle
 10
5812.7653379759
 20
7764.2734029182
 30
0.0
 40
13.23232581933553
100
AcDbArc
 50
179.9999999997
 51
269.9999999998
  0
ARC
  5
8B
330
1F
100
AcDbEntity
  8
0
  6
Continuous
 62
     7
100
AcDbCircle
 10
5798.6747270484
 20
7771.6370664167
 30
0.0
 40
3.848532214666949
100
AcDbArc
 50
0.0000000011
 51
77.1137478481
  0
ARC
  5
8C
330
1F
100
AcDbEntity
  8
0
  6
Continuous
 62
     7
100
AcDbCircle
 10
5804.1923059846
 20
7766.7510142117
 30
0.0
 40
1.669046721650375
100
AcDbArc
 50
180.0
 51
0.0
  0
ARC
  5
8D
330
1F
100
AcDbEntity
  8
0
  6
Continuous
 62
     7
100
AcDbCircle
 10
5807.3299599444
 20
7794.9522673862
 30
0.0
 40
1.468607238100958
100
AcDbArc
 50
0.0
 51
180.0
  0
CIRCLE
  5
8E
330
1F
100
AcDbEntity
  8
0
  6
Continuous
 62
     7
100
AcDbCircle
 10
5812.347382771
 20
7773.0969837424
 30
0.0
 40
35.0
  0
ARC
  5
8F
330
1F
100
AcDbEntity
  8
0
  6
Continuous
 62
     7
100
AcDbCircle
 10
5617.347382771
 20
7980.5969837424
 30
0.0
 40
2.500000000002728
100
AcDbArc
 50
90.0000000001
 51
180.0
  0
ARC
  5
90
330
1F
100
AcDbEntity
  8
0
  6
Continuous
 62
     7
100
AcDbCircle
 10
6007.347382771
 20
7980.5969837424
 30
0.0
 40
2.5
100
AcDbArc
 50
0.0
 51
90.0
  0
ARC
  5
91
330
1F
100
AcDbEntity
  8
0
  6
Continuous
 62
     7
100
AcDbCircle
 10
6007.347382771
 20
7565.5969837424
 30
0.0
 40
2.5
100
AcDbArc
 50
270.0
 51
0.0
  0
ARC
  5
92
330
1F
100
AcDbEntity
  8
0
  6
Continuous
 62
     7
100
AcDbCircle
 10
5617.347382771
 20
7565.5969837424
 30
0.0
 40
2.5
100
AcDbArc
 50
180.0
 51
270.0
  0
ARC
  5
93
330
1F
100
AcDbEntity
  8
0
  6
Continuous
 62
     7
100
AcDbCircle
 10
5617.347382771
 20
7980.5969837424
 30
0.0
 40
5.000000000002728
100
AcDbArc
 50
90.0
 51
180.0
  0
ARC
  5
94
330
1F
100
AcDbEntity
  8
0
  6
Continuous
 62
     7
100
AcDbCircle
 10
6007.347382771
 20
7980.5969837424
 30
0.0
 40
5.000000000000909
100
AcDbArc
 50
0.0
 51
90.0
  0
ARC
  5
95
330
1F
100
AcDbEntity
  8
0
  6
Continuous
 62
     7
100
AcDbCircle
 10
5617.347382771
 20
7565.5969837424
 30
0.0
 40
5.0
100
AcDbArc
 50
180.0
 51
270.0
  0
ARC
  5
96
330
1F
100
AcDbEntity
  8
0
  6
Continuous
 62
     7
100
AcDbCircle
 10
6007.347382771
 20
7565.5969837424
 30
0.0
 40
5.0
100
AcDbArc
 50
270.0
 51
0.0
  0
CIRCLE
  5
97
330
1F
100
AcDbEntity
  8
0
  6
Continuous
 62
     7
100
AcDbCircle
 10
4014.7159162547
 20
7912.0402331824
 30
0.0
 40
2.999999999999091
  0
CIRCLE
  5
98
330
1F
100
AcDbEntity
  8
0
  6
Continuous
 62
     7
100
AcDbCircle
 10
4014.7159162547
 20
7912.0402331824
 30
0.0
 40
17.99999999999864
  0
CIRCLE
  5
99
330
1F
100
AcDbEntity
  8
0
  6
Continuous
 62
     7
100
AcDbCircle
 10
2134.7159162547
 20
7392.0402331824
 30
0.0
 40
3.0
  0
CIRCLE
  5
9A
330
1F
100
AcDbEntity
  8
0
  6
Continuous
 62
     7
100
AcDbCircle
 10
2134.7159162547
 20
7392.0402331824
 30
0.0
 40
17.99999999999955
  0
CIRCLE
  5
9B
330
1F
100
AcDbEntity
  8
0
  6
Continuous
 62
     7
100
AcDbCircle
 10
2134.7159162547
 20
7912.0402331824
 30
0.0
 40
3.0
  0
CIRCLE
  5
9C
330
1F
100
AcDbEntity
  8
0
  6
Continuous
 62
     7
100
AcDbCircle
 10
2134.7159162547
 20
7912.0402331824
 30
0.0
 40
17.99999999999955
  0
CIRCLE
  5
9D
330
1F
100
AcDbEntity
  8
0
  6
Continuous
 62
     7
100
AcDbCircle
 10
4014.7159162547
 20
7392.0402331824
 30
0.0
 40
2.999999999999091
  0
CIRCLE
  5
9E
330
1F
100
AcDbEntity
  8
0
  6
Continuous
 62
     7
100
AcDbCircle
 10
4014.7159162547
 20
7392.0402331824
 30
0.0
 40
17.99999999999864
  0
ARC
  5
9F
330
1F
100
AcDbEntity
  8
0
  6
Continuous
 62
     7
100
AcDbCircle
 10
2094.7159162547
 20
7972.0402331824
 30
0.0
 40
16.00000000000182
100
AcDbArc
 50
90.0
 51
180.0
  0
ARC
  5
A0
330
1F
100
AcDbEntity
  8
0
  6
Continuous
 62
     7
100
AcDbCircle
 10
4054.7159162547
 20
7972.0402331824
 30
0.0
 40
16.0
100
AcDbArc
 50
0.0
 51
90.0
  0
ARC
  5
A1
330
1F
100
AcDbEntity
  8
0
  6
Continuous
 62
     7
100
AcDbCircle
 10
4054.7159162547
 20
7332.0402331824
 30
0.0
 40
16.00000000000273
100
AcDbArc
 50
270.0
 51
360.0
  0
ARC
  5
A2
330
1F
100
AcDbEntity
  8
0
  6
Continuous
 62
     7
100
AcDbCircle
 10
2094.7159162547
 20
7332.0402331824
 30
0.0
 40
16.00000000000182
100
AcDbArc
 50
180.0
 51
270.0
  0
CIRCLE
  5
A3
330
1F
100
AcDbEntity
  8
0
  6
Continuous
 62
     7
100
AcDbCircle
 10
4014.7159162547
 20
7392.0402331824
 30
0.0
 40
20.00000000000045
  0
CIRCLE
  5
A4
330
1F
100
AcDbEntity
  8
0
  6
Continuous
 62
     7
100
AcDbCircle
 10
4014.7159162547
 20
7912.0402331824
 30
0.0
 40
20.00000000000045
  0
CIRCLE
  5
A5
330
1F
100
AcDbEntity
  8
0
  6
Continuous
 62
     7
100
AcDbCircle
 10
2134.7159162547
 20
7392.0402331824
 30
0.0
 40
19.99999999999955
  0
CIRCLE
  5
A6
330
1F
100
AcDbEntity
  8
0
  6
Continuous
 62
     7
100
AcDbCircle
 10
2134.7159162547
 20
7912.0402331824
 30
0.0
 40
19.99999999999955
  0
ARC
  5
A7
330
1F
100
AcDbEntity
  8
0
  6
Continuous
 62
     7
100
AcDbCircle
 10
4054.7159162547
 20
7332.0402331824
 30
0.0
 40
20.00000000000273
100
AcDbArc
 50
270.0
 51
360.0
  0
ARC
  5
A8
330
1F
100
AcDbEntity
  8
0
  6
Continuous
 62
     7
100
AcDbCircle
 10
2094.7159162547
 20
7332.0402331824
 30
0.0
 40
20.00000000000182
100
AcDbArc
 50
180.0
 51
270.0
  0
ARC
  5
A9
330
1F
100
AcDbEntity
  8
0
  6
Continuous
 62
     7
100
AcDbCircle
 10
2094.7159162547
 20
7972.0402331824
 30
0.0
 40
20.00000000000182
100
AcDbArc
 50
90.0
 51
180.0
  0
ARC
  5
AA
330
1F
100
AcDbEntity
  8
0
  6
Continuous
 62
     7
100
AcDbCircle
 10
4054.7159162547
 20
7972.0402331824
 30
0.0
 40
19.99999999999955
100
AcDbArc
 50
0.0
 51
90.0
  0
ARC
  5
AB
330
1F
100
AcDbEntity
  8
0
  6
Continuous
 62
     7
100
AcDbCircle
 10
5152.1173551968
 20
7696.5696516402
 30
0.0
 40
48.00000000000093
100
AcDbArc
 50
172.2708705976
 51
174.7880796797
  0
ARC
  5
AC
330
1F
100
AcDbEntity
  8
0
  6
Continuous
 62
     7
100
AcDbCircle
 10
5152.1173551967
 20
7607.5108147255
 30
0.0
 40
48.00000000000197
100
AcDbArc
 50
185.2119203211
 51
187.7379939399
  0
ARC
  5
AD
330
1F
100
AcDbEntity
  8
0
  6
Continuous
 62
     7
100
AcDbCircle
 10
5068.5142651751
 20
7696.5696516376
 30
0.0
 40
47.99999999999849
100
AcDbArc
 50
5.2119203233
 51
7.737993942
  0
ARC
  5
AE
330
1F
100
AcDbEntity
  8
0
  6
Continuous
 62
     7
100
AcDbCircle
 10
5068.5142651751
 20
7607.5108147272
 30
0.0
 40
47.99999999999957
100
AcDbArc
 50
352.2708705945
 51
354.7880796767
  0
ARC
  5
AF
330
1F
100
AcDbEntity
  8
0
  6
Continuous
 62
     7
100
AcDbCircle
 10
3119.2453347107
 20
6248.2656706457
 30
0.0
 40
48.00000000000108
100
AcDbArc
 50
74.9415804048
 51
84.7880796778
  0
ARC
  5
B0
330
1F
100
AcDbEntity
  8
0
  6
Continuous
 62
     7
100
AcDbCircle
 10
3030.1864977988
 20
6248.2656706457
 30
0.0
 40
47.99999999999949
100
AcDbArc
 50
95.2119203225
 51
105.0584195954
  0
ARC
  5
B1
330
1F
100
AcDbEntity
  8
0
  6
Continuous
 62
     7
100
AcDbCircle
 10
3119.2453347107
 20
6331.8687606673
 30
0.0
 40
48.00000000001021
100
AcDbArc
 50
275.2119203222
 51
285.0584195953
  0
ARC
  5
B2
330
1F
100
AcDbEntity
  8
0
  6
Continuous
 62
     7
100
AcDbCircle
 10
3030.1864977988
 20
6331.8687606673
 30
0.0
 40
48.00000000000517
100
AcDbArc
 50
254.9415804047
 51
264.7880796776
  0
CIRCLE
  5
B3
330
1F
100
AcDbEntity
  8
0
  6
Continuous
 62
     7
100
AcDbCircle
 10
3074.7159162547
 20
7652.0402331824
 30
0.0
 40
50.00000000000091
  0
ARC
  5
B4
330
1F
100
AcDbEntity
  8
0
  6
Continuous
 62
     7
100
AcDbCircle
 10
3066.6880397322
 20
7687.0086870124
 30
0.0
 40
6.468171580950184
100
AcDbArc
 50
0.0
 51
180.0
  0
ARC
  5
B5
330
1F
100
AcDbEntity
  8
0
  6
Continuous
 62
     7
100
AcDbCircle
 10
3052.8396670985
 20
7649.7043654614
 30
0.0
 40
10.27605154349014
100
AcDbArc
 50
44.0944057149
 51
105.4941474429
  0
ARC
  5
B6
330
1F
100
AcDbEntity
  8
0
  6
Continuous
 62
     7
100
AcDbCircle
 10
3075.3846445826
 20
7637.9225038637
 30
0.0
 40
25.2901213109144
100
AcDbArc
 50
179.9999999996
 51
269.9999999993
  0
ARC
  5
B7
330
1F
100
AcDbEntity
  8
0
  6
Continuous
 62
     7
100
AcDbCircle
 10
3084.8535422102
 20
7630.8547847553
 30
0.0
 40
18.22240220244566
100
AcDbArc
 50
270.0000000002
 51
359.9999999997
  0
ARC
  5
B8
330
1F
100
AcDbEntity
  8
0
  6
Continuous
 62
     7
100
AcDbCircle
 10
3097.6614994279
 20
7662.2018668686
 30
0.0
 40
5.414444984837246
100
AcDbArc
 50
359.9999999959
 51
89.9999999954
  0
ARC
  5
B9
330
1F
100
AcDbEntity
  8
0
  6
Continuous
 62
     7
100
AcDbCircle
 10
3095.6845975695
 20
7662.2018668686
 30
0.0
 40
5.414444984837687
100
AcDbArc
 50
90.0000000002
 51
118.7365577356
  0
ARC
  5
BA
330
1F
100
AcDbEntity
  8
0
  6
Continuous
 62
     7
100
AcDbCircle
 10
3087.7515580906
 20
7665.9961865625
 30
0.0
 40
5.414444984833608
100
AcDbArc
 50
10.1404867651
 51
90.0000000001
  0
ARC
  5
BB
330
1F
100
AcDbEntity
  8
0
  6
Continuous
 62
     7
100
AcDbCircle
 10
3085.4342889622
 20
7665.9961865625
 30
0.0
 40
5.414444984836337
100
AcDbArc
 50
89.9999999991
 51
124.7440022255
  0
ARC
  5
BC
330
1F
100
AcDbEntity
  8
0
  6
Continuous
 62
     7
100
AcDbCircle
 10
3077.5012494834
 20
7668.0328035033
 30
0.0
 40
5.414444984831789
100
AcDbArc
 50
26.4592691595
 51
90.0000000002
  0
ARC
  5
BD
330
1F
100
AcDbEntity
  8
0
  6
Continuous
 62
     7
100
AcDbCircle
 10
3075.6748058072
 20
7668.0328035033
 30
0.0
 40
5.414444984835427
100
AcDbArc
 50
90.0000000003
 51
117.7207121267
  0
ARC
  5
BE
330
1F
100
AcDbEntity
  8
0
  6
Continuous
 62
     7
100
AcDbCircle
 10
3071.7082860678
 20
7656.3253259159
 30
0.0
 40
2.670474754650058
100
AcDbArc
 50
180.0
 51
0.0
  0
ARC
  5
BF
330
1F
100
AcDbEntity
  8
0
  6
Continuous
 62
     7
100
AcDbCircle
 10
3075.3392012876
 20
7668.0894520541
 30
0.0
 40
0.9604404651508958
100
AcDbArc
 50
90.000000003
 51
179.999999997
  0
ARC
  5
C0
330
1F
100
AcDbEntity
  8
0
  6
Continuous
 62
     7
100
AcDbCircle
 10
3077.8368540031
 20
7668.0894520541
 30
0.0
 40
0.9604404651527148
100
AcDbArc
 50
0.0000000031
 51
90.0000000028
  0
ARC
  5
C1
330
1F
100
AcDbEntity
  8
0
  6
Continuous
 62
     7
100
AcDbCircle
 10
3081.4677692229
 20
7656.3253259159
 30
0.0
 40
2.670474754600491
100
AcDbArc
 50
180.0
 51
0.0
  0
ARC
  5
C2
330
1F
100
AcDbEntity
  8
0
  6
Continuous
 62
     7
100
AcDbCircle
 10
3085.0986844427
 20
7666.0528351134
 30
0.0
 40
0.9604404651536242
100
AcDbArc
 50
89.9999999972
 51
179.9999999968
  0
ARC
  5
C3
330
1F
100
AcDbEntity
  8
0
  6
Continuous
 62
     7
100
AcDbCircle
 10
3088.0871626103
 20
7666.0528351134
 30
0.0
 40
0.9604404651499863
100
AcDbArc
 50
0.000000003
 51
89.999999997
  0
ARC
  5
C4
330
1F
100
AcDbEntity
  8
0
  6
Continuous
 62
     7
100
AcDbCircle
 10
3091.7180778301
 20
7656.3253259159
 30
0.0
 40
2.670474754650513
100
AcDbArc
 50
180.0
 51
0.0
  0
ARC
  5
C5
330
1F
100
AcDbEntity
  8
0
  6
Continuous
 62
     7
100
AcDbCircle
 10
3095.3489930498
 20
7662.387433879
 30
0.0
 40
0.9604404651499863
100
AcDbArc
 50
90.000000003
 51
180.0000000029
  0
ARC
  5
C6
330
1F
100
AcDbEntity
  8
0
  6
Continuous
 62
     7
100
AcDbCircle
 10
3097.9971039477
 20
7662.3874338789
 30
0.0
 40
0.9604404651518053
100
AcDbArc
 50
359.9999999716
 51
89.9999999793
  0
ARC
  5
C7
330
1F
100
AcDbEntity
  8
0
  6
Continuous
 62
     7
100
AcDbCircle
 10
3084.8535422102
 20
7630.8547847553
 30
0.0
 40
14.10400220254814
100
AcDbArc
 50
270.0000000002
 51
359.9999999996
  0
ARC
  5
C8
330
1F
100
AcDbEntity
  8
0
  6
Continuous
 62
     7
100
AcDbCircle
 10
3075.3846445826
 20
7637.9225038637
 30
0.0
 40
21.17172131101734
100
AcDbArc
 50
180.0000000001
 51
269.9999999992
  0
ARC
  5
C9
330
1F
100
AcDbEntity
  8
0
  6
Continuous
 62
     7
100
AcDbCircle
 10
3052.8396670985
 20
7649.7043654614
 30
0.0
 40
6.157651543433446
100
AcDbArc
 50
0.0000000004
 51
77.1137478486
  0
ARC
  5
CA
330
1F
100
AcDbEntity
  8
0
  6
Continuous
 62
     7
100
AcDbCircle
 10
3061.6677933966
 20
7641.8866819333
 30
0.0
 40
2.670474754650058
100
AcDbArc
 50
180.0
 51
0.0
  0
ARC
  5
CB
330
1F
100
AcDbEntity
  8
0
  6
Continuous
 62
     7
100
AcDbCircle
 10
3066.6880397322
 20
7687.0086870124
 30
0.0
 40
2.349771580950346
100
AcDbArc
 50
0.0
 51
180.0
  0
CIRCLE
  5
CC
330
1F
100
AcDbEntity
  8
0
  6
Continuous
 62
     7
100
AcDbCircle
 10
3074.7159162547
 20
7652.0402331824
 30
0.0
 40
56.00000000000136
  0
ARC
  5
CD
330
1F
100
AcDbEntity
  8
0
  6
Continuous
 62
     7
100
AcDbCircle
 10
6182.8257273113
 20
7800.6178156909
 30
0.0
 40
28.80000000000166
100
AcDbArc
 50
172.2708705976
 51
174.7880796797
  0
ARC
  5
CE
330
1F
100
AcDbEntity
  8
0
  6
Continuous
 62
     7
100
AcDbCircle
 10
6182.8257273113
 20
7747.1825135421
 30
0.0
 40
28.80000000000229
100
AcDbArc
 50
185.2119203211
 51
187.7379939399
  0
ARC
  5
CF
330
1F
100
AcDbEntity
  8
0
  6
Continuous
 62
     7
100
AcDbCircle
 10
6132.6638732983
 20
7800.6178156894
 30
0.0
 40
28.80000000000022
100
AcDbArc
 50
5.2119203233
 51
7.737993942
  0
ARC
  5
D0
330
1F
100
AcDbEntity
  8
0
  6
Continuous
 62
     7
100
AcDbCircle
 10
6132.6638732983
 20
7747.1825135431
 30
0.0
 40
28.80000000000074
100
AcDbArc
 50
352.2708705945
 51
354.7880796767
  0
ARC
  5
D1
330
1F
100
AcDbEntity
  8
0
  6
Continuous
 62
     7
100
AcDbCircle
 10
5840.4829890496
 20
7403.0175334461
 30
0.0
 40
28.80000000000055
100
AcDbArc
 50
74.9415804048
 51
84.7880796778
  0
ARC
  5
D2
330
1F
100
AcDbEntity
  8
0
  6
Continuous
 62
     7
100
AcDbCircle
 10
5787.0476869025
 20
7403.0175334461
 30
0.0
 40
28.79999999999882
100
AcDbArc
 50
95.2119203225
 51
105.0584195954
  0
ARC
  5
D3
330
1F
100
AcDbEntity
  8
0
  6
Continuous
 62
     7
100
AcDbCircle
 10
5840.4829890496
 20
7453.1793874591
 30
0.0
 40
28.80000000000629
100
AcDbArc
 50
275.2119203222
 51
285.0584195953
  0
ARC
  5
D4
330
1F
100
AcDbEntity
  8
0
  6
Continuous
 62
     7
100
AcDbCircle
 10
5787.0476869024
 20
7453.1793874591
 30
0.0
 40
28.80000000000393
100
AcDbArc
 50
254.9415804047
 51
264.7880796776
  0
LINE
  5
D5
330
1F
100
AcDbEntity
  8
0
  6
Continuous
 62
     7
100
AcDbLine
 10
6174.5648003048
 20
7566.4001646163
 30
0.0
 11
6174.5648003048
 21
7981.4001646163
 31
0.0
  0
LINE
  5
D6
330
1F
100
AcDbEntity
  8
0
  6
Continuous
 62
     7
100
AcDbLine
 10
6007.765337976
 20
7411.2784604525
 30
0.0
 11
5617.765337976
 21
7411.2784604525
 31
0.0
  0
LINE
  5
D7
330
1F
100
AcDbEntity
  8
0
  6
Continuous
 62
     7
100
AcDbLine
 10
5965.1531166967
 20
7768.3940506008
 30
0.0
 11
5964.7126694671
 21
7767.9958359433
 31
0.0
  0
LINE
  5
D8
330
1F
100
AcDbEntity
  8
0
  6
Continuous
 62
     7
100
AcDbLine
 10
5967.3633874981
 20
7767.647929385
 30
0.0
 11
5967.0406191284
 21
7768.1463160371
 31
0.0
  0
LINE
  5
D9
330
1F
100
AcDbEntity
  8
0
  6
Continuous
 62
     7
100
AcDbLine
 10
5970.0146104886
 20
7769.3795626358
 30
0.0
 11
5970.1385498047
 21
7768.7990168172
 31
0.0
  0
LINE
  5
DA
330
1F
100
AcDbEntity
  8
0
  6
Continuous
 62
     7
100
AcDbLine
 10
5971.7659058165
 20
7770.9206526912
 30
0.0
 11
5971.1723327637
 21
7770.8903204096
 31
0.0
  0
LINE
  5
DB
330
1F
100
AcDbEntity
  8
0
  6
Continuous
 62
     7
100
AcDbLine
 10
5971.5918789265
 20
7774.0824957774
 30
0.0
 11
5972.1565246582
 21
7773.9001646163
 31
0.0
  0
LINE
  5
DC
330
1F
100
AcDbEntity
  8
0
  6
Continuous
 62
     7
100
AcDbLine
 10
5971.132903453
 20
7776.3697070487
 30
0.0
 11
5970.8626721362
 21
7775.8409881149
 31
0.0
  0
LINE
  5
DD
330
1F
100
AcDbEntity
  8
0
  6
Continuous
 62
     7
100
AcDbLine
 10
5968.3076535725
 20
7777.7999168841
 30
0.0
 11
5968.748100802
 21
7778.1981315415
 31
0.0
  0
LINE
  5
DE
330
1F
100
AcDbEntity
  8
0
  6
Continuous
 62
     7
100
AcDbLine
 10
5966.097382771
 20
7778.5460380999
 30
0.0
 11
5966.4201511407
 21
7778.0476514478
 31
0.0
  0
LINE
  5
DF
330
1F
100
AcDbEntity
  8
0
  6
Continuous
 62
     7
100
AcDbLine
 10
5963.4461597806
 20
7776.8144048491
 30
0.0
 11
5963.3215193858
 21
7777.3949506676
 31
0.0
  0
LINE
  5
E0
330
1F
100
AcDbEntity
  8
0
  6
Continuous
 62
     7
100
AcDbLine
 10
5961.6948644526
 20
7775.2733147937
 30
0.0
 11
5962.2878641391
 21
7775.3036470753
 31
0.0
  0
LINE
  5
E1
330
1F
100
AcDbEntity
  8
0
  6
Continuous
 62
     7
100
AcDbLine
 10
5961.8688913427
 20
7772.1114717074
 30
0.0
 11
5961.3037109375
 21
7772.2938028685
 31
0.0
  0
LINE
  5
E2
330
1F
100
AcDbEntity
  8
0
  6
Continuous
 62
     7
100
AcDbLine
 10
5962.3278668162
 20
7769.8242604362
 30
0.0
 11
5962.598098133
 21
7770.3529793699
 31
0.0
  0
LINE
  5
E3
330
1F
100
AcDbEntity
  8
0
  6
Continuous
 62
     7
100
AcDbLine
 10
5657.6531166967
 20
7768.3940506008
 30
0.0
 11
5657.2126694671
 21
7767.9958359433
 31
0.0
  0
LINE
  5
E4
330
1F
100
AcDbEntity
  8
0
  6
Continuous
 62
     7
100
AcDbLine
 10
5659.8633874981
 20
7767.647929385
 30
0.0
 11
5659.5406191284
 21
7768.1463160371
 31
0.0
  0
LINE
  5
E5
330
1F
100
AcDbEntity
  8
0
  6
Continuous
 62
     7
100
AcDbLine
 10
5662.5146104886
 20
7769.3795626358
 30
0.0
 11
5662.6392508833
 21
7768.7990168172
 31
0.0
  0
LINE
  5
E6
330
1F
100
AcDbEntity
  8
0
  6
Continuous
 62
     7
100
AcDbLine
 10
5664.2659058165
 20
7770.9206526912
 30
0.0
 11
5663.67290613
 21
7770.8903204096
 31
0.0
  0
LINE
  5
E7
330
1F
100
AcDbEntity
  8
0
  6
Continuous
 62
     7
100
AcDbLine
 10
5664.0918789265
 20
7774.0824957774
 30
0.0
 11
5664.6569665508
 21
7773.9001646163
 31
0.0
  0
LINE
  5
E8
330
1F
100
AcDbEntity
  8
0
  6
Continuous
 62
     7
100
AcDbLine
 10
5663.632903453
 20
7776.3697070487
 30
0.0
 11
5663.3626721362
 21
7775.8409881149
 31
0.0
  0
LINE
  5
E9
330
1F
100
AcDbEntity
  8
0
  6
Continuous
 62
     7
100
AcDbLine
 10
5660.8076535725
 20
7777.7999168841
 30
0.0
 11
5661.248100802
 21
7778.1981315415
 31
0.0
  0
LINE
  5
EA
330
1F
100
AcDbEntity
  8
0
  6
Continuous
 62
     7
100
AcDbLine
 10
5658.597382771
 20
7778.5460380999
 30
0.0
 11
5658.9201511407
 21
7778.0476514478
 31
0.0
  0
LINE
  5
EB
330
1F
100
AcDbEntity
  8
0
  6
Continuous
 62
     7
100
AcDbLine
 10
5655.9461597806
 20
7776.8144048491
 30
0.0
 11
5655.8215193858
 21
7777.3949506676
 31
0.0
  0
LINE
  5
EC
330
1F
100
AcDbEntity
  8
0
  6
Continuous
 62
     7
100
AcDbLine
 10
5654.1948644526
 20
7775.2733147937
 30
0.0
 11
5654.7878641391
 21
7775.3036470753
 31
0.0
  0
LINE
  5
ED
330
1F
100
AcDbEntity
  8
0
  6
Continuous
 62
     7
100
AcDbLine
 10
5654.3688913427
 20
7772.1114717074
 30
0.0
 11
5653.8038037183
 21
7772.2938028685
 31
0.0
  0
LINE
  5
EE
330
1F
100
AcDbEntity
  8
0
  6
Continuous
 62
     7
100
AcDbLine
 10
5654.8278668162
 20
7769.8242604362
 30
0.0
 11
5655.0979614258
 21
7770.3529793699
 31
0.0
  0
LINE
  5
EF
330
1F
100
AcDbEntity
  8
0
  6
Continuous
 62
     7
100
AcDbLine
 10
5811.3725671825
 20
7786.0879682748
 30
0.0
 11
5811.3725671825
 21
7794.9522673862
 31
0.0
  0
LINE
  5
F0
330
1F
100
AcDbEntity
  8
0
  6
Continuous
 62
     7
100
AcDbLine
 10
5803.2873527063
 20
7794.9522673862
 30
0.0
 11
5803.2873527063
 21
7776.106138422
 31
0.0
  0
LINE
  5
F1
330
1F
100
AcDbEntity
  8
0
  6
Continuous
 62
     7
100
AcDbLine
 10
5796.9590121566
 20
7777.8261893319
 30
0.0
 11
5796.9590121566
 21
7764.2734029184
 31
0.0
  0
LINE
  5
F2
330
1F
100
AcDbEntity
  8
0
  6
Continuous
 62
     7
100
AcDbLine
 10
5812.7653379759
 20
7748.4670770989
 30
0.0
 11
5818.6833989934
 21
7748.4670770989
 31
0.0
  0
LINE
  5
F3
330
1F
100
AcDbEntity
  8
0
  6
Continuous
 62
     7
100
AcDbLine
 10
5830.07240037
 20
7759.8560784755
 30
0.0
 11
5830.07240037
 21
7779.4480047962
 31
0.0
  0
LINE
  5
F4
330
1F
100
AcDbEntity
  8
0
  6
Continuous
 62
     7
100
AcDbLine
 10
5826.6883722547
 20
7782.8320329116
 30
0.0
 11
5825.452808593
 21
7782.8320329116
 31
0.0
  0
LINE
  5
F5
330
1F
100
AcDbEntity
  8
0
  6
Continuous
 62
     7
100
AcDbLine
 10
5820.4946589187
 20
7785.2034827206
 30
0.0
 11
5819.0463657135
 21
7785.2034827206
 31
0.0
  0
LINE
  5
F6
330
1F
100
AcDbEntity
  8
0
  6
Continuous
 62
     7
100
AcDbLine
 10
5814.0882160391
 20
7786.4763683085
 30
0.0
 11
5812.9466887414
 21
7786.4763683085
 31
0.0
  0
LINE
  5
F7
330
1F
100
AcDbEntity
  8
0
  6
Continuous
 62
     7
100
AcDbLine
 10
5812.1366606258
 20
7783.1277455373
 30
0.0
 11
5812.1366606258
 21
7775.7751667009
 31
0.0
  0
LINE
  5
F8
330
1F
100
AcDbEntity
  8
0
  6
Continuous
 62
     7
100
AcDbLine
 10
5814.2979688638
 20
7783.728020828
 30
0.0
 11
5812.7369359165
 21
7783.728020828
 31
0.0
  0
LINE
  5
F9
330
1F
100
AcDbEntity
  8
0
  6
Continuous
 62
     7
100
AcDbLine
 10
5814.8982441545
 20
7775.7751667009
 30
0.0
 11
5814.8982441545
 21
7783.1277455373
 31
0.0
  0
LINE
  5
FA
330
1F
100
AcDbEntity
  8
0
  6
Continuous
 62
     7
100
AcDbLine
 10
5818.2363375978
 20
7781.8548599493
 30
0.0
 11
5818.2363375978
 21
7775.7751667009
 31
0.0
  0
LINE
  5
FB
330
1F
100
AcDbEntity
  8
0
  6
Continuous
 62
     7
100
AcDbLine
 10
5820.7044117433
 20
7782.4551352401
 30
0.0
 11
5818.8366128885
 21
7782.4551352401
 31
0.0
  0
LINE
  5
FC
330
1F
100
AcDbEntity
  8
0
  6
Continuous
 62
     7
100
AcDbLine
 10
5821.304687034
 20
7775.7751667009
 30
0.0
 11
5821.304687034
 21
7781.8548599493
 31
0.0
  0
LINE
  5
FD
330
1F
100
AcDbEntity
  8
0
  6
Continuous
 62
     7
100
AcDbLine
 10
5824.6427804773
 20
7779.5639841777
 30
0.0
 11
5824.6427804773
 21
7775.7751667009
 31
0.0
  0
LINE
  5
FE
330
1F
100
AcDbEntity
  8
0
  6
Continuous
 62
     7
100
AcDbLine
 10
5826.8981250793
 20
7780.1642594685
 30
0.0
 11
5825.243055768
 21
7780.1642594685
 31
0.0
  0
LINE
  5
FF
330
1F
100
AcDbEntity
  8
0
  6
Continuous
 62
     7
100
AcDbLine
 10
5827.49840037
 20
7759.8560784755
 30
0.0
 11
5827.49840037
 21
7779.5639841776
 31
0.0
  0
LINE
  5
100
330
1F
100
AcDbEntity
  8
0
  6
Continuous
 62
     7
100
AcDbLine
 10
5812.7653379759
 20
7751.0410770989
 30
0.0
 11
5818.6833989934
 21
7751.0410770989
 31
0.0
  0
LINE
  5
101
330
1F
100
AcDbEntity
  8
0
  6
Continuous
 62
     7
100
AcDbLine
 10
5799.5330121566
 20
7775.3886723236
 30
0.0
 11
5799.5330121566
 21
7764.2734029183
 31
0.0
  0
LINE
  5
102
330
1F
100
AcDbEntity
  8
0
  6
Continuous
 62
     7
100
AcDbLine
 10
5802.523259263
 20
7766.7510142117
 30
0.0
 11
5802.523259263
 21
7771.6370664168
 31
0.0
  0
LINE
  5
103
330
1F
100
AcDbEntity
  8
0
  6
Continuous
 62
     7
100
AcDbLine
 10
5805.8613527063
 20
7794.9522673862
 30
0.0
 11
5805.8613527063
 21
7766.7510142117
 31
0.0
  0
LINE
  5
104
330
1F
100
AcDbEntity
  8
0
  6
Continuous
 62
     7
100
AcDbLine
 10
5808.7985671825
 20
7775.7751667009
 30
0.0
 11
5808.7985671825
 21
7794.9522673862
 31
0.0
  0
LINE
  5
105
330
1F
100
AcDbEntity
  8
0
  6
Continuous
 62
     7
100
AcDbLine
 10
6007.347382771
 20
7983.0969837424
 30
0.0
 11
5617.347382771
 21
7983.0969837424
 31
0.0
  0
LINE
  5
106
330
1F
100
AcDbEntity
  8
0
  6
Continuous
 62
     7
100
AcDbLine
 10
5617.347382771
 20
7983.0969837424
 30
0.0
 11
5617.347382771
 21
7985.5969837424
 31
0.0
  0
LINE
  5
107
330
1F
100
AcDbEntity
  8
0
  6
Continuous
 62
     7
100
AcDbLine
 10
5617.347382771
 20
7985.5969837424
 30
0.0
 11
6007.347382771
 21
7985.5969837424
 31
0.0
  0
LINE
  5
108
330
1F
100
AcDbEntity
  8
0
  6
Continuous
 62
     7
100
AcDbLine
 10
6007.347382771
 20
7983.0969837424
 30
0.0
 11
6007.347382771
 21
7985.5969837424
 31
0.0
  0
LINE
  5
109
330
1F
100
AcDbEntity
  8
0
  6
Continuous
 62
     7
100
AcDbLine
 10
6009.847382771
 20
7565.5969837424
 30
0.0
 11
6009.847382771
 21
7980.5969837424
 31
0.0
  0
LINE
  5
10A
330
1F
100
AcDbEntity
  8
0
  6
Continuous
 62
     7
100
AcDbLine
 10
5617.347382771
 20
7563.0969837424
 30
0.0
 11
6007.347382771
 21
7563.0969837424
 31
0.0
  0
LINE
  5
10B
330
1F
100
AcDbEntity
  8
0
  6
Continuous
 62
     7
100
AcDbLine
 10
5614.847382771
 20
7980.5969837424
 30
0.0
 11
5614.847382771
 21
7565.5969837424
 31
0.0
  0
LINE
  5
10C
330
1F
100
AcDbEntity
  8
0
  6
Continuous
 62
     7
100
AcDbLine
 10
5614.847382771
 20
7980.5969837424
 30
0.0
 11
5612.347382771
 21
7980.5969837424
 31
0.0
  0
LINE
  5
10D
330
1F
100
AcDbEntity
  8
0
  6
Continuous
 62
     7
100
AcDbLine
 10
5614.847382771
 20
7565.5969837424
 30
0.0
 11
5612.347382771
 21
7565.5969837424
 31
0.0
  0
LINE
  5
10E
330
1F
100
AcDbEntity
  8
0
  6
Continuous
 62
     7
100
AcDbLine
 10
5612.347382771
 20
7565.5969837424
 30
0.0
 11
5612.347382771
 21
7980.5969837424
 31
0.0
  0
LINE
  5
10F
330
1F
100
AcDbEntity
  8
0
  6
Continuous
 62
     7
100
AcDbLine
 10
6012.347382771
 20
7980.5969837424
 30
0.0
 11
6009.847382771
 21
7980.5969837424
 31
0.0
  0
LINE
  5
110
330
1F
100
AcDbEntity
  8
0
  6
Continuous
 62
     7
100
AcDbLine
 10
6012.347382771
 20
7980.5969837424
 30
0.0
 11
6012.347382771
 21
7565.5969837424
 31
0.0
  0
LINE
  5
111
330
1F
100
AcDbEntity
  8
0
  6
Continuous
 62
     7
100
AcDbLine
 10
6012.347382771
 20
7565.5969837424
 30
0.0
 11
6009.847382771
 21
7565.5969837424
 31
0.0
  0
LINE
  5
112
330
1F
100
AcDbEntity
  8
0
  6
Continuous
 62
     7
100
AcDbLine
 10
5617.347382771
 20
7560.5969837424
 30
0.0
 11
5617.347382771
 21
7563.0969837424
 31
0.0
  0
LINE
  5
113
330
1F
100
AcDbEntity
  8
0
  6
Continuous
 62
     7
100
AcDbLine
 10
6007.347382771
 20
7560.5969837424
 30
0.0
 11
5617.347382771
 21
7560.5969837424
 31
0.0
  0
LINE
  5
114
330
1F
100
AcDbEntity
  8
0
  6
Continuous
 62
     7
100
AcDbLine
 10
6007.347382771
 20
7560.5969837424
 30
0.0
 11
6007.347382771
 21
7563.0969837424
 31
0.0
  0
LINE
  5
115
330
1F
100
AcDbEntity
  8
0
  6
Continuous
 62
     7
100
AcDbLine
 10
6174.5648003048
 20
7738.9815735615
 30
0.0
 11
6175.8148003048
 21
7738.9815735615
 31
0.0
  0
LINE
  5
116
330
1F
100
AcDbEntity
  8
0
  6
Continuous
 62
     7
100
AcDbLine
 10
6175.8148003048
 20
7808.9815735615
 30
0.0
 11
6174.5648003048
 21
7808.9815735615
 31
0.0
  0
LINE
  5
117
330
1F
100
AcDbEntity
  8
0
  6
Continuous
 62
     7
100
AcDbLine
 10
6175.8148003048
 20
7738.9815735615
 30
0.0
 11
6179.5648003048
 21
7742.7315735615
 31
0.0
  0
LINE
  5
118
330
1F
100
AcDbEntity
  8
0
  6
Continuous
 62
     7
100
AcDbLine
 10
6179.5648003048
 20
7805.2315735615
 30
0.0
 11
6175.8148003048
 21
7808.9815735615
 31
0.0
  0
LINE
  5
119
330
1F
100
AcDbEntity
  8
0
  6
Continuous
 62
     7
100
AcDbLine
 10
6175.8148003048
 20
7738.9815735615
 30
0.0
 11
6175.8148003048
 21
7808.9815735615
 31
0.0
  0
LINE
  5
11A
330
1F
100
AcDbEntity
  8
0
  6
Continuous
 62
     7
100
AcDbLine
 10
6179.5648003048
 20
7805.2315735615
 30
0.0
 11
6179.5648003048
 21
7742.7315735615
 31
0.0
  0
LINE
  5
11B
330
1F
100
AcDbEntity
  8
0
  6
Continuous
 62
     7
100
AcDbLine
 10
6162.0648003048
 20
7957.6501646163
 30
0.0
 11
6162.0648003048
 21
7570.1501646163
 31
0.0
  0
LINE
  5
11C
330
1F
100
AcDbEntity
  8
0
  6
Continuous
 62
     7
100
AcDbLine
 10
6162.0648003048
 20
7570.1501646163
 30
0.0
 11
6167.0648003048
 21
7570.1501646163
 31
0.0
  0
LINE
  5
11D
330
1F
100
AcDbEntity
  8
0
  6
Continuous
 62
     7
100
AcDbLine
 10
6162.0648003048
 20
7957.6501646163
 30
0.0
 11
6167.0648003048
 21
7957.6501646163
 31
0.0
  0
LINE
  5
11E
330
1F
100
AcDbEntity
  8
0
  6
Continuous
 62
     7
100
AcDbLine
 10
6162.0648003048
 20
7980.1501646163
 30
0.0
 11
6162.0648003048
 21
7957.6501646163
 31
0.0
  0
LINE
  5
11F
330
1F
100
AcDbEntity
  8
0
  6
Continuous
 62
     7
100
AcDbLine
 10
6167.0648003048
 20
7980.1501646163
 30
0.0
 11
6162.0648003048
 21
7980.1501646163
 31
0.0
  0
LINE
  5
120
330
1F
100
AcDbEntity
  8
0
  6
Continuous
 62
     7
100
AcDbLine
 10
6167.0648003048
 20
7986.4001646163
 30
0.0
 11
6172.0648003048
 21
7986.4001646163
 31
0.0
  0
LINE
  5
121
330
1F
100
AcDbEntity
  8
0
  6
Continuous
 62
     7
100
AcDbLine
 10
6172.0648003048
 20
7981.4001646163
 30
0.0
 11
6172.0648003048
 21
7986.4001646163
 31
0.0
  0
LINE
  5
122
330
1F
100
AcDbEntity
  8
0
  6
Continuous
 62
     7
100
AcDbLine
 10
6172.0648003048
 20
7981.4001646163
 30
0.0
 11
6167.0648003048
 21
7981.4001646163
 31
0.0
  0
LINE
  5
123
330
1F
100
AcDbEntity
  8
0
  6
Continuous
 62
     7
100
AcDbLine
 10
6167.0648003048
 20
7981.4001646163
 30
0.0
 11
6167.0648003048
 21
7986.4001646163
 31
0.0
  0
LINE
  5
124
330
1F
100
AcDbEntity
  8
0
  6
Continuous
 62
     7
100
AcDbLine
 10
6172.0648003048
 20
7566.4001646163
 30
0.0
 11
6172.0648003048
 21
7981.4001646163
 31
0.0
  0
LINE
  5
125
330
1F
100
AcDbEntity
  8
0
  6
Continuous
 62
     7
100
AcDbLine
 10
6167.0648003048
 20
7566.4001646163
 30
0.0
 11
6172.0648003048
 21
7566.4001646163
 31
0.0
  0
LINE
  5
126
330
1F
100
AcDbEntity
  8
0
  6
Continuous
 62
     7
100
AcDbLine
 10
6167.0648003048
 20
7981.4001646163
 30
0.0
 11
6167.0648003048
 21
7566.4001646163
 31
0.0
  0
LINE
  5
127
330
1F
100
AcDbEntity
  8
0
  6
Continuous
 62
     7
100
AcDbLine
 10
6174.5648003048
 20
7983.9001646163
 30
0.0
 11
6174.5648003048
 21
7981.4001646163
 31
0.0
  0
LINE
  5
128
330
1F
100
AcDbEntity
  8
0
  6
Continuous
 62
     7
100
AcDbLine
 10
6174.5648003048
 20
7981.4001646163
 30
0.0
 11
6172.0648003048
 21
7981.4001646163
 31
0.0
  0
LINE
  5
129
330
1F
100
AcDbEntity
  8
0
  6
Continuous
 62
     7
100
AcDbLine
 10
6174.5648003048
 20
7983.9001646163
 30
0.0
 11
6172.0648003048
 21
7986.4001646163
 31
0.0
  0
LINE
  5
12A
330
1F
100
AcDbEntity
  8
0
  6
Continuous
 62
     7
100
AcDbLine
 10
6174.5648003048
 20
7566.4001646163
 30
0.0
 11
6172.0648003048
 21
7566.4001646163
 31
0.0
  0
LINE
  5
12B
330
1F
100
AcDbEntity
  8
0
  6
Continuous
 62
     7
100
AcDbLine
 10
6172.0648003048
 20
7561.4001646163
 30
0.0
 11
6172.0648003048
 21
7566.4001646163
 31
0.0
  0
LINE
  5
12C
330
1F
100
AcDbEntity
  8
0
  6
Continuous
 62
     7
100
AcDbLine
 10
6172.0648003048
 20
7561.4001646163
 30
0.0
 11
6167.0648003048
 21
7561.4001646163
 31
0.0
  0
LINE
  5
12D
330
1F
100
AcDbEntity
  8
0
  6
Continuous
 62
     7
100
AcDbLine
 10
6167.0648003048
 20
7561.4001646163
 30
0.0
 11
6167.0648003048
 21
7566.4001646163
 31
0.0
  0
LINE
  5
12E
330
1F
100
AcDbEntity
  8
0
  6
Continuous
 62
     7
100
AcDbLine
 10
6174.5648003048
 20
7566.4001646163
 30
0.0
 11
6174.5648003048
 21
7563.9001646163
 31
0.0
  0
LINE
  5
12F
330
1F
100
AcDbEntity
  8
0
  6
Continuous
 62
     7
100
AcDbLine
 10
6172.0648003048
 20
7561.4001646163
 30
0.0
 11
6174.5648003048
 21
7563.9001646163
 31
0.0
  0
LINE
  5
130
330
1F
100
AcDbEntity
  8
0
  6
Continuous
 62
     7
100
AcDbLine
 10
5777.765337976
 20
7411.2784604525
 30
0.0
 11
5777.765337976
 21
7410.0284604525
 31
0.0
  0
LINE
  5
131
330
1F
100
AcDbEntity
  8
0
  6
Continuous
 62
     7
100
AcDbLine
 10
5847.765337976
 20
7410.0284604525
 30
0.0
 11
5847.765337976
 21
7411.2784604525
 31
0.0
  0
LINE
  5
132
330
1F
100
AcDbEntity
  8
0
  6
Continuous
 62
     7
100
AcDbLine
 10
5777.765337976
 20
7410.0284604525
 30
0.0
 11
5781.515337976
 21
7406.2784604525
 31
0.0
  0
LINE
  5
133
330
1F
100
AcDbEntity
  8
0
  6
Continuous
 62
     7
100
AcDbLine
 10
5844.015337976
 20
7406.2784604525
 30
0.0
 11
5847.765337976
 21
7410.0284604525
 31
0.0
  0
LINE
  5
134
330
1F
100
AcDbEntity
  8
0
  6
Continuous
 62
     7
100
AcDbLine
 10
5777.765337976
 20
7410.0284604525
 30
0.0
 11
5847.765337976
 21
7410.0284604525
 31
0.0
  0
LINE
  5
135
330
1F
100
AcDbEntity
  8
0
  6
Continuous
 62
     7
100
AcDbLine
 10
5844.015337976
 20
7406.2784604525
 30
0.0
 11
5781.515337976
 21
7406.2784604525
 31
0.0
  0
LINE
  5
136
330
1F
100
AcDbEntity
  8
0
  6
Continuous
 62
     7
100
AcDbLine
 10
5619.015337976
 20
7423.7784604525
 30
0.0
 11
6006.515337976
 21
7423.7784604525
 31
0.0
  0
LINE
  5
137
330
1F
100
AcDbEntity
  8
0
  6
Continuous
 62
     7
100
AcDbLine
 10
5619.015337976
 20
7418.7784604525
 30
0.0
 11
5619.015337976
 21
7423.7784604525
 31
0.0
  0
LINE
  5
138
330
1F
100
AcDbEntity
  8
0
  6
Continuous
 62
     7
100
AcDbLine
 10
6006.515337976
 20
7418.7784604525
 30
0.0
 11
6006.515337976
 21
7423.7784604525
 31
0.0
  0
LINE
  5
139
330
1F
100
AcDbEntity
  8
0
  6
Continuous
 62
     7
100
AcDbLine
 10
6007.765337976
 20
7418.7784604525
 30
0.0
 11
6012.765337976
 21
7418.7784604525
 31
0.0
  0
LINE
  5
13A
330
1F
100
AcDbEntity
  8
0
  6
Continuous
 62
     7
100
AcDbLine
 10
6012.765337976
 20
7418.7784604525
 30
0.0
 11
6012.765337976
 21
7413.7784604525
 31
0.0
  0
LINE
  5
13B
330
1F
100
AcDbEntity
  8
0
  6
Continuous
 62
     7
100
AcDbLine
 10
6007.765337976
 20
7413.7784604525
 30
0.0
 11
6012.765337976
 21
7413.7784604525
 31
0.0
  0
LINE
  5
13C
330
1F
100
AcDbEntity
  8
0
  6
Continuous
 62
     7
100
AcDbLine
 10
6007.765337976
 20
7413.7784604525
 30
0.0
 11
6007.765337976
 21
7418.7784604525
 31
0.0
  0
LINE
  5
13D
330
1F
100
AcDbEntity
  8
0
  6
Continuous
 62
     7
100
AcDbLine
 10
5617.765337976
 20
7413.7784604525
 30
0.0
 11
6007.765337976
 21
7413.7784604525
 31
0.0
  0
LINE
  5
13E
330
1F
100
AcDbEntity
  8
0
  6
Continuous
 62
     7
100
AcDbLine
 10
5617.765337976
 20
7418.7784604525
 30
0.0
 11
5617.765337976
 21
7413.7784604525
 31
0.0
  0
LINE
  5
13F
330
1F
100
AcDbEntity
  8
0
  6
Continuous
 62
     7
100
AcDbLine
 10
6007.765337976
 20
7418.7784604525
 30
0.0
 11
5617.765337976
 21
7418.7784604525
 31
0.0
  0
LINE
  5
140
330
1F
100
AcDbEntity
  8
0
  6
Continuous
 62
     7
100
AcDbLine
 10
5612.765337976
 20
7413.7784604525
 30
0.0
 11
5617.765337976
 21
7413.7784604525
 31
0.0
  0
LINE
  5
141
330
1F
100
AcDbEntity
  8
0
  6
Continuous
 62
     7
100
AcDbLine
 10
5612.765337976
 20
7413.7784604525
 30
0.0
 11
5612.765337976
 21
7418.7784604525
 31
0.0
  0
LINE
  5
142
330
1F
100
AcDbEntity
  8
0
  6
Continuous
 62
     7
100
AcDbLine
 10
5612.765337976
 20
7418.7784604525
 30
0.0
 11
5617.765337976
 21
7418.7784604525
 31
0.0
  0
LINE
  5
143
330
1F
100
AcDbEntity
  8
0
  6
Continuous
 62
     7
100
AcDbLine
 10
5617.765337976
 20
7411.2784604525
 30
0.0
 11
5617.765337976
 21
7413.7784604525
 31
0.0
  0
LINE
  5
144
330
1F
100
AcDbEntity
  8
0
  6
Continuous
 62
     7
100
AcDbLine
 10
6007.765337976
 20
7411.2784604525
 30
0.0
 11
6007.765337976
 21
7413.7784604525
 31
0.0
  0
LINE
  5
145
330
1F
100
AcDbEntity
  8
0
  6
Continuous
 62
     7
100
AcDbLine
 10
6010.265337976
 20
7411.2784604525
 30
0.0
 11
6007.765337976
 21
7411.2784604525
 31
0.0
  0
LINE
  5
146
330
1F
100
AcDbEntity
  8
0
  6
Continuous
 62
     7
100
AcDbLine
 10
6012.765337976
 20
7413.7784604525
 30
0.0
 11
6010.265337976
 21
7411.2784604525
 31
0.0
  0
LINE
  5
147
330
1F
100
AcDbEntity
  8
0
  6
Continuous
 62
     7
100
AcDbLine
 10
5617.765337976
 20
7411.2784604525
 30
0.0
 11
5615.265337976
 21
7411.2784604525
 31
0.0
  0
LINE
  5
148
330
1F
100
AcDbEntity
  8
0
  6
Continuous
 62
     7
100
AcDbLine
 10
5615.265337976
 20
7411.2784604525
 30
0.0
 11
5612.765337976
 21
7413.7784604525
 31
0.0
  0
LINE
  5
149
330
1F
100
AcDbEntity
  8
0
  6
Continuous
 62
     7
100
AcDbLine
 10
4012.8571828397
 20
7904.324352086
 30
0.0
 11
4012.2106320671
 21
7903.6282573312
 31
0.0
  0
LINE
  5
14A
330
1F
100
AcDbEntity
  8
0
  6
Continuous
 62
     7
100
AcDbLine
 10
4016.4841447069
 20
7903.4430734934
 30
0.0
 11
4015.8996582031
 21
7904.1924878362
 31
0.0
  0
LINE
  5
14B
330
1F
100
AcDbEntity
  8
0
  6
Continuous
 62
     7
100
AcDbLine
 10
4020.4686985893
 20
7906.5725822782
 30
0.0
 11
4020.7481384277
 21
7905.6646055068
 31
0.0
  0
LINE
  5
14C
330
1F
100
AcDbEntity
  8
0
  6
Continuous
 62
     7
100
AcDbLine
 10
4023.0453891721
 20
7909.2729840974
 30
0.0
 11
4022.1044210013
 21
7909.1420081034
 31
0.0
  0
LINE
  5
14D
330
1F
100
AcDbEntity
  8
0
  6
Continuous
 62
     7
100
AcDbLine
 10
4022.3274320041
 20
7914.2884633746
 30
0.0
 11
4023.2535431315
 21
7914.076581358
 31
0.0
  0
LINE
  5
14E
330
1F
100
AcDbEntity
  8
0
  6
Continuous
 62
     7
100
AcDbLine
 10
4021.2771607197
 20
7917.8701437864
 30
0.0
 11
4020.9197998047
 21
7916.9897534496
 31
0.0
  0
LINE
  5
14F
330
1F
100
AcDbEntity
  8
0
  6
Continuous
 62
     7
100
AcDbLine
 10
4016.5746496695
 20
7919.7561142788
 30
0.0
 11
4017.2212004421
 21
7920.4522090336
 31
0.0
  0
LINE
  5
150
330
1F
100
AcDbEntity
  8
0
  6
Continuous
 62
     7
100
AcDbLine
 10
4012.9476878023
 20
7920.6373928716
 30
0.0
 11
4013.5316004257
 21
7919.8879785286
 31
0.0
  0
LINE
  5
151
330
1F
100
AcDbEntity
  8
0
  6
Continuous
 62
     7
100
AcDbLine
 10
4008.9631339199
 20
7917.5078840868
 30
0.0
 11
4008.6835735653
 21
7918.415860858
 31
0.0
  0
LINE
  5
152
330
1F
100
AcDbEntity
  8
0
  6
Continuous
 62
     7
100
AcDbLine
 10
4006.3864433373
 20
7914.8074822676
 30
0.0
 11
4007.3274115079
 21
7914.9384582616
 31
0.0
  0
LINE
  5
153
330
1F
100
AcDbEntity
  8
0
  6
Continuous
 62
     7
100
AcDbLine
 10
4007.1044005051
 20
7909.7920029904
 30
0.0
 11
4006.1782893777
 21
7910.003885007
 31
0.0
  0
LINE
  5
154
330
1F
100
AcDbEntity
  8
0
  6
Continuous
 62
     7
100
AcDbLine
 10
4008.1546717897
 20
7906.2103225784
 30
0.0
 11
4008.5117273369
 21
7907.0907129154
 31
0.0
  0
LINE
  5
155
330
1F
100
AcDbEntity
  8
0
  6
Continuous
 62
     7
100
AcDbLine
 10
2132.8571828397
 20
7384.324352086
 30
0.0
 11
2132.2106320671
 21
7383.6282573312
 31
0.0
  0
LINE
  5
156
330
1F
100
AcDbEntity
  8
0
  6
Continuous
 62
     7
100
AcDbLine
 10
2136.4841447069
 20
7383.4430734934
 30
0.0
 11
2135.9002320837
 21
7384.1924878362
 31
0.0
  0
LINE
  5
157
330
1F
100
AcDbEntity
  8
0
  6
Continuous
 62
     7
100
AcDbLine
 10
2140.4686985893
 20
7386.5725822782
 30
0.0
 11
2140.7482589441
 21
7385.6646055068
 31
0.0
  0
LINE
  5
158
330
1F
100
AcDbEntity
  8
0
  6
Continuous
 62
     7
100
AcDbLine
 10
2143.0453891721
 20
7389.2729840974
 30
0.0
 11
2142.1044210013
 21
7389.1420081034
 31
0.0
  0
LINE
  5
159
330
1F
100
AcDbEntity
  8
0
  6
Continuous
 62
     7
100
AcDbLine
 10
2142.3274320041
 20
7394.2884633746
 30
0.0
 11
2143.253326416
 21
7394.076581358
 31
0.0
  0
LINE
  5
15A
330
1F
100
AcDbEntity
  8
0
  6
Continuous
 62
     7
100
AcDbLine
 10
2141.2771607197
 20
7397.8701437864
 30
0.0
 11
2140.9201051723
 21
7396.9897534496
 31
0.0
  0
LINE
  5
15B
330
1F
100
AcDbEntity
  8
0
  6
Continuous
 62
     7
100
AcDbLine
 10
2136.5746496695
 20
7399.7561142788
 30
0.0
 11
2137.2212004421
 21
7400.4522090336
 31
0.0
  0
LINE
  5
15C
330
1F
100
AcDbEntity
  8
0
  6
Continuous
 62
     7
100
AcDbLine
 10
2132.9476878023
 20
7400.6373928716
 30
0.0
 11
2133.5315704346
 21
7399.8879785286
 31
0.0
  0
LINE
  5
15D
330
1F
100
AcDbEntity
  8
0
  6
Continuous
 62
     7
100
AcDbLine
 10
2128.9631339199
 20
7397.5078840868
 30
0.0
 11
2128.68309021
 21
7398.415860858
 31
0.0
  0
LINE
  5
15E
330
1F
100
AcDbEntity
  8
0
  6
Continuous
 62
     7
100
AcDbLine
 10
2126.3864433373
 20
7394.8074822676
 30
0.0
 11
2127.326965332
 21
7394.9384582616
 31
0.0
  0
LINE
  5
15F
330
1F
100
AcDbEntity
  8
0
  6
Continuous
 62
     7
100
AcDbLine
 10
2127.1044005051
 20
7389.7920029904
 30
0.0
 11
2126.1782893777
 21
7390.003885007
 31
0.0
  0
LINE
  5
160
330
1F
100
AcDbEntity
  8
0
  6
Continuous
 62
     7
100
AcDbLine
 10
2128.1546717897
 20
7386.2103225784
 30
0.0
 11
2128.511428833
 21
7387.0907129154
 31
0.0
  0
LINE
  5
161
330
1F
100
AcDbEntity
  8
0
  6
Continuous
 62
     7
100
AcDbLine
 10
2132.8571828397
 20
7904.324352086
 30
0.0
 11
2132.2106320671
 21
7903.6282573312
 31
0.0
  0
LINE
  5
162
330
1F
100
AcDbEntity
  8
0
  6
Continuous
 62
     7
100
AcDbLine
 10
2136.4841447069
 20
7903.4430734934
 30
0.0
 11
2135.9002320837
 21
7904.1924878362
 31
0.0
  0
LINE
  5
163
330
1F
100
AcDbEntity
  8
0
  6
Continuous
 62
     7
100
AcDbLine
 10
2140.4686985893
 20
7906.5725822782
 30
0.0
 11
2140.7482589441
 21
7905.6646055068
 31
0.0
  0
LINE
  5
164
330
1F
100
AcDbEntity
  8
0
  6
Continuous
 62
     7
100
AcDbLine
 10
2143.0453891721
 20
7909.2729840974
 30
0.0
 11
2142.1044210013
 21
7909.1420081034
 31
0.0
  0
LINE
  5
165
330
1F
100
AcDbEntity
  8
0
  6
Continuous
 62
     7
100
AcDbLine
 10
2142.3274320041
 20
7914.2884633746
 30
0.0
 11
2143.253326416
 21
7914.076581358
 31
0.0
  0
LINE
  5
166
330
1F
100
AcDbEntity
  8
0
  6
Continuous
 62
     7
100
AcDbLine
 10
2141.2771607197
 20
7917.8701437864
 30
0.0
 11
2140.9201051723
 21
7916.9897534496
 31
0.0
  0
LINE
  5
167
330
1F
100
AcDbEntity
  8
0
  6
Continuous
 62
     7
100
AcDbLine
 10
2136.5746496695
 20
7919.7561142788
 30
0.0
 11
2137.2212004421
 21
7920.4522090336
 31
0.0
  0
LINE
  5
168
330
1F
100
AcDbEntity
  8
0
  6
Continuous
 62
     7
100
AcDbLine
 10
2132.9476878023
 20
7920.6373928716
 30
0.0
 11
2133.5315704346
 21
7919.8879785286
 31
0.0
  0
LINE
  5
169
330
1F
100
AcDbEntity
  8
0
  6
Continuous
 62
     7
100
AcDbLine
 10
2128.9631339199
 20
7917.5078840868
 30
0.0
 11
2128.68309021
 21
7918.415860858
 31
0.0
  0
LINE
  5
16A
330
1F
100
AcDbEntity
  8
0
  6
Continuous
 62
     7
100
AcDbLine
 10
2126.3864433373
 20
7914.8074822676
 30
0.0
 11
2127.326965332
 21
7914.9384582616
 31
0.0
  0
LINE
  5
16B
330
1F
100
AcDbEntity
  8
0
  6
Continuous
 62
     7
100
AcDbLine
 10
2127.1044005051
 20
7909.7920029904
 30
0.0
 11
2126.1782893777
 21
7910.003885007
 31
0.0
  0
LINE
  5
16C
330
1F
100
AcDbEntity
  8
0
  6
Continuous
 62
     7
100
AcDbLine
 10
2128.1546717897
 20
7906.2103225784
 30
0.0
 11
2128.511428833
 21
7907.0907129154
 31
0.0
  0
LINE
  5
16D
330
1F
100
AcDbEntity
  8
0
  6
Continuous
 62
     7
100
AcDbLine
 10
4012.8571828397
 20
7384.324352086
 30
0.0
 11
4012.2106320671
 21
7383.6282573312
 31
0.0
  0
LINE
  5
16E
330
1F
100
AcDbEntity
  8
0
  6
Continuous
 62
     7
100
AcDbLine
 10
4016.4841447069
 20
7383.4430734934
 30
0.0
 11
4015.8996582031
 21
7384.1924878362
 31
0.0
  0
LINE
  5
16F
330
1F
100
AcDbEntity
  8
0
  6
Continuous
 62
     7
100
AcDbLine
 10
4020.4686985893
 20
7386.5725822782
 30
0.0
 11
4020.7481384277
 21
7385.6646055068
 31
0.0
  0
LINE
  5
170
330
1F
100
AcDbEntity
  8
0
  6
Continuous
 62
     7
100
AcDbLine
 10
4023.0453891721
 20
7389.2729840974
 30
0.0
 11
4022.1044210013
 21
7389.1420081034
 31
0.0
  0
LINE
  5
171
330
1F
100
AcDbEntity
  8
0
  6
Continuous
 62
     7
100
AcDbLine
 10
4022.3274320041
 20
7394.2884633746
 30
0.0
 11
4023.2535431315
 21
7394.076581358
 31
0.0
  0
LINE
  5
172
330
1F
100
AcDbEntity
  8
0
  6
Continuous
 62
     7
100
AcDbLine
 10
4021.2771607197
 20
7397.8701437864
 30
0.0
 11
4020.9197998047
 21
7396.9897534496
 31
0.0
  0
LINE
  5
173
330
1F
100
AcDbEntity
  8
0
  6
Continuous
 62
     7
100
AcDbLine
 10
4016.5746496695
 20
7399.7561142788
 30
0.0
 11
4017.2212004421
 21
7400.4522090336
 31
0.0
  0
LINE
  5
174
330
1F
100
AcDbEntity
  8
0
  6
Continuous
 62
     7
100
AcDbLine
 10
4012.9476878023
 20
7400.6373928716
 30
0.0
 11
4013.5316004257
 21
7399.8879785286
 31
0.0
  0
LINE
  5
175
330
1F
100
AcDbEntity
  8
0
  6
Continuous
 62
     7
100
AcDbLine
 10
4008.9631339199
 20
7397.5078840868
 30
0.0
 11
4008.6835735653
 21
7398.415860858
 31
0.0
  0
LINE
  5
176
330
1F
100
AcDbEntity
  8
0
  6
Continuous
 62
     7
100
AcDbLine
 10
4006.3864433373
 20
7394.8074822676
 30
0.0
 11
4007.3274115079
 21
7394.9384582616
 31
0.0
  0
LINE
  5
177
330
1F
100
AcDbEntity
  8
0
  6
Continuous
 62
     7
100
AcDbLine
 10
4007.1044005051
 20
7389.7920029904
 30
0.0
 11
4006.1782893777
 21
7390.003885007
 31
0.0
  0
LINE
  5
178
330
1F
100
AcDbEntity
  8
0
  6
Continuous
 62
     7
100
AcDbLine
 10
4008.1546717897
 20
7386.2103225784
 30
0.0
 11
4008.5117273369
 21
7387.0907129154
 31
0.0
  0
LINE
  5
179
330
1F
100
AcDbEntity
  8
0
  6
Continuous
 62
     7
100
AcDbLine
 10
2078.7159162547
 20
7972.0402331824
 30
0.0
 11
2078.7159162547
 21
7332.0402331824
 31
0.0
  0
LINE
  5
17A
330
1F
100
AcDbEntity
  8
0
  6
Continuous
 62
     7
100
AcDbLine
 10
4054.7159162547
 20
7988.0402331824
 30
0.0
 11
2094.7159162547
 21
7988.0402331824
 31
0.0
  0
LINE
  5
17B
330
1F
100
AcDbEntity
  8
0
  6
Continuous
 62
     7
100
AcDbLine
 10
4070.7159162547
 20
7332.0402331824
 30
0.0
 11
4070.7159162547
 21
7972.0402331824
 31
0.0
  0
LINE
  5
17C
330
1F
100
AcDbEntity
  8
0
  6
Continuous
 62
     7
100
AcDbLine
 10
2094.7159162547
 20
7316.0402331824
 30
0.0
 11
4054.7159162547
 21
7316.0402331824
 31
0.0
  0
LINE
  5
17D
330
1F
100
AcDbEntity
  8
0
  6
Continuous
 62
     7
100
AcDbLine
 10
4074.7159162547
 20
7972.0402331824
 30
0.0
 11
4074.7159162547
 21
7332.0402331824
 31
0.0
  0
LINE
  5
17E
330
1F
100
AcDbEntity
  8
0
  6
Continuous
 62
     7
100
AcDbLine
 10
4074.7159162547
 20
7332.0402331824
 30
0.0
 11
4070.7159162547
 21
7332.0402331824
 31
0.0
  0
LINE
  5
17F
330
1F
100
AcDbEntity
  8
0
  6
Continuous
 62
     7
100
AcDbLine
 10
4074.7159162547
 20
7972.0402331824
 30
0.0
 11
4070.7159162547
 21
7972.0402331824
 31
0.0
  0
LINE
  5
180
330
1F
100
AcDbEntity
  8
0
  6
Continuous
 62
     7
100
AcDbLine
 10
2078.7159162547
 20
7332.0402331824
 30
0.0
 11
2074.7159162547
 21
7332.0402331824
 31
0.0
  0
LINE
  5
181
330
1F
100
AcDbEntity
  8
0
  6
Continuous
 62
     7
100
AcDbLine
 10
2074.7159162547
 20
7332.0402331824
 30
0.0
 11
2074.7159162547
 21
7972.0402331824
 31
0.0
  0
LINE
  5
182
330
1F
100
AcDbEntity
  8
0
  6
Continuous
 62
     7
100
AcDbLine
 10
2078.7159162547
 20
7972.0402331824
 30
0.0
 11
2074.7159162547
 21
7972.0402331824
 31
0.0
  0
LINE
  5
183
330
1F
100
AcDbEntity
  8
0
  6
Continuous
 62
     7
100
AcDbLine
 10
4054.7159162547
 20
7312.0402331824
 30
0.0
 11
4054.7159162547
 21
7316.0402331824
 31
0.0
  0
LINE
  5
184
330
1F
100
AcDbEntity
  8
0
  6
Continuous
 62
     7
100
AcDbLine
 10
4054.7159162547
 20
7312.0402331824
 30
0.0
 11
2094.7159162547
 21
7312.0402331824
 31
0.0
  0
LINE
  5
185
330
1F
100
AcDbEntity
  8
0
  6
Continuous
 62
     7
100
AcDbLine
 10
2094.7159162547
 20
7316.0402331824
 30
0.0
 11
2094.7159162547
 21
7312.0402331824
 31
0.0
  0
LINE
  5
186
330
1F
100
AcDbEntity
  8
0
  6
Continuous
 62
     7
100
AcDbLine
 10
2094.7159162547
 20
7988.0402331824
 30
0.0
 11
2094.7159162547
 21
7992.0402331824
 31
0.0
  0
LINE
  5
187
330
1F
100
AcDbEntity
  8
0
  6
Continuous
 62
     7
100
AcDbLine
 10
2094.7159162547
 20
7992.0402331824
 30
0.0
 11
4054.7159162547
 21
7992.0402331824
 31
0.0
  0
LINE
  5
188
330
1F
100
AcDbEntity
  8
0
  6
Continuous
 62
     7
100
AcDbLine
 10
4054.7159162547
 20
7992.0402331824
 30
0.0
 11
4054.7159162547
 21
7988.0402331824
 31
0.0
  0
LINE
  5
189
330
1F
100
AcDbEntity
  8
0
  6
Continuous
 62
     7
100
AcDbLine
 10
4726.3158101859
 20
7892.0402331824
 30
0.0
 11
5117.5158101859
 21
7892.0402331824
 31
0.0
  0
LINE
  5
18A
330
1F
100
AcDbEntity
  8
0
  6
Continuous
 62
     7
100
AcDbLine
 10
5117.5158101859
 20
7932.0402331824
 30
0.0
 11
4726.3158101859
 21
7932.0402331824
 31
0.0
  0
LINE
  5
18B
330
1F
100
AcDbEntity
  8
0
  6
Continuous
 62
     7
100
AcDbLine
 10
4726.3158101859
 20
7372.0402331824
 30
0.0
 11
5117.5158101859
 21
7372.0402331824
 31
0.0
  0
LINE
  5
18C
330
1F
100
AcDbEntity
  8
0
  6
Continuous
 62
     7
100
AcDbLine
 10
5117.5158101859
 20
7412.0402331824
 30
0.0
 11
4726.3158101859
 21
7412.0402331824
 31
0.0
  0
LINE
  5
18D
330
1F
100
AcDbEntity
  8
0
  6
Continuous
 62
     7
100
AcDbLine
 10
4675.7275168609
 20
7922.0402331824
 30
0.0
 11
4537.5158101859
 21
7922.0402331824
 31
0.0
  0
LINE
  5
18E
330
1F
100
AcDbEntity
  8
0
  6
Continuous
 62
     7
100
AcDbLine
 10
4537.5158101859
 20
7902.0402331824
 30
0.0
 11
4675.7275168609
 21
7902.0402331824
 31
0.0
  0
LINE
  5
18F
330
1F
100
AcDbEntity
  8
0
  6
Continuous
 62
     7
100
AcDbLine
 10
4537.5158101859
 20
7922.0402331824
 30
0.0
 11
4535.5158101859
 21
7920.0402331824
 31
0.0
  0
LINE
  5
190
330
1F
100
AcDbEntity
  8
0
  6
Continuous
 62
     7
100
AcDbLine
 10
4535.5158101859
 20
7904.0402331824
 30
0.0
 11
4537.5158101859
 21
7902.0402331824
 31
0.0
  0
LINE
  5
191
330
1F
100
AcDbEntity
  8
0
  6
Continuous
 62
     7
100
AcDbLine
 10
4675.7275168609
 20
7402.0402331824
 30
0.0
 11
4537.5158101859
 21
7402.0402331824
 31
0.0
  0
LINE
  5
192
330
1F
100
AcDbEntity
  8
0
  6
Continuous
 62
     7
100
AcDbLine
 10
4537.5158101859
 20
7382.0402331824
 30
0.0
 11
4675.7275168609
 21
7382.0402331824
 31
0.0
  0
LINE
  5
193
330
1F
100
AcDbEntity
  8
0
  6
Continuous
 62
     7
100
AcDbLine
 10
4537.5158101859
 20
7402.0402331824
 30
0.0
 11
4535.5158101859
 21
7400.0402331824
 31
0.0
  0
LINE
  5
194
330
1F
100
AcDbEntity
  8
0
  6
Continuous
 62
     7
100
AcDbLine
 10
4535.5158101859
 20
7384.0402331824
 30
0.0
 11
4537.5158101859
 21
7382.0402331824
 31
0.0
  0
LINE
  5
195
330
1F
100
AcDbEntity
  8
0
  6
Continuous
 62
     7
100
AcDbLine
 10
4723.7275168609
 20
7408.0402331824
 30
0.0
 11
4721.7275168609
 21
7406.0402331824
 31
0.0
  0
LINE
  5
196
330
1F
100
AcDbEntity
  8
0
  6
Continuous
 62
     7
100
AcDbLine
 10
4721.7275168609
 20
7378.0402331824
 30
0.0
 11
4723.7275168609
 21
7376.0402331824
 31
0.0
  0
LINE
  5
197
330
1F
100
AcDbEntity
  8
0
  6
Continuous
 62
     7
100
AcDbLine
 10
4721.7275168609
 20
7406.0402331824
 30
0.0
 11
4679.7275168609
 21
7406.0402331824
 31
0.0
  0
LINE
  5
198
330
1F
100
AcDbEntity
  8
0
  6
Continuous
 62
     7
100
AcDbLine
 10
4679.7275168609
 20
7378.0402331824
 30
0.0
 11
4721.7275168609
 21
7378.0402331824
 31
0.0
  0
LINE
  5
199
330
1F
100
AcDbEntity
  8
0
  6
Continuous
 62
     7
100
AcDbLine
 10
4679.7275168609
 20
7406.0402331824
 30
0.0
 11
4675.7275168609
 21
7402.0402331824
 31
0.0
  0
LINE
  5
19A
330
1F
100
AcDbEntity
  8
0
  6
Continuous
 62
     7
100
AcDbLine
 10
4675.7275168609
 20
7382.0402331824
 30
0.0
 11
4679.7275168609
 21
7378.0402331824
 31
0.0
  0
LINE
  5
19B
330
1F
100
AcDbEntity
  8
0
  6
Continuous
 62
     7
100
AcDbLine
 10
4723.7275168609
 20
7408.0402331824
 30
0.0
 11
4721.7275168609
 21
7406.0402331824
 31
0.0
  0
LINE
  5
19C
330
1F
100
AcDbEntity
  8
0
  6
Continuous
 62
     7
100
AcDbLine
 10
4721.7275168609
 20
7378.0402331824
 30
0.0
 11
4723.7275168609
 21
7376.0402331824
 31
0.0
  0
LINE
  5
19D
330
1F
100
AcDbEntity
  8
0
  6
Continuous
 62
     7
100
AcDbLine
 10
4721.7275168609
 20
7406.0402331824
 30
0.0
 11
4679.7275168609
 21
7406.0402331824
 31
0.0
  0
LINE
  5
19E
330
1F
100
AcDbEntity
  8
0
  6
Continuous
 62
     7
100
AcDbLine
 10
4679.7275168609
 20
7378.0402331824
 30
0.0
 11
4721.7275168609
 21
7378.0402331824
 31
0.0
  0
LINE
  5
19F
330
1F
100
AcDbEntity
  8
0
  6
Continuous
 62
     7
100
AcDbLine
 10
4679.7275168609
 20
7406.0402331824
 30
0.0
 11
4675.7275168609
 21
7402.0402331824
 31
0.0
  0
LINE
  5
1A0
330
1F
100
AcDbEntity
  8
0
  6
Continuous
 62
     7
100
AcDbLine
 10
4675.7275168609
 20
7382.0402331824
 30
0.0
 11
4679.7275168609
 21
7378.0402331824
 31
0.0
  0
LINE
  5
1A1
330
1F
100
AcDbEntity
  8
0
  6
Continuous
 62
     7
100
AcDbLine
 10
4723.7275168609
 20
7928.0402331824
 30
0.0
 11
4721.7275168609
 21
7926.0402331824
 31
0.0
  0
LINE
  5
1A2
330
1F
100
AcDbEntity
  8
0
  6
Continuous
 62
     7
100
AcDbLine
 10
4721.7275168609
 20
7898.0402331824
 30
0.0
 11
4723.7275168609
 21
7896.0402331824
 31
0.0
  0
LINE
  5
1A3
330
1F
100
AcDbEntity
  8
0
  6
Continuous
 62
     7
100
AcDbLine
 10
4721.7275168609
 20
7926.0402331824
 30
0.0
 11
4679.7275168609
 21
7926.0402331824
 31
0.0
  0
LINE
  5
1A4
330
1F
100
AcDbEntity
  8
0
  6
Continuous
 62
     7
100
AcDbLine
 10
4679.7275168609
 20
7898.0402331824
 30
0.0
 11
4721.7275168609
 21
7898.0402331824
 31
0.0
  0
LINE
  5
1A5
330
1F
100
AcDbEntity
  8
0
  6
Continuous
 62
     7
100
AcDbLine
 10
4679.7275168609
 20
7926.0402331824
 30
0.0
 11
4675.7275168609
 21
7922.0402331824
 31
0.0
  0
LINE
  5
1A6
330
1F
100
AcDbEntity
  8
0
  6
Continuous
 62
     7
100
AcDbLine
 10
4675.7275168609
 20
7902.0402331824
 30
0.0
 11
4679.7275168609
 21
7898.0402331824
 31
0.0
  0
LINE
  5
1A7
330
1F
100
AcDbEntity
  8
0
  6
Continuous
 62
     7
100
AcDbLine
 10
4723.7275168609
 20
7928.0402331824
 30
0.0
 11
4721.7275168609
 21
7926.0402331824
 31
0.0
  0
LINE
  5
1A8
330
1F
100
AcDbEntity
  8
0
  6
Continuous
 62
     7
100
AcDbLine
 10
4721.7275168609
 20
7898.0402331824
 30
0.0
 11
4723.7275168609
 21
7896.0402331824
 31
0.0
  0
LINE
  5
1A9
330
1F
100
AcDbEntity
  8
0
  6
Continuous
 62
     7
100
AcDbLine
 10
4721.7275168609
 20
7926.0402331824
 30
0.0
 11
4679.7275168609
 21
7926.0402331824
 31
0.0
  0
LINE
  5
1AA
330
1F
100
AcDbEntity
  8
0
  6
Continuous
 62
     7
100
AcDbLine
 10
4679.7275168609
 20
7898.0402331824
 30
0.0
 11
4721.7275168609
 21
7898.0402331824
 31
0.0
  0
LINE
  5
1AB
330
1F
100
AcDbEntity
  8
0
  6
Continuous
 62
     7
100
AcDbLine
 10
4679.7275168609
 20
7926.0402331824
 30
0.0
 11
4675.7275168609
 21
7922.0402331824
 31
0.0
  0
LINE
  5
1AC
330
1F
100
AcDbEntity
  8
0
  6
Continuous
 62
     7
100
AcDbLine
 10
4675.7275168609
 20
7902.0402331824
 30
0.0
 11
4679.7275168609
 21
7898.0402331824
 31
0.0
  0
LINE
  5
1AD
330
1F
100
AcDbEntity
  8
0
  6
Continuous
 62
     7
100
AcDbLine
 10
5139.5158101859
 20
7596.0402331824
 30
0.0
 11
5145.5158101859
 21
7602.0402331824
 31
0.0
  0
LINE
  5
1AE
330
1F
100
AcDbEntity
  8
0
  6
Continuous
 62
     7
100
AcDbLine
 10
5145.5158101859
 20
7702.0402331824
 30
0.0
 11
5139.5158101859
 21
7708.0402331824
 31
0.0
  0
LINE
  5
1AF
330
1F
100
AcDbEntity
  8
0
  6
Continuous
 62
     7
100
AcDbLine
 10
5137.5158101859
 20
7596.0402331824
 30
0.0
 11
5139.5158101859
 21
7596.0402331824
 31
0.0
  0
LINE
  5
1B0
330
1F
100
AcDbEntity
  8
0
  6
Continuous
 62
     7
100
AcDbLine
 10
5139.5158101859
 20
7708.0402331824
 30
0.0
 11
5137.5158101859
 21
7708.0402331824
 31
0.0
  0
LINE
  5
1B1
330
1F
100
AcDbEntity
  8
0
  6
Continuous
 62
     7
100
AcDbLine
 10
5094.4383068836
 20
7695.7627298802
 30
0.0
 11
5093.5158101858
 21
7694.8402331824
 31
0.0
  0
LINE
  5
1B2
330
1F
100
AcDbEntity
  8
0
  6
Continuous
 62
     7
100
AcDbLine
 10
5116.4840423837
 20
7696.813037885
 30
0.0
 11
5115.8216945863
 21
7695.6665242624
 31
0.0
  0
LINE
  5
1B3
330
1F
100
AcDbEntity
  8
0
  6
Continuous
 62
     7
100
AcDbLine
 10
5100.0162657377
 20
7696.8402331824
 30
0.0
 11
5098.5162657563
 21
7696.8402331824
 31
0.0
  0
LINE
  5
1B4
330
1F
100
AcDbEntity
  8
0
  6
Continuous
 62
     7
100
AcDbLine
 10
5101.5158101859
 20
7607.2402331824
 30
0.0
 11
5103.0158101675
 21
7607.2402331824
 31
0.0
  0
LINE
  5
1B5
330
1F
100
AcDbEntity
  8
0
  6
Continuous
 62
     7
100
AcDbLine
 10
5095.5158101859
 20
7607.2402331824
 30
0.0
 11
5097.0158101675
 21
7607.2402331824
 31
0.0
  0
LINE
  5
1B6
330
1F
100
AcDbEntity
  8
0
  6
Continuous
 62
     7
100
AcDbLine
 10
5093.5158101859
 20
7693.6402331824
 30
0.0
 11
5069.5158101859
 21
7693.6402331824
 31
0.0
  0
LINE
  5
1B7
330
1F
100
AcDbEntity
  8
0
  6
Continuous
 62
     7
100
AcDbLine
 10
5069.5158101859
 20
7610.4402331824
 30
0.0
 11
5092.8622747927
 21
7610.4402331824
 31
0.0
  0
LINE
  5
1B8
330
1F
100
AcDbEntity
  8
0
  6
Continuous
 62
     7
100
AcDbLine
 10
5117.5158101859
 20
7712.0402331824
 30
0.0
 11
5116.3158101859
 21
7712.0402331824
 31
0.0
  0
LINE
  5
1B9
330
1F
100
AcDbEntity
  8
0
  6
Continuous
 62
     7
100
AcDbLine
 10
5116.3158101859
 20
7592.0402331824
 30
0.0
 11
5117.5158101859
 21
7592.0402331824
 31
0.0
  0
LINE
  5
1BA
330
1F
100
AcDbEntity
  8
0
  6
Continuous
 62
     7
100
AcDbLine
 10
4726.3158101859
 20
7384.8291516258
 30
0.0
 11
4723.7275168609
 21
7384.8291516258
 31
0.0
  0
LINE
  5
1BB
330
1F
100
AcDbEntity
  8
0
  6
Continuous
 62
     7
100
AcDbLine
 10
4726.3158101859
 20
7373.7037648336
 30
0.0
 11
4723.7275168609
 21
7373.7037648336
 31
0.0
  0
LINE
  5
1BC
330
1F
100
AcDbEntity
  8
0
  6
Continuous
 62
     7
100
AcDbLine
 10
4723.7275168609
 20
7384.8291516258
 30
0.0
 11
4723.7275168609
 21
7373.7037648336
 31
0.0
  0
LINE
  5
1BD
330
1F
100
AcDbEntity
  8
0
  6
Continuous
 62
     7
100
AcDbLine
 10
4726.3158101859
 20
7403.1656199746
 30
0.0
 11
4723.7275168609
 21
7403.1656199746
 31
0.0
  0
LINE
  5
1BE
330
1F
100
AcDbEntity
  8
0
  6
Continuous
 62
     7
100
AcDbLine
 10
4723.7275168609
 20
7403.1656199746
 30
0.0
 11
4723.7275168609
 21
7384.8291516258
 31
0.0
  0
LINE
  5
1BF
330
1F
100
AcDbEntity
  8
0
  6
Continuous
 62
     7
100
AcDbLine
 10
4726.3158101859
 20
7410.3767015312
 30
0.0
 11
4723.7275168609
 21
7410.3767015312
 31
0.0
  0
LINE
  5
1C0
330
1F
100
AcDbEntity
  8
0
  6
Continuous
 62
     7
100
AcDbLine
 10
4723.7275168609
 20
7410.3767015312
 30
0.0
 11
4723.7275168609
 21
7403.1656199746
 31
0.0
  0
LINE
  5
1C1
330
1F
100
AcDbEntity
  8
0
  6
Continuous
 62
     7
100
AcDbLine
 10
4726.3158101859
 20
7904.8291516258
 30
0.0
 11
4723.7275168609
 21
7904.8291516258
 31
0.0
  0
LINE
  5
1C2
330
1F
100
AcDbEntity
  8
0
  6
Continuous
 62
     7
100
AcDbLine
 10
4726.3158101859
 20
7893.7037648336
 30
0.0
 11
4723.7275168609
 21
7893.7037648336
 31
0.0
  0
LINE
  5
1C3
330
1F
100
AcDbEntity
  8
0
  6
Continuous
 62
     7
100
AcDbLine
 10
4723.7275168609
 20
7904.8291516258
 30
0.0
 11
4723.7275168609
 21
7893.7037648336
 31
0.0
  0
LINE
  5
1C4
330
1F
100
AcDbEntity
  8
0
  6
Continuous
 62
     7
100
AcDbLine
 10
4726.3158101859
 20
7923.1656199746
 30
0.0
 11
4723.7275168609
 21
7923.1656199746
 31
0.0
  0
LINE
  5
1C5
330
1F
100
AcDbEntity
  8
0
  6
Continuous
 62
     7
100
AcDbLine
 10
4723.7275168609
 20
7923.1656199746
 30
0.0
 11
4723.7275168609
 21
7904.8291516258
 31
0.0
  0
LINE
  5
1C6
330
1F
100
AcDbEntity
  8
0
  6
Continuous
 62
     7
100
AcDbLine
 10
4726.3158101859
 20
7930.3767015312
 30
0.0
 11
4723.7275168609
 21
7930.3767015312
 31
0.0
  0
LINE
  5
1C7
330
1F
100
AcDbEntity
  8
0
  6
Continuous
 62
     7
100
AcDbLine
 10
4723.7275168609
 20
7930.3767015312
 30
0.0
 11
4723.7275168609
 21
7923.1656199746
 31
0.0
  0
LINE
  5
1C8
330
1F
100
AcDbEntity
  8
0
  6
Continuous
 62
     7
100
AcDbLine
 10
4726.3158101859
 20
7892.0743713636
 30
0.0
 11
4726.3158101859
 21
7892.0402331824
 31
0.0
  0
LINE
  5
1C9
330
1F
100
AcDbEntity
  8
0
  6
Continuous
 62
     7
100
AcDbLine
 10
4726.3158101859
 20
7932.0402331824
 30
0.0
 11
4726.3158101859
 21
7892.0743713636
 31
0.0
  0
LINE
  5
1CA
330
1F
100
AcDbEntity
  8
0
  6
Continuous
 62
     7
100
AcDbLine
 10
4726.3158101859
 20
7372.0743713636
 30
0.0
 11
4726.3158101859
 21
7372.0402331824
 31
0.0
  0
LINE
  5
1CB
330
1F
100
AcDbEntity
  8
0
  6
Continuous
 62
     7
100
AcDbLine
 10
4726.3158101859
 20
7412.0402331824
 30
0.0
 11
4726.3158101859
 21
7372.0743713636
 31
0.0
  0
LINE
  5
1CC
330
1F
100
AcDbEntity
  8
0
  6
Continuous
 62
     7
100
AcDbLine
 10
4537.5158101859
 20
7905.7322848472
 30
0.0
 11
4537.5158101859
 21
7902.0402331824
 31
0.0
  0
LINE
  5
1CD
330
1F
100
AcDbEntity
  8
0
  6
Continuous
 62
     7
100
AcDbLine
 10
4537.5158101859
 20
7922.0402331824
 30
0.0
 11
4537.5158101859
 21
7905.7322848472
 31
0.0
  0
LINE
  5
1CE
330
1F
100
AcDbEntity
  8
0
  6
Continuous
 62
     7
100
AcDbLine
 10
4535.5158101859
 20
7906.9938745142
 30
0.0
 11
4535.5158101859
 21
7920.0402331824
 31
0.0
  0
LINE
  5
1CF
330
1F
100
AcDbEntity
  8
0
  6
Continuous
 62
     7
100
AcDbLine
 10
4535.5158101859
 20
7904.0402331824
 30
0.0
 11
4535.5158101859
 21
7906.9938745142
 31
0.0
  0
LINE
  5
1D0
330
1F
100
AcDbEntity
  8
0
  6
Continuous
 62
     7
100
AcDbLine
 10
4537.5158101859
 20
7385.7322848472
 30
0.0
 11
4537.5158101859
 21
7382.0402331824
 31
0.0
  0
LINE
  5
1D1
330
1F
100
AcDbEntity
  8
0
  6
Continuous
 62
     7
100
AcDbLine
 10
4537.5158101859
 20
7402.0402331824
 30
0.0
 11
4537.5158101859
 21
7385.7322848472
 31
0.0
  0
LINE
  5
1D2
330
1F
100
AcDbEntity
  8
0
  6
Continuous
 62
     7
100
AcDbLine
 10
4535.5158101859
 20
7386.9938745142
 30
0.0
 11
4535.5158101859
 21
7400.0402331824
 31
0.0
  0
LINE
  5
1D3
330
1F
100
AcDbEntity
  8
0
  6
Continuous
 62
     7
100
AcDbLine
 10
4535.5158101859
 20
7384.0402331824
 30
0.0
 11
4535.5158101859
 21
7386.9938745142
 31
0.0
  0
LINE
  5
1D4
330
1F
100
AcDbEntity
  8
0
  6
Continuous
 62
     7
100
AcDbLine
 10
4721.7275168609
 20
7406.0402331824
 30
0.0
 11
4721.7275168609
 21
7378.0402331824
 31
0.0
  0
LINE
  5
1D5
330
1F
100
AcDbEntity
  8
0
  6
Continuous
 62
     7
100
AcDbLine
 10
4679.7275168609
 20
7386.585144347
 30
0.0
 11
4679.7275168609
 21
7378.0402331824
 31
0.0
  0
LINE
  5
1D6
330
1F
100
AcDbEntity
  8
0
  6
Continuous
 62
     7
100
AcDbLine
 10
4675.7275168609
 20
7388.1437411572
 30
0.0
 11
4675.7275168609
 21
7402.0402331824
 31
0.0
  0
LINE
  5
1D7
330
1F
100
AcDbEntity
  8
0
  6
Continuous
 62
     7
100
AcDbLine
 10
4721.7275168609
 20
7926.0402331824
 30
0.0
 11
4721.7275168609
 21
7898.0402331824
 31
0.0
  0
LINE
  5
1D8
330
1F
100
AcDbEntity
  8
0
  6
Continuous
 62
     7
100
AcDbLine
 10
4679.7275168609
 20
7906.585144347
 30
0.0
 11
4679.7275168609
 21
7898.0402331824
 31
0.0
  0
LINE
  5
1D9
330
1F
100
AcDbEntity
  8
0
  6
Continuous
 62
     7
100
AcDbLine
 10
4675.7275168609
 20
7908.1437411572
 30
0.0
 11
4675.7275168609
 21
7922.0402331824
 31
0.0
  0
LINE
  5
1DA
330
1F
100
AcDbEntity
  8
0
  6
Continuous
 62
     7
100
AcDbLine
 10
5125.5158101859
 20
7372.0402331824
 30
0.0
 11
5125.5158101859
 21
7932.0402331824
 31
0.0
  0
LINE
  5
1DB
330
1F
100
AcDbEntity
  8
0
  6
Continuous
 62
     7
100
AcDbLine
 10
5125.5158101859
 20
7372.0402331824
 30
0.0
 11
5117.5158101859
 21
7372.0402331824
 31
0.0
  0
LINE
  5
1DC
330
1F
100
AcDbEntity
  8
0
  6
Continuous
 62
     7
100
AcDbLine
 10
5117.5158101859
 20
7372.0402331824
 30
0.0
 11
5117.5158101859
 21
7932.0402331824
 31
0.0
  0
LINE
  5
1DD
330
1F
100
AcDbEntity
  8
0
  6
Continuous
 62
     7
100
AcDbLine
 10
5125.5158101859
 20
7932.0402331824
 30
0.0
 11
5117.5158101859
 21
7932.0402331824
 31
0.0
  0
LINE
  5
1DE
330
1F
100
AcDbEntity
  8
0
  6
Continuous
 62
     7
100
AcDbLine
 10
5125.5158101859
 20
7968.0402331824
 30
0.0
 11
5125.5158101859
 21
7932.0402331824
 31
0.0
  0
LINE
  5
1DF
330
1F
100
AcDbEntity
  8
0
  6
Continuous
 62
     7
100
AcDbLine
 10
5117.5158101859
 20
7932.0402331824
 30
0.0
 11
5117.5158101859
 21
7968.0402331824
 31
0.0
  0
LINE
  5
1E0
330
1F
100
AcDbEntity
  8
0
  6
Continuous
 62
     7
100
AcDbLine
 10
5117.5158101859
 20
7968.0402331824
 30
0.0
 11
5125.5158101859
 21
7968.0402331824
 31
0.0
  0
LINE
  5
1E1
330
1F
100
AcDbEntity
  8
0
  6
Continuous
 62
     7
100
AcDbLine
 10
5125.5158101859
 20
7372.0402331824
 30
0.0
 11
5125.5158101859
 21
7336.0402331824
 31
0.0
  0
LINE
  5
1E2
330
1F
100
AcDbEntity
  8
0
  6
Continuous
 62
     7
100
AcDbLine
 10
5125.5158101859
 20
7336.0402331824
 30
0.0
 11
5117.5158101859
 21
7336.0402331824
 31
0.0
  0
LINE
  5
1E3
330
1F
100
AcDbEntity
  8
0
  6
Continuous
 62
     7
100
AcDbLine
 10
5117.5158101859
 20
7336.0402331824
 30
0.0
 11
5117.5158101859
 21
7372.0402331824
 31
0.0
  0
LINE
  5
1E4
330
1F
100
AcDbEntity
  8
0
  6
Continuous
 62
     7
100
AcDbLine
 10
5125.5158101859
 20
7972.0402331824
 30
0.0
 11
5125.5158101859
 21
7992.0402331824
 31
0.0
  0
LINE
  5
1E5
330
1F
100
AcDbEntity
  8
0
  6
Continuous
 62
     7
100
AcDbLine
 10
5125.5158101859
 20
7992.0402331824
 30
0.0
 11
5133.5158101859
 21
7992.0402331824
 31
0.0
  0
LINE
  5
1E6
330
1F
100
AcDbEntity
  8
0
  6
Continuous
 62
     7
100
AcDbLine
 10
5133.5158101859
 20
7972.0402331824
 30
0.0
 11
5133.5158101859
 21
7992.0402331824
 31
0.0
  0
LINE
  5
1E7
330
1F
100
AcDbEntity
  8
0
  6
Continuous
 62
     7
100
AcDbLine
 10
5133.5158101859
 20
7972.0402331824
 30
0.0
 11
5125.5158101859
 21
7972.0402331824
 31
0.0
  0
LINE
  5
1E8
330
1F
100
AcDbEntity
  8
0
  6
Continuous
 62
     7
100
AcDbLine
 10
5125.5158101859
 20
7312.0402331824
 30
0.0
 11
5125.5158101859
 21
7332.0402331824
 31
0.0
  0
LINE
  5
1E9
330
1F
100
AcDbEntity
  8
0
  6
Continuous
 62
     7
100
AcDbLine
 10
5125.5158101859
 20
7332.0402331824
 30
0.0
 11
5133.5158101859
 21
7332.0402331824
 31
0.0
  0
LINE
  5
1EA
330
1F
100
AcDbEntity
  8
0
  6
Continuous
 62
     7
100
AcDbLine
 10
5133.5158101859
 20
7312.0402331824
 30
0.0
 11
5133.5158101859
 21
7332.0402331824
 31
0.0
  0
LINE
  5
1EB
330
1F
100
AcDbEntity
  8
0
  6
Continuous
 62
     7
100
AcDbLine
 10
5133.5158101859
 20
7312.0402331824
 30
0.0
 11
5125.5158101859
 21
7312.0402331824
 31
0.0
  0
LINE
  5
1EC
330
1F
100
AcDbEntity
  8
0
  6
Continuous
 62
     7
100
AcDbLine
 10
5133.5158101859
 20
7332.0402331824
 30
0.0
 11
5133.5158101859
 21
7972.0402331824
 31
0.0
  0
LINE
  5
1ED
330
1F
100
AcDbEntity
  8
0
  6
Continuous
 62
     7
100
AcDbLine
 10
5125.5158101859
 20
7972.0402331824
 30
0.0
 11
5125.5158101859
 21
7332.0402331824
 31
0.0
  0
LINE
  5
1EE
330
1F
100
AcDbEntity
  8
0
  6
Continuous
 62
     7
100
AcDbLine
 10
5137.5158101859
 20
7332.0402331824
 30
0.0
 11
5137.5158101859
 21
7316.0402331824
 31
0.0
  0
LINE
  5
1EF
330
1F
100
AcDbEntity
  8
0
  6
Continuous
 62
     7
100
AcDbLine
 10
5137.5158101859
 20
7316.0402331824
 30
0.0
 11
5133.5158101859
 21
7312.0402331824
 31
0.0
  0
LINE
  5
1F0
330
1F
100
AcDbEntity
  8
0
  6
Continuous
 62
     7
100
AcDbLine
 10
5137.5158101859
 20
7332.0402331824
 30
0.0
 11
5133.5158101859
 21
7332.0402331824
 31
0.0
  0
LINE
  5
1F1
330
1F
100
AcDbEntity
  8
0
  6
Continuous
 62
     7
100
AcDbLine
 10
5137.5158101859
 20
7972.0402331824
 30
0.0
 11
5137.5158101859
 21
7332.0402331824
 31
0.0
  0
LINE
  5
1F2
330
1F
100
AcDbEntity
  8
0
  6
Continuous
 62
     7
100
AcDbLine
 10
5137.5158101859
 20
7972.0402331824
 30
0.0
 11
5133.5158101859
 21
7972.0402331824
 31
0.0
  0
LINE
  5
1F3
330
1F
100
AcDbEntity
  8
0
  6
Continuous
 62
     7
100
AcDbLine
 10
5137.5158101859
 20
7988.0402331824
 30
0.0
 11
5137.5158101859
 21
7972.0402331824
 31
0.0
  0
LINE
  5
1F4
330
1F
100
AcDbEntity
  8
0
  6
Continuous
 62
     7
100
AcDbLine
 10
5137.5158101859
 20
7988.0402331824
 30
0.0
 11
5133.5158101859
 21
7992.0402331824
 31
0.0
  0
LINE
  5
1F5
330
1F
100
AcDbEntity
  8
0
  6
Continuous
 62
     7
100
AcDbLine
 10
5105.7656066217
 20
7699.5856408676
 30
0.0
 11
5105.7656066217
 21
7703.0402331824
 31
0.0
  0
LINE
  5
1F6
330
1F
100
AcDbEntity
  8
0
  6
Continuous
 62
     7
100
AcDbLine
 10
5105.7656066217
 20
7648.5856408676
 30
0.0
 11
5105.7656066217
 21
7655.4948254974
 31
0.0
  0
LINE
  5
1F7
330
1F
100
AcDbEntity
  8
0
  6
Continuous
 62
     7
100
AcDbLine
 10
5105.7656066217
 20
7601.0402331824
 30
0.0
 11
5105.7656066217
 21
7604.4948254974
 31
0.0
  0
LINE
  5
1F8
330
1F
100
AcDbEntity
  8
0
  6
Continuous
 62
     7
100
AcDbLine
 10
5104.5569713611
 20
7601.0402331824
 30
0.0
 11
5105.7656066217
 21
7601.0402331824
 31
0.0
  0
LINE
  5
1F9
330
1F
100
AcDbEntity
  8
0
  6
Continuous
 62
     7
100
AcDbLine
 10
5104.3158101859
 20
7700.9299606398
 30
0.0
 11
5104.3158101859
 21
7603.1505057252
 31
0.0
  0
LINE
  5
1FA
330
1F
100
AcDbEntity
  8
0
  6
Continuous
 62
     7
100
AcDbLine
 10
5114.8660137499
 20
7655.4948254974
 30
0.0
 11
5114.8660137499
 21
7648.5856408676
 31
0.0
  0
LINE
  5
1FB
330
1F
100
AcDbEntity
  8
0
  6
Continuous
 62
     7
100
AcDbLine
 10
5105.7656066217
 20
7648.5856408676
 30
0.0
 11
5114.8660137499
 21
7648.5856408676
 31
0.0
  0
LINE
  5
1FC
330
1F
100
AcDbEntity
  8
0
  6
Continuous
 62
     7
100
AcDbLine
 10
5114.8660137499
 20
7655.4948254974
 30
0.0
 11
5105.7656066217
 21
7655.4948254974
 31
0.0
  0
LINE
  5
1FD
330
1F
100
AcDbEntity
  8
0
  6
Continuous
 62
     7
100
AcDbLine
 10
5114.8660137499
 20
7604.4948254974
 30
0.0
 11
5114.8660137499
 21
7601.0402331824
 31
0.0
  0
LINE
  5
1FE
330
1F
100
AcDbEntity
  8
0
  6
Continuous
 62
     7
100
AcDbLine
 10
5114.8660137499
 20
7703.0402331824
 30
0.0
 11
5114.8660137499
 21
7699.5856408676
 31
0.0
  0
LINE
  5
1FF
330
1F
100
AcDbEntity
  8
0
  6
Continuous
 62
     7
100
AcDbLine
 10
5116.0746490105
 20
7703.0402331824
 30
0.0
 11
5114.8660137499
 21
7703.0402331824
 31
0.0
  0
LINE
  5
200
330
1F
100
AcDbEntity
  8
0
  6
Continuous
 62
     7
100
AcDbLine
 10
5105.7656066217
 20
7699.5856408676
 30
0.0
 11
5114.8660137499
 21
7699.5856408676
 31
0.0
  0
LINE
  5
201
330
1F
100
AcDbEntity
  8
0
  6
Continuous
 62
     7
100
AcDbLine
 10
5114.8660137499
 20
7604.4948254974
 30
0.0
 11
5105.7656066217
 21
7604.4948254974
 31
0.0
  0
LINE
  5
202
330
1F
100
AcDbEntity
  8
0
  6
Continuous
 62
     7
100
AcDbLine
 10
5105.7656066217
 20
7601.0402331824
 30
0.0
 11
5114.8660137499
 21
7601.0402331824
 31
0.0
  0
LINE
  5
203
330
1F
100
AcDbEntity
  8
0
  6
Continuous
 62
     7
100
AcDbLine
 10
5114.8660137499
 20
7703.0402331824
 30
0.0
 11
5105.7656066217
 21
7703.0402331824
 31
0.0
  0
LINE
  5
204
330
1F
100
AcDbEntity
  8
0
  6
Continuous
 62
     7
100
AcDbLine
 10
5145.5158101859
 20
7702.0402331824
 30
0.0
 11
5145.5158101859
 21
7602.0402331824
 31
0.0
  0
LINE
  5
205
330
1F
100
AcDbEntity
  8
0
  6
Continuous
 62
     7
100
AcDbLine
 10
5139.5158101859
 20
7596.0402331824
 30
0.0
 11
5139.5158101859
 21
7708.0402331824
 31
0.0
  0
LINE
  5
206
330
1F
100
AcDbEntity
  8
0
  6
Continuous
 62
     7
100
AcDbLine
 10
5093.5158101858
 20
7625.0562167443
 30
0.0
 11
5093.5158101858
 21
7694.8402331824
 31
0.0
  0
LINE
  5
207
330
1F
100
AcDbEntity
  8
0
  6
Continuous
 62
     7
100
AcDbLine
 10
5095.5158101859
 20
7652.0402322792
 30
0.0
 11
5095.5158101859
 21
7607.2402331824
 31
0.0
  0
LINE
  5
208
330
1F
100
AcDbEntity
  8
0
  6
Continuous
 62
     7
100
AcDbLine
 10
5098.5004532901
 20
7696.8338323524
 30
0.0
 11
5098.4830638593
 21
7696.7129525104
 31
0.0
  0
LINE
  5
209
330
1F
100
AcDbEntity
  8
0
  6
Continuous
 62
     7
100
AcDbLine
 10
5092.7720456491
 20
7627.5884364566
 30
0.0
 11
5091.9670876297
 21
7627.5884364566
 31
0.0
  0
LINE
  5
20A
330
1F
100
AcDbEntity
  8
0
  6
Continuous
 62
     7
100
AcDbLine
 10
5069.5158101859
 20
7652.0402331824
 30
0.0
 11
5069.5158101859
 21
7693.6402331824
 31
0.0
  0
LINE
  5
20B
330
1F
100
AcDbEntity
  8
0
  6
Continuous
 62
     7
100
AcDbLine
 10
5069.5158101859
 20
7610.4402331824
 30
0.0
 11
5069.5158101859
 21
7652.0402331824
 31
0.0
  0
LINE
  5
20C
330
1F
100
AcDbEntity
  8
0
  6
Continuous
 62
     7
100
AcDbLine
 10
5116.3158101859
 20
7592.0402331824
 30
0.0
 11
5116.3158101859
 21
7712.0402331824
 31
0.0
  0
LINE
  5
20D
330
1F
100
AcDbEntity
  8
0
  6
Continuous
 62
     7
100
AcDbLine
 10
4030.7159162547
 20
6676.6555089814
 30
0.0
 11
4028.7159162547
 21
6678.6555089814
 31
0.0
  0
LINE
  5
20E
330
1F
100
AcDbEntity
  8
0
  6
Continuous
 62
     7
100
AcDbLine
 10
4000.7159162547
 20
6678.6555089814
 30
0.0
 11
3998.7159162547
 21
6676.6555089814
 31
0.0
  0
LINE
  5
20F
330
1F
100
AcDbEntity
  8
0
  6
Continuous
 62
     7
100
AcDbLine
 10
4028.7159162547
 20
6678.6555089814
 30
0.0
 11
4028.7159162547
 21
6720.6555089814
 31
0.0
  0
LINE
  5
210
330
1F
100
AcDbEntity
  8
0
  6
Continuous
 62
     7
100
AcDbLine
 10
4000.7159162547
 20
6720.6555089814
 30
0.0
 11
4000.7159162547
 21
6678.6555089814
 31
0.0
  0
LINE
  5
211
330
1F
100
AcDbEntity
  8
0
  6
Continuous
 62
     7
100
AcDbLine
 10
4028.7159162547
 20
6720.6555089814
 30
0.0
 11
4024.7159162547
 21
6724.6555089814
 31
0.0
  0
LINE
  5
212
330
1F
100
AcDbEntity
  8
0
  6
Continuous
 62
     7
100
AcDbLine
 10
4004.7159162547
 20
6724.6555089814
 30
0.0
 11
4000.7159162547
 21
6720.6555089814
 31
0.0
  0
LINE
  5
213
330
1F
100
AcDbEntity
  8
0
  6
Continuous
 62
     7
100
AcDbLine
 10
2114.7159162547
 20
6674.0672156564
 30
0.0
 11
2114.7159162547
 21
6282.8672156564
 31
0.0
  0
LINE
  5
214
330
1F
100
AcDbEntity
  8
0
  6
Continuous
 62
     7
100
AcDbLine
 10
2154.7159162547
 20
6282.8672156564
 30
0.0
 11
2154.7159162547
 21
6674.0672156564
 31
0.0
  0
LINE
  5
215
330
1F
100
AcDbEntity
  8
0
  6
Continuous
 62
     7
100
AcDbLine
 10
3994.7159162547
 20
6674.0672156564
 30
0.0
 11
3994.7159162547
 21
6282.8672156564
 31
0.0
  0
LINE
  5
216
330
1F
100
AcDbEntity
  8
0
  6
Continuous
 62
     7
100
AcDbLine
 10
4034.7159162547
 20
6282.8672156564
 30
0.0
 11
4034.7159162547
 21
6674.0672156564
 31
0.0
  0
LINE
  5
217
330
1F
100
AcDbEntity
  8
0
  6
Continuous
 62
     7
100
AcDbLine
 10
2144.7159162547
 20
6724.6555089814
 30
0.0
 11
2144.7159162547
 21
6862.8672156564
 31
0.0
  0
LINE
  5
218
330
1F
100
AcDbEntity
  8
0
  6
Continuous
 62
     7
100
AcDbLine
 10
2124.7159162547
 20
6862.8672156564
 30
0.0
 11
2124.7159162547
 21
6724.6555089814
 31
0.0
  0
LINE
  5
219
330
1F
100
AcDbEntity
  8
0
  6
Continuous
 62
     7
100
AcDbLine
 10
2144.7159162547
 20
6862.8672156564
 30
0.0
 11
2142.7159162547
 21
6864.8672156564
 31
0.0
  0
LINE
  5
21A
330
1F
100
AcDbEntity
  8
0
  6
Continuous
 62
     7
100
AcDbLine
 10
2126.7159162547
 20
6864.8672156564
 30
0.0
 11
2124.7159162547
 21
6862.8672156564
 31
0.0
  0
LINE
  5
21B
330
1F
100
AcDbEntity
  8
0
  6
Continuous
 62
     7
100
AcDbLine
 10
4024.7159162547
 20
6724.6555089814
 30
0.0
 11
4024.7159162547
 21
6862.8672156564
 31
0.0
  0
LINE
  5
21C
330
1F
100
AcDbEntity
  8
0
  6
Continuous
 62
     7
100
AcDbLine
 10
4004.7159162547
 20
6862.8672156564
 30
0.0
 11
4004.7159162547
 21
6724.6555089814
 31
0.0
  0
LINE
  5
21D
330
1F
100
AcDbEntity
  8
0
  6
Continuous
 62
     7
100
AcDbLine
 10
4024.7159162547
 20
6862.8672156564
 30
0.0
 11
4022.7159162547
 21
6864.8672156564
 31
0.0
  0
LINE
  5
21E
330
1F
100
AcDbEntity
  8
0
  6
Continuous
 62
     7
100
AcDbLine
 10
4006.7159162547
 20
6864.8672156564
 30
0.0
 11
4004.7159162547
 21
6862.8672156564
 31
0.0
  0
LINE
  5
21F
330
1F
100
AcDbEntity
  8
0
  6
Continuous
 62
     7
100
AcDbLine
 10
4030.7159162547
 20
6676.6555089814
 30
0.0
 11
4028.7159162547
 21
6678.6555089814
 31
0.0
  0
LINE
  5
220
330
1F
100
AcDbEntity
  8
0
  6
Continuous
 62
     7
100
AcDbLine
 10
4000.7159162547
 20
6678.6555089814
 30
0.0
 11
3998.7159162547
 21
6676.6555089814
 31
0.0
  0
LINE
  5
221
330
1F
100
AcDbEntity
  8
0
  6
Continuous
 62
     7
100
AcDbLine
 10
4028.7159162547
 20
6720.6555089814
 30
0.0
 11
4024.7159162547
 21
6724.6555089814
 31
0.0
  0
LINE
  5
222
330
1F
100
AcDbEntity
  8
0
  6
Continuous
 62
     7
100
AcDbLine
 10
4004.7159162547
 20
6724.6555089814
 30
0.0
 11
4000.7159162547
 21
6720.6555089814
 31
0.0
  0
LINE
  5
223
330
1F
100
AcDbEntity
  8
0
  6
Continuous
 62
     7
100
AcDbLine
 10
4028.7159162547
 20
6678.6555089814
 30
0.0
 11
4028.7159162547
 21
6720.6555089814
 31
0.0
  0
LINE
  5
224
330
1F
100
AcDbEntity
  8
0
  6
Continuous
 62
     7
100
AcDbLine
 10
4000.7159162547
 20
6720.6555089814
 30
0.0
 11
4000.7159162547
 21
6678.6555089814
 31
0.0
  0
LINE
  5
225
330
1F
100
AcDbEntity
  8
0
  6
Continuous
 62
     7
100
AcDbLine
 10
2150.7159162547
 20
6676.6555089814
 30
0.0
 11
2148.7159162547
 21
6678.6555089814
 31
0.0
  0
LINE
  5
226
330
1F
100
AcDbEntity
  8
0
  6
Continuous
 62
     7
100
AcDbLine
 10
2120.7159162547
 20
6678.6555089814
 30
0.0
 11
2118.7159162547
 21
6676.6555089814
 31
0.0
  0
LINE
  5
227
330
1F
100
AcDbEntity
  8
0
  6
Continuous
 62
     7
100
AcDbLine
 10
2148.7159162547
 20
6720.6555089814
 30
0.0
 11
2144.7159162547
 21
6724.6555089814
 31
0.0
  0
LINE
  5
228
330
1F
100
AcDbEntity
  8
0
  6
Continuous
 62
     7
100
AcDbLine
 10
2124.7159162547
 20
6724.6555089814
 30
0.0
 11
2120.7159162547
 21
6720.6555089814
 31
0.0
  0
LINE
  5
229
330
1F
100
AcDbEntity
  8
0
  6
Continuous
 62
     7
100
AcDbLine
 10
2148.7159162547
 20
6678.6555089814
 30
0.0
 11
2148.7159162547
 21
6720.6555089814
 31
0.0
  0
LINE
  5
22A
330
1F
100
AcDbEntity
  8
0
  6
Continuous
 62
     7
100
AcDbLine
 10
2120.7159162547
 20
6720.6555089814
 30
0.0
 11
2120.7159162547
 21
6678.6555089814
 31
0.0
  0
LINE
  5
22B
330
1F
100
AcDbEntity
  8
0
  6
Continuous
 62
     7
100
AcDbLine
 10
2150.7159162547
 20
6676.6555089814
 30
0.0
 11
2148.7159162547
 21
6678.6555089814
 31
0.0
  0
LINE
  5
22C
330
1F
100
AcDbEntity
  8
0
  6
Continuous
 62
     7
100
AcDbLine
 10
2120.7159162547
 20
6678.6555089814
 30
0.0
 11
2118.7159162547
 21
6676.6555089814
 31
0.0
  0
LINE
  5
22D
330
1F
100
AcDbEntity
  8
0
  6
Continuous
 62
     7
100
AcDbLine
 10
2148.7159162547
 20
6720.6555089814
 30
0.0
 11
2144.7159162547
 21
6724.6555089814
 31
0.0
  0
LINE
  5
22E
330
1F
100
AcDbEntity
  8
0
  6
Continuous
 62
     7
100
AcDbLine
 10
2124.7159162547
 20
6724.6555089814
 30
0.0
 11
2120.7159162547
 21
6720.6555089814
 31
0.0
  0
LINE
  5
22F
330
1F
100
AcDbEntity
  8
0
  6
Continuous
 62
     7
100
AcDbLine
 10
2148.7159162547
 20
6678.6555089814
 30
0.0
 11
2148.7159162547
 21
6720.6555089814
 31
0.0
  0
LINE
  5
230
330
1F
100
AcDbEntity
  8
0
  6
Continuous
 62
     7
100
AcDbLine
 10
2120.7159162547
 20
6720.6555089814
 30
0.0
 11
2120.7159162547
 21
6678.6555089814
 31
0.0
  0
LINE
  5
231
330
1F
100
AcDbEntity
  8
0
  6
Continuous
 62
     7
100
AcDbLine
 10
3017.7159162547
 20
6294.6174192206
 30
0.0
 11
3017.7159162547
 21
6285.5170120924
 31
0.0
  0
LINE
  5
232
330
1F
100
AcDbEntity
  8
0
  6
Continuous
 62
     7
100
AcDbLine
 10
3131.7159162547
 20
6285.5170120924
 30
0.0
 11
3131.7159162547
 21
6294.6174192206
 31
0.0
  0
LINE
  5
233
330
1F
100
AcDbEntity
  8
0
  6
Continuous
 62
     7
100
AcDbLine
 10
3018.7159162547
 20
6260.8672156564
 30
0.0
 11
3024.7159162547
 21
6254.8672156564
 31
0.0
  0
LINE
  5
234
330
1F
100
AcDbEntity
  8
0
  6
Continuous
 62
     7
100
AcDbLine
 10
3124.7159162547
 20
6254.8672156564
 30
0.0
 11
3130.7159162547
 21
6260.8672156564
 31
0.0
  0
LINE
  5
235
330
1F
100
AcDbEntity
  8
0
  6
Continuous
 62
     7
100
AcDbLine
 10
3018.7159162547
 20
6262.8672156564
 30
0.0
 11
3018.7159162547
 21
6260.8672156564
 31
0.0
  0
LINE
  5
236
330
1F
100
AcDbEntity
  8
0
  6
Continuous
 62
     7
100
AcDbLine
 10
3130.7159162547
 20
6260.8672156564
 30
0.0
 11
3130.7159162547
 21
6262.8672156564
 31
0.0
  0
LINE
  5
237
330
1F
100
AcDbEntity
  8
0
  6
Continuous
 62
     7
100
AcDbLine
 10
3031.9159162547
 20
6306.8672156564
 30
0.0
 11
3029.9159162547
 21
6304.8672156564
 31
0.0
  0
LINE
  5
238
330
1F
100
AcDbEntity
  8
0
  6
Continuous
 62
     7
100
AcDbLine
 10
3116.2389596581
 20
6305.9579228066
 30
0.0
 11
3117.1958771071
 21
6306.5110005434
 31
0.0
  0
LINE
  5
239
330
1F
100
AcDbEntity
  8
0
  6
Continuous
 62
     7
100
AcDbLine
 10
3119.5159162547
 20
6301.8666049024
 30
0.0
 11
3119.5159162547
 21
6303.3666048836
 31
0.0
  0
LINE
  5
23A
330
1F
100
AcDbEntity
  8
0
  6
Continuous
 62
     7
100
AcDbLine
 10
3119.5159162547
 20
6296.0672156564
 30
0.0
 11
3119.5159162547
 21
6297.3666048836
 31
0.0
  0
LINE
  5
23B
330
1F
100
AcDbEntity
  8
0
  6
Continuous
 62
     7
100
AcDbLine
 10
3029.9159162547
 20
6300.3669626242
 30
0.0
 11
3029.9159162547
 21
6298.8669626428
 31
0.0
  0
LINE
  5
23C
330
1F
100
AcDbEntity
  8
0
  6
Continuous
 62
     7
100
AcDbLine
 10
3116.3159162547
 20
6306.8672156564
 30
0.0
 11
3116.3159162547
 21
6330.8672156564
 31
0.0
  0
LINE
  5
23D
330
1F
100
AcDbEntity
  8
0
  6
Continuous
 62
     7
100
AcDbLine
 10
3033.1159162547
 20
6330.8672156564
 30
0.0
 11
3033.1159162547
 21
6306.8672156564
 31
0.0
  0
LINE
  5
23E
330
1F
100
AcDbEntity
  8
0
  6
Continuous
 62
     7
100
AcDbLine
 10
3134.7159162547
 20
6282.8672156564
 30
0.0
 11
3134.7159162547
 21
6284.0672156564
 31
0.0
  0
LINE
  5
23F
330
1F
100
AcDbEntity
  8
0
  6
Continuous
 62
     7
100
AcDbLine
 10
3014.7159162547
 20
6284.0672156564
 30
0.0
 11
3014.7159162547
 21
6282.8672156564
 31
0.0
  0
LINE
  5
240
330
1F
100
AcDbEntity
  8
0
  6
Continuous
 62
     7
100
AcDbLine
 10
4007.6953751671
 20
6678.6555089814
 30
0.0
 11
4000.7159162547
 21
6678.6555089814
 31
0.0
  0
LINE
  5
241
330
1F
100
AcDbEntity
  8
0
  6
Continuous
 62
     7
100
AcDbLine
 10
4028.7159162547
 20
6678.6555089814
 30
0.0
 11
4007.6953751671
 21
6678.6555089814
 31
0.0
  0
LINE
  5
242
330
1F
100
AcDbEntity
  8
0
  6
Continuous
 62
     7
100
AcDbLine
 10
4028.7159162547
 20
6720.6555089814
 30
0.0
 11
4000.7159162547
 21
6720.6555089814
 31
0.0
  0
LINE
  5
243
330
1F
100
AcDbEntity
  8
0
  6
Continuous
 62
     7
100
AcDbLine
 10
4004.7159162547
 20
6724.6555089814
 30
0.0
 11
4024.7159162547
 21
6724.6555089814
 31
0.0
  0
LINE
  5
244
330
1F
100
AcDbEntity
  8
0
  6
Continuous
 62
     7
100
AcDbLine
 10
4016.9758414359
 20
6674.0672156564
 30
0.0
 11
4016.9758414359
 21
6676.6555089814
 31
0.0
  0
LINE
  5
245
330
1F
100
AcDbEntity
  8
0
  6
Continuous
 62
     7
100
AcDbLine
 10
3999.9660314395
 20
6674.0672156564
 30
0.0
 11
3999.9660314395
 21
6676.6555089814
 31
0.0
  0
LINE
  5
246
330
1F
100
AcDbEntity
  8
0
  6
Continuous
 62
     7
100
AcDbLine
 10
4016.9758414359
 20
6676.6555089814
 30
0.0
 11
3999.9660314395
 21
6676.6555089814
 31
0.0
  0
LINE
  5
247
330
1F
100
AcDbEntity
  8
0
  6
Continuous
 62
     7
100
AcDbLine
 10
4031.7257262511
 20
6674.0672156564
 30
0.0
 11
4031.7257262511
 21
6676.6555089814
 31
0.0
  0
LINE
  5
248
330
1F
100
AcDbEntity
  8
0
  6
Continuous
 62
     7
100
AcDbLine
 10
4031.7257262511
 20
6676.6555089814
 30
0.0
 11
4016.9758414359
 21
6676.6555089814
 31
0.0
  0
LINE
  5
249
330
1F
100
AcDbEntity
  8
0
  6
Continuous
 62
     7
100
AcDbLine
 10
3997.7061062581
 20
6674.0672156564
 30
0.0
 11
3997.7061062581
 21
6676.6555089814
 31
0.0
  0
LINE
  5
24A
330
1F
100
AcDbEntity
  8
0
  6
Continuous
 62
     7
100
AcDbLine
 10
3999.9660314395
 20
6676.6555089814
 30
0.0
 11
3997.7061062581
 21
6676.6555089814
 31
0.0
  0
LINE
  5
24B
330
1F
100
AcDbEntity
  8
0
  6
Continuous
 62
     7
100
AcDbLine
 10
2136.9758414359
 20
6674.0672156564
 30
0.0
 11
2136.9758414359
 21
6676.6555089814
 31
0.0
  0
LINE
  5
24C
330
1F
100
AcDbEntity
  8
0
  6
Continuous
 62
     7
100
AcDbLine
 10
2119.9660314395
 20
6674.0672156564
 30
0.0
 11
2119.9660314395
 21
6676.6555089814
 31
0.0
  0
LINE
  5
24D
330
1F
100
AcDbEntity
  8
0
  6
Continuous
 62
     7
100
AcDbLine
 10
2136.9758414359
 20
6676.6555089814
 30
0.0
 11
2119.9660314395
 21
6676.6555089814
 31
0.0
  0
LINE
  5
24E
330
1F
100
AcDbEntity
  8
0
  6
Continuous
 62
     7
100
AcDbLine
 10
2151.7257262511
 20
6674.0672156564
 30
0.0
 11
2151.7257262511
 21
6676.6555089814
 31
0.0
  0
LINE
  5
24F
330
1F
100
AcDbEntity
  8
0
  6
Continuous
 62
     7
100
AcDbLine
 10
2151.7257262511
 20
6676.6555089814
 30
0.0
 11
2136.9758414359
 21
6676.6555089814
 31
0.0
  0
LINE
  5
250
330
1F
100
AcDbEntity
  8
0
  6
Continuous
 62
     7
100
AcDbLine
 10
2117.7061062581
 20
6674.0672156564
 30
0.0
 11
2117.7061062581
 21
6676.6555089814
 31
0.0
  0
LINE
  5
251
330
1F
100
AcDbEntity
  8
0
  6
Continuous
 62
     7
100
AcDbLine
 10
2119.9660314395
 20
6676.6555089814
 30
0.0
 11
2117.7061062581
 21
6676.6555089814
 31
0.0
  0
LINE
  5
252
330
1F
100
AcDbEntity
  8
0
  6
Continuous
 62
     7
100
AcDbLine
 10
2154.7159162547
 20
6674.0672156564
 30
0.0
 11
2114.7159162547
 21
6674.0672156564
 31
0.0
  0
LINE
  5
253
330
1F
100
AcDbEntity
  8
0
  6
Continuous
 62
     7
100
AcDbLine
 10
4034.7159162547
 20
6674.0672156564
 30
0.0
 11
3994.7159162547
 21
6674.0672156564
 31
0.0
  0
LINE
  5
254
330
1F
100
AcDbEntity
  8
0
  6
Continuous
 62
     7
100
AcDbLine
 10
2144.7159162547
 20
6862.8672156564
 30
0.0
 11
2124.7159162547
 21
6862.8672156564
 31
0.0
  0
LINE
  5
255
330
1F
100
AcDbEntity
  8
0
  6
Continuous
 62
     7
100
AcDbLine
 10
2126.7159162547
 20
6864.8672156564
 30
0.0
 11
2142.7159162547
 21
6864.8672156564
 31
0.0
  0
LINE
  5
256
330
1F
100
AcDbEntity
  8
0
  6
Continuous
 62
     7
100
AcDbLine
 10
4024.7159162547
 20
6862.8672156564
 30
0.0
 11
4004.7159162547
 21
6862.8672156564
 31
0.0
  0
LINE
  5
257
330
1F
100
AcDbEntity
  8
0
  6
Continuous
 62
     7
100
AcDbLine
 10
4006.7159162547
 20
6864.8672156564
 30
0.0
 11
4022.7159162547
 21
6864.8672156564
 31
0.0
  0
LINE
  5
258
330
1F
100
AcDbEntity
  8
0
  6
Continuous
 62
     7
100
AcDbLine
 10
2147.6094032073
 20
6678.6555089814
 30
0.0
 11
2120.7159162547
 21
6678.6555089814
 31
0.0
  0
LINE
  5
259
330
1F
100
AcDbEntity
  8
0
  6
Continuous
 62
     7
100
AcDbLine
 10
2148.7159162547
 20
6720.6555089814
 30
0.0
 11
2120.7159162547
 21
6720.6555089814
 31
0.0
  0
LINE
  5
25A
330
1F
100
AcDbEntity
  8
0
  6
Continuous
 62
     7
100
AcDbLine
 10
2124.7159162547
 20
6724.6555089814
 30
0.0
 11
2144.7159162547
 21
6724.6555089814
 31
0.0
  0
LINE
  5
25B
330
1F
100
AcDbEntity
  8
0
  6
Continuous
 62
     7
100
AcDbLine
 10
4074.7159162547
 20
6282.8672156564
 30
0.0
 11
2074.7159162547
 21
6282.8672156564
 31
0.0
  0
LINE
  5
25C
330
1F
100
AcDbEntity
  8
0
  6
Continuous
 62
     7
100
AcDbLine
 10
2074.7159162547
 20
6282.8672156564
 30
0.0
 11
2074.7159162547
 21
6274.8672156564
 31
0.0
  0
LINE
  5
25D
330
1F
100
AcDbEntity
  8
0
  6
Continuous
 62
     7
100
AcDbLine
 10
4074.7159162547
 20
6282.8672156564
 30
0.0
 11
4074.7159162547
 21
6274.8672156564
 31
0.0
  0
LINE
  5
25E
330
1F
100
AcDbEntity
  8
0
  6
Continuous
 62
     7
100
AcDbLine
 10
4054.7159162547
 20
6266.8672156564
 30
0.0
 11
4054.7159162547
 21
6274.8672156564
 31
0.0
  0
LINE
  5
25F
330
1F
100
AcDbEntity
  8
0
  6
Continuous
 62
     7
100
AcDbLine
 10
2094.7159162547
 20
6266.8672156564
 30
0.0
 11
4054.7159162547
 21
6266.8672156564
 31
0.0
  0
LINE
  5
260
330
1F
100
AcDbEntity
  8
0
  6
Continuous
 62
     7
100
AcDbLine
 10
2094.7159162547
 20
6274.8672156564
 30
0.0
 11
2094.7159162547
 21
6266.8672156564
 31
0.0
  0
LINE
  5
261
330
1F
100
AcDbEntity
  8
0
  6
Continuous
 62
     7
100
AcDbLine
 10
4054.7159162547
 20
6274.8672156564
 30
0.0
 11
2094.7159162547
 21
6274.8672156564
 31
0.0
  0
LINE
  5
262
330
1F
100
AcDbEntity
  8
0
  6
Continuous
 62
     7
100
AcDbLine
 10
4074.7159162547
 20
6274.8672156564
 30
0.0
 11
4074.7159162547
 21
6266.8672156564
 31
0.0
  0
LINE
  5
263
330
1F
100
AcDbEntity
  8
0
  6
Continuous
 62
     7
100
AcDbLine
 10
4054.7159162547
 20
6266.8672156564
 30
0.0
 11
4074.7159162547
 21
6266.8672156564
 31
0.0
  0
LINE
  5
264
330
1F
100
AcDbEntity
  8
0
  6
Continuous
 62
     7
100
AcDbLine
 10
4054.7159162547
 20
6274.8672156564
 30
0.0
 11
4074.7159162547
 21
6274.8672156564
 31
0.0
  0
LINE
  5
265
330
1F
100
AcDbEntity
  8
0
  6
Continuous
 62
     7
100
AcDbLine
 10
2074.7159162547
 20
6266.8672156564
 30
0.0
 11
2094.7159162547
 21
6266.8672156564
 31
0.0
  0
LINE
  5
266
330
1F
100
AcDbEntity
  8
0
  6
Continuous
 62
     7
100
AcDbLine
 10
2074.7159162547
 20
6266.8672156564
 30
0.0
 11
2074.7159162547
 21
6274.8672156564
 31
0.0
  0
LINE
  5
267
330
1F
100
AcDbEntity
  8
0
  6
Continuous
 62
     7
100
AcDbLine
 10
2074.7159162547
 20
6274.8672156564
 30
0.0
 11
2094.7159162547
 21
6274.8672156564
 31
0.0
  0
LINE
  5
268
330
1F
100
AcDbEntity
  8
0
  6
Continuous
 62
     7
100
AcDbLine
 10
2094.7159162547
 20
6262.8672156564
 30
0.0
 11
2078.7159162547
 21
6262.8672156564
 31
0.0
  0
LINE
  5
269
330
1F
100
AcDbEntity
  8
0
  6
Continuous
 62
     7
100
AcDbLine
 10
2078.7159162547
 20
6262.8672156564
 30
0.0
 11
2074.7159162547
 21
6266.8672156564
 31
0.0
  0
LINE
  5
26A
330
1F
100
AcDbEntity
  8
0
  6
Continuous
 62
     7
100
AcDbLine
 10
2094.7159162547
 20
6262.8672156564
 30
0.0
 11
2094.7159162547
 21
6266.8672156564
 31
0.0
  0
LINE
  5
26B
330
1F
100
AcDbEntity
  8
0
  6
Continuous
 62
     7
100
AcDbLine
 10
4054.7159162547
 20
6262.8672156564
 30
0.0
 11
2094.7159162547
 21
6262.8672156564
 31
0.0
  0
LINE
  5
26C
330
1F
100
AcDbEntity
  8
0
  6
Continuous
 62
     7
100
AcDbLine
 10
4054.7159162547
 20
6266.8672156564
 30
0.0
 11
4054.7159162547
 21
6262.8672156564
 31
0.0
  0
LINE
  5
26D
330
1F
100
AcDbEntity
  8
0
  6
Continuous
 62
     7
100
AcDbLine
 10
4074.7159162547
 20
6266.8672156564
 30
0.0
 11
4070.7159162547
 21
6262.8672156564
 31
0.0
  0
LINE
  5
26E
330
1F
100
AcDbEntity
  8
0
  6
Continuous
 62
     7
100
AcDbLine
 10
4070.7159162547
 20
6262.8672156564
 30
0.0
 11
4054.7159162547
 21
6262.8672156564
 31
0.0
  0
LINE
  5
26F
330
1F
100
AcDbEntity
  8
0
  6
Continuous
 62
     7
100
AcDbLine
 10
3049.2600721319
 20
6285.5170120924
 30
0.0
 11
3049.2600721319
 21
6294.6174192206
 31
0.0
  0
LINE
  5
270
330
1F
100
AcDbEntity
  8
0
  6
Continuous
 62
     7
100
AcDbLine
 10
3100.1717603773
 20
6294.6174192206
 30
0.0
 11
3100.1717603773
 21
6285.5170120924
 31
0.0
  0
LINE
  5
271
330
1F
100
AcDbEntity
  8
0
  6
Continuous
 62
     7
100
AcDbLine
 10
3049.2600721319
 20
6285.5170120924
 30
0.0
 11
3043.2765427229
 21
6285.5170120924
 31
0.0
  0
LINE
  5
272
330
1F
100
AcDbEntity
  8
0
  6
Continuous
 62
     7
100
AcDbLine
 10
3043.2765427229
 20
6294.6174192206
 30
0.0
 11
3043.2765427229
 21
6285.5170120924
 31
0.0
  0
LINE
  5
273
330
1F
100
AcDbEntity
  8
0
  6
Continuous
 62
     7
100
AcDbLine
 10
3043.2765427229
 20
6294.6174192206
 30
0.0
 11
3049.2600721319
 21
6294.6174192206
 31
0.0
  0
LINE
  5
274
330
1F
100
AcDbEntity
  8
0
  6
Continuous
 62
     7
100
AcDbLine
 10
3131.6111339089
 20
6294.6174192206
 30
0.0
 11
3131.7159162547
 21
6294.6174192206
 31
0.0
  0
LINE
  5
275
330
1F
100
AcDbEntity
  8
0
  6
Continuous
 62
     7
100
AcDbLine
 10
3100.1717603773
 20
6294.6174192206
 30
0.0
 11
3106.1552897863
 21
6294.6174192206
 31
0.0
  0
LINE
  5
276
330
1F
100
AcDbEntity
  8
0
  6
Continuous
 62
     7
100
AcDbLine
 10
3017.7159162547
 20
6294.6174192206
 30
0.0
 11
3017.8206986003
 21
6294.6174192206
 31
0.0
  0
LINE
  5
277
330
1F
100
AcDbEntity
  8
0
  6
Continuous
 62
     7
100
AcDbLine
 10
3123.6056437119
 20
6296.0672156564
 30
0.0
 11
3025.8261887973
 21
6296.0672156564
 31
0.0
  0
LINE
  5
278
330
1F
100
AcDbEntity
  8
0
  6
Continuous
 62
     7
100
AcDbLine
 10
3106.1552897863
 20
6285.5170120924
 30
0.0
 11
3100.1717603773
 21
6285.5170120924
 31
0.0
  0
LINE
  5
279
330
1F
100
AcDbEntity
  8
0
  6
Continuous
 62
     7
100
AcDbLine
 10
3131.7159162547
 20
6285.5170120924
 30
0.0
 11
3131.6111339089
 21
6285.5170120924
 31
0.0
  0
LINE
  5
27A
330
1F
100
AcDbEntity
  8
0
  6
Continuous
 62
     7
100
AcDbLine
 10
3017.8206986003
 20
6285.5170120924
 30
0.0
 11
3017.7159162547
 21
6285.5170120924
 31
0.0
  0
LINE
  5
27B
330
1F
100
AcDbEntity
  8
0
  6
Continuous
 62
     7
100
AcDbLine
 10
3106.1552897863
 20
6285.5170120924
 30
0.0
 11
3106.1552897863
 21
6294.6174192206
 31
0.0
  0
LINE
  5
27C
330
1F
100
AcDbEntity
  8
0
  6
Continuous
 62
     7
100
AcDbLine
 10
3017.8206986003
 20
6285.5170120924
 30
0.0
 11
3017.8206986003
 21
6294.6174192206
 31
0.0
  0
LINE
  5
27D
330
1F
100
AcDbEntity
  8
0
  6
Continuous
 62
     7
100
AcDbLine
 10
3131.6111339089
 20
6294.6174192206
 30
0.0
 11
3131.6111339089
 21
6285.5170120924
 31
0.0
  0
LINE
  5
27E
330
1F
100
AcDbEntity
  8
0
  6
Continuous
 62
     7
100
AcDbLine
 10
3124.7159162547
 20
6254.8672156564
 30
0.0
 11
3024.7159162547
 21
6254.8672156564
 31
0.0
  0
LINE
  5
27F
330
1F
100
AcDbEntity
  8
0
  6
Continuous
 62
     7
100
AcDbLine
 10
3018.7159162547
 20
6260.8672156564
 30
0.0
 11
3130.7159162547
 21
6260.8672156564
 31
0.0
  0
LINE
  5
280
330
1F
100
AcDbEntity
  8
0
  6
Continuous
 62
     7
100
AcDbLine
 10
3031.9159162547
 20
6306.8672156564
 30
0.0
 11
3117.5159162547
 21
6306.8672156564
 31
0.0
  0
LINE
  5
281
330
1F
100
AcDbEntity
  8
0
  6
Continuous
 62
     7
100
AcDbLine
 10
3030.1118479401
 20
6304.8344438732
 30
0.0
 11
3029.9159162547
 21
6304.8672156564
 31
0.0
  0
LINE
  5
282
330
1F
100
AcDbEntity
  8
0
  6
Continuous
 62
     7
100
AcDbLine
 10
3033.1159162547
 20
6330.8672156564
 30
0.0
 11
3116.3159162547
 21
6330.8672156564
 31
0.0
  0
LINE
  5
283
330
1F
100
AcDbEntity
  8
0
  6
Continuous
 62
     7
100
AcDbLine
 10
3014.7159162547
 20
6284.0672156564
 30
0.0
 11
3134.7159162547
 21
6284.0672156564
 31
0.0
  0
LINE
  5
284
330
1F
100
AcDbEntity
  8
0
  6
Continuous
 62
     7
100
AcDbLine
 10
3073.1562113131
 20
7672.8258084342
 30
0.0
 11
3073.1562113131
 21
7687.0086870124
 31
0.0
  0
LINE
  5
285
330
1F
100
AcDbEntity
  8
0
  6
Continuous
 62
     7
100
AcDbLine
 10
3060.2198681512
 20
7687.0086870124
 30
0.0
 11
3060.2198681512
 21
7656.8548806698
 31
0.0
  0
LINE
  5
286
330
1F
100
AcDbEntity
  8
0
  6
Continuous
 62
     7
100
AcDbLine
 10
3050.0945232717
 20
7659.6069621256
 30
0.0
 11
3050.0945232717
 21
7637.9225038639
 31
0.0
  0
LINE
  5
287
330
1F
100
AcDbEntity
  8
0
  6
Continuous
 62
     7
100
AcDbLine
 10
3075.3846445823
 20
7612.6323825528
 30
0.0
 11
3084.8535422102
 21
7612.6323825528
 31
0.0
  0
LINE
  5
288
330
1F
100
AcDbEntity
  8
0
  6
Continuous
 62
     7
100
AcDbLine
 10
3103.0759444126
 20
7630.8547847552
 30
0.0
 11
3103.0759444126
 21
7662.2018668682
 31
0.0
  0
LINE
  5
289
330
1F
100
AcDbEntity
  8
0
  6
Continuous
 62
     7
100
AcDbLine
 10
3097.6614994283
 20
7667.6163118534
 30
0.0
 11
3095.6845975695
 21
7667.6163118534
 31
0.0
  0
LINE
  5
28A
330
1F
100
AcDbEntity
  8
0
  6
Continuous
 62
     7
100
AcDbLine
 10
3087.7515580906
 20
7671.4106315473
 30
0.0
 11
3085.4342889623
 21
7671.4106315473
 31
0.0
  0
LINE
  5
28B
330
1F
100
AcDbEntity
  8
0
  6
Continuous
 62
     7
100
AcDbLine
 10
3077.5012494834
 20
7673.4472484881
 30
0.0
 11
3075.6748058072
 21
7673.4472484881
 31
0.0
  0
LINE
  5
28C
330
1F
100
AcDbEntity
  8
0
  6
Continuous
 62
     7
100
AcDbLine
 10
3074.3787608224
 20
7668.0894520542
 30
0.0
 11
3074.3787608224
 21
7656.3253259159
 31
0.0
  0
LINE
  5
28D
330
1F
100
AcDbEntity
  8
0
  6
Continuous
 62
     7
100
AcDbLine
 10
3077.8368540031
 20
7669.0498925193
 30
0.0
 11
3075.3392012875
 21
7669.0498925193
 31
0.0
  0
LINE
  5
28E
330
1F
100
AcDbEntity
  8
0
  6
Continuous
 62
     7
100
AcDbLine
 10
3078.7972944683
 20
7656.3253259159
 30
0.0
 11
3078.7972944683
 21
7668.0894520542
 31
0.0
  0
LINE
  5
28F
330
1F
100
AcDbEntity
  8
0
  6
Continuous
 62
     7
100
AcDbLine
 10
3084.1382439775
 20
7666.0528351135
 30
0.0
 11
3084.1382439775
 21
7656.3253259159
 31
0.0
  0
LINE
  5
290
330
1F
100
AcDbEntity
  8
0
  6
Continuous
 62
     7
100
AcDbLine
 10
3088.0871626103
 20
7667.0132755786
 30
0.0
 11
3085.0986844427
 21
7667.0132755786
 31
0.0
  0
LINE
  5
291
330
1F
100
AcDbEntity
  8
0
  6
Continuous
 62
     7
100
AcDbLine
 10
3089.0476030754
 20
7656.3253259159
 30
0.0
 11
3089.0476030754
 21
7666.0528351135
 31
0.0
  0
LINE
  5
292
330
1F
100
AcDbEntity
  8
0
  6
Continuous
 62
     7
100
AcDbLine
 10
3094.3885525847
 20
7662.3874338789
 30
0.0
 11
3094.3885525847
 21
7656.3253259159
 31
0.0
  0
LINE
  5
293
330
1F
100
AcDbEntity
  8
0
  6
Continuous
 62
     7
100
AcDbLine
 10
3097.997103948
 20
7663.3478743441
 30
0.0
 11
3095.3489930498
 21
7663.3478743441
 31
0.0
  0
LINE
  5
294
330
1F
100
AcDbEntity
  8
0
  6
Continuous
 62
     7
100
AcDbLine
 10
3098.9575444127
 20
7630.8547847552
 30
0.0
 11
3098.9575444127
 21
7662.3874338785
 31
0.0
  0
LINE
  5
295
330
1F
100
AcDbEntity
  8
0
  6
Continuous
 62
     7
100
AcDbLine
 10
3075.3846445823
 20
7616.7507825527
 30
0.0
 11
3084.8535422102
 21
7616.7507825527
 31
0.0
  0
LINE
  5
296
330
1F
100
AcDbEntity
  8
0
  6
Continuous
 62
     7
100
AcDbLine
 10
3054.2129232716
 20
7655.7069349123
 30
0.0
 11
3054.2129232716
 21
7637.9225038637
 31
0.0
  0
LINE
  5
297
330
1F
100
AcDbEntity
  8
0
  6
Continuous
 62
     7
100
AcDbLine
 10
3058.9973186419
 20
7641.8866819333
 30
0.0
 11
3058.9973186419
 21
7649.7043654614
 31
0.0
  0
LINE
  5
298
330
1F
100
AcDbEntity
  8
0
  6
Continuous
 62
     7
100
AcDbLine
 10
3064.3382681512
 20
7687.0086870124
 30
0.0
 11
3064.3382681512
 21
7641.8866819333
 31
0.0
  0
LINE
  5
299
330
1F
100
AcDbEntity
  8
0
  6
Continuous
 62
     7
100
AcDbLine
 10
3069.0378113131
 20
7656.3253259159
 30
0.0
 11
3069.0378113131
 21
7687.0086870124
 31
0.0
  0
LINE
  5
29A
330
1F
100
AcDbEntity
  8
0
  6
Continuous
 62
     7
100
AcDbLine
 10
5964.7102355957
 20
7767.9958359433
 30
0.0
 11
5963.7512017624
 21
7767.6027893432
 31
0.0
  0
LINE
  5
29B
330
1F
100
AcDbEntity
  8
0
  6
Continuous
 62
     7
100
AcDbLine
 10
5963.7512017624
 20
7767.6027893432
 30
0.0
 11
5962.7583794684
 21
7767.9168958491
 31
0.0
  0
LINE
  5
29C
330
1F
100
AcDbEntity
  8
0
  6
Continuous
 62
     7
100
AcDbLine
 10
5962.7583794684
 20
7767.9168958491
 30
0.0
 11
5962.1976714941
 21
7768.7943284808
 31
0.0
  0
LINE
  5
29D
330
1F
100
AcDbEntity
  8
0
  6
Continuous
 62
     7
100
AcDbLine
 10
5962.1976714941
 20
7768.7943284808
 30
0.0
 11
5962.3278668162
 21
7769.8242604362
 31
0.0
  0
LINE
  5
29E
330
1F
100
AcDbEntity
  8
0
  6
Continuous
 62
     7
100
AcDbLine
 10
5967.0372009277
 20
7768.1463160371
 30
0.0
 11
5966.0242383098
 21
7768.7163394726
 31
0.0
  0
LINE
  5
29F
330
1F
100
AcDbEntity
  8
0
  6
Continuous
 62
     7
100
AcDbLine
 10
5966.0242383098
 20
7768.7163394726
 30
0.0
 11
5965.1531166967
 21
7768.3940506008
 31
0.0
  0
LINE
  5
2A0
330
1F
100
AcDbEntity
  8
0
  6
Continuous
 62
     7
100
AcDbLine
 10
5970.1385498047
 20
7768.7990168172
 30
0.0
 11
5969.9989054332
 21
7767.7698379639
 31
0.0
  0
LINE
  5
2A1
330
1F
100
AcDbEntity
  8
0
  6
Continuous
 62
     7
100
AcDbLine
 10
5969.9989054332
 20
7767.7698379639
 30
0.0
 11
5969.2304699587
 21
7767.067081956
 31
0.0
  0
LINE
  5
2A2
330
1F
100
AcDbEntity
  8
0
  6
Continuous
 62
     7
100
AcDbLine
 10
5969.2304699587
 20
7767.067081956
 30
0.0
 11
5968.1902370513
 21
7767.0202109271
 31
0.0
  0
LINE
  5
2A3
330
1F
100
AcDbEntity
  8
0
  6
Continuous
 62
     7
100
AcDbLine
 10
5968.1902370513
 20
7767.0202109271
 30
0.0
 11
5967.3633874981
 21
7767.647929385
 31
0.0
  0
LINE
  5
2A4
330
1F
100
AcDbEntity
  8
0
  6
Continuous
 62
     7
100
AcDbLine
 10
5972.1565246582
 20
7773.9001646163
 30
0.0
 11
5972.97808752
 21
7773.2640324023
 31
0.0
  0
LINE
  5
2A5
330
1F
100
AcDbEntity
  8
0
  6
Continuous
 62
     7
100
AcDbLine
 10
5972.97808752
 20
7773.2640324023
 30
0.0
 11
5973.2024756887
 21
7772.2471705185
 31
0.0
  0
LINE
  5
2A6
330
1F
100
AcDbEntity
  8
0
  6
Continuous
 62
     7
100
AcDbLine
 10
5973.2024756887
 20
7772.2471705185
 30
0.0
 11
5972.7229506186
 21
7771.3228665566
 31
0.0
  0
LINE
  5
2A7
330
1F
100
AcDbEntity
  8
0
  6
Continuous
 62
     7
100
AcDbLine
 10
5972.7229506186
 20
7771.3228665566
 30
0.0
 11
5971.7659058165
 21
7770.9206526912
 31
0.0
  0
LINE
  5
2A8
330
1F
100
AcDbEntity
  8
0
  6
Continuous
 62
     7
100
AcDbLine
 10
5970.8595275879
 20
7775.8409881149
 30
0.0
 11
5970.8772077696
 21
7774.6757647883
 31
0.0
  0
LINE
  5
2A9
330
1F
100
AcDbEntity
  8
0
  6
Continuous
 62
     7
100
AcDbLine
 10
5970.8772077696
 20
7774.6757647883
 30
0.0
 11
5971.5918789265
 21
7774.0824957774
 31
0.0
  0
LINE
  5
2AA
330
1F
100
AcDbEntity
  8
0
  6
Continuous
 62
     7
100
AcDbLine
 10
5968.7461853027
 20
7778.1981315415
 30
0.0
 11
5969.7095685067
 21
7778.5911781417
 31
0.0
  0
LINE
  5
2AB
330
1F
100
AcDbEntity
  8
0
  6
Continuous
 62
     7
100
AcDbLine
 10
5969.7095685067
 20
7778.5911781417
 30
0.0
 11
5970.7023908007
 21
7778.2770716358
 31
0.0
  0
LINE
  5
2AC
330
1F
100
AcDbEntity
  8
0
  6
Continuous
 62
     7
100
AcDbLine
 10
5970.7023908007
 20
7778.2770716358
 30
0.0
 11
5971.263098775
 21
7777.399639004
 31
0.0
  0
LINE
  5
2AD
330
1F
100
AcDbEntity
  8
0
  6
Continuous
 62
     7
100
AcDbLine
 10
5971.263098775
 20
7777.399639004
 30
0.0
 11
5971.132903453
 21
7776.3697070487
 31
0.0
  0
LINE
  5
2AE
330
1F
100
AcDbEntity
  8
0
  6
Continuous
 62
     7
100
AcDbLine
 10
5966.4192199707
 20
7778.0476514478
 30
0.0
 11
5967.4365319594
 21
7777.4776280123
 31
0.0
  0
LINE
  5
2AF
330
1F
100
AcDbEntity
  8
0
  6
Continuous
 62
     7
100
AcDbLine
 10
5967.4365319594
 20
7777.4776280123
 30
0.0
 11
5968.3076535725
 21
7777.7999168841
 31
0.0
  0
LINE
  5
2B0
330
1F
100
AcDbEntity
  8
0
  6
Continuous
 62
     7
100
AcDbLine
 10
5963.3178710938
 20
7777.3949506676
 30
0.0
 11
5963.4618648359
 21
7778.424129521
 31
0.0
  0
LINE
  5
2B1
330
1F
100
AcDbEntity
  8
0
  6
Continuous
 62
     7
100
AcDbLine
 10
5963.4618648359
 20
7778.424129521
 30
0.0
 11
5964.2303003104
 21
7779.1268855289
 31
0.0
  0
LINE
  5
2B2
330
1F
100
AcDbEntity
  8
0
  6
Continuous
 62
     7
100
AcDbLine
 10
5964.2303003104
 20
7779.1268855289
 30
0.0
 11
5965.2705332178
 21
7779.1737565577
 31
0.0
  0
LINE
  5
2B3
330
1F
100
AcDbEntity
  8
0
  6
Continuous
 62
     7
100
AcDbLine
 10
5965.2705332178
 20
7779.1737565577
 30
0.0
 11
5966.097382771
 21
7778.5460380999
 31
0.0
  0
LINE
  5
2B4
330
1F
100
AcDbEntity
  8
0
  6
Continuous
 62
     7
100
AcDbLine
 10
5962.2840881348
 20
7775.3036470753
 30
0.0
 11
5963.2897093243
 21
7775.8988469664
 31
0.0
  0
LINE
  5
2B5
330
1F
100
AcDbEntity
  8
0
  6
Continuous
 62
     7
100
AcDbLine
 10
5963.2897093243
 20
7775.8988469664
 30
0.0
 11
5963.4461597806
 21
7776.8144048491
 31
0.0
  0
LINE
  5
2B6
330
1F
100
AcDbEntity
  8
0
  6
Continuous
 62
     7
100
AcDbLine
 10
5961.3037109375
 20
7772.2938028685
 30
0.0
 11
5960.4826827491
 21
7772.9299350825
 31
0.0
  0
LINE
  5
2B7
330
1F
100
AcDbEntity
  8
0
  6
Continuous
 62
     7
100
AcDbLine
 10
5960.4826827491
 20
7772.9299350825
 30
0.0
 11
5960.2582945805
 21
7773.9467969664
 31
0.0
  0
LINE
  5
2B8
330
1F
100
AcDbEntity
  8
0
  6
Continuous
 62
     7
100
AcDbLine
 10
5960.2582945805
 20
7773.9467969664
 30
0.0
 11
5960.7378196505
 21
7774.8711009282
 31
0.0
  0
LINE
  5
2B9
330
1F
100
AcDbEntity
  8
0
  6
Continuous
 62
     7
100
AcDbLine
 10
5960.7378196505
 20
7774.8711009282
 30
0.0
 11
5961.6948644526
 21
7775.2733147937
 31
0.0
  0
LINE
  5
2BA
330
1F
100
AcDbEntity
  8
0
  6
Continuous
 62
     7
100
AcDbLine
 10
5962.5968933105
 20
7770.3529793699
 30
0.0
 11
5962.5835624995
 21
7771.5182026966
 31
0.0
  0
LINE
  5
2BB
330
1F
100
AcDbEntity
  8
0
  6
Continuous
 62
     7
100
AcDbLine
 10
5962.5835624995
 20
7771.5182026966
 30
0.0
 11
5961.8688913427
 21
7772.1114717074
 31
0.0
  0
LINE
  5
2BC
330
1F
100
AcDbEntity
  8
0
  6
Continuous
 62
     7
100
AcDbLine
 10
5971.1723327637
 20
7770.8903204096
 30
0.0
 11
5970.1710609448
 21
7770.2951205184
 31
0.0
  0
LINE
  5
2BD
330
1F
100
AcDbEntity
  8
0
  6
Continuous
 62
     7
100
AcDbLine
 10
5970.1710609448
 20
7770.2951205184
 30
0.0
 11
5970.0146104886
 21
7769.3795626358
 31
0.0
  0
LINE
  5
2BE
330
1F
100
AcDbEntity
  8
0
  6
Continuous
 62
     7
100
AcDbLine
 10
5657.2113037109
 20
7767.9958359433
 30
0.0
 11
5656.2512017624
 21
7767.6027893432
 31
0.0
  0
LINE
  5
2BF
330
1F
100
AcDbEntity
  8
0
  6
Continuous
 62
     7
100
AcDbLine
 10
5656.2512017624
 20
7767.6027893432
 30
0.0
 11
5655.2583794684
 21
7767.9168958491
 31
0.0
  0
LINE
  5
2C0
330
1F
100
AcDbEntity
  8
0
  6
Continuous
 62
     7
100
AcDbLine
 10
5655.2583794684
 20
7767.9168958491
 30
0.0
 11
5654.6976714941
 21
7768.7943284808
 31
0.0
  0
LINE
  5
2C1
330
1F
100
AcDbEntity
  8
0
  6
Continuous
 62
     7
100
AcDbLine
 10
5654.6976714941
 20
7768.7943284808
 30
0.0
 11
5654.8278668162
 21
7769.8242604362
 31
0.0
  0
LINE
  5
2C2
330
1F
100
AcDbEntity
  8
0
  6
Continuous
 62
     7
100
AcDbLine
 10
5659.538269043
 20
7768.1463160371
 30
0.0
 11
5658.5242383098
 21
7768.7163394726
 31
0.0
  0
LINE
  5
2C3
330
1F
100
AcDbEntity
  8
0
  6
Continuous
 62
     7
100
AcDbLine
 10
5658.5242383098
 20
7768.7163394726
 30
0.0
 11
5657.6531166967
 21
7768.3940506008
 31
0.0
  0
LINE
  5
2C4
330
1F
100
AcDbEntity
  8
0
  6
Continuous
 62
     7
100
AcDbLine
 10
5662.6358032227
 20
7768.7990168172
 30
0.0
 11
5662.4989054332
 21
7767.7698379639
 31
0.0
  0
LINE
  5
2C5
330
1F
100
AcDbEntity
  8
0
  6
Continuous
 62
     7
100
AcDbLine
 10
5662.4989054332
 20
7767.7698379639
 30
0.0
 11
5661.7304699587
 21
7767.067081956
 31
0.0
  0
LINE
  5
2C6
330
1F
100
AcDbEntity
  8
0
  6
Continuous
 62
     7
100
AcDbLine
 10
5661.7304699587
 20
7767.067081956
 30
0.0
 11
5660.6902370513
 21
7767.0202109271
 31
0.0
  0
LINE
  5
2C7
330
1F
100
AcDbEntity
  8
0
  6
Continuous
 62
     7
100
AcDbLine
 10
5660.6902370513
 20
7767.0202109271
 30
0.0
 11
5659.8633874981
 21
7767.647929385
 31
0.0
  0
LINE
  5
2C8
330
1F
100
AcDbEntity
  8
0
  6
Continuous
 62
     7
100
AcDbLine
 10
5664.6537780762
 20
7773.9001646163
 30
0.0
 11
5665.47808752
 21
7773.2640324023
 31
0.0
  0
LINE
  5
2C9
330
1F
100
AcDbEntity
  8
0
  6
Continuous
 62
     7
100
AcDbLine
 10
5665.47808752
 20
7773.2640324023
 30
0.0
 11
5665.7024756887
 21
7772.2471705185
 31
0.0
  0
LINE
  5
2CA
330
1F
100
AcDbEntity
  8
0
  6
Continuous
 62
     7
100
AcDbLine
 10
5665.7024756887
 20
7772.2471705185
 30
0.0
 11
5665.2229506186
 21
7771.3228665566
 31
0.0
  0
LINE
  5
2CB
330
1F
100
AcDbEntity
  8
0
  6
Continuous
 62
     7
100
AcDbLine
 10
5665.2229506186
 20
7771.3228665566
 30
0.0
 11
5664.2659058165
 21
7770.9206526912
 31
0.0
  0
LINE
  5
2CC
330
1F
100
AcDbEntity
  8
0
  6
Continuous
 62
     7
100
AcDbLine
 10
5663.3605957031
 20
7775.8409881149
 30
0.0
 11
5663.3772077696
 21
7774.6757647883
 31
0.0
  0
LINE
  5
2CD
330
1F
100
AcDbEntity
  8
0
  6
Continuous
 62
     7
100
AcDbLine
 10
5663.3772077696
 20
7774.6757647883
 30
0.0
 11
5664.0918789265
 21
7774.0824957774
 31
0.0
  0
LINE
  5
2CE
330
1F
100
AcDbEntity
  8
0
  6
Continuous
 62
     7
100
AcDbLine
 10
5661.247253418
 20
7778.1981315415
 30
0.0
 11
5662.2095685067
 21
7778.5911781417
 31
0.0
  0
LINE
  5
2CF
330
1F
100
AcDbEntity
  8
0
  6
Continuous
 62
     7
100
AcDbLine
 10
5662.2095685067
 20
7778.5911781417
 30
0.0
 11
5663.2023908007
 21
7778.2770716358
 31
0.0
  0
LINE
  5
2D0
330
1F
100
AcDbEntity
  8
0
  6
Continuous
 62
     7
100
AcDbLine
 10
5663.2023908007
 20
7778.2770716358
 30
0.0
 11
5663.763098775
 21
7777.399639004
 31
0.0
  0
LINE
  5
2D1
330
1F
100
AcDbEntity
  8
0
  6
Continuous
 62
     7
100
AcDbLine
 10
5663.763098775
 20
7777.399639004
 30
0.0
 11
5663.632903453
 21
7776.3697070487
 31
0.0
  0
LINE
  5
2D2
330
1F
100
AcDbEntity
  8
0
  6
Continuous
 62
     7
100
AcDbLine
 10
5658.9164733887
 20
7778.0476514478
 30
0.0
 11
5659.9365319594
 21
7777.4776280123
 31
0.0
  0
LINE
  5
2D3
330
1F
100
AcDbEntity
  8
0
  6
Continuous
 62
     7
100
AcDbLine
 10
5659.9365319594
 20
7777.4776280123
 30
0.0
 11
5660.8076535725
 21
7777.7999168841
 31
0.0
  0
LINE
  5
2D4
330
1F
100
AcDbEntity
  8
0
  6
Continuous
 62
     7
100
AcDbLine
 10
5655.818939209
 20
7777.3949506676
 30
0.0
 11
5655.9618648359
 21
7778.424129521
 31
0.0
  0
LINE
  5
2D5
330
1F
100
AcDbEntity
  8
0
  6
Continuous
 62
     7
100
AcDbLine
 10
5655.9618648359
 20
7778.424129521
 30
0.0
 11
5656.7303003104
 21
7779.1268855289
 31
0.0
  0
LINE
  5
2D6
330
1F
100
AcDbEntity
  8
0
  6
Continuous
 62
     7
100
AcDbLine
 10
5656.7303003104
 20
7779.1268855289
 30
0.0
 11
5657.7705332178
 21
7779.1737565577
 31
0.0
  0
LINE
  5
2D7
330
1F
100
AcDbEntity
  8
0
  6
Continuous
 62
     7
100
AcDbLine
 10
5657.7705332178
 20
7779.1737565577
 30
0.0
 11
5658.597382771
 21
7778.5460380999
 31
0.0
  0
LINE
  5
2D8
330
1F
100
AcDbEntity
  8
0
  6
Continuous
 62
     7
100
AcDbLine
 10
5654.78515625
 20
7775.3036470753
 30
0.0
 11
5655.7897093243
 21
7775.8988469664
 31
0.0
  0
LINE
  5
2D9
330
1F
100
AcDbEntity
  8
0
  6
Continuous
 62
     7
100
AcDbLine
 10
5655.7897093243
 20
7775.8988469664
 30
0.0
 11
5655.9461597806
 21
7776.8144048491
 31
0.0
  0
LINE
  5
2DA
330
1F
100
AcDbEntity
  8
0
  6
Continuous
 62
     7
100
AcDbLine
 10
5653.8009643555
 20
7772.2938028685
 30
0.0
 11
5652.9826827491
 21
7772.9299350825
 31
0.0
  0
LINE
  5
2DB
330
1F
100
AcDbEntity
  8
0
  6
Continuous
 62
     7
100
AcDbLine
 10
5652.9826827491
 20
7772.9299350825
 30
0.0
 11
5652.7582945805
 21
7773.9467969664
 31
0.0
  0
LINE
  5
2DC
330
1F
100
AcDbEntity
  8
0
  6
Continuous
 62
     7
100
AcDbLine
 10
5652.7582945805
 20
7773.9467969664
 30
0.0
 11
5653.2378196505
 21
7774.8711009282
 31
0.0
  0
LINE
  5
2DD
330
1F
100
AcDbEntity
  8
0
  6
Continuous
 62
     7
100
AcDbLine
 10
5653.2378196505
 20
7774.8711009282
 30
0.0
 11
5654.1948644526
 21
7775.2733147937
 31
0.0
  0
LINE
  5
2DE
330
1F
100
AcDbEntity
  8
0
  6
Continuous
 62
     7
100
AcDbLine
 10
5655.0979614258
 20
7770.3529793699
 30
0.0
 11
5655.0835624995
 21
7771.5182026966
 31
0.0
  0
LINE
  5
2DF
330
1F
100
AcDbEntity
  8
0
  6
Continuous
 62
     7
100
AcDbLine
 10
5655.0835624995
 20
7771.5182026966
 30
0.0
 11
5654.3688913427
 21
7772.1114717074
 31
0.0
  0
LINE
  5
2E0
330
1F
100
AcDbEntity
  8
0
  6
Continuous
 62
     7
100
AcDbLine
 10
5663.6695861816
 20
7770.8903204096
 30
0.0
 11
5662.6710609448
 21
7770.2951205184
 31
0.0
  0
LINE
  5
2E1
330
1F
100
AcDbEntity
  8
0
  6
Continuous
 62
     7
100
AcDbLine
 10
5662.6710609448
 20
7770.2951205184
 30
0.0
 11
5662.5146104886
 21
7769.3795626358
 31
0.0
  0
LINE
  5
2E2
330
1F
100
AcDbEntity
  8
0
  6
Continuous
 62
     7
100
AcDbLine
 10
4012.20703125
 20
7903.6282573312
 30
0.0
 11
4010.732895677
 21
7902.8678009221
 31
0.0
  0
LINE
  5
2E3
330
1F
100
AcDbEntity
  8
0
  6
Continuous
 62
     7
100
AcDbLine
 10
4010.732895677
 20
7902.8678009221
 30
0.0
 11
4009.1066476476
 21
7903.2301217725
 31
0.0
  0
LINE
  5
2E4
330
1F
100
AcDbEntity
  8
0
  6
Continuous
 62
     7
100
AcDbLine
 10
4009.1066476476
 20
7903.2301217725
 30
0.0
 11
4008.0906617151
 21
7904.5505509116
 31
0.0
  0
LINE
  5
2E5
330
1F
100
AcDbEntity
  8
0
  6
Continuous
 62
     7
100
AcDbLine
 10
4008.0906617151
 20
7904.5505509116
 30
0.0
 11
4008.1546717897
 21
7906.2103225784
 31
0.0
  0
LINE
  5
2E6
330
1F
100
AcDbEntity
  8
0
  6
Continuous
 62
     7
100
AcDbLine
 10
4020.7481384277
 20
7905.6646055068
 30
0.0
 11
4020.6679654295
 21
7904.0046199037
 31
0.0
  0
LINE
  5
2E7
330
1F
100
AcDbEntity
  8
0
  6
Continuous
 62
     7
100
AcDbLine
 10
4020.6679654295
 20
7904.0046199037
 30
0.0
 11
4019.5410621631
 21
7902.7774083138
 31
0.0
  0
LINE
  5
2E8
330
1F
100
AcDbEntity
  8
0
  6
Continuous
 62
     7
100
AcDbLine
 10
4019.5410621631
 20
7902.7774083138
 30
0.0
 11
4017.8895440639
 21
7902.5577532682
 31
0.0
  0
LINE
  5
2E9
330
1F
100
AcDbEntity
  8
0
  6
Continuous
 62
     7
100
AcDbLine
 10
4017.8895440639
 20
7902.5577532682
 30
0.0
 11
4016.4841447069
 21
7903.4430734934
 31
0.0
  0
LINE
  5
2EA
330
1F
100
AcDbEntity
  8
0
  6
Continuous
 62
     7
100
AcDbLine
 10
4023.250579834
 20
7914.076581358
 30
0.0
 11
4024.6509839529
 21
7913.1770520475
 31
0.0
  0
LINE
  5
2EB
330
1F
100
AcDbEntity
  8
0
  6
Continuous
 62
     7
100
AcDbLine
 10
4024.6509839529
 20
7913.1770520475
 30
0.0
 11
4025.1503307785
 21
7911.5875207993
 31
0.0
  0
LINE
  5
2EC
330
1F
100
AcDbEntity
  8
0
  6
Continuous
 62
     7
100
AcDbLine
 10
4025.1503307785
 20
7911.5875207993
 30
0.0
 11
4024.5147984355
 21
7910.0474361153
 31
0.0
  0
LINE
  5
2ED
330
1F
100
AcDbEntity
  8
0
  6
Continuous
 62
     7
100
AcDbLine
 10
4024.5147984355
 20
7910.0474361153
 30
0.0
 11
4023.0453891721
 21
7909.2729840974
 31
0.0
  0
LINE
  5
2EE
330
1F
100
AcDbEntity
  8
0
  6
Continuous
 62
     7
100
AcDbLine
 10
4017.219543457
 20
7920.4522090336
 30
0.0
 11
4018.6989368322
 21
7921.2126654429
 31
0.0
  0
LINE
  5
2EF
330
1F
100
AcDbEntity
  8
0
  6
Continuous
 62
     7
100
AcDbLine
 10
4018.6989368322
 20
7921.2126654429
 30
0.0
 11
4020.3251848616
 21
7920.8503445925
 31
0.0
  0
LINE
  5
2F0
330
1F
100
AcDbEntity
  8
0
  6
Continuous
 62
     7
100
AcDbLine
 10
4020.3251848616
 20
7920.8503445925
 30
0.0
 11
4021.3411707941
 21
7919.5299154533
 31
0.0
  0
LINE
  5
2F1
330
1F
100
AcDbEntity
  8
0
  6
Continuous
 62
     7
100
AcDbLine
 10
4021.3411707941
 20
7919.5299154533
 30
0.0
 11
4021.2771607197
 21
7917.8701437864
 31
0.0
  0
LINE
  5
2F2
330
1F
100
AcDbEntity
  8
0
  6
Continuous
 62
     7
100
AcDbLine
 10
4008.6822509766
 20
7918.415860858
 30
0.0
 11
4008.7638670797
 21
7920.0758464613
 31
0.0
  0
LINE
  5
2F3
330
1F
100
AcDbEntity
  8
0
  6
Continuous
 62
     7
100
AcDbLine
 10
4008.7638670797
 20
7920.0758464613
 30
0.0
 11
4009.890770346
 21
7921.3030580512
 31
0.0
  0
LINE
  5
2F4
330
1F
100
AcDbEntity
  8
0
  6
Continuous
 62
     7
100
AcDbLine
 10
4009.890770346
 20
7921.3030580512
 30
0.0
 11
4011.5422884452
 21
7921.5227130968
 31
0.0
  0
LINE
  5
2F5
330
1F
100
AcDbEntity
  8
0
  6
Continuous
 62
     7
100
AcDbLine
 10
4011.5422884452
 20
7921.5227130968
 30
0.0
 11
4012.9476878023
 21
7920.6373928716
 31
0.0
  0
LINE
  5
2F6
330
1F
100
AcDbEntity
  8
0
  6
Continuous
 62
     7
100
AcDbLine
 10
4006.175994873
 20
7910.003885007
 30
0.0
 11
4004.7808485563
 21
7910.9034143175
 31
0.0
  0
LINE
  5
2F7
330
1F
100
AcDbEntity
  8
0
  6
Continuous
 62
     7
100
AcDbLine
 10
4004.7808485563
 20
7910.9034143175
 30
0.0
 11
4004.2815017306
 21
7912.4929455656
 31
0.0
  0
LINE
  5
2F8
330
1F
100
AcDbEntity
  8
0
  6
Continuous
 62
     7
100
AcDbLine
 10
4004.2815017306
 20
7912.4929455656
 30
0.0
 11
4004.9170340737
 21
7914.0330302497
 31
0.0
  0
LINE
  5
2F9
330
1F
100
AcDbEntity
  8
0
  6
Continuous
 62
     7
100
AcDbLine
 10
4004.9170340737
 20
7914.0330302497
 30
0.0
 11
4006.3864433373
 21
7914.8074822676
 31
0.0
  0
LINE
  5
2FA
330
1F
100
AcDbEntity
  8
0
  6
Continuous
 62
     7
100
AcDbLine
 10
4022.102355957
 20
7909.1420081034
 30
0.0
 11
4020.5904941878
 21
7908.053709101
 31
0.0
  0
LINE
  5
2FB
330
1F
100
AcDbEntity
  8
0
  6
Continuous
 62
     7
100
AcDbLine
 10
4020.5904941878
 20
7908.053709101
 30
0.0
 11
4020.4686985893
 21
7906.5725822782
 31
0.0
  0
LINE
  5
2FC
330
1F
100
AcDbEntity
  8
0
  6
Continuous
 62
     7
100
AcDbLine
 10
4008.5105895996
 20
7907.0907129154
 30
0.0
 11
4008.3261961606
 21
7908.9459614965
 31
0.0
  0
LINE
  5
2FD
330
1F
100
AcDbEntity
  8
0
  6
Continuous
 62
     7
100
AcDbLine
 10
4008.3261961606
 20
7908.9459614965
 30
0.0
 11
4007.1044005051
 21
7909.7920029904
 31
0.0
  0
LINE
  5
2FE
330
1F
100
AcDbEntity
  8
0
  6
Continuous
 62
     7
100
AcDbLine
 10
4020.9197998047
 20
7916.9897534496
 30
0.0
 11
4021.1056363486
 21
7915.1345048684
 31
0.0
  0
LINE
  5
2FF
330
1F
100
AcDbEntity
  8
0
  6
Continuous
 62
     7
100
AcDbLine
 10
4021.1056363486
 20
7915.1345048684
 30
0.0
 11
4022.3274320041
 21
7914.2884633746
 31
0.0
  0
LINE
  5
300
330
1F
100
AcDbEntity
  8
0
  6
Continuous
 62
     7
100
AcDbLine
 10
4015.8996582031
 20
7904.1924878362
 30
0.0
 11
4014.2007740938
 21
7904.959437415
 31
0.0
  0
LINE
  5
301
330
1F
100
AcDbEntity
  8
0
  6
Continuous
 62
     7
100
AcDbLine
 10
4014.2007740938
 20
7904.959437415
 30
0.0
 11
4012.8571828397
 21
7904.324352086
 31
0.0
  0
LINE
  5
302
330
1F
100
AcDbEntity
  8
0
  6
Continuous
 62
     7
100
AcDbLine
 10
4007.32421875
 20
7914.9384582616
 30
0.0
 11
4008.8413383213
 21
7916.026757264
 31
0.0
  0
LINE
  5
303
330
1F
100
AcDbEntity
  8
0
  6
Continuous
 62
     7
100
AcDbLine
 10
4008.8413383213
 20
7916.026757264
 30
0.0
 11
4008.9631339199
 21
7917.5078840868
 31
0.0
  0
LINE
  5
304
330
1F
100
AcDbEntity
  8
0
  6
Continuous
 62
     7
100
AcDbLine
 10
4013.5307312012
 20
7919.8879785286
 30
0.0
 11
4015.2310584153
 21
7919.1210289499
 31
0.0
  0
LINE
  5
305
330
1F
100
AcDbEntity
  8
0
  6
Continuous
 62
     7
100
AcDbLine
 10
4015.2310584153
 20
7919.1210289499
 30
0.0
 11
4016.5746496695
 21
7919.7561142788
 31
0.0
  0
LINE
  5
306
330
1F
100
AcDbEntity
  8
0
  6
Continuous
 62
     7
100
AcDbLine
 10
2132.209777832
 20
7383.6282573312
 30
0.0
 11
2130.732895677
 21
7382.8678009221
 31
0.0
  0
LINE
  5
307
330
1F
100
AcDbEntity
  8
0
  6
Continuous
 62
     7
100
AcDbLine
 10
2130.732895677
 20
7382.8678009221
 30
0.0
 11
2129.1066476476
 21
7383.2301217725
 31
0.0
  0
LINE
  5
308
330
1F
100
AcDbEntity
  8
0
  6
Continuous
 62
     7
100
AcDbLine
 10
2129.1066476476
 20
7383.2301217725
 30
0.0
 11
2128.0906617151
 21
7384.5505509116
 31
0.0
  0
LINE
  5
309
330
1F
100
AcDbEntity
  8
0
  6
Continuous
 62
     7
100
AcDbLine
 10
2128.0906617151
 20
7384.5505509116
 30
0.0
 11
2128.1546717897
 21
7386.2103225784
 31
0.0
  0
LINE
  5
30A
330
1F
100
AcDbEntity
  8
0
  6
Continuous
 62
     7
100
AcDbLine
 10
2140.7470703125
 20
7385.6646055068
 30
0.0
 11
2140.6679654295
 21
7384.0046199037
 31
0.0
  0
LINE
  5
30B
330
1F
100
AcDbEntity
  8
0
  6
Continuous
 62
     7
100
AcDbLine
 10
2140.6679654295
 20
7384.0046199037
 30
0.0
 11
2139.5410621631
 21
7382.7774083138
 31
0.0
  0
LINE
  5
30C
330
1F
100
AcDbEntity
  8
0
  6
Continuous
 62
     7
100
AcDbLine
 10
2139.5410621631
 20
7382.7774083138
 30
0.0
 11
2137.8895440639
 21
7382.5577532682
 31
0.0
  0
LINE
  5
30D
330
1F
100
AcDbEntity
  8
0
  6
Continuous
 62
     7
100
AcDbLine
 10
2137.8895440639
 20
7382.5577532682
 30
0.0
 11
2136.4841447069
 21
7383.4430734934
 31
0.0
  0
LINE
  5
30E
330
1F
100
AcDbEntity
  8
0
  6
Continuous
 62
     7
100
AcDbLine
 10
2143.253326416
 20
7394.076581358
 30
0.0
 11
2144.6509839529
 21
7393.1770520475
 31
0.0
  0
LINE
  5
30F
330
1F
100
AcDbEntity
  8
0
  6
Continuous
 62
     7
100
AcDbLine
 10
2144.6509839529
 20
7393.1770520475
 30
0.0
 11
2145.1503307785
 21
7391.5875207993
 31
0.0
  0
LINE
  5
310
330
1F
100
AcDbEntity
  8
0
  6
Continuous
 62
     7
100
AcDbLine
 10
2145.1503307785
 20
7391.5875207993
 30
0.0
 11
2144.5147984355
 21
7390.0474361153
 31
0.0
  0
LINE
  5
311
330
1F
100
AcDbEntity
  8
0
  6
Continuous
 62
     7
100
AcDbLine
 10
2144.5147984355
 20
7390.0474361153
 30
0.0
 11
2143.0453891721
 21
7389.2729840974
 31
0.0
  0
LINE
  5
312
330
1F
100
AcDbEntity
  8
0
  6
Continuous
 62
     7
100
AcDbLine
 10
2137.2203826904
 20
7400.4522090336
 30
0.0
 11
2138.6989368322
 21
7401.2126654429
 31
0.0
  0
LINE
  5
313
330
1F
100
AcDbEntity
  8
0
  6
Continuous
 62
     7
100
AcDbLine
 10
2138.6989368322
 20
7401.2126654429
 30
0.0
 11
2140.3251848616
 21
7400.8503445925
 31
0.0
  0
LINE
  5
314
330
1F
100
AcDbEntity
  8
0
  6
Continuous
 62
     7
100
AcDbLine
 10
2140.3251848616
 20
7400.8503445925
 30
0.0
 11
2141.3411707941
 21
7399.5299154533
 31
0.0
  0
LINE
  5
315
330
1F
100
AcDbEntity
  8
0
  6
Continuous
 62
     7
100
AcDbLine
 10
2141.3411707941
 20
7399.5299154533
 30
0.0
 11
2141.2771607197
 21
7397.8701437864
 31
0.0
  0
LINE
  5
316
330
1F
100
AcDbEntity
  8
0
  6
Continuous
 62
     7
100
AcDbLine
 10
2128.68309021
 20
7398.415860858
 30
0.0
 11
2128.7638670797
 21
7400.0758464613
 31
0.0
  0
LINE
  5
317
330
1F
100
AcDbEntity
  8
0
  6
Continuous
 62
     7
100
AcDbLine
 10
2128.7638670797
 20
7400.0758464613
 30
0.0
 11
2129.890770346
 21
7401.3030580511
 31
0.0
  0
LINE
  5
318
330
1F
100
AcDbEntity
  8
0
  6
Continuous
 62
     7
100
AcDbLine
 10
2129.890770346
 20
7401.3030580511
 30
0.0
 11
2131.5422884452
 21
7401.5227130968
 31
0.0
  0
LINE
  5
319
330
1F
100
AcDbEntity
  8
0
  6
Continuous
 62
     7
100
AcDbLine
 10
2131.5422884452
 20
7401.5227130968
 30
0.0
 11
2132.9476878023
 21
7400.6373928716
 31
0.0
  0
LINE
  5
31A
330
1F
100
AcDbEntity
  8
0
  6
Continuous
 62
     7
100
AcDbLine
 10
2127.326965332
 20
7394.9384582616
 30
0.0
 11
2128.8413383213
 21
7396.026757264
 31
0.0
  0
LINE
  5
31B
330
1F
100
AcDbEntity
  8
0
  6
Continuous
 62
     7
100
AcDbLine
 10
2128.8413383213
 20
7396.026757264
 30
0.0
 11
2128.9631339199
 21
7397.5078840868
 31
0.0
  0
LINE
  5
31C
330
1F
100
AcDbEntity
  8
0
  6
Continuous
 62
     7
100
AcDbLine
 10
2126.1768341064
 20
7390.003885007
 30
0.0
 11
2124.7808485563
 21
7390.9034143175
 31
0.0
  0
LINE
  5
31D
330
1F
100
AcDbEntity
  8
0
  6
Continuous
 62
     7
100
AcDbLine
 10
2124.7808485563
 20
7390.9034143175
 30
0.0
 11
2124.2815017306
 21
7392.4929455656
 31
0.0
  0
LINE
  5
31E
330
1F
100
AcDbEntity
  8
0
  6
Continuous
 62
     7
100
AcDbLine
 10
2124.2815017306
 20
7392.4929455656
 30
0.0
 11
2124.9170340737
 21
7394.0330302497
 31
0.0
  0
LINE
  5
31F
330
1F
100
AcDbEntity
  8
0
  6
Continuous
 62
     7
100
AcDbLine
 10
2124.9170340737
 20
7394.0330302497
 30
0.0
 11
2126.3864433373
 21
7394.8074822676
 31
0.0
  0
LINE
  5
320
330
1F
100
AcDbEntity
  8
0
  6
Continuous
 62
     7
100
AcDbLine
 10
2128.511428833
 20
7387.0907129154
 30
0.0
 11
2128.3261961606
 21
7388.9459614965
 31
0.0
  0
LINE
  5
321
330
1F
100
AcDbEntity
  8
0
  6
Continuous
 62
     7
100
AcDbLine
 10
2128.3261961606
 20
7388.9459614965
 30
0.0
 11
2127.1044005051
 21
7389.7920029904
 31
0.0
  0
LINE
  5
322
330
1F
100
AcDbEntity
  8
0
  6
Continuous
 62
     7
100
AcDbLine
 10
2135.8985900879
 20
7384.1924878362
 30
0.0
 11
2134.2007740938
 21
7384.959437415
 31
0.0
  0
LINE
  5
323
330
1F
100
AcDbEntity
  8
0
  6
Continuous
 62
     7
100
AcDbLine
 10
2134.2007740938
 20
7384.959437415
 30
0.0
 11
2132.8571828397
 21
7384.324352086
 31
0.0
  0
LINE
  5
324
330
1F
100
AcDbEntity
  8
0
  6
Continuous
 62
     7
100
AcDbLine
 10
2142.1031951904
 20
7389.1420081034
 30
0.0
 11
2140.5904941878
 21
7388.053709101
 31
0.0
  0
LINE
  5
325
330
1F
100
AcDbEntity
  8
0
  6
Continuous
 62
     7
100
AcDbLine
 10
2140.5904941878
 20
7388.053709101
 30
0.0
 11
2140.4686985893
 21
7386.5725822782
 31
0.0
  0
LINE
  5
326
330
1F
100
AcDbEntity
  8
0
  6
Continuous
 62
     7
100
AcDbLine
 10
2140.9187316895
 20
7396.9897534496
 30
0.0
 11
2141.1056363486
 21
7395.1345048684
 31
0.0
  0
LINE
  5
327
330
1F
100
AcDbEntity
  8
0
  6
Continuous
 62
     7
100
AcDbLine
 10
2141.1056363486
 20
7395.1345048684
 30
0.0
 11
2142.3274320041
 21
7394.2884633746
 31
0.0
  0
LINE
  5
328
330
1F
100
AcDbEntity
  8
0
  6
Continuous
 62
     7
100
AcDbLine
 10
2133.5315704346
 20
7399.8879785286
 30
0.0
 11
2135.2310584153
 21
7399.1210289499
 31
0.0
  0
LINE
  5
329
330
1F
100
AcDbEntity
  8
0
  6
Continuous
 62
     7
100
AcDbLine
 10
2135.2310584153
 20
7399.1210289499
 30
0.0
 11
2136.5746496695
 21
7399.7561142788
 31
0.0
  0
LINE
  5
32A
330
1F
100
AcDbEntity
  8
0
  6
Continuous
 62
     7
100
AcDbLine
 10
2132.209777832
 20
7903.6282573312
 30
0.0
 11
2130.732895677
 21
7902.8678009221
 31
0.0
  0
LINE
  5
32B
330
1F
100
AcDbEntity
  8
0
  6
Continuous
 62
     7
100
AcDbLine
 10
2130.732895677
 20
7902.8678009221
 30
0.0
 11
2129.1066476476
 21
7903.2301217725
 31
0.0
  0
LINE
  5
32C
330
1F
100
AcDbEntity
  8
0
  6
Continuous
 62
     7
100
AcDbLine
 10
2129.1066476476
 20
7903.2301217725
 30
0.0
 11
2128.0906617151
 21
7904.5505509116
 31
0.0
  0
LINE
  5
32D
330
1F
100
AcDbEntity
  8
0
  6
Continuous
 62
     7
100
AcDbLine
 10
2128.0906617151
 20
7904.5505509116
 30
0.0
 11
2128.1546717897
 21
7906.2103225784
 31
0.0
  0
LINE
  5
32E
330
1F
100
AcDbEntity
  8
0
  6
Continuous
 62
     7
100
AcDbLine
 10
2140.7470703125
 20
7905.6646055068
 30
0.0
 11
2140.6679654295
 21
7904.0046199037
 31
0.0
  0
LINE
  5
32F
330
1F
100
AcDbEntity
  8
0
  6
Continuous
 62
     7
100
AcDbLine
 10
2140.6679654295
 20
7904.0046199037
 30
0.0
 11
2139.5410621631
 21
7902.7774083138
 31
0.0
  0
LINE
  5
330
330
1F
100
AcDbEntity
  8
0
  6
Continuous
 62
     7
100
AcDbLine
 10
2139.5410621631
 20
7902.7774083138
 30
0.0
 11
2137.8895440639
 21
7902.5577532682
 31
0.0
  0
LINE
  5
331
330
1F
100
AcDbEntity
  8
0
  6
Continuous
 62
     7
100
AcDbLine
 10
2137.8895440639
 20
7902.5577532682
 30
0.0
 11
2136.4841447069
 21
7903.4430734934
 31
0.0
  0
LINE
  5
332
330
1F
100
AcDbEntity
  8
0
  6
Continuous
 62
     7
100
AcDbLine
 10
2143.253326416
 20
7914.076581358
 30
0.0
 11
2144.6509839529
 21
7913.1770520475
 31
0.0
  0
LINE
  5
333
330
1F
100
AcDbEntity
  8
0
  6
Continuous
 62
     7
100
AcDbLine
 10
2144.6509839529
 20
7913.1770520475
 30
0.0
 11
2145.1503307785
 21
7911.5875207993
 31
0.0
  0
LINE
  5
334
330
1F
100
AcDbEntity
  8
0
  6
Continuous
 62
     7
100
AcDbLine
 10
2145.1503307785
 20
7911.5875207993
 30
0.0
 11
2144.5147984355
 21
7910.0474361153
 31
0.0
  0
LINE
  5
335
330
1F
100
AcDbEntity
  8
0
  6
Continuous
 62
     7
100
AcDbLine
 10
2144.5147984355
 20
7910.0474361153
 30
0.0
 11
2143.0453891721
 21
7909.2729840974
 31
0.0
  0
LINE
  5
336
330
1F
100
AcDbEntity
  8
0
  6
Continuous
 62
     7
100
AcDbLine
 10
2140.9187316895
 20
7916.9897534496
 30
0.0
 11
2141.1056363486
 21
7915.1345048684
 31
0.0
  0
LINE
  5
337
330
1F
100
AcDbEntity
  8
0
  6
Continuous
 62
     7
100
AcDbLine
 10
2141.1056363486
 20
7915.1345048684
 30
0.0
 11
2142.3274320041
 21
7914.2884633746
 31
0.0
  0
LINE
  5
338
330
1F
100
AcDbEntity
  8
0
  6
Continuous
 62
     7
100
AcDbLine
 10
2137.2203826904
 20
7920.4522090336
 30
0.0
 11
2138.6989368322
 21
7921.2126654429
 31
0.0
  0
LINE
  5
339
330
1F
100
AcDbEntity
  8
0
  6
Continuous
 62
     7
100
AcDbLine
 10
2138.6989368322
 20
7921.2126654429
 30
0.0
 11
2140.3251848616
 21
7920.8503445925
 31
0.0
  0
LINE
  5
33A
330
1F
100
AcDbEntity
  8
0
  6
Continuous
 62
     7
100
AcDbLine
 10
2140.3251848616
 20
7920.8503445925
 30
0.0
 11
2141.3411707941
 21
7919.5299154533
 31
0.0
  0
LINE
  5
33B
330
1F
100
AcDbEntity
  8
0
  6
Continuous
 62
     7
100
AcDbLine
 10
2141.3411707941
 20
7919.5299154533
 30
0.0
 11
2141.2771607197
 21
7917.8701437864
 31
0.0
  0
LINE
  5
33C
330
1F
100
AcDbEntity
  8
0
  6
Continuous
 62
     7
100
AcDbLine
 10
2133.5315704346
 20
7919.8879785286
 30
0.0
 11
2135.2310584153
 21
7919.1210289499
 31
0.0
  0
LINE
  5
33D
330
1F
100
AcDbEntity
  8
0
  6
Continuous
 62
     7
100
AcDbLine
 10
2135.2310584153
 20
7919.1210289499
 30
0.0
 11
2136.5746496695
 21
7919.7561142788
 31
0.0
  0
LINE
  5
33E
330
1F
100
AcDbEntity
  8
0
  6
Continuous
 62
     7
100
AcDbLine
 10
2128.68309021
 20
7918.415860858
 30
0.0
 11
2128.7638670797
 21
7920.0758464613
 31
0.0
  0
LINE
  5
33F
330
1F
100
AcDbEntity
  8
0
  6
Continuous
 62
     7
100
AcDbLine
 10
2128.7638670797
 20
7920.0758464613
 30
0.0
 11
2129.890770346
 21
7921.3030580511
 31
0.0
  0
LINE
  5
340
330
1F
100
AcDbEntity
  8
0
  6
Continuous
 62
     7
100
AcDbLine
 10
2129.890770346
 20
7921.3030580511
 30
0.0
 11
2131.5422884452
 21
7921.5227130968
 31
0.0
  0
LINE
  5
341
330
1F
100
AcDbEntity
  8
0
  6
Continuous
 62
     7
100
AcDbLine
 10
2131.5422884452
 20
7921.5227130968
 30
0.0
 11
2132.9476878023
 21
7920.6373928716
 31
0.0
  0
LINE
  5
342
330
1F
100
AcDbEntity
  8
0
  6
Continuous
 62
     7
100
AcDbLine
 10
2127.326965332
 20
7914.9384582616
 30
0.0
 11
2128.8413383213
 21
7916.026757264
 31
0.0
  0
LINE
  5
343
330
1F
100
AcDbEntity
  8
0
  6
Continuous
 62
     7
100
AcDbLine
 10
2128.8413383213
 20
7916.026757264
 30
0.0
 11
2128.9631339199
 21
7917.5078840868
 31
0.0
  0
LINE
  5
344
330
1F
100
AcDbEntity
  8
0
  6
Continuous
 62
     7
100
AcDbLine
 10
2126.1768341064
 20
7910.003885007
 30
0.0
 11
2124.7808485563
 21
7910.9034143175
 31
0.0
  0
LINE
  5
345
330
1F
100
AcDbEntity
  8
0
  6
Continuous
 62
     7
100
AcDbLine
 10
2124.7808485563
 20
7910.9034143175
 30
0.0
 11
2124.2815017306
 21
7912.4929455656
 31
0.0
  0
LINE
  5
346
330
1F
100
AcDbEntity
  8
0
  6
Continuous
 62
     7
100
AcDbLine
 10
2124.2815017306
 20
7912.4929455656
 30
0.0
 11
2124.9170340737
 21
7914.0330302497
 31
0.0
  0
LINE
  5
347
330
1F
100
AcDbEntity
  8
0
  6
Continuous
 62
     7
100
AcDbLine
 10
2124.9170340737
 20
7914.0330302497
 30
0.0
 11
2126.3864433373
 21
7914.8074822676
 31
0.0
  0
LINE
  5
348
330
1F
100
AcDbEntity
  8
0
  6
Continuous
 62
     7
100
AcDbLine
 10
2142.1031951904
 20
7909.1420081034
 30
0.0
 11
2140.5904941878
 21
7908.053709101
 31
0.0
  0
LINE
  5
349
330
1F
100
AcDbEntity
  8
0
  6
Continuous
 62
     7
100
AcDbLine
 10
2140.5904941878
 20
7908.053709101
 30
0.0
 11
2140.4686985893
 21
7906.5725822782
 31
0.0
  0
LINE
  5
34A
330
1F
100
AcDbEntity
  8
0
  6
Continuous
 62
     7
100
AcDbLine
 10
2128.511428833
 20
7907.0907129154
 30
0.0
 11
2128.3261961606
 21
7908.9459614965
 31
0.0
  0
LINE
  5
34B
330
1F
100
AcDbEntity
  8
0
  6
Continuous
 62
     7
100
AcDbLine
 10
2128.3261961606
 20
7908.9459614965
 30
0.0
 11
2127.1044005051
 21
7909.7920029904
 31
0.0
  0
LINE
  5
34C
330
1F
100
AcDbEntity
  8
0
  6
Continuous
 62
     7
100
AcDbLine
 10
2135.8985900879
 20
7904.1924878362
 30
0.0
 11
2134.2007740938
 21
7904.959437415
 31
0.0
  0
LINE
  5
34D
330
1F
100
AcDbEntity
  8
0
  6
Continuous
 62
     7
100
AcDbLine
 10
2134.2007740938
 20
7904.959437415
 30
0.0
 11
2132.8571828397
 21
7904.324352086
 31
0.0
  0
LINE
  5
34E
330
1F
100
AcDbEntity
  8
0
  6
Continuous
 62
     7
100
AcDbLine
 10
4012.20703125
 20
7383.6282573312
 30
0.0
 11
4010.732895677
 21
7382.8678009221
 31
0.0
  0
LINE
  5
34F
330
1F
100
AcDbEntity
  8
0
  6
Continuous
 62
     7
100
AcDbLine
 10
4010.732895677
 20
7382.8678009221
 30
0.0
 11
4009.1066476476
 21
7383.2301217725
 31
0.0
  0
LINE
  5
350
330
1F
100
AcDbEntity
  8
0
  6
Continuous
 62
     7
100
AcDbLine
 10
4009.1066476476
 20
7383.2301217725
 30
0.0
 11
4008.0906617151
 21
7384.5505509116
 31
0.0
  0
LINE
  5
351
330
1F
100
AcDbEntity
  8
0
  6
Continuous
 62
     7
100
AcDbLine
 10
4008.0906617151
 20
7384.5505509116
 30
0.0
 11
4008.1546717897
 21
7386.2103225784
 31
0.0
  0
LINE
  5
352
330
1F
100
AcDbEntity
  8
0
  6
Continuous
 62
     7
100
AcDbLine
 10
4020.7481384277
 20
7385.6646055068
 30
0.0
 11
4020.6679654295
 21
7384.0046199037
 31
0.0
  0
LINE
  5
353
330
1F
100
AcDbEntity
  8
0
  6
Continuous
 62
     7
100
AcDbLine
 10
4020.6679654295
 20
7384.0046199037
 30
0.0
 11
4019.5410621631
 21
7382.7774083138
 31
0.0
  0
LINE
  5
354
330
1F
100
AcDbEntity
  8
0
  6
Continuous
 62
     7
100
AcDbLine
 10
4019.5410621631
 20
7382.7774083138
 30
0.0
 11
4017.8895440639
 21
7382.5577532682
 31
0.0
  0
LINE
  5
355
330
1F
100
AcDbEntity
  8
0
  6
Continuous
 62
     7
100
AcDbLine
 10
4017.8895440639
 20
7382.5577532682
 30
0.0
 11
4016.4841447069
 21
7383.4430734934
 31
0.0
  0
LINE
  5
356
330
1F
100
AcDbEntity
  8
0
  6
Continuous
 62
     7
100
AcDbLine
 10
4022.102355957
 20
7389.1420081034
 30
0.0
 11
4020.5904941878
 21
7388.053709101
 31
0.0
  0
LINE
  5
357
330
1F
100
AcDbEntity
  8
0
  6
Continuous
 62
     7
100
AcDbLine
 10
4020.5904941878
 20
7388.053709101
 30
0.0
 11
4020.4686985893
 21
7386.5725822782
 31
0.0
  0
LINE
  5
358
330
1F
100
AcDbEntity
  8
0
  6
Continuous
 62
     7
100
AcDbLine
 10
4023.250579834
 20
7394.076581358
 30
0.0
 11
4024.6509839529
 21
7393.1770520475
 31
0.0
  0
LINE
  5
359
330
1F
100
AcDbEntity
  8
0
  6
Continuous
 62
     7
100
AcDbLine
 10
4024.6509839529
 20
7393.1770520475
 30
0.0
 11
4025.1503307785
 21
7391.5875207993
 31
0.0
  0
LINE
  5
35A
330
1F
100
AcDbEntity
  8
0
  6
Continuous
 62
     7
100
AcDbLine
 10
4025.1503307785
 20
7391.5875207993
 30
0.0
 11
4024.5147984355
 21
7390.0474361153
 31
0.0
  0
LINE
  5
35B
330
1F
100
AcDbEntity
  8
0
  6
Continuous
 62
     7
100
AcDbLine
 10
4024.5147984355
 20
7390.0474361153
 30
0.0
 11
4023.0453891721
 21
7389.2729840974
 31
0.0
  0
LINE
  5
35C
330
1F
100
AcDbEntity
  8
0
  6
Continuous
 62
     7
100
AcDbLine
 10
4017.219543457
 20
7400.4522090336
 30
0.0
 11
4018.6989368322
 21
7401.2126654429
 31
0.0
  0
LINE
  5
35D
330
1F
100
AcDbEntity
  8
0
  6
Continuous
 62
     7
100
AcDbLine
 10
4018.6989368322
 20
7401.2126654429
 30
0.0
 11
4020.3251848616
 21
7400.8503445925
 31
0.0
  0
LINE
  5
35E
330
1F
100
AcDbEntity
  8
0
  6
Continuous
 62
     7
100
AcDbLine
 10
4020.3251848616
 20
7400.8503445925
 30
0.0
 11
4021.3411707941
 21
7399.5299154533
 31
0.0
  0
LINE
  5
35F
330
1F
100
AcDbEntity
  8
0
  6
Continuous
 62
     7
100
AcDbLine
 10
4021.3411707941
 20
7399.5299154533
 30
0.0
 11
4021.2771607197
 21
7397.8701437864
 31
0.0
  0
LINE
  5
360
330
1F
100
AcDbEntity
  8
0
  6
Continuous
 62
     7
100
AcDbLine
 10
4008.6822509766
 20
7398.415860858
 30
0.0
 11
4008.7638670797
 21
7400.0758464613
 31
0.0
  0
LINE
  5
361
330
1F
100
AcDbEntity
  8
0
  6
Continuous
 62
     7
100
AcDbLine
 10
4008.7638670797
 20
7400.0758464613
 30
0.0
 11
4009.890770346
 21
7401.3030580512
 31
0.0
  0
LINE
  5
362
330
1F
100
AcDbEntity
  8
0
  6
Continuous
 62
     7
100
AcDbLine
 10
4009.890770346
 20
7401.3030580512
 30
0.0
 11
4011.5422884452
 21
7401.5227130968
 31
0.0
  0
LINE
  5
363
330
1F
100
AcDbEntity
  8
0
  6
Continuous
 62
     7
100
AcDbLine
 10
4011.5422884452
 20
7401.5227130968
 30
0.0
 11
4012.9476878023
 21
7400.6373928716
 31
0.0
  0
LINE
  5
364
330
1F
100
AcDbEntity
  8
0
  6
Continuous
 62
     7
100
AcDbLine
 10
4006.175994873
 20
7390.003885007
 30
0.0
 11
4004.7808485563
 21
7390.9034143175
 31
0.0
  0
LINE
  5
365
330
1F
100
AcDbEntity
  8
0
  6
Continuous
 62
     7
100
AcDbLine
 10
4004.7808485563
 20
7390.9034143175
 30
0.0
 11
4004.2815017306
 21
7392.4929455656
 31
0.0
  0
LINE
  5
366
330
1F
100
AcDbEntity
  8
0
  6
Continuous
 62
     7
100
AcDbLine
 10
4004.2815017306
 20
7392.4929455656
 30
0.0
 11
4004.9170340737
 21
7394.0330302497
 31
0.0
  0
LINE
  5
367
330
1F
100
AcDbEntity
  8
0
  6
Continuous
 62
     7
100
AcDbLine
 10
4004.9170340737
 20
7394.0330302497
 30
0.0
 11
4006.3864433373
 21
7394.8074822676
 31
0.0
  0
LINE
  5
368
330
1F
100
AcDbEntity
  8
0
  6
Continuous
 62
     7
100
AcDbLine
 10
4020.9197998047
 20
7396.9897534496
 30
0.0
 11
4021.1056363486
 21
7395.1345048684
 31
0.0
  0
LINE
  5
369
330
1F
100
AcDbEntity
  8
0
  6
Continuous
 62
     7
100
AcDbLine
 10
4021.1056363486
 20
7395.1345048684
 30
0.0
 11
4022.3274320041
 21
7394.2884633746
 31
0.0
  0
LINE
  5
36A
330
1F
100
AcDbEntity
  8
0
  6
Continuous
 62
     7
100
AcDbLine
 10
4007.32421875
 20
7394.9384582616
 30
0.0
 11
4008.8413383213
 21
7396.026757264
 31
0.0
  0
LINE
  5
36B
330
1F
100
AcDbEntity
  8
0
  6
Continuous
 62
     7
100
AcDbLine
 10
4008.8413383213
 20
7396.026757264
 30
0.0
 11
4008.9631339199
 21
7397.5078840868
 31
0.0
  0
LINE
  5
36C
330
1F
100
AcDbEntity
  8
0
  6
Continuous
 62
     7
100
AcDbLine
 10
4008.5105895996
 20
7387.0907129154
 30
0.0
 11
4008.3261961606
 21
7388.9459614965
 31
0.0
  0
LINE
  5
36D
330
1F
100
AcDbEntity
  8
0
  6
Continuous
 62
     7
100
AcDbLine
 10
4008.3261961606
 20
7388.9459614965
 30
0.0
 11
4007.1044005051
 21
7389.7920029904
 31
0.0
  0
LINE
  5
36E
330
1F
100
AcDbEntity
  8
0
  6
Continuous
 62
     7
100
AcDbLine
 10
4013.5307312012
 20
7399.8879785286
 30
0.0
 11
4015.2310584153
 21
7399.1210289499
 31
0.0
  0
LINE
  5
36F
330
1F
100
AcDbEntity
  8
0
  6
Continuous
 62
     7
100
AcDbLine
 10
4015.2310584153
 20
7399.1210289499
 30
0.0
 11
4016.5746496695
 21
7399.7561142788
 31
0.0
  0
LINE
  5
370
330
1F
100
AcDbEntity
  8
0
  6
Continuous
 62
     7
100
AcDbLine
 10
4015.8996582031
 20
7384.1924878362
 30
0.0
 11
4014.2007740938
 21
7384.959437415
 31
0.0
  0
LINE
  5
371
330
1F
100
AcDbEntity
  8
0
  6
Continuous
 62
     7
100
AcDbLine
 10
4014.2007740938
 20
7384.959437415
 30
0.0
 11
4012.8571828397
 21
7384.324352086
 31
0.0
  0
LINE
  5
372
330
1F
100
AcDbEntity
  8
0
  6
Continuous
 62
     7
100
AcDbLine
 10
5101.9248962402
 20
7693.5632801206
 30
0.0
 11
5100.8734729389
 21
7695.3830334492
 31
0.0
  0
LINE
  5
373
330
1F
100
AcDbEntity
  8
0
  6
Continuous
 62
     7
100
AcDbLine
 10
5100.8734729389
 20
7695.3830334492
 30
0.0
 11
5100.0475747348
 21
7696.8130433855
 31
0.0
  0
LINE
  5
374
330
1F
100
AcDbEntity
  8
0
  6
Continuous
 62
     7
100
AcDbLine
 10
5095.9243774414
 20
7693.5632801206
 30
0.0
 11
5095.1859776119
 21
7694.8419425832
 31
0.0
  0
LINE
  5
375
330
1F
100
AcDbEntity
  8
0
  6
Continuous
 62
     7
100
AcDbLine
 10
5095.1859776119
 20
7694.8419425832
 30
0.0
 11
5094.6056053657
 21
7695.8467635936
 31
0.0
  0
LINE
  5
376
330
1F
100
AcDbEntity
  8
0
  6
Continuous
 62
     7
100
AcDbLine
 10
5115.6997680664
 20
7608.515931232
 30
0.0
 11
5116.4248152245
 21
7609.7619802777
 31
0.0
  0
LINE
  5
377
330
1F
100
AcDbEntity
  8
0
  6
Continuous
 62
     7
100
AcDbLine
 10
5116.4248152245
 20
7609.7619802777
 30
0.0
 11
5116.9942727943
 21
7610.7478176184
 31
0.0
  0
LINE
  5
378
330
1F
100
AcDbEntity
  8
0
  6
Continuous
 62
     7
100
AcDbLine
 10
5103.1150817871
 20
7607.5145593431
 30
0.0
 11
5104.1673617691
 21
7609.3129017998
 31
0.0
  0
LINE
  5
379
330
1F
100
AcDbEntity
  8
0
  6
Continuous
 62
     7
100
AcDbLine
 10
5104.1673617691
 20
7609.3129017998
 30
0.0
 11
5104.9942727943
 21
7610.7478176184
 31
0.0
  0
LINE
  5
37A
330
1F
100
AcDbEntity
  8
0
  6
Continuous
 62
     7
100
AcDbLine
 10
5097.1145629883
 20
7607.5145593431
 30
0.0
 11
5098.166973206
 21
7609.3098164865
 31
0.0
  0
LINE
  5
37B
330
1F
100
AcDbEntity
  8
0
  6
Continuous
 62
     7
100
AcDbLine
 10
5098.166973206
 20
7609.3098164865
 30
0.0
 11
5098.9942727943
 21
7610.7478176184
 31
0.0
  0
LINE
  5
37C
330
1F
100
AcDbEntity
  8
0
  6
Continuous
 62
     7
100
AcDbLine
 10
5104.4807434082
 20
7696.8130378849
 30
0.0
 11
5103.4327395177
 21
7694.9930863642
 31
0.0
  0
LINE
  5
37D
330
1F
100
AcDbEntity
  8
0
  6
Continuous
 62
     7
100
AcDbLine
 10
5103.4327395177
 20
7694.9930863642
 30
0.0
 11
5102.6065169451
 21
7693.5632759527
 31
0.0
  0
LINE
  5
37E
330
1F
100
AcDbEntity
  8
0
  6
Continuous
 62
     7
100
AcDbLine
 10
5098.4840393066
 20
7696.8130378849
 30
0.0
 11
5097.4327762337
 21
7694.9930204792
 31
0.0
  0
LINE
  5
37F
330
1F
100
AcDbEntity
  8
0
  6
Continuous
 62
     7
100
AcDbLine
 10
5097.4327762337
 20
7694.9930204792
 30
0.0
 11
5096.6065169451
 21
7693.5632759527
 31
0.0
  0
LINE
  5
380
330
1F
100
AcDbEntity
  8
0
  6
Continuous
 62
     7
100
AcDbLine
 10
5099.536895752
 20
7610.7499711726
 30
0.0
 11
5100.5857701532
 21
7608.958444975
 31
0.0
  0
LINE
  5
381
330
1F
100
AcDbEntity
  8
0
  6
Continuous
 62
     7
100
AcDbLine
 10
5100.5857701532
 20
7608.958444975
 30
0.0
 11
5101.4130411411
 21
7607.51686802
 31
0.0
  0
LINE
  5
382
330
1F
100
AcDbEntity
  8
0
  6
Continuous
 62
     7
100
AcDbLine
 10
5093.5363769531
 20
7610.7499711726
 30
0.0
 11
5094.585501016
 21
7608.9616489114
 31
0.0
  0
LINE
  5
383
330
1F
100
AcDbEntity
  8
0
  6
Continuous
 62
     7
100
AcDbLine
 10
5094.585501016
 20
7608.9616489114
 30
0.0
 11
5095.4130411411
 21
7607.51686802
 31
0.0
  0
LINE
  5
384
330
1F
100
AcDbEntity
  8
0
  6
Continuous
 62
     7
100
AcDbLine
 10
5098.8883972168
 20
7610.4878284625
 30
0.0
 11
5099.3098621587
 21
7610.4883004999
 31
0.0
  0
LINE
  5
385
330
1F
100
AcDbEntity
  8
0
  6
Continuous
 62
     7
100
AcDbLine
 10
5099.3098621587
 20
7610.4883004999
 30
0.0
 11
5099.6408101767
 21
7610.4878284625
 31
0.0
  0
LINE
  5
386
330
1F
100
AcDbEntity
  8
0
  6
Continuous
 62
     7
100
AcDbLine
 10
5092.887878418
 20
7610.4878284625
 30
0.0
 11
5093.3094159932
 21
7610.4884710174
 31
0.0
  0
LINE
  5
387
330
1F
100
AcDbEntity
  8
0
  6
Continuous
 62
     7
100
AcDbLine
 10
5093.3094159932
 20
7610.4884710174
 30
0.0
 11
5093.6408101767
 21
7610.4878284625
 31
0.0
  0
LINE
  5
388
330
1F
100
AcDbEntity
  8
0
  6
Continuous
 62
     7
100
AcDbLine
 10
5102.6382446289
 20
7693.5926379013
 30
0.0
 11
5102.2299370072
 21
7693.5923064938
 31
0.0
  0
LINE
  5
389
330
1F
100
AcDbEntity
  8
0
  6
Continuous
 62
     7
100
AcDbLine
 10
5102.2299370072
 20
7693.5923064938
 30
0.0
 11
5101.9081436626
 21
7693.5926221995
 31
0.0
  0
LINE
  5
38A
330
1F
100
AcDbEntity
  8
0
  6
Continuous
 62
     7
100
AcDbLine
 10
5096.6377258301
 20
7693.5926379013
 30
0.0
 11
5096.2295854401
 21
7693.5921608448
 31
0.0
  0
LINE
  5
38B
330
1F
100
AcDbEntity
  8
0
  6
Continuous
 62
     7
100
AcDbLine
 10
5096.2295854401
 20
7693.5921608448
 30
0.0
 11
5095.9081458746
 21
7693.5926152543
 31
0.0
  0
LINE
  5
38C
330
1F
100
AcDbEntity
  8
0
  6
Continuous
 62
     7
100
AcDbLine
 10
5105.7624816895
 20
7703.0402331824
 30
0.0
 11
5104.4370523615
 21
7703.0402331824
 31
0.0
  0
LINE
  5
38D
330
1F
100
AcDbEntity
  8
0
  6
Continuous
 62
     7
100
AcDbLine
 10
5105.7624816895
 20
7655.4948254974
 30
0.0
 11
5104.5812642784
 21
7680.1854042368
 31
0.0
  0
LINE
  5
38E
330
1F
100
AcDbEntity
  8
0
  6
Continuous
 62
     7
100
AcDbLine
 10
5104.5812642784
 20
7680.1854042368
 30
0.0
 11
5105.7656066217
 21
7699.5856408676
 31
0.0
  0
LINE
  5
38F
330
1F
100
AcDbEntity
  8
0
  6
Continuous
 62
     7
100
AcDbLine
 10
5105.7624816895
 20
7604.4948254974
 30
0.0
 11
5104.5812642784
 21
7629.1854042368
 31
0.0
  0
LINE
  5
390
330
1F
100
AcDbEntity
  8
0
  6
Continuous
 62
     7
100
AcDbLine
 10
5104.5812642784
 20
7629.1854042368
 30
0.0
 11
5105.7656066217
 21
7648.5856408676
 31
0.0
  0
LINE
  5
391
330
1F
100
AcDbEntity
  8
0
  6
Continuous
 62
     7
100
AcDbLine
 10
5114.8643493652
 20
7601.0402331824
 30
0.0
 11
5116.19456801
 21
7601.0402331824
 31
0.0
  0
LINE
  5
392
330
1F
100
AcDbEntity
  8
0
  6
Continuous
 62
     7
100
AcDbLine
 10
5114.8643493652
 20
7648.5856408676
 30
0.0
 11
5116.0503560932
 21
7623.8950621281
 31
0.0
  0
LINE
  5
393
330
1F
100
AcDbEntity
  8
0
  6
Continuous
 62
     7
100
AcDbLine
 10
5116.0503560932
 20
7623.8950621281
 30
0.0
 11
5114.8660137499
 21
7604.4948254974
 31
0.0
  0
LINE
  5
394
330
1F
100
AcDbEntity
  8
0
  6
Continuous
 62
     7
100
AcDbLine
 10
5114.8643493652
 20
7699.5856408676
 30
0.0
 11
5116.0503560932
 21
7674.8950621281
 31
0.0
  0
LINE
  5
395
330
1F
100
AcDbEntity
  8
0
  6
Continuous
 62
     7
100
AcDbLine
 10
5116.0503560932
 20
7674.8950621281
 30
0.0
 11
5114.8660137499
 21
7655.4948254974
 31
0.0
  0
LINE
  5
396
330
1F
100
AcDbEntity
  8
0
  6
Continuous
 62
     7
100
AcDbLine
 10
5093.5134887695
 20
7625.0562167443
 30
0.0
 11
5094.6442139257
 21
7611.3210368239
 31
0.0
  0
LINE
  5
397
330
1F
100
AcDbEntity
  8
0
  6
Continuous
 62
     7
100
AcDbLine
 10
5094.6442139257
 20
7611.3210368239
 30
0.0
 11
5095.5158101859
 21
7607.2402331824
 31
0.0
  0
LINE
  5
398
330
1F
100
AcDbEntity
  8
0
  6
Continuous
 62
     7
100
AcDbLine
 10
5095.5123901367
 20
7652.0402322792
 30
0.0
 11
5094.8044360701
 21
7692.6899002494
 31
0.0
  0
LINE
  5
399
330
1F
100
AcDbEntity
  8
0
  6
Continuous
 62
     7
100
AcDbLine
 10
5094.8044360701
 20
7692.6899002494
 30
0.0
 11
5094.6235437646
 21
7695.9947928201
 31
0.0
  0
LINE
  5
39A
330
1F
100
AcDbEntity
  8
0
  6
Continuous
 62
     7
100
AcDbLine
 10
5094.6235437646
 20
7695.9947928201
 30
0.0
 11
5094.6198063291
 21
7695.9994657971
 31
0.0
  0
LINE
  5
39B
330
1F
100
AcDbEntity
  8
0
  6
Continuous
 62
     7
100
AcDbLine
 10
5094.6198063291
 20
7695.9994657971
 30
0.0
 11
5094.6160703545
 21
7696.0005671204
 31
0.0
  0
LINE
  5
39C
330
1F
100
AcDbEntity
  8
0
  6
Continuous
 62
     7
100
AcDbLine
 10
5094.6160703545
 20
7696.0005671204
 30
0.0
 11
5094.6086028331
 21
7695.9918262287
 31
0.0
  0
LINE
  5
39D
330
1F
100
AcDbEntity
  8
0
  6
Continuous
 62
     7
100
AcDbLine
 10
5094.6086028331
 20
7695.9918262287
 30
0.0
 11
5094.563916076
 21
7695.6371206879
 31
0.0
  0
LINE
  5
39E
330
1F
100
AcDbEntity
  8
0
  6
Continuous
 62
     7
100
AcDbLine
 10
5091.9647216797
 20
7627.5884364566
 30
0.0
 11
5092.6417862999
 21
7611.6002628239
 31
0.0
  0
LINE
  5
39F
330
1F
100
AcDbEntity
  8
0
  6
Continuous
 62
     7
100
AcDbLine
 10
5092.6417862999
 20
7611.6002628239
 30
0.0
 11
5092.7529372783
 21
7611.0828335793
 31
0.0
  0
LINE
  5
3A0
330
1F
100
AcDbEntity
  8
0
  6
Continuous
 62
     7
100
AcDbLine
 10
5092.7529372783
 20
7611.0828335793
 30
0.0
 11
5092.8622747927
 21
7610.9723391747
 31
0.0
  0
LINE
  5
3A1
330
1F
100
AcDbEntity
  8
0
  6
Continuous
 62
     7
100
AcDbLine
 10
5104.3128967285
 20
7617.9711756455
 30
0.0
 11
5103.5021613578
 21
7647.1027453904
 31
0.0
  0
LINE
  5
3A2
330
1F
100
AcDbEntity
  8
0
  6
Continuous
 62
     7
100
AcDbLine
 10
5103.5021613578
 20
7647.1027453904
 30
0.0
 11
5102.9769861933
 21
7669.4425489026
 31
0.0
  0
LINE
  5
3A3
330
1F
100
AcDbEntity
  8
0
  6
Continuous
 62
     7
100
AcDbLine
 10
5102.9769861933
 20
7669.4425489026
 30
0.0
 11
5102.4549393095
 21
7686.6113697578
 31
0.0
  0
LINE
  5
3A4
330
1F
100
AcDbEntity
  8
0
  6
Continuous
 62
     7
100
AcDbLine
 10
5102.4549393095
 20
7686.6113697578
 30
0.0
 11
5101.9254024023
 21
7693.3368667315
 31
0.0
  0
LINE
  5
3A5
330
1F
100
AcDbEntity
  8
0
  6
Continuous
 62
     7
100
AcDbLine
 10
5098.8883972168
 20
7610.4878284625
 30
0.0
 11
5097.8853259684
 21
7631.5762035222
 31
0.0
  0
LINE
  5
3A6
330
1F
100
AcDbEntity
  8
0
  6
Continuous
 62
     7
100
AcDbLine
 10
5097.8853259684
 20
7631.5762035222
 30
0.0
 11
5097.2331456043
 21
7658.9989269346
 31
0.0
  0
LINE
  5
3A7
330
1F
100
AcDbEntity
  8
0
  6
Continuous
 62
     7
100
AcDbLine
 10
5097.2331456043
 20
7658.9989269346
 30
0.0
 11
5096.579429574
 21
7683.2912100932
 31
0.0
  0
LINE
  5
3A8
330
1F
100
AcDbEntity
  8
0
  6
Continuous
 62
     7
100
AcDbLine
 10
5096.579429574
 20
7683.2912100932
 30
0.0
 11
5095.9252966212
 21
7693.337395825
 31
0.0
  0
LINE
  5
3A9
330
1F
100
AcDbEntity
  8
0
  6
Continuous
 62
     7
100
AcDbLine
 10
5103.1188964844
 20
7607.8404770982
 30
0.0
 11
5103.0121874578
 21
7607.2310166723
 31
0.0
  0
LINE
  5
3AA
330
1F
100
AcDbEntity
  8
0
  6
Continuous
 62
     7
100
AcDbLine
 10
5103.0121874578
 20
7607.2310166723
 30
0.0
 11
5102.994319249
 21
7607.2023561887
 31
0.0
  0
LINE
  5
3AB
330
1F
100
AcDbEntity
  8
0
  6
Continuous
 62
     7
100
AcDbLine
 10
5102.994319249
 20
7607.2023561887
 30
0.0
 11
5102.9853922156
 21
7607.1982776751
 31
0.0
  0
LINE
  5
3AC
330
1F
100
AcDbEntity
  8
0
  6
Continuous
 62
     7
100
AcDbLine
 10
5102.9853922156
 20
7607.1982776751
 30
0.0
 11
5102.9764683309
 21
7607.2008398251
 31
0.0
  0
LINE
  5
3AD
330
1F
100
AcDbEntity
  8
0
  6
Continuous
 62
     7
100
AcDbLine
 10
5102.9764683309
 20
7607.2008398251
 30
0.0
 11
5102.9288789934
 21
7607.3206567491
 31
0.0
  0
LINE
  5
3AE
330
1F
100
AcDbEntity
  8
0
  6
Continuous
 62
     7
100
AcDbLine
 10
5102.9288789934
 20
7607.3206567491
 30
0.0
 11
5102.3432221722
 21
7617.8444405542
 31
0.0
  0
LINE
  5
3AF
330
1F
100
AcDbEntity
  8
0
  6
Continuous
 62
     7
100
AcDbLine
 10
5102.3432221722
 20
7617.8444405542
 30
0.0
 11
5100.0162657377
 21
7696.7485605696
 31
0.0
  0
LINE
  5
3B0
330
1F
100
AcDbEntity
  8
0
  6
Continuous
 62
     7
100
AcDbLine
 10
5097.1183776855
 20
7607.8398211514
 30
0.0
 11
5097.0207647406
 21
7607.2547206298
 31
0.0
  0
LINE
  5
3B1
330
1F
100
AcDbEntity
  8
0
  6
Continuous
 62
     7
100
AcDbLine
 10
5097.0207647406
 20
7607.2547206298
 30
0.0
 11
5097.0022792578
 21
7607.2116784232
 31
0.0
  0
LINE
  5
3B2
330
1F
100
AcDbEntity
  8
0
  6
Continuous
 62
     7
100
AcDbLine
 10
5097.0022792578
 20
7607.2116784232
 30
0.0
 11
5096.9930457546
 21
7607.2013193511
 31
0.0
  0
LINE
  5
3B3
330
1F
100
AcDbEntity
  8
0
  6
Continuous
 62
     7
100
AcDbLine
 10
5096.9930457546
 20
7607.2013193511
 30
0.0
 11
5096.9838166968
 21
7607.1981944417
 31
0.0
  0
LINE
  5
3B4
330
1F
100
AcDbEntity
  8
0
  6
Continuous
 62
     7
100
AcDbLine
 10
5096.9838166968
 20
7607.1981944417
 30
0.0
 11
5096.9653667259
 21
7607.2130039588
 31
0.0
  0
LINE
  5
3B5
330
1F
100
AcDbEntity
  8
0
  6
Continuous
 62
     7
100
AcDbLine
 10
5096.9653667259
 20
7607.2130039588
 30
0.0
 11
5096.9469189626
 21
7607.2548206706
 31
0.0
  0
LINE
  5
3B6
330
1F
100
AcDbEntity
  8
0
  6
Continuous
 62
     7
100
AcDbLine
 10
5096.9469189626
 20
7607.2548206706
 30
0.0
 11
5096.7220023943
 21
7609.3985780156
 31
0.0
  0
LINE
  5
3B7
330
1F
100
AcDbEntity
  8
0
  6
Continuous
 62
     7
100
AcDbLine
 10
5096.7220023943
 20
7609.3985780156
 30
0.0
 11
5095.5158101859
 21
7652.0402322792
 31
0.0
  0
LINE
  5
3B8
330
1F
100
AcDbEntity
  8
0
  6
Continuous
 62
     7
100
AcDbLine
 10
5101.4060974121
 20
7607.8946488681
 30
0.0
 11
5100.4259802717
 21
7633.4260510355
 31
0.0
  0
LINE
  5
3B9
330
1F
100
AcDbEntity
  8
0
  6
Continuous
 62
     7
100
AcDbLine
 10
5100.4259802717
 20
7633.4260510355
 30
0.0
 11
5099.7916724947
 21
7662.5992763891
 31
0.0
  0
LINE
  5
3BA
330
1F
100
AcDbEntity
  8
0
  6
Continuous
 62
     7
100
AcDbLine
 10
5099.7916724947
 20
7662.5992763891
 30
0.0
 11
5099.1547120974
 21
7687.2448765841
 31
0.0
  0
LINE
  5
3BB
330
1F
100
AcDbEntity
  8
0
  6
Continuous
 62
     7
100
AcDbLine
 10
5099.1547120974
 20
7687.2448765841
 30
0.0
 11
5098.5162657563
 21
7696.7485604684
 31
0.0
  0
LINE
  5
3BC
330
1F
100
AcDbEntity
  8
0
  6
Continuous
 62
     7
100
AcDbLine
 10
5104.3128967285
 20
7644.4145118521
 30
0.0
 11
5103.3792909054
 21
7681.7927121392
 31
0.0
  0
LINE
  5
3BD
330
1F
100
AcDbEntity
  8
0
  6
Continuous
 62
     7
100
AcDbLine
 10
5103.3792909054
 20
7681.7927121392
 30
0.0
 11
5102.6412168586
 21
7693.5078551621
 31
0.0
  0
LINE
  5
3BE
330
1F
100
AcDbEntity
  8
0
  6
Continuous
 62
     7
100
AcDbLine
 10
5099.5330810547
 20
7611.0969780234
 30
0.0
 11
5098.5506957274
 21
7634.7863731332
 31
0.0
  0
LINE
  5
3BF
330
1F
100
AcDbEntity
  8
0
  6
Continuous
 62
     7
100
AcDbLine
 10
5098.5506957274
 20
7634.7863731332
 30
0.0
 11
5097.9164634846
 21
7661.8426235595
 31
0.0
  0
LINE
  5
3C0
330
1F
100
AcDbEntity
  8
0
  6
Continuous
 62
     7
100
AcDbLine
 10
5097.9164634846
 20
7661.8426235595
 30
0.0
 11
5097.2795755221
 21
7684.6965756114
 31
0.0
  0
LINE
  5
3C1
330
1F
100
AcDbEntity
  8
0
  6
Continuous
 62
     7
100
AcDbLine
 10
5097.2795755221
 20
7684.6965756114
 30
0.0
 11
5096.6411977959
 21
7693.5079505092
 31
0.0
  0
LINE
  5
3C2
330
1F
100
AcDbEntity
  8
0
  6
Continuous
 62
     7
100
AcDbLine
 10
5093.5325622559
 20
7611.0974397321
 30
0.0
 11
5093.0860105348
 21
7617.240836204
 31
0.0
  0
LINE
  5
3C3
330
1F
100
AcDbEntity
  8
0
  6
Continuous
 62
     7
100
AcDbLine
 10
5093.0860105348
 20
7617.240836204
 30
0.0
 11
5092.7445665014
 21
7627.6164121804
 31
0.0
  0
LINE
  5
3C4
330
1F
100
AcDbEntity
  8
0
  6
Continuous
 62
     7
100
AcDbLine
 10
5093.5134887695
 20
7610.995843693
 30
0.0
 11
5093.0919378902
 21
7617.7013650184
 31
0.0
  0
LINE
  5
3C5
330
1F
100
AcDbEntity
  8
0
  6
Continuous
 62
     7
100
AcDbLine
 10
5093.0919378902
 20
7617.7013650184
 30
0.0
 11
5092.7720456491
 21
7627.5884364566
 31
0.0
  0
LINE
  5
3C6
330
1F
100
AcDbEntity
  8
0
  6
Continuous
 62
     7
100
AcDbLine
 10
5093.5134887695
 20
7610.995843693
 30
0.0
 11
5093.5158101858
 21
7616.4410196265
 31
0.0
  0
LINE
  5
3C7
330
1F
100
AcDbEntity
  8
0
  6
Continuous
 62
     7
100
AcDbLine
 10
5093.5158101858
 20
7616.4410196265
 30
0.0
 11
5093.5158101858
 21
7625.0562167443
 31
0.0
  0
LINE
  5
3C8
330
1F
100
AcDbEntity
  8
0
  6
Continuous
 62
     7
100
AcDbLine
 10
3116.2376403809
 20
6299.9579228066
 30
0.0
 11
3118.0587130207
 21
6301.0095506495
 31
0.0
  0
LINE
  5
3C9
330
1F
100
AcDbEntity
  8
0
  6
Continuous
 62
     7
100
AcDbLine
 10
3118.0587130207
 20
6301.0095506495
 30
0.0
 11
3119.4887235456
 21
6301.8354493949
 31
0.0
  0
LINE
  5
3CA
330
1F
100
AcDbEntity
  8
0
  6
Continuous
 62
     7
100
AcDbLine
 10
3029.9415588379
 20
6298.8354528095
 30
0.0
 11
3031.7466533972
 21
6297.7937451084
 31
0.0
  0
LINE
  5
3CB
330
1F
100
AcDbEntity
  8
0
  6
Continuous
 62
     7
100
AcDbLine
 10
3031.7466533972
 20
6297.7937451084
 30
0.0
 11
3033.1635272034
 21
6296.9748822396
 31
0.0
  0
LINE
  5
3CC
330
1F
100
AcDbEntity
  8
0
  6
Continuous
 62
     7
100
AcDbLine
 10
3029.9415588379
 20
6304.8354528095
 30
0.0
 11
3031.7466727875
 21
6303.7938324375
 31
0.0
  0
LINE
  5
3CD
330
1F
100
AcDbEntity
  8
0
  6
Continuous
 62
     7
100
AcDbLine
 10
3031.7466727875
 20
6303.7938324375
 30
0.0
 11
3033.1635341412
 21
6302.9748800324
 31
0.0
  0
LINE
  5
3CE
330
1F
100
AcDbEntity
  8
0
  6
Continuous
 62
     7
100
AcDbLine
 10
3119.4877624512
 20
6297.3989867795
 30
0.0
 11
3117.6852010377
 21
6298.4407924401
 31
0.0
  0
LINE
  5
3CF
330
1F
100
AcDbEntity
  8
0
  6
Continuous
 62
     7
100
AcDbLine
 10
3117.6852010377
 20
6298.4407924401
 30
0.0
 11
3116.2683055561
 21
6299.2595512427
 31
0.0
  0
LINE
  5
3D0
330
1F
100
AcDbEntity
  8
0
  6
Continuous
 62
     7
100
AcDbLine
 10
3119.4877624512
 20
6303.3989867795
 30
0.0
 11
3117.6851317937
 21
6304.4407574292
 31
0.0
  0
LINE
  5
3D1
330
1F
100
AcDbEntity
  8
0
  6
Continuous
 62
     7
100
AcDbLine
 10
3117.6851317937
 20
6304.4407574292
 30
0.0
 11
3116.2682988303
 21
6305.2595537402
 31
0.0
  0
LINE
  5
3D2
330
1F
100
AcDbEntity
  8
0
  6
Continuous
 62
     7
100
AcDbLine
 10
3033.1916809082
 20
6296.2765056046
 30
0.0
 11
3032.0181797301
 21
6295.5976766993
 31
0.0
  0
LINE
  5
3D3
330
1F
100
AcDbEntity
  8
0
  6
Continuous
 62
     7
100
AcDbLine
 10
3032.0181797301
 20
6295.5976766993
 30
0.0
 11
3031.0951192797
 21
6295.064431831
 31
0.0
  0
LINE
  5
3D4
330
1F
100
AcDbEntity
  8
0
  6
Continuous
 62
     7
100
AcDbLine
 10
3033.1916809082
 20
6302.2765056046
 30
0.0
 11
3031.3731509524
 21
6301.2249433584
 31
0.0
  0
LINE
  5
3D5
330
1F
100
AcDbEntity
  8
0
  6
Continuous
 62
     7
100
AcDbLine
 10
3031.3731509524
 20
6301.2249433584
 30
0.0
 11
3029.943105913
 21
6300.3989801423
 31
0.0
  0
LINE
  5
3D6
330
1F
100
AcDbEntity
  8
0
  6
Continuous
 62
     7
100
AcDbLine
 10
3116.268157959
 20
6299.242226107
 30
0.0
 11
3116.2679889326
 21
6299.6530903291
 31
0.0
  0
LINE
  5
3D7
330
1F
100
AcDbEntity
  8
0
  6
Continuous
 62
     7
100
AcDbLine
 10
3116.2679889326
 20
6299.6530903291
 30
0.0
 11
3116.268305237
 21
6299.9748821194
 31
0.0
  0
LINE
  5
3D8
330
1F
100
AcDbEntity
  8
0
  6
Continuous
 62
     7
100
AcDbLine
 10
3116.268157959
 20
6305.242226107
 30
0.0
 11
3116.2678431569
 21
6305.6534418931
 31
0.0
  0
LINE
  5
3D9
330
1F
100
AcDbEntity
  8
0
  6
Continuous
 62
     7
100
AcDbLine
 10
3116.2678431569
 20
6305.6534418931
 30
0.0
 11
3116.2682982842
 21
6305.9748799025
 31
0.0
  0
LINE
  5
3DA
330
1F
100
AcDbEntity
  8
0
  6
Continuous
 62
     7
100
AcDbLine
 10
3033.1630706787
 20
6296.9922191532
 30
0.0
 11
3033.1638417139
 21
6296.5825011433
 31
0.0
  0
LINE
  5
3DB
330
1F
100
AcDbEntity
  8
0
  6
Continuous
 62
     7
100
AcDbLine
 10
3033.1638417139
 20
6296.5825011433
 30
0.0
 11
3033.1635268979
 21
6296.2595511071
 31
0.0
  0
LINE
  5
3DC
330
1F
100
AcDbEntity
  8
0
  6
Continuous
 62
     7
100
AcDbLine
 10
3033.1630706787
 20
6302.9922191532
 30
0.0
 11
3033.1639868684
 21
6302.5828547674
 31
0.0
  0
LINE
  5
3DD
330
1F
100
AcDbEntity
  8
0
  6
Continuous
 62
     7
100
AcDbLine
 10
3033.1639868684
 20
6302.5828547674
 30
0.0
 11
3033.1635336148
 21
6302.2595536025
 31
0.0
  0
LINE
  5
3DE
330
1F
100
AcDbEntity
  8
0
  6
Continuous
 62
     7
100
AcDbLine
 10
3100.170135498
 20
6285.5170120924
 30
0.0
 11
3071.6610171391
 21
6284.3665258678
 31
0.0
  0
LINE
  5
3DF
330
1F
100
AcDbEntity
  8
0
  6
Continuous
 62
     7
100
AcDbLine
 10
3071.6610171391
 20
6284.3665258678
 30
0.0
 11
3049.2600721319
 21
6285.5170120924
 31
0.0
  0
LINE
  5
3E0
330
1F
100
AcDbEntity
  8
0
  6
Continuous
 62
     7
100
AcDbLine
 10
3049.259185791
 20
6294.6174192206
 30
0.0
 11
3077.7708153701
 21
6295.7679054452
 31
0.0
  0
LINE
  5
3E1
330
1F
100
AcDbEntity
  8
0
  6
Continuous
 62
     7
100
AcDbLine
 10
3077.7708153701
 20
6295.7679054452
 30
0.0
 11
3100.1717603773
 21
6294.6174192206
 31
0.0
  0
LINE
  5
3E2
330
1F
100
AcDbEntity
  8
0
  6
Continuous
 62
     7
100
AcDbLine
 10
3106.1534881592
 20
6294.6174192206
 30
0.0
 11
3120.4104020679
 21
6295.8017615639
 31
0.0
  0
LINE
  5
3E3
330
1F
100
AcDbEntity
  8
0
  6
Continuous
 62
     7
100
AcDbLine
 10
3120.4104020679
 20
6295.8017615639
 30
0.0
 11
3131.6111339089
 21
6294.6174192206
 31
0.0
  0
LINE
  5
3E4
330
1F
100
AcDbEntity
  8
0
  6
Continuous
 62
     7
100
AcDbLine
 10
3017.8206986003
 20
6294.6174192206
 30
0.0
 11
3032.0758108819
 21
6295.8017615639
 31
0.0
  0
LINE
  5
3E5
330
1F
100
AcDbEntity
  8
0
  6
Continuous
 62
     7
100
AcDbLine
 10
3032.0758108819
 20
6295.8017615639
 30
0.0
 11
3043.2765427229
 21
6294.6174192206
 31
0.0
  0
LINE
  5
3E6
330
1F
100
AcDbEntity
  8
0
  6
Continuous
 62
     7
100
AcDbLine
 10
3131.6111339089
 20
6285.5170120924
 30
0.0
 11
3117.3560216273
 21
6284.3326697491
 31
0.0
  0
LINE
  5
3E7
330
1F
100
AcDbEntity
  8
0
  6
Continuous
 62
     7
100
AcDbLine
 10
3117.3560216273
 20
6284.3326697491
 30
0.0
 11
3106.1552897863
 21
6285.5170120924
 31
0.0
  0
LINE
  5
3E8
330
1F
100
AcDbEntity
  8
0
  6
Continuous
 62
     7
100
AcDbLine
 10
3043.2758331299
 20
6285.5170120924
 30
0.0
 11
3029.0214304413
 21
6284.3326697491
 31
0.0
  0
LINE
  5
3E9
330
1F
100
AcDbEntity
  8
0
  6
Continuous
 62
     7
100
AcDbLine
 10
3029.0214304413
 20
6284.3326697491
 30
0.0
 11
3017.8206986003
 21
6285.5170120924
 31
0.0
  0
LINE
  5
3EA
330
1F
100
AcDbEntity
  8
0
  6
Continuous
 62
     7
100
AcDbLine
 10
3029.914855957
 20
6304.8672156564
 30
0.0
 11
3073.9543110183
 21
6305.8085326019
 31
0.0
  0
LINE
  5
3EB
330
1F
100
AcDbEntity
  8
0
  6
Continuous
 62
     7
100
AcDbLine
 10
3073.9543110183
 20
6305.8085326019
 30
0.0
 11
3114.555496977
 21
6306.5267320741
 31
0.0
  0
LINE
  5
3EC
330
1F
100
AcDbEntity
  8
0
  6
Continuous
 62
     7
100
AcDbLine
 10
3114.555496977
 20
6306.5267320741
 30
0.0
 11
3117.0716107065
 21
6306.7093491005
 31
0.0
  0
LINE
  5
3ED
330
1F
100
AcDbEntity
  8
0
  6
Continuous
 62
     7
100
AcDbLine
 10
3117.0716107065
 20
6306.7093491005
 30
0.0
 11
3117.1491273072
 21
6306.7683133181
 31
0.0
  0
LINE
  5
3EE
330
1F
100
AcDbEntity
  8
0
  6
Continuous
 62
     7
100
AcDbLine
 10
3033.2069396973
 20
6296.9919919346
 30
0.0
 11
3033.0942927495
 21
6297.0176743555
 31
0.0
  0
LINE
  5
3EF
330
1F
100
AcDbEntity
  8
0
  6
Continuous
 62
     7
100
AcDbLine
 10
3033.0942927495
 20
6297.0176743555
 30
0.0
 11
3033.0662889293
 21
6297.0304981859
 31
0.0
  0
LINE
  5
3F0
330
1F
100
AcDbEntity
  8
0
  6
Continuous
 62
     7
100
AcDbLine
 10
3033.0662889293
 20
6297.0304981859
 30
0.0
 11
3033.0565981206
 21
6297.0433146266
 31
0.0
  0
LINE
  5
3F1
330
1F
100
AcDbEntity
  8
0
  6
Continuous
 62
     7
100
AcDbLine
 10
3033.0565981206
 20
6297.0433146266
 30
0.0
 11
3033.0598959851
 21
6297.0518565062
 31
0.0
  0
LINE
  5
3F2
330
1F
100
AcDbEntity
  8
0
  6
Continuous
 62
     7
100
AcDbLine
 10
3033.0598959851
 20
6297.0518565062
 30
0.0
 11
3033.0707097285
 21
6297.0603976381
 31
0.0
  0
LINE
  5
3F3
330
1F
100
AcDbEntity
  8
0
  6
Continuous
 62
     7
100
AcDbLine
 10
3033.0707097285
 20
6297.0603976381
 30
0.0
 11
3033.1343948012
 21
6297.0831780521
 31
0.0
  0
LINE
  5
3F4
330
1F
100
AcDbEntity
  8
0
  6
Continuous
 62
     7
100
AcDbLine
 10
3033.1343948012
 20
6297.0831780521
 30
0.0
 11
3036.3172383326
 21
6297.3627599863
 31
0.0
  0
LINE
  5
3F5
330
1F
100
AcDbEntity
  8
0
  6
Continuous
 62
     7
100
AcDbLine
 10
3036.3172383326
 20
6297.3627599863
 30
0.0
 11
3073.9622974163
 21
6298.474911773
 31
0.0
  0
LINE
  5
3F6
330
1F
100
AcDbEntity
  8
0
  6
Continuous
 62
     7
100
AcDbLine
 10
3073.9622974163
 20
6298.474911773
 30
0.0
 11
3115.9866342642
 21
6299.9574094039
 31
0.0
  0
LINE
  5
3F7
330
1F
100
AcDbEntity
  8
0
  6
Continuous
 62
     7
100
AcDbLine
 10
3033.2069396973
 20
6302.9920029901
 30
0.0
 11
3033.0942514012
 21
6303.0176861827
 31
0.0
  0
LINE
  5
3F8
330
1F
100
AcDbEntity
  8
0
  6
Continuous
 62
     7
100
AcDbLine
 10
3033.0942514012
 20
6303.0176861827
 30
0.0
 11
3033.0662604416
 21
6303.0305103999
 31
0.0
  0
LINE
  5
3F9
330
1F
100
AcDbEntity
  8
0
  6
Continuous
 62
     7
100
AcDbLine
 10
3033.0662604416
 20
6303.0305103999
 30
0.0
 11
3033.0565836665
 21
6303.0433272295
 31
0.0
  0
LINE
  5
3FA
330
1F
100
AcDbEntity
  8
0
  6
Continuous
 62
     7
100
AcDbLine
 10
3033.0565836665
 20
6303.0433272295
 30
0.0
 11
3033.0598914674
 21
6303.0518693697
 31
0.0
  0
LINE
  5
3FB
330
1F
100
AcDbEntity
  8
0
  6
Continuous
 62
     7
100
AcDbLine
 10
3033.0598914674
 20
6303.0518693697
 30
0.0
 11
3033.0707155616
 21
6303.0604107636
 31
0.0
  0
LINE
  5
3FC
330
1F
100
AcDbEntity
  8
0
  6
Continuous
 62
     7
100
AcDbLine
 10
3033.0707155616
 20
6303.0604107636
 30
0.0
 11
3033.1344299392
 21
6303.0831918828
 31
0.0
  0
LINE
  5
3FD
330
1F
100
AcDbEntity
  8
0
  6
Continuous
 62
     7
100
AcDbLine
 10
3033.1344299392
 20
6303.0831918828
 30
0.0
 11
3036.3176114467
 21
6303.3627831984
 31
0.0
  0
LINE
  5
3FE
330
1F
100
AcDbEntity
  8
0
  6
Continuous
 62
     7
100
AcDbLine
 10
3036.3176114467
 20
6303.3627831984
 30
0.0
 11
3073.9647584084
 21
6304.4749669505
 31
0.0
  0
LINE
  5
3FF
330
1F
100
AcDbEntity
  8
0
  6
Continuous
 62
     7
100
AcDbLine
 10
3073.9647584084
 20
6304.4749669505
 30
0.0
 11
3115.9870981924
 21
6305.9575095169
 31
0.0
  0
LINE
  5
400
330
1F
100
AcDbEntity
  8
0
  6
Continuous
 62
     7
100
AcDbLine
 10
3029.9625396729
 20
6298.8669626428
 30
0.0
 11
3029.8404553705
 21
6298.8929465852
 31
0.0
  0
LINE
  5
401
330
1F
100
AcDbEntity
  8
0
  6
Continuous
 62
     7
100
AcDbLine
 10
3029.8404553705
 20
6298.8929465852
 30
0.0
 11
3029.8104715163
 21
6298.9059208493
 31
0.0
  0
LINE
  5
402
330
1F
100
AcDbEntity
  8
0
  6
Continuous
 62
     7
100
AcDbLine
 10
3029.8104715163
 20
6298.9059208493
 30
0.0
 11
3029.8006655766
 21
6298.9188876656
 31
0.0
  0
LINE
  5
403
330
1F
100
AcDbEntity
  8
0
  6
Continuous
 62
     7
100
AcDbLine
 10
3029.8006655766
 20
6298.9188876656
 30
0.0
 11
3029.8048743936
 21
6298.9275298238
 31
0.0
  0
LINE
  5
404
330
1F
100
AcDbEntity
  8
0
  6
Continuous
 62
     7
100
AcDbLine
 10
3029.8048743936
 20
6298.9275298238
 30
0.0
 11
3029.817355409
 21
6298.9361712992
 31
0.0
  0
LINE
  5
405
330
1F
100
AcDbEntity
  8
0
  6
Continuous
 62
     7
100
AcDbLine
 10
3029.817355409
 20
6298.9361712992
 30
0.0
 11
3029.88896348
 21
6298.9592198883
 31
0.0
  0
LINE
  5
406
330
1F
100
AcDbEntity
  8
0
  6
Continuous
 62
     7
100
AcDbLine
 10
3029.88896348
 20
6298.9592198883
 30
0.0
 11
3033.3926034178
 21
6299.2422138629
 31
0.0
  0
LINE
  5
407
330
1F
100
AcDbEntity
  8
0
  6
Continuous
 62
     7
100
AcDbLine
 10
3033.3926034178
 20
6299.2422138629
 30
0.0
 11
3074.7192817464
 21
6300.3668807728
 31
0.0
  0
LINE
  5
408
330
1F
100
AcDbEntity
  8
0
  6
Continuous
 62
     7
100
AcDbLine
 10
3074.7192817464
 20
6300.3668807728
 30
0.0
 11
3119.3830622981
 21
6301.8666049023
 31
0.0
  0
LINE
  5
409
330
1F
100
AcDbEntity
  8
0
  6
Continuous
 62
     7
100
AcDbLine
 10
3084.077835083
 20
6296.0672156565
 30
0.0
 11
3111.7299720271
 21
6296.7930253519
 31
0.0
  0
LINE
  5
40A
330
1F
100
AcDbEntity
  8
0
  6
Continuous
 62
     7
100
AcDbLine
 10
3111.7299720271
 20
6296.7930253519
 30
0.0
 11
3119.3830621573
 21
6297.3666048836
 31
0.0
  0
LINE
  5
40B
330
1F
100
AcDbEntity
  8
0
  6
Continuous
 62
     7
100
AcDbLine
 10
3029.9625396729
 20
6300.3669626242
 30
0.0
 11
3029.8404554174
 21
6300.3929465667
 31
0.0
  0
LINE
  5
40C
330
1F
100
AcDbEntity
  8
0
  6
Continuous
 62
     7
100
AcDbLine
 10
3029.8404554174
 20
6300.3929465667
 30
0.0
 11
3029.8104715576
 21
6300.4059208307
 31
0.0
  0
LINE
  5
40D
330
1F
100
AcDbEntity
  8
0
  6
Continuous
 62
     7
100
AcDbLine
 10
3029.8104715576
 20
6300.4059208307
 30
0.0
 11
3029.8006656121
 21
6300.4188876471
 31
0.0
  0
LINE
  5
40E
330
1F
100
AcDbEntity
  8
0
  6
Continuous
 62
     7
100
AcDbLine
 10
3029.8006656121
 20
6300.4188876471
 30
0.0
 11
3029.8048744251
 21
6300.4275298053
 31
0.0
  0
LINE
  5
40F
330
1F
100
AcDbEntity
  8
0
  6
Continuous
 62
     7
100
AcDbLine
 10
3029.8048744251
 20
6300.4275298053
 30
0.0
 11
3029.8173554366
 21
6300.4361712807
 31
0.0
  0
LINE
  5
410
330
1F
100
AcDbEntity
  8
0
  6
Continuous
 62
     7
100
AcDbLine
 10
3029.8173554366
 20
6300.4361712807
 30
0.0
 11
3029.8889634974
 21
6300.4592198698
 31
0.0
  0
LINE
  5
411
330
1F
100
AcDbEntity
  8
0
  6
Continuous
 62
     7
100
AcDbLine
 10
3029.8889634974
 20
6300.4592198698
 30
0.0
 11
3033.3926034174
 21
6300.7422138448
 31
0.0
  0
LINE
  5
412
330
1F
100
AcDbEntity
  8
0
  6
Continuous
 62
     7
100
AcDbLine
 10
3033.3926034174
 20
6300.7422138448
 30
0.0
 11
3074.7192817493
 21
6301.8668807542
 31
0.0
  0
LINE
  5
413
330
1F
100
AcDbEntity
  8
0
  6
Continuous
 62
     7
100
AcDbLine
 10
3074.7192817493
 20
6301.8668807542
 30
0.0
 11
3119.3830621573
 21
6303.3666048836
 31
0.0
  0
LINE
  5
414
330
1F
100
AcDbEntity
  8
0
  6
Continuous
 62
     7
100
AcDbLine
 10
3033.3290100098
 20
6296.2770850108
 30
0.0
 11
3055.6007388283
 21
6297.2836170613
 31
0.0
  0
LINE
  5
415
330
1F
100
AcDbEntity
  8
0
  6
Continuous
 62
     7
100
AcDbLine
 10
3055.6007388283
 20
6297.2836170613
 30
0.0
 11
3083.1732671027
 21
6297.934781171
 31
0.0
  0
LINE
  5
416
330
1F
100
AcDbEntity
  8
0
  6
Continuous
 62
     7
100
AcDbLine
 10
3083.1732671027
 20
6297.934781171
 30
0.0
 11
3106.943631404
 21
6298.5877106998
 31
0.0
  0
LINE
  5
417
330
1F
100
AcDbEntity
  8
0
  6
Continuous
 62
     7
100
AcDbLine
 10
3106.943631404
 20
6298.5877106998
 30
0.0
 11
3116.1454063684
 21
6299.2416715234
 31
0.0
  0
LINE
  5
418
330
1F
100
AcDbEntity
  8
0
  6
Continuous
 62
     7
100
AcDbLine
 10
3033.3309173584
 20
6302.2772068946
 30
0.0
 11
3055.6042207163
 21
6303.2837090853
 31
0.0
  0
LINE
  5
419
330
1F
100
AcDbEntity
  8
0
  6
Continuous
 62
     7
100
AcDbLine
 10
3055.6042207163
 20
6303.2837090853
 30
0.0
 11
3083.1761948228
 21
6303.9348499254
 31
0.0
  0
LINE
  5
41A
330
1F
100
AcDbEntity
  8
0
  6
Continuous
 62
     7
100
AcDbLine
 10
3083.1761948228
 20
6303.9348499254
 30
0.0
 11
3106.9449290878
 21
6304.5877574012
 31
0.0
  0
LINE
  5
41B
330
1F
100
AcDbEntity
  8
0
  6
Continuous
 62
     7
100
AcDbLine
 10
3106.9449290878
 20
6304.5877574012
 30
0.0
 11
3116.145524903
 21
6305.2416971024
 31
0.0
  0
LINE
  5
41C
330
1F
100
AcDbEntity
  8
0
  6
Continuous
 62
     7
100
AcDbLine
 10
6148.2182983234
 20
7800.1336626349
 30
0.0
 11
6147.6648003047
 21
7799.5801646162
 31
0.0
  0
LINE
  5
41D
330
1F
100
AcDbEntity
  8
0
  6
Continuous
 62
     7
100
AcDbLine
 10
6161.4457396235
 20
7800.7638474378
 30
0.0
 11
6161.048330945
 21
7800.0759392642
 31
0.0
  0
LINE
  5
41E
330
1F
100
AcDbEntity
  8
0
  6
Continuous
 62
     7
100
AcDbLine
 10
6151.5650736359
 20
7800.7801646162
 30
0.0
 11
6150.665073647
 21
7800.7801646162
 31
0.0
  0
LINE
  5
41F
330
1F
100
AcDbEntity
  8
0
  6
Continuous
 62
     7
100
AcDbLine
 10
6152.4648003048
 20
7747.0201646162
 30
0.0
 11
6153.3648002938
 21
7747.0201646162
 31
0.0
  0
LINE
  5
420
330
1F
100
AcDbEntity
  8
0
  6
Continuous
 62
     7
100
AcDbLine
 10
6148.8648003048
 20
7747.0201646162
 30
0.0
 11
6149.7648002938
 21
7747.0201646162
 31
0.0
  0
LINE
  5
421
330
1F
100
AcDbEntity
  8
0
  6
Continuous
 62
     7
100
AcDbLine
 10
6147.6648003048
 20
7798.8601646162
 30
0.0
 11
6133.2648003048
 21
7798.8601646162
 31
0.0
  0
LINE
  5
422
330
1F
100
AcDbEntity
  8
0
  6
Continuous
 62
     7
100
AcDbLine
 10
6133.2648003048
 20
7748.9401646162
 30
0.0
 11
6147.2726790689
 21
7748.9401646162
 31
0.0
  0
LINE
  5
423
330
1F
100
AcDbEntity
  8
0
  6
Continuous
 62
     7
100
AcDbLine
 10
6162.0648003048
 20
7809.9001646162
 30
0.0
 11
6161.3448003048
 21
7809.9001646162
 31
0.0
  0
LINE
  5
424
330
1F
100
AcDbEntity
  8
0
  6
Continuous
 62
     7
100
AcDbLine
 10
6161.3448003048
 20
7737.9001646162
 30
0.0
 11
6162.0648003048
 21
7737.9001646162
 31
0.0
  0
LINE
  5
425
330
1F
100
AcDbEntity
  8
0
  6
Continuous
 62
     7
100
AcDbLine
 10
6155.0146781663
 20
7802.4274092274
 30
0.0
 11
6155.0146781663
 21
7804.5001646162
 31
0.0
  0
LINE
  5
426
330
1F
100
AcDbEntity
  8
0
  6
Continuous
 62
     7
100
AcDbLine
 10
6155.0146781663
 20
7771.8274092274
 30
0.0
 11
6155.0146781663
 21
7775.9729200052
 31
0.0
  0
LINE
  5
427
330
1F
100
AcDbEntity
  8
0
  6
Continuous
 62
     7
100
AcDbLine
 10
6155.0146781663
 20
7743.3001646162
 30
0.0
 11
6155.0146781663
 21
7745.3729200052
 31
0.0
  0
LINE
  5
428
330
1F
100
AcDbEntity
  8
0
  6
Continuous
 62
     7
100
AcDbLine
 10
6154.2894970099
 20
7743.3001646162
 30
0.0
 11
6155.0146781663
 21
7743.3001646162
 31
0.0
  0
LINE
  5
429
330
1F
100
AcDbEntity
  8
0
  6
Continuous
 62
     7
100
AcDbLine
 10
6154.1448003048
 20
7803.2340010907
 30
0.0
 11
6154.1448003048
 21
7744.5663281419
 31
0.0
  0
LINE
  5
42A
330
1F
100
AcDbEntity
  8
0
  6
Continuous
 62
     7
100
AcDbLine
 10
6160.4749224432
 20
7775.9729200052
 30
0.0
 11
6160.4749224432
 21
7771.8274092274
 31
0.0
  0
LINE
  5
42B
330
1F
100
AcDbEntity
  8
0
  6
Continuous
 62
     7
100
AcDbLine
 10
6155.0146781663
 20
7771.8274092274
 30
0.0
 11
6160.4749224432
 21
7771.8274092274
 31
0.0
  0
LINE
  5
42C
330
1F
100
AcDbEntity
  8
0
  6
Continuous
 62
     7
100
AcDbLine
 10
6160.4749224432
 20
7775.9729200052
 30
0.0
 11
6155.0146781663
 21
7775.9729200052
 31
0.0
  0
LINE
  5
42D
330
1F
100
AcDbEntity
  8
0
  6
Continuous
 62
     7
100
AcDbLine
 10
6160.4749224432
 20
7745.3729200052
 30
0.0
 11
6160.4749224432
 21
7743.3001646162
 31
0.0
  0
LINE
  5
42E
330
1F
100
AcDbEntity
  8
0
  6
Continuous
 62
     7
100
AcDbLine
 10
6160.4749224432
 20
7804.5001646162
 30
0.0
 11
6160.4749224432
 21
7802.4274092274
 31
0.0
  0
LINE
  5
42F
330
1F
100
AcDbEntity
  8
0
  6
Continuous
 62
     7
100
AcDbLine
 10
6161.2001035996
 20
7804.5001646162
 30
0.0
 11
6160.4749224432
 21
7804.5001646162
 31
0.0
  0
LINE
  5
430
330
1F
100
AcDbEntity
  8
0
  6
Continuous
 62
     7
100
AcDbLine
 10
6155.0146781663
 20
7802.4274092274
 30
0.0
 11
6160.4749224432
 21
7802.4274092274
 31
0.0
  0
LINE
  5
431
330
1F
100
AcDbEntity
  8
0
  6
Continuous
 62
     7
100
AcDbLine
 10
6160.4749224432
 20
7745.3729200052
 30
0.0
 11
6155.0146781663
 21
7745.3729200052
 31
0.0
  0
LINE
  5
432
330
1F
100
AcDbEntity
  8
0
  6
Continuous
 62
     7
100
AcDbLine
 10
6155.0146781663
 20
7743.3001646162
 30
0.0
 11
6160.4749224432
 21
7743.3001646162
 31
0.0
  0
LINE
  5
433
330
1F
100
AcDbEntity
  8
0
  6
Continuous
 62
     7
100
AcDbLine
 10
6160.4749224432
 20
7804.5001646162
 30
0.0
 11
6155.0146781663
 21
7804.5001646162
 31
0.0
  0
LINE
  5
434
330
1F
100
AcDbEntity
  8
0
  6
Continuous
 62
     7
100
AcDbLine
 10
6147.6648003047
 20
7757.7097547534
 30
0.0
 11
6147.6648003047
 21
7799.5801646162
 31
0.0
  0
LINE
  5
435
330
1F
100
AcDbEntity
  8
0
  6
Continuous
 62
     7
100
AcDbLine
 10
6148.8648003048
 20
7773.9001640743
 30
0.0
 11
6148.8648003048
 21
7747.0201646162
 31
0.0
  0
LINE
  5
436
330
1F
100
AcDbEntity
  8
0
  6
Continuous
 62
     7
100
AcDbLine
 10
6150.6555861673
 20
7800.7763241182
 30
0.0
 11
6150.6451525088
 21
7800.703796213
 31
0.0
  0
LINE
  5
437
330
1F
100
AcDbEntity
  8
0
  6
Continuous
 62
     7
100
AcDbLine
 10
6147.2185415827
 20
7759.2290865808
 30
0.0
 11
6146.7355667711
 21
7759.2290865808
 31
0.0
  0
LINE
  5
438
330
1F
100
AcDbEntity
  8
0
  6
Continuous
 62
     7
100
AcDbLine
 10
6133.2648003048
 20
7773.9001646162
 30
0.0
 11
6133.2648003048
 21
7798.8601646162
 31
0.0
  0
LINE
  5
439
330
1F
100
AcDbEntity
  8
0
  6
Continuous
 62
     7
100
AcDbLine
 10
6133.2648003048
 20
7748.9401646162
 30
0.0
 11
6133.2648003048
 21
7773.9001646162
 31
0.0
  0
LINE
  5
43A
330
1F
100
AcDbEntity
  8
0
  6
Continuous
 62
     7
100
AcDbLine
 10
6161.3448003048
 20
7737.9001646162
 30
0.0
 11
6161.3448003048
 21
7809.9001646162
 31
0.0
  0
LINE
  5
43B
330
1F
100
AcDbEntity
  8
0
  6
Continuous
 62
     7
100
AcDbLine
 10
6152.7102519374
 20
7798.8139927792
 30
0.0
 11
6152.0793979566
 21
7799.9058447763
 31
0.0
  0
LINE
  5
43C
330
1F
100
AcDbEntity
  8
0
  6
Continuous
 62
     7
100
AcDbLine
 10
6152.0793979566
 20
7799.9058447763
 30
0.0
 11
6151.5838590341
 21
7800.7638507381
 31
0.0
  0
LINE
  5
43D
330
1F
100
AcDbEntity
  8
0
  6
Continuous
 62
     7
100
AcDbLine
 10
6149.1099406581
 20
7798.8139927792
 30
0.0
 11
6148.6669007604
 21
7799.5811902567
 31
0.0
  0
LINE
  5
43E
330
1F
100
AcDbEntity
  8
0
  6
Continuous
 62
     7
100
AcDbLine
 10
6148.6669007604
 20
7799.5811902567
 30
0.0
 11
6148.3186774127
 21
7800.184082863
 31
0.0
  0
LINE
  5
43F
330
1F
100
AcDbEntity
  8
0
  6
Continuous
 62
     7
100
AcDbLine
 10
6160.9751750331
 20
7747.785583446
 30
0.0
 11
6161.410203328
 21
7748.5332128734
 31
0.0
  0
LINE
  5
440
330
1F
100
AcDbEntity
  8
0
  6
Continuous
 62
     7
100
AcDbLine
 10
6153.4243632655
 20
7747.1847603127
 30
0.0
 11
6154.0557312547
 21
7748.2637657867
 31
0.0
  0
LINE
  5
441
330
1F
100
AcDbEntity
  8
0
  6
Continuous
 62
     7
100
AcDbLine
 10
6154.0557312547
 20
7748.2637657867
 30
0.0
 11
6154.5518778698
 21
7749.1247152778
 31
0.0
  0
LINE
  5
442
330
1F
100
AcDbEntity
  8
0
  6
Continuous
 62
     7
100
AcDbLine
 10
6149.8240519862
 20
7747.1847603127
 30
0.0
 11
6150.4554981169
 21
7748.2619145987
 31
0.0
  0
LINE
  5
443
330
1F
100
AcDbEntity
  8
0
  6
Continuous
 62
     7
100
AcDbLine
 10
6150.4554981169
 20
7748.2619145987
 30
0.0
 11
6150.9518778698
 21
7749.1247152778
 31
0.0
  0
LINE
  5
444
330
1F
100
AcDbEntity
  8
0
  6
Continuous
 62
     7
100
AcDbLine
 10
6154.2437602382
 20
7800.7638474377
 30
0.0
 11
6153.6149579039
 21
7799.6718765253
 31
0.0
  0
LINE
  5
445
330
1F
100
AcDbEntity
  8
0
  6
Continuous
 62
     7
100
AcDbLine
 10
6153.6149579039
 20
7799.6718765253
 30
0.0
 11
6153.1192243603
 21
7798.8139902784
 31
0.0
  0
LINE
  5
446
330
1F
100
AcDbEntity
  8
0
  6
Continuous
 62
     7
100
AcDbLine
 10
6150.6457377772
 20
7800.7638474377
 30
0.0
 11
6150.0149799335
 21
7799.6718369943
 31
0.0
  0
LINE
  5
447
330
1F
100
AcDbEntity
  8
0
  6
Continuous
 62
     7
100
AcDbLine
 10
6150.0149799335
 20
7799.6718369943
 30
0.0
 11
6149.5192243603
 21
7798.8139902784
 31
0.0
  0
LINE
  5
448
330
1F
100
AcDbEntity
  8
0
  6
Continuous
 62
     7
100
AcDbLine
 10
6151.2774516445
 20
7749.1260074104
 30
0.0
 11
6151.9067762852
 21
7748.0510916918
 31
0.0
  0
LINE
  5
449
330
1F
100
AcDbEntity
  8
0
  6
Continuous
 62
     7
100
AcDbLine
 10
6151.9067762852
 20
7748.0510916918
 30
0.0
 11
6152.4031388779
 21
7747.1861455188
 31
0.0
  0
LINE
  5
44A
330
1F
100
AcDbEntity
  8
0
  6
Continuous
 62
     7
100
AcDbLine
 10
6147.6771403651
 20
7749.1260074104
 30
0.0
 11
6148.3066148029
 21
7748.0530140536
 31
0.0
  0
LINE
  5
44B
330
1F
100
AcDbEntity
  8
0
  6
Continuous
 62
     7
100
AcDbLine
 10
6148.3066148029
 20
7748.0530140536
 30
0.0
 11
6148.8031388779
 21
7747.1861455188
 31
0.0
  0
LINE
  5
44C
330
1F
100
AcDbEntity
  8
0
  6
Continuous
 62
     7
100
AcDbLine
 10
6150.8883525233
 20
7748.9687217843
 30
0.0
 11
6151.1412314885
 21
7748.9690050067
 31
0.0
  0
LINE
  5
44D
330
1F
100
AcDbEntity
  8
0
  6
Continuous
 62
     7
100
AcDbLine
 10
6151.1412314885
 20
7748.9690050067
 30
0.0
 11
6151.3398002993
 21
7748.9687217843
 31
0.0
  0
LINE
  5
44E
330
1F
100
AcDbEntity
  8
0
  6
Continuous
 62
     7
100
AcDbLine
 10
6147.2880412441
 20
7748.9687217843
 30
0.0
 11
6147.5409637892
 21
7748.9691073172
 31
0.0
  0
LINE
  5
44F
330
1F
100
AcDbEntity
  8
0
  6
Continuous
 62
     7
100
AcDbLine
 10
6147.5409637892
 20
7748.9691073172
 30
0.0
 11
6147.7398002993
 21
7748.9687217843
 31
0.0
  0
LINE
  5
450
330
1F
100
AcDbEntity
  8
0
  6
Continuous
 62
     7
100
AcDbLine
 10
6153.1382609706
 20
7798.8316074476
 30
0.0
 11
6152.8932763976
 21
7798.8314086031
 31
0.0
  0
LINE
  5
451
330
1F
100
AcDbEntity
  8
0
  6
Continuous
 62
     7
100
AcDbLine
 10
6152.8932763976
 20
7798.8314086031
 30
0.0
 11
6152.7002003908
 21
7798.8315980265
 31
0.0
  0
LINE
  5
452
330
1F
100
AcDbEntity
  8
0
  6
Continuous
 62
     7
100
AcDbLine
 10
6149.5379496913
 20
7798.8316074476
 30
0.0
 11
6149.2930654573
 21
7798.8313212137
 31
0.0
  0
LINE
  5
453
330
1F
100
AcDbEntity
  8
0
  6
Continuous
 62
     7
100
AcDbLine
 10
6149.2930654573
 20
7798.8313212137
 30
0.0
 11
6149.100201718
 21
7798.8315938594
 31
0.0
  0
LINE
  5
454
330
1F
100
AcDbEntity
  8
0
  6
Continuous
 62
     7
100
AcDbLine
 10
6155.012803207
 20
7804.5001646162
 30
0.0
 11
6154.2175456102
 21
7804.5001646162
 31
0.0
  0
LINE
  5
455
330
1F
100
AcDbEntity
  8
0
  6
Continuous
 62
     7
100
AcDbLine
 10
6155.012803207
 20
7775.9729200052
 30
0.0
 11
6154.3040727603
 21
7790.7872672489
 31
0.0
  0
LINE
  5
456
330
1F
100
AcDbEntity
  8
0
  6
Continuous
 62
     7
100
AcDbLine
 10
6154.3040727603
 20
7790.7872672489
 30
0.0
 11
6155.0146781663
 21
7802.4274092274
 31
0.0
  0
LINE
  5
457
330
1F
100
AcDbEntity
  8
0
  6
Continuous
 62
     7
100
AcDbLine
 10
6155.012803207
 20
7745.3729200052
 30
0.0
 11
6154.3040727603
 21
7760.1872672489
 31
0.0
  0
LINE
  5
458
330
1F
100
AcDbEntity
  8
0
  6
Continuous
 62
     7
100
AcDbLine
 10
6154.3040727603
 20
7760.1872672489
 30
0.0
 11
6155.0146781663
 21
7771.8274092274
 31
0.0
  0
LINE
  5
459
330
1F
100
AcDbEntity
  8
0
  6
Continuous
 62
     7
100
AcDbLine
 10
6160.4739238124
 20
7743.3001646162
 30
0.0
 11
6161.2720549993
 21
7743.3001646162
 31
0.0
  0
LINE
  5
45A
330
1F
100
AcDbEntity
  8
0
  6
Continuous
 62
     7
100
AcDbLine
 10
6160.4739238124
 20
7771.8274092274
 30
0.0
 11
6161.1855278492
 21
7757.0130619837
 31
0.0
  0
LINE
  5
45B
330
1F
100
AcDbEntity
  8
0
  6
Continuous
 62
     7
100
AcDbLine
 10
6161.1855278492
 20
7757.0130619837
 30
0.0
 11
6160.4749224432
 21
7745.3729200052
 31
0.0
  0
LINE
  5
45C
330
1F
100
AcDbEntity
  8
0
  6
Continuous
 62
     7
100
AcDbLine
 10
6160.4739238124
 20
7802.4274092274
 30
0.0
 11
6161.1855278492
 21
7787.6130619837
 31
0.0
  0
LINE
  5
45D
330
1F
100
AcDbEntity
  8
0
  6
Continuous
 62
     7
100
AcDbLine
 10
6161.1855278492
 20
7787.6130619837
 30
0.0
 11
6160.4749224432
 21
7775.9729200052
 31
0.0
  0
LINE
  5
45E
330
1F
100
AcDbEntity
  8
0
  6
Continuous
 62
     7
100
AcDbLine
 10
6147.663407455
 20
7757.7097547534
 30
0.0
 11
6148.3418425487
 21
7749.4686468011
 31
0.0
  0
LINE
  5
45F
330
1F
100
AcDbEntity
  8
0
  6
Continuous
 62
     7
100
AcDbLine
 10
6148.3418425487
 20
7749.4686468011
 30
0.0
 11
6148.8648003048
 21
7747.0201646162
 31
0.0
  0
LINE
  5
460
330
1F
100
AcDbEntity
  8
0
  6
Continuous
 62
     7
100
AcDbLine
 10
6148.8627482753
 20
7773.9001640743
 30
0.0
 11
6148.4379758353
 21
7798.2899648564
 31
0.0
  0
LINE
  5
461
330
1F
100
AcDbEntity
  8
0
  6
Continuous
 62
     7
100
AcDbLine
 10
6148.4379758353
 20
7798.2899648564
 30
0.0
 11
6148.329440452
 21
7800.2729003989
 31
0.0
  0
LINE
  5
462
330
1F
100
AcDbEntity
  8
0
  6
Continuous
 62
     7
100
AcDbLine
 10
6148.329440452
 20
7800.2729003989
 30
0.0
 11
6148.3271979907
 21
7800.2757041851
 31
0.0
  0
LINE
  5
463
330
1F
100
AcDbEntity
  8
0
  6
Continuous
 62
     7
100
AcDbLine
 10
6148.3271979907
 20
7800.2757041851
 30
0.0
 11
6148.324956406
 21
7800.276364979
 31
0.0
  0
LINE
  5
464
330
1F
100
AcDbEntity
  8
0
  6
Continuous
 62
     7
100
AcDbLine
 10
6148.324956406
 20
7800.276364979
 30
0.0
 11
6148.3204758931
 21
7800.271120444
 31
0.0
  0
LINE
  5
465
330
1F
100
AcDbEntity
  8
0
  6
Continuous
 62
     7
100
AcDbLine
 10
6148.3204758931
 20
7800.271120444
 30
0.0
 11
6148.2936638389
 21
7800.0582971195
 31
0.0
  0
LINE
  5
466
330
1F
100
AcDbEntity
  8
0
  6
Continuous
 62
     7
100
AcDbLine
 10
6146.7341472011
 20
7759.2290865808
 30
0.0
 11
6147.1403859732
 21
7749.6361824011
 31
0.0
  0
LINE
  5
467
330
1F
100
AcDbEntity
  8
0
  6
Continuous
 62
     7
100
AcDbLine
 10
6147.1403859732
 20
7749.6361824011
 30
0.0
 11
6147.2070765602
 21
7749.3257248544
 31
0.0
  0
LINE
  5
468
330
1F
100
AcDbEntity
  8
0
  6
Continuous
 62
     7
100
AcDbLine
 10
6147.2070765602
 20
7749.3257248544
 30
0.0
 11
6147.2726790689
 21
7749.2594282116
 31
0.0
  0
LINE
  5
469
330
1F
100
AcDbEntity
  8
0
  6
Continuous
 62
     7
100
AcDbLine
 10
6154.1430522304
 20
7753.4587300941
 30
0.0
 11
6153.6566110079
 21
7770.937671941
 31
0.0
  0
LINE
  5
46A
330
1F
100
AcDbEntity
  8
0
  6
Continuous
 62
     7
100
AcDbLine
 10
6153.6566110079
 20
7770.937671941
 30
0.0
 11
6153.3415059092
 21
7784.3415540484
 31
0.0
  0
LINE
  5
46B
330
1F
100
AcDbEntity
  8
0
  6
Continuous
 62
     7
100
AcDbLine
 10
6153.3415059092
 20
7784.3415540484
 30
0.0
 11
6153.028277779
 21
7794.6428465615
 31
0.0
  0
LINE
  5
46C
330
1F
100
AcDbEntity
  8
0
  6
Continuous
 62
     7
100
AcDbLine
 10
6153.028277779
 20
7794.6428465615
 30
0.0
 11
6152.7105556346
 21
7798.6781447457
 31
0.0
  0
LINE
  5
46D
330
1F
100
AcDbEntity
  8
0
  6
Continuous
 62
     7
100
AcDbLine
 10
6150.8883525233
 20
7748.9687217843
 30
0.0
 11
6150.2865097743
 21
7761.6217468201
 31
0.0
  0
LINE
  5
46E
330
1F
100
AcDbEntity
  8
0
  6
Continuous
 62
     7
100
AcDbLine
 10
6150.2865097743
 20
7761.6217468201
 30
0.0
 11
6149.8952015558
 21
7778.0753808676
 31
0.0
  0
LINE
  5
46F
330
1F
100
AcDbEntity
  8
0
  6
Continuous
 62
     7
100
AcDbLine
 10
6149.8952015558
 20
7778.0753808676
 30
0.0
 11
6149.5029719377
 21
7792.6507507627
 31
0.0
  0
LINE
  5
470
330
1F
100
AcDbEntity
  8
0
  6
Continuous
 62
     7
100
AcDbLine
 10
6149.5029719377
 20
7792.6507507627
 30
0.0
 11
6149.110492166
 21
7798.6784622018
 31
0.0
  0
LINE
  5
471
330
1F
100
AcDbEntity
  8
0
  6
Continuous
 62
     7
100
AcDbLine
 10
6153.4266520839
 20
7747.3803109657
 30
0.0
 11
6153.3626266679
 21
7747.0146347102
 31
0.0
  0
LINE
  5
472
330
1F
100
AcDbEntity
  8
0
  6
Continuous
 62
     7
100
AcDbLine
 10
6153.3626266679
 20
7747.0146347102
 30
0.0
 11
6153.3519057427
 21
7746.99743842
 31
0.0
  0
LINE
  5
473
330
1F
100
AcDbEntity
  8
0
  6
Continuous
 62
     7
100
AcDbLine
 10
6153.3519057427
 20
7746.99743842
 30
0.0
 11
6153.3465495226
 21
7746.9949913119
 31
0.0
  0
LINE
  5
474
330
1F
100
AcDbEntity
  8
0
  6
Continuous
 62
     7
100
AcDbLine
 10
6153.3465495226
 20
7746.9949913119
 30
0.0
 11
6153.3411951918
 21
7746.9965286019
 31
0.0
  0
LINE
  5
475
330
1F
100
AcDbEntity
  8
0
  6
Continuous
 62
     7
100
AcDbLine
 10
6153.3411951918
 20
7746.9965286019
 30
0.0
 11
6153.3126415893
 21
7747.0684187563
 31
0.0
  0
LINE
  5
476
330
1F
100
AcDbEntity
  8
0
  6
Continuous
 62
     7
100
AcDbLine
 10
6153.3126415893
 20
7747.0684187563
 30
0.0
 11
6152.9612474966
 21
7753.3826890393
 31
0.0
  0
LINE
  5
477
330
1F
100
AcDbEntity
  8
0
  6
Continuous
 62
     7
100
AcDbLine
 10
6152.9612474966
 20
7753.3826890393
 30
0.0
 11
6151.5650736359
 21
7800.7251610486
 31
0.0
  0
LINE
  5
478
330
1F
100
AcDbEntity
  8
0
  6
Continuous
 62
     7
100
AcDbLine
 10
6149.8263408046
 20
7747.3799173976
 30
0.0
 11
6149.7677730376
 21
7747.0288570847
 31
0.0
  0
LINE
  5
479
330
1F
100
AcDbEntity
  8
0
  6
Continuous
 62
     7
100
AcDbLine
 10
6149.7677730376
 20
7747.0288570847
 30
0.0
 11
6149.7566817479
 21
7747.0030317607
 31
0.0
  0
LINE
  5
47A
330
1F
100
AcDbEntity
  8
0
  6
Continuous
 62
     7
100
AcDbLine
 10
6149.7566817479
 20
7747.0030317607
 30
0.0
 11
6149.751141646
 21
7746.9968163175
 31
0.0
  0
LINE
  5
47B
330
1F
100
AcDbEntity
  8
0
  6
Continuous
 62
     7
100
AcDbLine
 10
6149.751141646
 20
7746.9968163175
 30
0.0
 11
6149.7456042113
 21
7746.9949413718
 31
0.0
  0
LINE
  5
47C
330
1F
100
AcDbEntity
  8
0
  6
Continuous
 62
     7
100
AcDbLine
 10
6149.7456042113
 20
7746.9949413718
 30
0.0
 11
6149.7345342288
 21
7747.0038270821
 31
0.0
  0
LINE
  5
47D
330
1F
100
AcDbEntity
  8
0
  6
Continuous
 62
     7
100
AcDbLine
 10
6149.7345342288
 20
7747.0038270821
 30
0.0
 11
6149.7234655708
 21
7747.0289171092
 31
0.0
  0
LINE
  5
47E
330
1F
100
AcDbEntity
  8
0
  6
Continuous
 62
     7
100
AcDbLine
 10
6149.7234655708
 20
7747.0289171092
 30
0.0
 11
6149.5885156298
 21
7748.3151715162
 31
0.0
  0
LINE
  5
47F
330
1F
100
AcDbEntity
  8
0
  6
Continuous
 62
     7
100
AcDbLine
 10
6149.5885156298
 20
7748.3151715162
 30
0.0
 11
6148.8648003048
 21
7773.9001640743
 31
0.0
  0
LINE
  5
480
330
1F
100
AcDbEntity
  8
0
  6
Continuous
 62
     7
100
AcDbLine
 10
6152.3989726405
 20
7747.4128140277
 30
0.0
 11
6151.8109023563
 21
7762.7316553281
 31
0.0
  0
LINE
  5
481
330
1F
100
AcDbEntity
  8
0
  6
Continuous
 62
     7
100
AcDbLine
 10
6151.8109023563
 20
7762.7316553281
 30
0.0
 11
6151.4303176901
 21
7780.2355905403
 31
0.0
  0
LINE
  5
482
330
1F
100
AcDbEntity
  8
0
  6
Continuous
 62
     7
100
AcDbLine
 10
6151.4303176901
 20
7780.2355905403
 30
0.0
 11
6151.0481414517
 21
7795.0229506573
 31
0.0
  0
LINE
  5
483
330
1F
100
AcDbEntity
  8
0
  6
Continuous
 62
     7
100
AcDbLine
 10
6151.0481414517
 20
7795.0229506573
 30
0.0
 11
6150.665073647
 21
7800.7251609878
 31
0.0
  0
LINE
  5
484
330
1F
100
AcDbEntity
  8
0
  6
Continuous
 62
     7
100
AcDbLine
 10
6154.1430522304
 20
7769.3247318181
 30
0.0
 11
6153.5828887365
 21
7791.7516519903
 31
0.0
  0
LINE
  5
485
330
1F
100
AcDbEntity
  8
0
  6
Continuous
 62
     7
100
AcDbLine
 10
6153.5828887365
 20
7791.7516519903
 30
0.0
 11
6153.1400443084
 21
7798.7807378041
 31
0.0
  0
LINE
  5
486
330
1F
100
AcDbEntity
  8
0
  6
Continuous
 62
     7
100
AcDbLine
 10
6151.2751628261
 20
7749.3342115208
 30
0.0
 11
6150.6857316297
 21
7763.5478485867
 31
0.0
  0
LINE
  5
487
330
1F
100
AcDbEntity
  8
0
  6
Continuous
 62
     7
100
AcDbLine
 10
6150.6857316297
 20
7763.5478485867
 30
0.0
 11
6150.305192284
 21
7779.7815988425
 31
0.0
  0
LINE
  5
488
330
1F
100
AcDbEntity
  8
0
  6
Continuous
 62
     7
100
AcDbLine
 10
6150.305192284
 20
7779.7815988425
 30
0.0
 11
6149.9230595065
 21
7793.4939700736
 31
0.0
  0
LINE
  5
489
330
1F
100
AcDbEntity
  8
0
  6
Continuous
 62
     7
100
AcDbLine
 10
6149.9230595065
 20
7793.4939700736
 30
0.0
 11
6149.5400328708
 21
7798.7807950123
 31
0.0
  0
LINE
  5
48A
330
1F
100
AcDbEntity
  8
0
  6
Continuous
 62
     7
100
AcDbLine
 10
6147.6748515468
 20
7749.3344885461
 30
0.0
 11
6147.4069205141
 21
7753.0205264292
 31
0.0
  0
LINE
  5
48B
330
1F
100
AcDbEntity
  8
0
  6
Continuous
 62
     7
100
AcDbLine
 10
6147.4069205141
 20
7753.0205264292
 30
0.0
 11
6147.2020540941
 21
7759.245872015
 31
0.0
  0
LINE
  5
48C
330
1F
100
AcDbEntity
  8
0
  6
Continuous
 62
     7
100
AcDbLine
 10
6147.663407455
 20
7749.2735309226
 30
0.0
 11
6147.4104769274
 21
7753.2968437178
 31
0.0
  0
LINE
  5
48D
330
1F
100
AcDbEntity
  8
0
  6
Continuous
 62
     7
100
AcDbLine
 10
6147.4104769274
 20
7753.2968437178
 30
0.0
 11
6147.2185415827
 21
7759.2290865808
 31
0.0
  0
LINE
  5
48E
330
1F
100
AcDbEntity
  8
0
  6
Continuous
 62
     7
100
AcDbLine
 10
6147.663407455
 20
7749.2735309226
 30
0.0
 11
6147.6648003047
 21
7752.5406364827
 31
0.0
  0
LINE
  5
48F
330
1F
100
AcDbEntity
  8
0
  6
Continuous
 62
     7
100
AcDbLine
 10
6147.6648003047
 20
7752.5406364827
 30
0.0
 11
6147.6648003047
 21
7757.7097547534
 31
0.0
  0
LINE
  5
490
330
1F
100
AcDbEntity
  8
0
  6
Continuous
 62
     7
100
AcDbLine
 10
5779.565337976
 20
7430.828582591
 30
0.0
 11
5779.565337976
 21
7425.3683383141
 31
0.0
  0
LINE
  5
491
330
1F
100
AcDbEntity
  8
0
  6
Continuous
 62
     7
100
AcDbLine
 10
5847.965337976
 20
7425.3683383141
 30
0.0
 11
5847.965337976
 21
7430.828582591
 31
0.0
  0
LINE
  5
492
330
1F
100
AcDbEntity
  8
0
  6
Continuous
 62
     7
100
AcDbLine
 10
5788.085337976
 20
7438.1784604525
 30
0.0
 11
5786.885337976
 21
7436.9784604525
 31
0.0
  0
LINE
  5
493
330
1F
100
AcDbEntity
  8
0
  6
Continuous
 62
     7
100
AcDbLine
 10
5838.679164018
 20
7437.6328847426
 30
0.0
 11
5839.2533144874
 21
7437.9647313847
 31
0.0
  0
LINE
  5
494
330
1F
100
AcDbEntity
  8
0
  6
Continuous
 62
     7
100
AcDbLine
 10
5840.645337976
 20
7435.1780940001
 30
0.0
 11
5840.645337976
 21
7436.0780939888
 31
0.0
  0
LINE
  5
495
330
1F
100
AcDbEntity
  8
0
  6
Continuous
 62
     7
100
AcDbLine
 10
5840.645337976
 20
7431.6984604525
 30
0.0
 11
5840.645337976
 21
7432.4780939888
 31
0.0
  0
LINE
  5
496
330
1F
100
AcDbEntity
  8
0
  6
Continuous
 62
     7
100
AcDbLine
 10
5786.885337976
 20
7434.2783086332
 30
0.0
 11
5786.885337976
 21
7433.3783086443
 31
0.0
  0
LINE
  5
497
330
1F
100
AcDbEntity
  8
0
  6
Continuous
 62
     7
100
AcDbLine
 10
5838.725337976
 20
7438.1784604525
 30
0.0
 11
5838.725337976
 21
7452.5784604525
 31
0.0
  0
LINE
  5
498
330
1F
100
AcDbEntity
  8
0
  6
Continuous
 62
     7
100
AcDbLine
 10
5788.805337976
 20
7452.5784604525
 30
0.0
 11
5788.805337976
 21
7438.1784604525
 31
0.0
  0
LINE
  5
499
330
1F
100
AcDbEntity
  8
0
  6
Continuous
 62
     7
100
AcDbLine
 10
5849.765337976
 20
7423.7784604525
 30
0.0
 11
5849.765337976
 21
7424.4984604525
 31
0.0
  0
LINE
  5
49A
330
1F
100
AcDbEntity
  8
0
  6
Continuous
 62
     7
100
AcDbLine
 10
5777.765337976
 20
7424.4984604525
 30
0.0
 11
5777.765337976
 21
7423.7784604525
 31
0.0
  0
LINE
  5
49B
330
1F
100
AcDbEntity
  8
0
  6
Continuous
 62
     7
100
AcDbLine
 10
5798.4918315023
 20
7425.3683383141
 30
0.0
 11
5798.4918315023
 21
7430.828582591
 31
0.0
  0
LINE
  5
49C
330
1F
100
AcDbEntity
  8
0
  6
Continuous
 62
     7
100
AcDbLine
 10
5829.0388444496
 20
7430.828582591
 30
0.0
 11
5829.0388444496
 21
7425.3683383141
 31
0.0
  0
LINE
  5
49D
330
1F
100
AcDbEntity
  8
0
  6
Continuous
 62
     7
100
AcDbLine
 10
5798.4918315023
 20
7425.3683383141
 30
0.0
 11
5794.9017138569
 21
7425.3683383141
 31
0.0
  0
LINE
  5
49E
330
1F
100
AcDbEntity
  8
0
  6
Continuous
 62
     7
100
AcDbLine
 10
5794.9017138569
 20
7430.828582591
 30
0.0
 11
5794.9017138569
 21
7425.3683383141
 31
0.0
  0
LINE
  5
49F
330
1F
100
AcDbEntity
  8
0
  6
Continuous
 62
     7
100
AcDbLine
 10
5794.9017138569
 20
7430.828582591
 30
0.0
 11
5798.4918315023
 21
7430.828582591
 31
0.0
  0
LINE
  5
4A0
330
1F
100
AcDbEntity
  8
0
  6
Continuous
 62
     7
100
AcDbLine
 10
5847.9024685685
 20
7430.828582591
 30
0.0
 11
5847.965337976
 21
7430.828582591
 31
0.0
  0
LINE
  5
4A1
330
1F
100
AcDbEntity
  8
0
  6
Continuous
 62
     7
100
AcDbLine
 10
5829.0388444496
 20
7430.828582591
 30
0.0
 11
5832.628962095
 21
7430.828582591
 31
0.0
  0
LINE
  5
4A2
330
1F
100
AcDbEntity
  8
0
  6
Continuous
 62
     7
100
AcDbLine
 10
5779.565337976
 20
7430.828582591
 30
0.0
 11
5779.6282073834
 21
7430.828582591
 31
0.0
  0
LINE
  5
4A3
330
1F
100
AcDbEntity
  8
0
  6
Continuous
 62
     7
100
AcDbLine
 10
5843.0991744503
 20
7431.6984604525
 30
0.0
 11
5784.4315015016
 21
7431.6984604525
 31
0.0
  0
LINE
  5
4A4
330
1F
100
AcDbEntity
  8
0
  6
Continuous
 62
     7
100
AcDbLine
 10
5832.628962095
 20
7425.3683383141
 30
0.0
 11
5829.0388444496
 21
7425.3683383141
 31
0.0
  0
LINE
  5
4A5
330
1F
100
AcDbEntity
  8
0
  6
Continuous
 62
     7
100
AcDbLine
 10
5847.965337976
 20
7425.3683383141
 30
0.0
 11
5847.9024685685
 21
7425.3683383141
 31
0.0
  0
LINE
  5
4A6
330
1F
100
AcDbEntity
  8
0
  6
Continuous
 62
     7
100
AcDbLine
 10
5779.6282073834
 20
7425.3683383141
 30
0.0
 11
5779.565337976
 21
7425.3683383141
 31
0.0
  0
LINE
  5
4A7
330
1F
100
AcDbEntity
  8
0
  6
Continuous
 62
     7
100
AcDbLine
 10
5832.628962095
 20
7425.3683383141
 30
0.0
 11
5832.628962095
 21
7430.828582591
 31
0.0
  0
LINE
  5
4A8
330
1F
100
AcDbEntity
  8
0
  6
Continuous
 62
     7
100
AcDbLine
 10
5779.6282073834
 20
7425.3683383141
 30
0.0
 11
5779.6282073834
 21
7430.828582591
 31
0.0
  0
LINE
  5
4A9
330
1F
100
AcDbEntity
  8
0
  6
Continuous
 62
     7
100
AcDbLine
 10
5847.9024685685
 20
7430.828582591
 30
0.0
 11
5847.9024685685
 21
7425.3683383141
 31
0.0
  0
LINE
  5
4AA
330
1F
100
AcDbEntity
  8
0
  6
Continuous
 62
     7
100
AcDbLine
 10
5788.085337976
 20
7438.1784604525
 30
0.0
 11
5839.445337976
 21
7438.1784604525
 31
0.0
  0
LINE
  5
4AB
330
1F
100
AcDbEntity
  8
0
  6
Continuous
 62
     7
100
AcDbLine
 10
5787.0028969872
 20
7436.9587973826
 30
0.0
 11
5786.885337976
 21
7436.9784604525
 31
0.0
  0
LINE
  5
4AC
330
1F
100
AcDbEntity
  8
0
  6
Continuous
 62
     7
100
AcDbLine
 10
5788.805337976
 20
7452.5784604525
 30
0.0
 11
5838.725337976
 21
7452.5784604525
 31
0.0
  0
LINE
  5
4AD
330
1F
100
AcDbEntity
  8
0
  6
Continuous
 62
     7
100
AcDbLine
 10
5777.765337976
 20
7424.4984604525
 30
0.0
 11
5849.765337976
 21
7424.4984604525
 31
0.0
  0
LINE
  5
4AE
330
1F
100
AcDbEntity
  8
0
  6
Continuous
 62
     7
100
AcDbLine
 10
5838.6783724517
 20
7434.0328847426
 30
0.0
 11
5839.7710160356
 21
7434.6638614484
 31
0.0
  0
LINE
  5
4AF
330
1F
100
AcDbEntity
  8
0
  6
Continuous
 62
     7
100
AcDbLine
 10
5839.7710160356
 20
7434.6638614484
 30
0.0
 11
5840.6290223505
 21
7435.1594006956
 31
0.0
  0
LINE
  5
4B0
330
1F
100
AcDbEntity
  8
0
  6
Continuous
 62
     7
100
AcDbLine
 10
5786.9007235259
 20
7433.3594027444
 30
0.0
 11
5787.9837802615
 21
7432.7343781237
 31
0.0
  0
LINE
  5
4B1
330
1F
100
AcDbEntity
  8
0
  6
Continuous
 62
     7
100
AcDbLine
 10
5787.9837802615
 20
7432.7343781237
 30
0.0
 11
5788.8339045452
 21
7432.2430604024
 31
0.0
  0
LINE
  5
4B2
330
1F
100
AcDbEntity
  8
0
  6
Continuous
 62
     7
100
AcDbLine
 10
5786.9007235259
 20
7436.9594027444
 30
0.0
 11
5787.9837918957
 21
7436.3344305212
 31
0.0
  0
LINE
  5
4B3
330
1F
100
AcDbEntity
  8
0
  6
Continuous
 62
     7
100
AcDbLine
 10
5787.9837918957
 20
7436.3344305212
 30
0.0
 11
5788.8339087079
 21
7435.8430590781
 31
0.0
  0
LINE
  5
4B4
330
1F
100
AcDbEntity
  8
0
  6
Continuous
 62
     7
100
AcDbLine
 10
5840.6284456939
 20
7432.4975231264
 30
0.0
 11
5839.5469088458
 21
7433.1226065227
 31
0.0
  0
LINE
  5
4B5
330
1F
100
AcDbEntity
  8
0
  6
Continuous
 62
     7
100
AcDbLine
 10
5839.5469088458
 20
7433.1226065227
 30
0.0
 11
5838.6967715568
 21
7433.6138618043
 31
0.0
  0
LINE
  5
4B6
330
1F
100
AcDbEntity
  8
0
  6
Continuous
 62
     7
100
AcDbLine
 10
5840.6284456939
 20
7436.0975231264
 30
0.0
 11
5839.5468672994
 21
7436.7225855162
 31
0.0
  0
LINE
  5
4B7
330
1F
100
AcDbEntity
  8
0
  6
Continuous
 62
     7
100
AcDbLine
 10
5839.5468672994
 20
7436.7225855162
 30
0.0
 11
5838.6967675214
 21
7437.2138633028
 31
0.0
  0
LINE
  5
4B8
330
1F
100
AcDbEntity
  8
0
  6
Continuous
 62
     7
100
AcDbLine
 10
5788.8507967681
 20
7431.8240344214
 30
0.0
 11
5788.1466960612
 21
7431.4167370782
 31
0.0
  0
LINE
  5
4B9
330
1F
100
AcDbEntity
  8
0
  6
Continuous
 62
     7
100
AcDbLine
 10
5788.1466960612
 20
7431.4167370782
 30
0.0
 11
5787.592859791
 21
7431.0967901573
 31
0.0
  0
LINE
  5
4BA
330
1F
100
AcDbEntity
  8
0
  6
Continuous
 62
     7
100
AcDbLine
 10
5788.8507967681
 20
7435.4240344214
 30
0.0
 11
5787.7596787946
 21
7434.7930970737
 31
0.0
  0
LINE
  5
4BB
330
1F
100
AcDbEntity
  8
0
  6
Continuous
 62
     7
100
AcDbLine
 10
5787.7596787946
 20
7434.7930970737
 30
0.0
 11
5786.901651771
 21
7434.297519144
 31
0.0
  0
LINE
  5
4BC
330
1F
100
AcDbEntity
  8
0
  6
Continuous
 62
     7
100
AcDbLine
 10
5838.6966829986
 20
7433.6034667229
 30
0.0
 11
5838.6965815827
 21
7433.8499852561
 31
0.0
  0
LINE
  5
4BD
330
1F
100
AcDbEntity
  8
0
  6
Continuous
 62
     7
100
AcDbLine
 10
5838.6965815827
 20
7433.8499852561
 30
0.0
 11
5838.6967713654
 21
7434.0430603303
 31
0.0
  0
LINE
  5
4BE
330
1F
100
AcDbEntity
  8
0
  6
Continuous
 62
     7
100
AcDbLine
 10
5838.6966829986
 20
7437.2034667229
 30
0.0
 11
5838.6964941173
 21
7437.4501961945
 31
0.0
  0
LINE
  5
4BF
330
1F
100
AcDbEntity
  8
0
  6
Continuous
 62
     7
100
AcDbLine
 10
5838.6964941173
 20
7437.4501961945
 30
0.0
 11
5838.6967671937
 21
7437.6430590002
 31
0.0
  0
LINE
  5
4C0
330
1F
100
AcDbEntity
  8
0
  6
Continuous
 62
     7
100
AcDbLine
 10
5788.8336306304
 20
7432.2534625506
 30
0.0
 11
5788.8340932515
 21
7432.0076317446
 31
0.0
  0
LINE
  5
4C1
330
1F
100
AcDbEntity
  8
0
  6
Continuous
 62
     7
100
AcDbLine
 10
5788.8340932515
 20
7432.0076317446
 30
0.0
 11
5788.8339043619
 21
7431.8138617229
 31
0.0
  0
LINE
  5
4C2
330
1F
100
AcDbEntity
  8
0
  6
Continuous
 62
     7
100
AcDbLine
 10
5788.8336306304
 20
7435.8534625506
 30
0.0
 11
5788.8341803442
 21
7435.6078439191
 31
0.0
  0
LINE
  5
4C3
330
1F
100
AcDbEntity
  8
0
  6
Continuous
 62
     7
100
AcDbLine
 10
5788.8341803442
 20
7435.6078439191
 30
0.0
 11
5788.8339083921
 21
7435.4138632202
 31
0.0
  0
LINE
  5
4C4
330
1F
100
AcDbEntity
  8
0
  6
Continuous
 62
     7
100
AcDbLine
 10
5829.037869522
 20
7425.3683383141
 30
0.0
 11
5811.9323985066
 21
7424.6780465793
 31
0.0
  0
LINE
  5
4C5
330
1F
100
AcDbEntity
  8
0
  6
Continuous
 62
     7
100
AcDbLine
 10
5811.9323985066
 20
7424.6780465793
 30
0.0
 11
5798.4918315023
 21
7425.3683383141
 31
0.0
  0
LINE
  5
4C6
330
1F
100
AcDbEntity
  8
0
  6
Continuous
 62
     7
100
AcDbLine
 10
5798.4912996978
 20
7430.828582591
 30
0.0
 11
5815.5982774452
 21
7431.5188743258
 31
0.0
  0
LINE
  5
4C7
330
1F
100
AcDbEntity
  8
0
  6
Continuous
 62
     7
100
AcDbLine
 10
5815.5982774452
 20
7431.5188743258
 30
0.0
 11
5829.0388444496
 21
7430.828582591
 31
0.0
  0
LINE
  5
4C8
330
1F
100
AcDbEntity
  8
0
  6
Continuous
 62
     7
100
AcDbLine
 10
5832.6278811187
 20
7430.828582591
 30
0.0
 11
5841.1820294639
 21
7431.539187997
 31
0.0
  0
LINE
  5
4C9
330
1F
100
AcDbEntity
  8
0
  6
Continuous
 62
     7
100
AcDbLine
 10
5841.1820294639
 20
7431.539187997
 30
0.0
 11
5847.9024685685
 21
7430.828582591
 31
0.0
  0
LINE
  5
4CA
330
1F
100
AcDbEntity
  8
0
  6
Continuous
 62
     7
100
AcDbLine
 10
5779.6282073834
 20
7430.828582591
 30
0.0
 11
5788.1812747523
 21
7431.539187997
 31
0.0
  0
LINE
  5
4CB
330
1F
100
AcDbEntity
  8
0
  6
Continuous
 62
     7
100
AcDbLine
 10
5788.1812747523
 20
7431.539187997
 30
0.0
 11
5794.9017138569
 21
7430.828582591
 31
0.0
  0
LINE
  5
4CC
330
1F
100
AcDbEntity
  8
0
  6
Continuous
 62
     7
100
AcDbLine
 10
5847.9024685685
 20
7425.3683383141
 30
0.0
 11
5839.3494011996
 21
7424.6577329081
 31
0.0
  0
LINE
  5
4CD
330
1F
100
AcDbEntity
  8
0
  6
Continuous
 62
     7
100
AcDbLine
 10
5839.3494011996
 20
7424.6577329081
 30
0.0
 11
5832.628962095
 21
7425.3683383141
 31
0.0
  0
LINE
  5
4CE
330
1F
100
AcDbEntity
  8
0
  6
Continuous
 62
     7
100
AcDbLine
 10
5794.9012881011
 20
7425.3683383141
 30
0.0
 11
5786.348646488
 21
7424.6577329081
 31
0.0
  0
LINE
  5
4CF
330
1F
100
AcDbEntity
  8
0
  6
Continuous
 62
     7
100
AcDbLine
 10
5786.348646488
 20
7424.6577329081
 30
0.0
 11
5779.6282073834
 21
7425.3683383141
 31
0.0
  0
LINE
  5
4D0
330
1F
100
AcDbEntity
  8
0
  6
Continuous
 62
     7
100
AcDbLine
 10
5786.8847017974
 20
7436.9784604525
 30
0.0
 11
5813.3083748342
 21
7437.5432506198
 31
0.0
  0
LINE
  5
4D1
330
1F
100
AcDbEntity
  8
0
  6
Continuous
 62
     7
100
AcDbLine
 10
5813.3083748342
 20
7437.5432506198
 30
0.0
 11
5837.6690864094
 21
7437.9741703031
 31
0.0
  0
LINE
  5
4D2
330
1F
100
AcDbEntity
  8
0
  6
Continuous
 62
     7
100
AcDbLine
 10
5837.6690864094
 20
7437.9741703031
 30
0.0
 11
5839.1787546471
 21
7438.083740519
 31
0.0
  0
LINE
  5
4D3
330
1F
100
AcDbEntity
  8
0
  6
Continuous
 62
     7
100
AcDbLine
 10
5839.1787546471
 20
7438.083740519
 30
0.0
 11
5839.2252646075
 21
7438.1191190495
 31
0.0
  0
LINE
  5
4D4
330
1F
100
AcDbEntity
  8
0
  6
Continuous
 62
     7
100
AcDbLine
 10
5788.8599520416
 20
7432.2533262194
 30
0.0
 11
5788.7923638729
 21
7432.268735672
 31
0.0
  0
LINE
  5
4D5
330
1F
100
AcDbEntity
  8
0
  6
Continuous
 62
     7
100
AcDbLine
 10
5788.7923638729
 20
7432.268735672
 30
0.0
 11
5788.7755615808
 21
7432.2764299702
 31
0.0
  0
LINE
  5
4D6
330
1F
100
AcDbEntity
  8
0
  6
Continuous
 62
     7
100
AcDbLine
 10
5788.7755615808
 20
7432.2764299702
 30
0.0
 11
5788.7697470955
 21
7432.2841198346
 31
0.0
  0
LINE
  5
4D7
330
1F
100
AcDbEntity
  8
0
  6
Continuous
 62
     7
100
AcDbLine
 10
5788.7697470955
 20
7432.2841198346
 30
0.0
 11
5788.7717258142
 21
7432.2892449624
 31
0.0
  0
LINE
  5
4D8
330
1F
100
AcDbEntity
  8
0
  6
Continuous
 62
     7
100
AcDbLine
 10
5788.7717258142
 20
7432.2892449624
 30
0.0
 11
5788.7782140603
 21
7432.2943696415
 31
0.0
  0
LINE
  5
4D9
330
1F
100
AcDbEntity
  8
0
  6
Continuous
 62
     7
100
AcDbLine
 10
5788.7782140603
 20
7432.2943696415
 30
0.0
 11
5788.8164251039
 21
7432.3080378899
 31
0.0
  0
LINE
  5
4DA
330
1F
100
AcDbEntity
  8
0
  6
Continuous
 62
     7
100
AcDbLine
 10
5788.8164251039
 20
7432.3080378899
 30
0.0
 11
5790.7261312227
 21
7432.4757870504
 31
0.0
  0
LINE
  5
4DB
330
1F
100
AcDbEntity
  8
0
  6
Continuous
 62
     7
100
AcDbLine
 10
5790.7261312227
 20
7432.4757870504
 30
0.0
 11
5813.313166673
 21
7433.1430781225
 31
0.0
  0
LINE
  5
4DC
330
1F
100
AcDbEntity
  8
0
  6
Continuous
 62
     7
100
AcDbLine
 10
5813.313166673
 20
7433.1430781225
 30
0.0
 11
5838.5277687817
 21
7434.032576701
 31
0.0
  0
LINE
  5
4DD
330
1F
100
AcDbEntity
  8
0
  6
Continuous
 62
     7
100
AcDbLine
 10
5788.8599520416
 20
7435.8533328527
 30
0.0
 11
5788.7923390639
 21
7435.8687427683
 31
0.0
  0
LINE
  5
4DE
330
1F
100
AcDbEntity
  8
0
  6
Continuous
 62
     7
100
AcDbLine
 10
5788.7923390639
 20
7435.8687427683
 30
0.0
 11
5788.7755444881
 21
7435.8764372986
 31
0.0
  0
LINE
  5
4DF
330
1F
100
AcDbEntity
  8
0
  6
Continuous
 62
     7
100
AcDbLine
 10
5788.7755444881
 20
7435.8764372986
 30
0.0
 11
5788.7697384231
 21
7435.8841273964
 31
0.0
  0
LINE
  5
4E0
330
1F
100
AcDbEntity
  8
0
  6
Continuous
 62
     7
100
AcDbLine
 10
5788.7697384231
 20
7435.8841273964
 30
0.0
 11
5788.7717231036
 21
7435.8892526805
 31
0.0
  0
LINE
  5
4E1
330
1F
100
AcDbEntity
  8
0
  6
Continuous
 62
     7
100
AcDbLine
 10
5788.7717231036
 20
7435.8892526805
 30
0.0
 11
5788.7782175601
 21
7435.8943775168
 31
0.0
  0
LINE
  5
4E2
330
1F
100
AcDbEntity
  8
0
  6
Continuous
 62
     7
100
AcDbLine
 10
5788.7782175601
 20
7435.8943775168
 30
0.0
 11
5788.8164461867
 21
7435.9080461883
 31
0.0
  0
LINE
  5
4E3
330
1F
100
AcDbEntity
  8
0
  6
Continuous
 62
     7
100
AcDbLine
 10
5788.8164461867
 20
7435.9080461883
 30
0.0
 11
5790.7263550912
 21
7436.0758009777
 31
0.0
  0
LINE
  5
4E4
330
1F
100
AcDbEntity
  8
0
  6
Continuous
 62
     7
100
AcDbLine
 10
5790.7263550912
 20
7436.0758009777
 30
0.0
 11
5813.3146432682
 21
7436.743111229
 31
0.0
  0
LINE
  5
4E5
330
1F
100
AcDbEntity
  8
0
  6
Continuous
 62
     7
100
AcDbLine
 10
5813.3146432682
 20
7436.743111229
 30
0.0
 11
5838.5280471386
 21
7437.6326367688
 31
0.0
  0
LINE
  5
4E6
330
1F
100
AcDbEntity
  8
0
  6
Continuous
 62
     7
100
AcDbLine
 10
5786.9133120269
 20
7433.3783086443
 30
0.0
 11
5786.8400614455
 21
7433.3938990098
 31
0.0
  0
LINE
  5
4E7
330
1F
100
AcDbEntity
  8
0
  6
Continuous
 62
     7
100
AcDbLine
 10
5786.8400614455
 20
7433.3938990098
 30
0.0
 11
5786.822071133
 21
7433.4016835682
 31
0.0
  0
LINE
  5
4E8
330
1F
100
AcDbEntity
  8
0
  6
Continuous
 62
     7
100
AcDbLine
 10
5786.822071133
 20
7433.4016835682
 30
0.0
 11
5786.8161875691
 21
7433.409463658
 31
0.0
  0
LINE
  5
4E9
330
1F
100
AcDbEntity
  8
0
  6
Continuous
 62
     7
100
AcDbLine
 10
5786.8161875691
 20
7433.409463658
 30
0.0
 11
5786.8187128593
 21
7433.4146489529
 31
0.0
  0
LINE
  5
4EA
330
1F
100
AcDbEntity
  8
0
  6
Continuous
 62
     7
100
AcDbLine
 10
5786.8187128593
 20
7433.4146489529
 30
0.0
 11
5786.8262014686
 21
7433.4198338382
 31
0.0
  0
LINE
  5
4EB
330
1F
100
AcDbEntity
  8
0
  6
Continuous
 62
     7
100
AcDbLine
 10
5786.8262014686
 20
7433.4198338382
 30
0.0
 11
5786.8691663112
 21
7433.4336629916
 31
0.0
  0
LINE
  5
4EC
330
1F
100
AcDbEntity
  8
0
  6
Continuous
 62
     7
100
AcDbLine
 10
5786.8691663112
 20
7433.4336629916
 30
0.0
 11
5788.9713502739
 21
7433.6034593764
 31
0.0
  0
LINE
  5
4ED
330
1F
100
AcDbEntity
  8
0
  6
Continuous
 62
     7
100
AcDbLine
 10
5788.9713502739
 20
7433.6034593764
 30
0.0
 11
5813.767357271
 21
7434.2782595223
 31
0.0
  0
LINE
  5
4EE
330
1F
100
AcDbEntity
  8
0
  6
Continuous
 62
     7
100
AcDbLine
 10
5813.767357271
 20
7434.2782595223
 30
0.0
 11
5840.565625602
 21
7435.178094
 31
0.0
  0
LINE
  5
4EF
330
1F
100
AcDbEntity
  8
0
  6
Continuous
 62
     7
100
AcDbLine
 10
5819.382489273
 20
7431.6984604526
 30
0.0
 11
5835.9737714394
 21
7432.1339462698
 31
0.0
  0
LINE
  5
4F0
330
1F
100
AcDbEntity
  8
0
  6
Continuous
 62
     7
100
AcDbLine
 10
5835.9737714394
 20
7432.1339462698
 30
0.0
 11
5840.5656255176
 21
7432.4780939888
 31
0.0
  0
LINE
  5
4F1
330
1F
100
AcDbEntity
  8
0
  6
Continuous
 62
     7
100
AcDbLine
 10
5786.9133120269
 20
7434.2783086332
 30
0.0
 11
5786.8400614736
 21
7434.2938989987
 31
0.0
  0
LINE
  5
4F2
330
1F
100
AcDbEntity
  8
0
  6
Continuous
 62
     7
100
AcDbLine
 10
5786.8400614736
 20
7434.2938989987
 30
0.0
 11
5786.8220711577
 21
7434.3016835571
 31
0.0
  0
LINE
  5
4F3
330
1F
100
AcDbEntity
  8
0
  6
Continuous
 62
     7
100
AcDbLine
 10
5786.8220711577
 20
7434.3016835571
 30
0.0
 11
5786.8161875904
 21
7434.3094636469
 31
0.0
  0
LINE
  5
4F4
330
1F
100
AcDbEntity
  8
0
  6
Continuous
 62
     7
100
AcDbLine
 10
5786.8161875904
 20
7434.3094636469
 30
0.0
 11
5786.8187128782
 21
7434.3146489418
 31
0.0
  0
LINE
  5
4F5
330
1F
100
AcDbEntity
  8
0
  6
Continuous
 62
     7
100
AcDbLine
 10
5786.8187128782
 20
7434.3146489418
 30
0.0
 11
5786.8262014851
 21
7434.3198338271
 31
0.0
  0
LINE
  5
4F6
330
1F
100
AcDbEntity
  8
0
  6
Continuous
 62
     7
100
AcDbLine
 10
5786.8262014851
 20
7434.3198338271
 30
0.0
 11
5786.8691663216
 21
7434.3336629805
 31
0.0
  0
LINE
  5
4F7
330
1F
100
AcDbEntity
  8
0
  6
Continuous
 62
     7
100
AcDbLine
 10
5786.8691663216
 20
7434.3336629805
 30
0.0
 11
5788.9713502736
 21
7434.5034593655
 31
0.0
  0
LINE
  5
4F8
330
1F
100
AcDbEntity
  8
0
  6
Continuous
 62
     7
100
AcDbLine
 10
5788.9713502736
 20
7434.5034593655
 30
0.0
 11
5813.7673572728
 21
7435.1782595112
 31
0.0
  0
LINE
  5
4F9
330
1F
100
AcDbEntity
  8
0
  6
Continuous
 62
     7
100
AcDbLine
 10
5813.7673572728
 20
7435.1782595112
 30
0.0
 11
5840.5656255176
 21
7436.0780939888
 31
0.0
  0
LINE
  5
4FA
330
1F
100
AcDbEntity
  8
0
  6
Continuous
 62
     7
100
AcDbLine
 10
5788.9331942291
 20
7431.8243820651
 30
0.0
 11
5802.2962315202
 21
7432.4283012954
 31
0.0
  0
LINE
  5
4FB
330
1F
100
AcDbEntity
  8
0
  6
Continuous
 62
     7
100
AcDbLine
 10
5802.2962315202
 20
7432.4283012954
 30
0.0
 11
5818.8397484848
 21
7432.8189997613
 31
0.0
  0
LINE
  5
4FC
330
1F
100
AcDbEntity
  8
0
  6
Continuous
 62
     7
100
AcDbLine
 10
5818.8397484848
 20
7432.8189997613
 30
0.0
 11
5833.1019670656
 21
7433.2107574785
 31
0.0
  0
LINE
  5
4FD
330
1F
100
AcDbEntity
  8
0
  6
Continuous
 62
     7
100
AcDbLine
 10
5833.1019670656
 20
7433.2107574785
 30
0.0
 11
5838.6230320442
 21
7433.6031339727
 31
0.0
  0
LINE
  5
4FE
330
1F
100
AcDbEntity
  8
0
  6
Continuous
 62
     7
100
AcDbLine
 10
5788.9343386382
 20
7435.4244551954
 30
0.0
 11
5802.298320653
 21
7436.0283565098
 31
0.0
  0
LINE
  5
4FF
330
1F
100
AcDbEntity
  8
0
  6
Continuous
 62
     7
100
AcDbLine
 10
5802.298320653
 20
7436.0283565098
 30
0.0
 11
5818.8415051169
 21
7436.4190410139
 31
0.0
  0
LINE
  5
500
330
1F
100
AcDbEntity
  8
0
  6
Continuous
 62
     7
100
AcDbLine
 10
5818.8415051169
 20
7436.4190410139
 30
0.0
 11
5833.1027456759
 21
7436.8107854994
 31
0.0
  0
LINE
  5
501
330
1F
100
AcDbEntity
  8
0
  6
Continuous
 62
     7
100
AcDbLine
 10
5833.1027456759
 20
7436.8107854994
 30
0.0
 11
5838.623103165
 21
7437.2031493201
 31
0.0
  0
POINT
  5
502
330
1F
100
AcDbEntity
  8
0
  6
Continuous
 62
     7
100
AcDbPoint
 10
5659.2303851346
 20
7773.0969837424
 30
0.0
  0
POINT
  5
503
330
1F
100
AcDbEntity
  8
0
  6
Continuous
 62
     7
100
AcDbPoint
 10
5812.347382771
 20
7773.0969837424
 30
0.0
  0
POINT
  5
504
330
1F
100
AcDbEntity
  8
0
  6
Continuous
 62
     7
100
AcDbPoint
 10
5966.4328932007
 20
7773.0969837424
 30
0.0
  0
POINT
  5
505
330
1F
100
AcDbEntity
  8
0
  6
Continuous
 62
     7
100
AcDbPoint
 10
3074.7159162547
 20
7652.0402331824
 30
0.0
  0
POINT
  5
506
330
1F
100
AcDbEntity
  8
0
  6
Continuous
 62
     7
100
AcDbPoint
 10
6162.0648003048
 20
7773.9001646163
 30
0.0
  0
ENDSEC
  0
SECTION
  2
OBJECTS
  0
DICTIONARY
  5
C
330
0
100
AcDbDictionary
281
     1
  3
ACAD_GROUP
350
D
  3
ACAD_LAYOUT
350
1A
  3
ACAD_MLINESTYLE
350
17
  3
ACAD_PLOTSETTINGS
350
19
  3
ACAD_PLOTSTYLENAME
350
E
  3
ACAD_SCALELIST
350
47
  3
DWGPROPS
350
507
  0
DICTIONARY
  5
D
102
{ACAD_REACTORS
330
C
102
}
330
C
100
AcDbDictionary
281
     1
  0
DICTIONARY
  5
1A
102
{ACAD_REACTORS
330
C
102
}
330
C
100
AcDbDictionary
281
     1
  3
Layout1
350
1E
  3
Layout2
350
26
  3
Model
350
22
  0
DICTIONARY
  5
17
102
{ACAD_REACTORS
330
C
102
}
330
C
100
AcDbDictionary
281
     1
  3
Standard
350
18
  0
DICTIONARY
  5
19
102
{ACAD_REACTORS
330
C
102
}
330
C
100
AcDbDictionary
281
     1
  0
ACDBDICTIONARYWDFLT
  5
E
102
{ACAD_REACTORS
330
C
102
}
330
C
100
AcDbDictionary
281
     1
  3
Normal
350
F
100
AcDbDictionaryWithDefault
340
F
  0
DICTIONARY
  5
47
102
{ACAD_REACTORS
330
C
102
}
330
C
100
AcDbDictionary
281
     1
  3
A0
350
48
  3
A1
350
49
  3
A2
350
4A
  3
A3
350
4B
  3
A4
350
4C
  3
A5
350
4D
  3
A6
350
4E
  3
A7
350
4F
  3
A8
350
50
  3
A9
350
51
  3
B0
350
52
  3
B1
350
53
  3
B2
350
54
  3
B3
350
55
  3
B4
350
56
  3
B5
350
57
  3
B6
350
58
  3
B7
350
59
  3
B8
350
5A
  3
B9
350
5B
  3
C0
350
5C
  3
C1
350
5D
  3
C2
350
5E
  3
C3
350
5F
  3
C4
350
60
  3
C5
350
61
  3
C6
350
62
  3
C7
350
63
  3
C8
350
64
  3
C9
350
65
  3
D0
350
66
  3
D1
350
67
  3
D2
350
68
  0
XRECORD
  5
507
102
{ACAD_REACTORS
330
C
102
}
330
C
100
AcDbXrecord
280
     1
  1
DWGPROPS COOKIE
  2

  3

  4

  6

  7

  8
radek.stransky
  9

300
=
301
=
302
=
303
=
304
=
305
=
306
=
307
=
308
=
309
=
 40
0.0
 41
2459100.26045897
 42
2459100.261166609
  1

 90
        0
  0
LAYOUT
  5
1E
102
{ACAD_REACTORS
330
1A
102
}
330
1A
100
AcDbPlotSettings
  1

  2
none_device
  4

  6

 40
0.0
 41
0.0
 42
0.0
 43
0.0
 44
0.0
 45
0.0
 46
0.0
 47
0.0
 48
0.0
 49
0.0
140
0.0
141
0.0
142
1.0
143
1.0
 70
   688
 72
     1
 73
     0
 74
     5
  7

 75
    16
147
1.0
148
0.0
149
0.0
100
AcDbLayout
  1
Layout1
 70
     1
 71
     1
 10
0.0
 20
0.0
 11
420.0
 21
297.0
 12
0.0
 22
0.0
 32
0.0
 14
1.0000000000E+20
 24
1.0000000000E+20
 34
1.0000000000E+20
 15
-1.0000000000E+20
 25
-1.0000000000E+20
 35
-1.0000000000E+20
146
0.0
 13
0.0
 23
0.0
 33
0.0
 16
1.0
 26
0.0
 36
0.0
 17
0.0
 27
1.0
 37
0.0
 76
     0
330
1B
  0
LAYOUT
  5
26
102
{ACAD_REACTORS
330
1A
102
}
330
1A
100
AcDbPlotSettings
  1

  2
none_device
  4

  6

 40
0.0
 41
0.0
 42
0.0
 43
0.0
 44
0.0
 45
0.0
 46
0.0
 47
0.0
 48
0.0
 49
0.0
140
0.0
141
0.0
142
1.0
143
1.0
 70
   688
 72
     1
 73
     0
 74
     5
  7

 75
    16
147
1.0
148
0.0
149
0.0
100
AcDbLayout
  1
Layout2
 70
     1
 71
     2
 10
0.0
 20
0.0
 11
0.0
 21
0.0
 12
0.0
 22
0.0
 32
0.0
 14
0.0
 24
0.0
 34
0.0
 15
0.0
 25
0.0
 35
0.0
146
0.0
 13
0.0
 23
0.0
 33
0.0
 16
1.0
 26
0.0
 36
0.0
 17
0.0
 27
1.0
 37
0.0
 76
     0
330
23
  0
LAYOUT
  5
22
102
{ACAD_REACTORS
330
1A
102
}
330
1A
100
AcDbPlotSettings
  1

  2
none_device
  4
ANSI_A_(11.00_x_8.50_Inches)
  6

 40
6.35
 41
19.05
 42
6.35000508
 43
19.05000254
 44
279.4
 45
215.9
 46
-144.758117647
 47
-391.1152458148
 48
0.0
 49
0.0
140
0.0
141
0.0
142
0.00265296
143
1.0
 70
  1696
 72
     0
 73
     0
 74
     0
  7

 75
     0
147
0.0179189148
148
-1300.4909072572
149
0.0
100
AcDbLayout
  1
Model
 70
     1
 71
     0
 10
0.0
 20
0.0
 11
420.0
 21
297.0
 12
0.0
 22
0.0
 32
0.0
 14
2074.7159162547
 24
6254.8672156564
 34
0.0
 15
6179.5648003048
 25
7992.0402331824
 35
0.0
146
0.0
 13
0.0
 23
0.0
 33
0.0
 16
1.0
 26
0.0
 36
0.0
 17
0.0
 27
1.0
 37
0.0
 76
     0
330
1F
331
29
  0
MLINESTYLE
  5
18
102
{ACAD_REACTORS
330
17
102
}
330
17
100
AcDbMlineStyle
  2
Standard
 70
     0
  3

 62
   256
 51
90.0
 52
90.0
 71
     2
 49
0.5
 62
   256
  6
BYLAYER
 49
-0.5
 62
   256
  6
BYLAYER
  0
ACDBPLACEHOLDER
  5
F
102
{ACAD_REACTORS
330
E
102
}
330
E
  0
SCALE
  5
48
102
{ACAD_REACTORS
330
47
102
}
330
47
100
AcDbScale
 70
     0
300
1:1
140
1.0
141
1.0
290
     1
  0
SCALE
  5
49
102
{ACAD_REACTORS
330
47
102
}
330
47
100
AcDbScale
 70
     0
300
1:2
140
1.0
141
2.0
290
     0
  0
SCALE
  5
4A
102
{ACAD_REACTORS
330
47
102
}
330
47
100
AcDbScale
 70
     0
300
1:4
140
1.0
141
4.0
290
     0
  0
SCALE
  5
4B
102
{ACAD_REACTORS
330
47
102
}
330
47
100
AcDbScale
 70
     0
300
1:5
140
1.0
141
5.0
290
     0
  0
SCALE
  5
4C
102
{ACAD_REACTORS
330
47
102
}
330
47
100
AcDbScale
 70
     0
300
1:8
140
1.0
141
8.0
290
     0
  0
SCALE
  5
4D
102
{ACAD_REACTORS
330
47
102
}
330
47
100
AcDbScale
 70
     0
300
1:10
140
1.0
141
10.0
290
     0
  0
SCALE
  5
4E
102
{ACAD_REACTORS
330
47
102
}
330
47
100
AcDbScale
 70
     0
300
1:16
140
1.0
141
16.0
290
     0
  0
SCALE
  5
4F
102
{ACAD_REACTORS
330
47
102
}
330
47
100
AcDbScale
 70
     0
300
1:20
140
1.0
141
20.0
290
     0
  0
SCALE
  5
50
102
{ACAD_REACTORS
330
47
102
}
330
47
100
AcDbScale
 70
     0
300
1:30
140
1.0
141
30.0
290
     0
  0
SCALE
  5
51
102
{ACAD_REACTORS
330
47
102
}
330
47
100
AcDbScale
 70
     0
300
1:40
140
1.0
141
40.0
290
     0
  0
SCALE
  5
52
102
{ACAD_REACTORS
330
47
102
}
330
47
100
AcDbScale
 70
     0
300
1:50
140
1.0
141
50.0
290
     0
  0
SCALE
  5
53
102
{ACAD_REACTORS
330
47
102
}
330
47
100
AcDbScale
 70
     0
300
1:100
140
1.0
141
100.0
290
     0
  0
SCALE
  5
54
102
{ACAD_REACTORS
330
47
102
}
330
47
100
AcDbScale
 70
     0
300
2:1
140
2.0
141
1.0
290
     0
  0
SCALE
  5
55
102
{ACAD_REACTORS
330
47
102
}
330
47
100
AcDbScale
 70
     0
300
4:1
140
4.0
141
1.0
290
     0
  0
SCALE
  5
56
102
{ACAD_REACTORS
330
47
102
}
330
47
100
AcDbScale
 70
     0
300
8:1
140
8.0
141
1.0
290
     0
  0
SCALE
  5
57
102
{ACAD_REACTORS
330
47
102
}
330
47
100
AcDbScale
 70
     0
300
10:1
140
10.0
141
1.0
290
     0
  0
SCALE
  5
58
102
{ACAD_REACTORS
330
47
102
}
330
47
100
AcDbScale
 70
     0
300
100:1
140
100.0
141
1.0
290
     0
  0
SCALE
  5
59
102
{ACAD_REACTORS
330
47
102
}
330
47
100
AcDbScale
 70
     0
300
1/128" = 1'-0"
140
0.0078125
141
12.0
290
     0
  0
SCALE
  5
5A
102
{ACAD_REACTORS
330
47
102
}
330
47
100
AcDbScale
 70
     0
300
1/64" = 1'-0"
140
0.015625
141
12.0
290
     0
  0
SCALE
  5
5B
102
{ACAD_REACTORS
330
47
102
}
330
47
100
AcDbScale
 70
     0
300
1/32" = 1'-0"
140
0.03125
141
12.0
290
     0
  0
SCALE
  5
5C
102
{ACAD_REACTORS
330
47
102
}
330
47
100
AcDbScale
 70
     0
300
1/16" = 1'-0"
140
0.0625
141
12.0
290
     0
  0
SCALE
  5
5D
102
{ACAD_REACTORS
330
47
102
}
330
47
100
AcDbScale
 70
     0
300
3/32" = 1'-0"
140
0.09375
141
12.0
290
     0
  0
SCALE
  5
5E
102
{ACAD_REACTORS
330
47
102
}
330
47
100
AcDbScale
 70
     0
300
1/8" = 1'-0"
140
0.125
141
12.0
290
     0
  0
SCALE
  5
5F
102
{ACAD_REACTORS
330
47
102
}
330
47
100
AcDbScale
 70
     0
300
3/16" = 1'-0"
140
0.1875
141
12.0
290
     0
  0
SCALE
  5
60
102
{ACAD_REACTORS
330
47
102
}
330
47
100
AcDbScale
 70
     0
300
1/4" = 1'-0"
140
0.25
141
12.0
290
     0
  0
SCALE
  5
61
102
{ACAD_REACTORS
330
47
102
}
330
47
100
AcDbScale
 70
     0
300
3/8" = 1'-0"
140
0.375
141
12.0
290
     0
  0
SCALE
  5
62
102
{ACAD_REACTORS
330
47
102
}
330
47
100
AcDbScale
 70
     0
300
1/2" = 1'-0"
140
0.5
141
12.0
290
     0
  0
SCALE
  5
63
102
{ACAD_REACTORS
330
47
102
}
330
47
100
AcDbScale
 70
     0
300
3/4" = 1'-0"
140
0.75
141
12.0
290
     0
  0
SCALE
  5
64
102
{ACAD_REACTORS
330
47
102
}
330
47
100
AcDbScale
 70
     0
300
1" = 1'-0"
140
1.0
141
12.0
290
     0
  0
SCALE
  5
65
102
{ACAD_REACTORS
330
47
102
}
330
47
100
AcDbScale
 70
     0
300
1-1/2" = 1'-0"
140
1.5
141
12.0
290
     0
  0
SCALE
  5
66
102
{ACAD_REACTORS
330
47
102
}
330
47
100
AcDbScale
 70
     0
300
3" = 1'-0"
140
3.0
141
12.0
290
     0
  0
SCALE
  5
67
102
{ACAD_REACTORS
330
47
102
}
330
47
100
AcDbScale
 70
     0
300
6" = 1'-0"
140
6.0
141
12.0
290
     0
  0
SCALE
  5
68
102
{ACAD_REACTORS
330
47
102
}
330
47
100
AcDbScale
 70
     0
300
1'-0" = 1'-0"
140
12.0
141
12.0
290
     0
  0
ENDSEC
  0
EOF
