  0
SECTION
  2
HEADER
  9
$ACADVER
  1
AC1015
  9
$ACADMAINTVER
 70
     6
  9
$DWGCODEPAGE
  3
ANSI_1250
  9
$INSBASE
 10
0.0
 20
0.0
 30
0.0
  9
$EXTMIN
 10
6159.0187532499
 20
5032.1119697752
 30
0.0
  9
$EXTMAX
 10
6501.9982420965
 20
5286.3603987286
 30
0.0
  9
$LIMMIN
 10
0.0
 20
0.0
  9
$LIMMAX
 10
420.0
 20
297.0
  9
$ORTHOMODE
 70
     0
  9
$REGENMODE
 70
     1
  9
$FILLMODE
 70
     1
  9
$QTEXTMODE
 70
     0
  9
$MIRRTEXT
 70
     1
  9
$LTSCALE
 40
1.0
  9
$ATTMODE
 70
     1
  9
$TEXTSIZE
 40
3.5
  9
$TRACEWID
 40
1.0
  9
$TEXTSTYLE
  7
Standard
  9
$CLAYER
  8
0
  9
$CELTYPE
  6
ByLayer
  9
$CECOLOR
 62
   256
  9
$CELTSCALE
 40
1.0
  9
$DISPSILH
 70
     0
  9
$DIMSCALE
 40
1.0
  9
$DIMASZ
 40
3.302
  9
$DIMEXO
 40
0.0
  9
$DIMDLI
 40
3.75
  9
$DIMRND
 40
0.0
  9
$DIMDLE
 40
0.0
  9
$DIMEXE
 40
1.0
  9
$DIMTP
 40
0.0
  9
$DIMTM
 40
0.0
  9
$DIMTXT
 40
3.5
  9
$DIMCEN
 40
2.5
  9
$DIMTSZ
 40
0.0
  9
$DIMTOL
 70
     0
  9
$DIMLIM
 70
     0
  9
$DIMTIH
 70
     1
  9
$DIMTOH
 70
     1
  9
$DIMSE1
 70
     0
  9
$DIMSE2
 70
     0
  9
$DIMTAD
 70
     1
  9
$DIMZIN
 70
     0
  9
$DIMBLK
  1

  9
$DIMASO
 70
     1
  9
$DIMSHO
 70
     1
  9
$DIMPOST
  1

  9
$DIMAPOST
  1

  9
$DIMALT
 70
     0
  9
$DIMALTD
 70
     3
  9
$DIMALTF
 40
0.0393700787
  9
$DIMLFAC
 40
1.0
  9
$DIMTOFL
 70
     1
  9
$DIMTVP
 40
0.0
  9
$DIMTIX
 70
     0
  9
$DIMSOXD
 70
     0
  9
$DIMSAH
 70
     0
  9
$DIMBLK1
  1

  9
$DIMBLK2
  1

  9
$DIMSTYLE
  2
ISO-25
  9
$DIMCLRD
 70
     0
  9
$DIMCLRE
 70
     0
  9
$DIMCLRT
 70
     0
  9
$DIMTFAC
 40
1.0
  9
$DIMGAP
 40
1.524
  9
$DIMJUST
 70
     0
  9
$DIMSD1
 70
     0
  9
$DIMSD2
 70
     0
  9
$DIMTOLJ
 70
     0
  9
$DIMTZIN
 70
     0
  9
$DIMALTZ
 70
     0
  9
$DIMALTTZ
 70
     0
  9
$DIMUPT
 70
     0
  9
$DIMDEC
 70
     2
  9
$DIMTDEC
 70
     2
  9
$DIMALTU
 70
     2
  9
$DIMALTTD
 70
     3
  9
$DIMTXSTY
  7
Standard
  9
$DIMAUNIT
 70
     0
  9
$DIMADEC
 70
     2
  9
$DIMALTRND
 40
0.0
  9
$DIMAZIN
 70
     0
  9
$DIMDSEP
 70
    44
  9
$DIMATFIT
 70
     3
  9
$DIMFRAC
 70
     0
  9
$DIMLDRBLK
  1

  9
$DIMLUNIT
 70
     2
  9
$DIMLWD
 70
    -2
  9
$DIMLWE
 70
    -2
  9
$DIMTMOVE
 70
     0
  9
$LUNITS
 70
     2
  9
$LUPREC
 70
     2
  9
$SKETCHINC
 40
1.0
  9
$FILLETRAD
 40
10.0
  9
$AUNITS
 70
     0
  9
$AUPREC
 70
     2
  9
$MENU
  1
.
  9
$ELEVATION
 40
0.0
  9
$PELEVATION
 40
0.0
  9
$THICKNESS
 40
0.0
  9
$LIMCHECK
 70
     0
  9
$CHAMFERA
 40
0.0
  9
$CHAMFERB
 40
0.0
  9
$CHAMFERC
 40
0.0
  9
$CHAMFERD
 40
0.0
  9
$SKPOLY
 70
     0
  9
$TDCREATE
 40
2459097.564369665
  9
$TDUCREATE
 40
2459097.481036331
  9
$TDUPDATE
 40
2459097.564445822
  9
$TDUUPDATE
 40
2459097.481112489
  9
$TDINDWG
 40
0.0000000116
  9
$TDUSRTIMER
 40
0.0000000116
  9
$USRTIMER
 70
     1
  9
$ANGBASE
 50
0.0
  9
$ANGDIR
 70
     0
  9
$PDMODE
 70
     0
  9
$PDSIZE
 40
-1.0
  9
$PLINEWID
 40
0.0
  9
$SPLFRAME
 70
     0
  9
$SPLINETYPE
 70
     6
  9
$SPLINESEGS
 70
     8
  9
$HANDSEED
  5
180
  9
$SURFTAB1
 70
     6
  9
$SURFTAB2
 70
     6
  9
$SURFTYPE
 70
     6
  9
$SURFU
 70
     6
  9
$SURFV
 70
     6
  9
$UCSBASE
  2

  9
$UCSNAME
  2

  9
$UCSORG
 10
0.0
 20
0.0
 30
0.0
  9
$UCSXDIR
 10
1.0
 20
0.0
 30
0.0
  9
$UCSYDIR
 10
0.0
 20
1.0
 30
0.0
  9
$UCSORTHOREF
  2

  9
$UCSORTHOVIEW
 70
     0
  9
$UCSORGTOP
 10
0.0
 20
0.0
 30
0.0
  9
$UCSORGBOTTOM
 10
0.0
 20
0.0
 30
0.0
  9
$UCSORGLEFT
 10
0.0
 20
0.0
 30
0.0
  9
$UCSORGRIGHT
 10
0.0
 20
0.0
 30
0.0
  9
$UCSORGFRONT
 10
0.0
 20
0.0
 30
0.0
  9
$UCSORGBACK
 10
0.0
 20
0.0
 30
0.0
  9
$PUCSBASE
  2

  9
$PUCSNAME
  2

  9
$PUCSORG
 10
0.0
 20
0.0
 30
0.0
  9
$PUCSXDIR
 10
1.0
 20
0.0
 30
0.0
  9
$PUCSYDIR
 10
0.0
 20
1.0
 30
0.0
  9
$PUCSORTHOREF
  2

  9
$PUCSORTHOVIEW
 70
     0
  9
$PUCSORGTOP
 10
0.0
 20
0.0
 30
0.0
  9
$PUCSORGBOTTOM
 10
0.0
 20
0.0
 30
0.0
  9
$PUCSORGLEFT
 10
0.0
 20
0.0
 30
0.0
  9
$PUCSORGRIGHT
 10
0.0
 20
0.0
 30
0.0
  9
$PUCSORGFRONT
 10
0.0
 20
0.0
 30
0.0
  9
$PUCSORGBACK
 10
0.0
 20
0.0
 30
0.0
  9
$USERI1
 70
     0
  9
$USERI2
 70
     0
  9
$USERI3
 70
     0
  9
$USERI4
 70
     0
  9
$USERI5
 70
     0
  9
$USERR1
 40
0.0
  9
$USERR2
 40
0.0
  9
$USERR3
 40
0.0
  9
$USERR4
 40
0.0
  9
$USERR5
 40
0.0
  9
$WORLDVIEW
 70
     1
  9
$SHADEDGE
 70
     3
  9
$SHADEDIF
 70
    70
  9
$TILEMODE
 70
     1
  9
$MAXACTVP
 70
    64
  9
$PINSBASE
 10
0.0
 20
0.0
 30
0.0
  9
$PLIMCHECK
 70
     0
  9
$PEXTMIN
 10
1.0000000000E+20
 20
1.0000000000E+20
 30
1.0000000000E+20
  9
$PEXTMAX
 10
-1.0000000000E+20
 20
-1.0000000000E+20
 30
-1.0000000000E+20
  9
$PLIMMIN
 10
0.0
 20
0.0
  9
$PLIMMAX
 10
420.0
 20
297.0
  9
$UNITMODE
 70
     0
  9
$VISRETAIN
 70
     1
  9
$PLINEGEN
 70
     0
  9
$PSLTSCALE
 70
     1
  9
$TREEDEPTH
 70
  3020
  9
$CMLSTYLE
  2
Standard
  9
$CMLJUST
 70
     0
  9
$CMLSCALE
 40
20.0
  9
$PROXYGRAPHICS
 70
     1
  9
$MEASUREMENT
 70
     1
  9
$CELWEIGHT
370
    -1
  9
$ENDCAPS
280
     0
  9
$JOINSTYLE
280
     0
  9
$LWDISPLAY
290
     1
  9
$INSUNITS
 70
     4
  9
$HYPERLINKBASE
  1

  9
$STYLESHEET
  1

  9
$XEDIT
290
     1
  9
$CEPSNTYPE
380
     0
  9
$PSTYLEMODE
290
     1
  9
$FINGERPRINTGUID
  2
{9222f232-2a47-49d8-a0de-9759baa5452a}
  9
$VERSIONGUID
  2
{FAEB1C32-E019-11D5-929B-00C0DF256EC4}
  9
$EXTNAMES
290
     1
  9
$PSVPSCALE
 40
0.0
  9
$OLESTARTUP
290
     0
  0
ENDSEC
  0
SECTION
  2
CLASSES
  0
CLASS
  1
ACDBDICTIONARYWDFLT
  2
AcDbDictionaryWithDefault
  3
ObjectDBX Classes
 90
        0
280
     0
281
     0
  0
CLASS
  1
VISUALSTYLE
  2
AcDbVisualStyle
  3
ObjectDBX Classes
 90
     4095
280
     0
281
     0
  0
CLASS
  1
MATERIAL
  2
AcDbMaterial
  3
ObjectDBX Classes
 90
     1153
280
     0
281
     0
  0
CLASS
  1
SCALE
  2
AcDbScale
  3
ObjectDBX Classes
 90
     1153
280
     0
281
     0
  0
CLASS
  1
TABLESTYLE
  2
AcDbTableStyle
  3
ObjectDBX Classes
 90
     4095
280
     0
281
     0
  0
CLASS
  1
MLEADERSTYLE
  2
AcDbMLeaderStyle
  3
ACDB_MLEADERSTYLE_CLASS
 90
     4095
280
     0
281
     0
  0
CLASS
  1
SUN
  2
AcDbSun
  3
SCENEOE
 90
     1153
280
     0
281
     0
  0
CLASS
  1
ACDBPLACEHOLDER
  2
AcDbPlaceHolder
  3
ObjectDBX Classes
 90
        0
280
     0
281
     0
  0
CLASS
  1
LAYOUT
  2
AcDbLayout
  3
ObjectDBX Classes
 90
        0
280
     0
281
     0
  0
ENDSEC
  0
SECTION
  2
TABLES
  0
TABLE
  2
VPORT
  5
8
330
0
100
AcDbSymbolTable
 70
     1
  0
VPORT
  5
29
330
8
100
AcDbSymbolTableRecord
100
AcDbViewportTableRecord
  2
*Active
 70
     0
 10
0.0
 20
0.0
 11
1.0
 21
1.0
 12
6330.5084976732
 22
5159.2361842519
 13
0.0
 23
0.0
 14
10.0
 24
10.0
 15
10.0
 25
10.0
 16
0.0
 26
0.0
 36
1.0
 17
0.0
 27
0.0
 37
0.0
 40
259.3333975325
 41
1.3489935425
 42
50.0
 43
0.0
 44
0.0
 50
0.0
 51
0.0
 71
     0
 72
   100
 73
     1
 74
     3
 75
     0
 76
     0
 77
     0
 78
     0
281
     0
 65
     1
110
0.0
120
0.0
130
0.0
111
1.0
121
0.0
131
0.0
112
0.0
122
1.0
132
0.0
 79
     0
146
0.0
  0
ENDTAB
  0
TABLE
  2
LTYPE
  5
5
330
0
100
AcDbSymbolTable
 70
     6
  0
LTYPE
  5
14
330
5
100
AcDbSymbolTableRecord
100
AcDbLinetypeTableRecord
  2
ByBlock
 70
     0
  3

 72
    65
 73
     0
 40
0.0
  0
LTYPE
  5
15
330
5
100
AcDbSymbolTableRecord
100
AcDbLinetypeTableRecord
  2
ByLayer
 70
     0
  3

 72
    65
 73
     0
 40
0.0
  0
LTYPE
  5
16
330
5
100
AcDbSymbolTableRecord
100
AcDbLinetypeTableRecord
  2
Continuous
 70
     0
  3
Solid line
 72
    65
 73
     0
 40
0.0
  0
LTYPE
  5
6E
330
5
100
AcDbSymbolTableRecord
100
AcDbLinetypeTableRecord
  2
HIDDEN
 70
     0
  3
Hidden __ __ __ __ __ __ __ __ __ __ __ __ __ __
 72
    65
 73
     2
 40
1.905
 49
1.27
 74
     0
 49
-0.635
 74
     0
  0
LTYPE
  5
6F
330
5
100
AcDbSymbolTableRecord
100
AcDbLinetypeTableRecord
  2
PHANTOM
 70
     0
  3
Phantom ______  __  __  ______  __  __  ______
 72
    65
 73
     6
 40
12.7
 49
6.35
 74
     0
 49
-1.27
 74
     0
 49
1.27
 74
     0
 49
-1.27
 74
     0
 49
1.27
 74
     0
 49
-1.27
 74
     0
  0
LTYPE
  5
70
330
5
100
AcDbSymbolTableRecord
100
AcDbLinetypeTableRecord
  2
CENTER
 70
     0
  3
Center ____ _ ____ _ ____ _ ____ _ ____ _ ____
 72
    65
 73
     4
 40
10.16
 49
6.35
 74
     0
 49
-1.27
 74
     0
 49
1.27
 74
     0
 49
-1.27
 74
     0
  0
LTYPE
  5
71
330
5
100
AcDbSymbolTableRecord
100
AcDbLinetypeTableRecord
  2
CENTERX2
 70
     0
  3
Center (2x) ________  __  ________  __  _____
 72
    65
 73
     4
 40
20.32
 49
12.7
 74
     0
 49
-2.54
 74
     0
 49
2.54
 74
     0
 49
-2.54
 74
     0
  0
LTYPE
  5
72
330
5
100
AcDbSymbolTableRecord
100
AcDbLinetypeTableRecord
  2
DOT2
 70
     0
  3
Dot (.5x) ........................................
 72
    65
 73
     2
 40
0.635
 49
0.0
 74
     0
 49
-0.635
 74
     0
  0
ENDTAB
  0
TABLE
  2
LAYER
  5
2
330
0
100
AcDbSymbolTable
 70
     1
  0
LAYER
  5
10
330
2
100
AcDbSymbolTableRecord
100
AcDbLayerTableRecord
  2
0
 70
     0
 62
     7
  6
Continuous
370
    -3
390
F
  0
ENDTAB
  0
TABLE
  2
STYLE
  5
3
330
0
100
AcDbSymbolTable
 70
     1
  0
STYLE
  5
11
330
3
100
AcDbSymbolTableRecord
100
AcDbTextStyleTableRecord
  2
Standard
 70
     0
 40
0.0
 41
1.0
 50
0.0
 71
     0
 42
3.5
  3
txt
  4

  0
ENDTAB
  0
TABLE
  2
VIEW
  5
6
330
0
100
AcDbSymbolTable
 70
     0
  0
ENDTAB
  0
TABLE
  2
UCS
  5
7
330
0
100
AcDbSymbolTable
 70
     0
  0
ENDTAB
  0
TABLE
  2
APPID
  5
9
330
0
100
AcDbSymbolTable
 70
     1
  0
APPID
  5
12
330
9
100
AcDbSymbolTableRecord
100
AcDbRegAppTableRecord
  2
ACAD
 70
     0
  0
ENDTAB
  0
TABLE
  2
DIMSTYLE
  5
A
330
0
100
AcDbSymbolTable
 70
     1
100
AcDbDimStyleTable
  0
DIMSTYLE
105
27
330
A
100
AcDbSymbolTableRecord
100
AcDbDimStyleTableRecord
  2
ISO-25
 70
     0
 41
2.5
 42
0.625
 43
3.75
 44
1.25
 73
     0
 74
     0
 77
     1
 78
     8
140
2.5
141
2.5
143
0.0393700787
147
0.625
171
     3
172
     1
178
     0
271
     2
272
     2
274
     3
278
    44
283
     0
284
     8
340
11
  0
ENDTAB
  0
TABLE
  2
BLOCK_RECORD
  5
1
330
0
100
AcDbSymbolTable
 70
     1
  0
BLOCK_RECORD
  5
1F
330
1
100
AcDbSymbolTableRecord
100
AcDbBlockTableRecord
  2
*Model_Space
340
22
  0
BLOCK_RECORD
  5
1B
330
1
100
AcDbSymbolTableRecord
100
AcDbBlockTableRecord
  2
*Paper_Space
340
1E
  0
BLOCK_RECORD
  5
23
330
1
100
AcDbSymbolTableRecord
100
AcDbBlockTableRecord
  2
*Paper_Space0
340
26
  0
ENDTAB
  0
ENDSEC
  0
SECTION
  2
BLOCKS
  0
BLOCK
  5
20
330
1F
100
AcDbEntity
  8
0
100
AcDbBlockBegin
  2
*Model_Space
 70
     0
 10
0.0
 20
0.0
 30
0.0
  3
*Model_Space
  1

  0
ENDBLK
  5
21
330
1F
100
AcDbEntity
  8
0
100
AcDbBlockEnd
  0
BLOCK
  5
1C
330
1B
100
AcDbEntity
 67
     1
  8
0
100
AcDbBlockBegin
  2
*Paper_Space
 70
     0
 10
0.0
 20
0.0
 30
0.0
  3
*Paper_Space
  1

  0
ENDBLK
  5
1D
330
1B
100
AcDbEntity
 67
     1
  8
0
100
AcDbBlockEnd
  0
BLOCK
  5
24
330
23
100
AcDbEntity
  8
0
100
AcDbBlockBegin
  2
*Paper_Space0
 70
     0
 10
0.0
 20
0.0
 30
0.0
  3
*Paper_Space0
  1

  0
ENDBLK
  5
25
330
23
100
AcDbEntity
  8
0
100
AcDbBlockEnd
  0
ENDSEC
  0
SECTION
  2
ENTITIES
  0
CIRCLE
  5
73
330
1F
100
AcDbEntity
  8
0
  6
Continuous
 62
     7
100
AcDbCircle
 10
6485.8857387105
 20
5164.8604039269
 30
0.0
 40
0.4999999999997191
  0
ARC
  5
74
330
1F
100
AcDbEntity
  8
0
  6
Continuous
 62
     7
100
AcDbCircle
 10
6485.8857387105
 20
5164.8604039269
 30
0.0
 40
1.999999731530653
100
AcDbArc
 50
56.1873746684
 51
42.7888427185
  0
CIRCLE
  5
75
330
1F
100
AcDbEntity
  8
0
  6
Continuous
 62
     7
100
AcDbCircle
 10
6485.8857390817
 20
5259.8604005886
 30
0.0
 40
0.4999999999994532
  0
ARC
  5
76
330
1F
100
AcDbEntity
  8
0
  6
Continuous
 62
     7
100
AcDbCircle
 10
6485.8857390817
 20
5259.8604005886
 30
0.0
 40
1.999999138278249
100
AcDbArc
 50
280.6539671018
 51
267.2555713686
  0
CIRCLE
  5
77
330
1F
100
AcDbEntity
  8
0
  6
Continuous
 62
     7
100
AcDbCircle
 10
6485.8857390817
 20
5259.8604005886
 30
0.0
 40
3.499999999998975
  0
CIRCLE
  5
78
330
1F
100
AcDbEntity
  8
0
  6
Continuous
 62
     7
100
AcDbCircle
 10
6485.8857387105
 20
5164.8604039269
 30
0.0
 40
3.500000000000111
  0
ARC
  5
79
330
1F
100
AcDbEntity
  8
0
  6
Continuous
 62
     7
100
AcDbCircle
 10
6490.8857423528
 20
5262.6532947013
 30
0.0
 40
5.000000000000954
100
AcDbArc
 50
359.9999923476
 51
90.0000027319
  0
ARC
  5
7A
330
1F
100
AcDbEntity
  8
0
  6
Continuous
 62
     7
100
AcDbCircle
 10
6490.8857423528
 20
5162.0675082991
 30
0.0
 40
5.000000000000959
100
AcDbArc
 50
269.9999972681
 51
359.9999919419
  0
CIRCLE
  5
7B
330
1F
100
AcDbEntity
  8
0
  6
Continuous
 62
     7
100
AcDbCircle
 10
6230.9119431528
 20
5048.2244695189
 30
0.0
 40
3.5
  0
CIRCLE
  5
7C
330
1F
100
AcDbEntity
  8
0
  6
Continuous
 62
     7
100
AcDbCircle
 10
6230.9119431528
 20
5048.2244695189
 30
0.0
 40
1.649999999999636
  0
CIRCLE
  5
7D
330
1F
100
AcDbEntity
  8
0
  6
Continuous
 62
     7
100
AcDbCircle
 10
6320.9119431528
 20
5048.2244695189
 30
0.0
 40
1.649999999998727
  0
CIRCLE
  5
7E
330
1F
100
AcDbEntity
  8
0
  6
Continuous
 62
     7
100
AcDbCircle
 10
6320.9119431528
 20
5048.2244695189
 30
0.0
 40
3.499999999999091
  0
ARC
  5
7F
330
1F
100
AcDbEntity
  8
0
  6
Continuous
 62
     7
100
AcDbCircle
 10
6201.1190487298
 20
5048.2244697573
 30
0.0
 40
5.000000000000108
100
AcDbArc
 50
180.000011953
 51
270.0000307357
  0
ARC
  5
80
330
1F
100
AcDbEntity
  8
0
  6
Continuous
 62
     7
100
AcDbCircle
 10
6350.7048375758
 20
5048.2244697573
 30
0.0
 40
5.000000000000108
100
AcDbArc
 50
269.9999692642
 51
359.999988047
  0
LINE
  5
81
330
1F
100
AcDbEntity
  8
0
  6
Continuous
 62
     7
100
AcDbLine
 10
6389.0187574223
 20
5283.6994525066
 30
0.0
 11
6159.0187532499
 21
5283.6994525066
 31
0.0
  0
LINE
  5
82
330
1F
100
AcDbEntity
  8
0
  6
Continuous
 62
     7
100
AcDbLine
 10
6389.0187574223
 20
5143.6994519105
 30
0.0
 11
6389.0187574223
 21
5283.6994525066
 31
0.0
  0
LINE
  5
83
330
1F
100
AcDbEntity
  8
0
  6
Continuous
 62
     7
100
AcDbLine
 10
6159.0187532499
 20
5143.6994519105
 30
0.0
 11
6389.0187574223
 21
5143.6994519105
 31
0.0
  0
LINE
  5
84
330
1F
100
AcDbEntity
  8
0
  6
Continuous
 62
     7
100
AcDbLine
 10
6159.0187532499
 20
5283.6994525066
 30
0.0
 11
6159.0187532499
 21
5143.6994519105
 31
0.0
  0
LINE
  5
85
330
1F
100
AcDbEntity
  8
0
  6
Continuous
 62
     7
100
AcDbLine
 10
6489.0293368264
 20
5267.6532947013
 30
0.0
 11
6488.8857417866
 21
5267.8604022154
 31
0.0
  0
LINE
  5
86
330
1F
100
AcDbEntity
  8
0
  6
Continuous
 62
     7
100
AcDbLine
 10
6482.8857408031
 20
5267.8604022154
 30
0.0
 11
6482.7360102102
 21
5267.6532947013
 31
0.0
  0
LINE
  5
87
330
1F
100
AcDbEntity
  8
0
  6
Continuous
 62
     7
100
AcDbLine
 10
6482.3857435151
 20
5270.3603998312
 30
0.0
 11
6482.8857408031
 21
5269.8604025433
 31
0.0
  0
LINE
  5
88
330
1F
100
AcDbEntity
  8
0
  6
Continuous
 62
     7
100
AcDbLine
 10
6488.8857417866
 20
5269.8604025433
 30
0.0
 11
6489.3857427999
 21
5270.3603998312
 31
0.0
  0
LINE
  5
89
330
1F
100
AcDbEntity
  8
0
  6
Continuous
 62
     7
100
AcDbLine
 10
6482.8857408031
 20
5268.3603995034
 30
0.0
 11
6482.8857408031
 21
5267.8604022154
 31
0.0
  0
LINE
  5
8A
330
1F
100
AcDbEntity
  8
0
  6
Continuous
 62
     7
100
AcDbLine
 10
6488.8857417866
 20
5267.8604022154
 30
0.0
 11
6488.8857417866
 21
5268.3603995034
 31
0.0
  0
LINE
  5
8B
330
1F
100
AcDbEntity
  8
0
  6
Continuous
 62
     7
100
AcDbLine
 10
6482.7421494886
 20
5157.0675082991
 30
0.0
 11
6482.8857408031
 21
5156.8604007849
 31
0.0
  0
LINE
  5
8C
330
1F
100
AcDbEntity
  8
0
  6
Continuous
 62
     7
100
AcDbLine
 10
6488.8857417866
 20
5156.8604007849
 30
0.0
 11
6489.0354723796
 21
5157.0675082991
 31
0.0
  0
LINE
  5
8D
330
1F
100
AcDbEntity
  8
0
  6
Continuous
 62
     7
100
AcDbLine
 10
6489.3857427999
 20
5154.3603994438
 30
0.0
 11
6488.8857417866
 21
5154.8604004571
 31
0.0
  0
LINE
  5
8E
330
1F
100
AcDbEntity
  8
0
  6
Continuous
 62
     7
100
AcDbLine
 10
6482.8857408031
 20
5154.8604004571
 30
0.0
 11
6482.3857435151
 21
5154.3603994438
 31
0.0
  0
LINE
  5
8F
330
1F
100
AcDbEntity
  8
0
  6
Continuous
 62
     7
100
AcDbLine
 10
6488.8857417866
 20
5156.3603997716
 30
0.0
 11
6488.8857417866
 21
5156.8604007849
 31
0.0
  0
LINE
  5
90
330
1F
100
AcDbEntity
  8
0
  6
Continuous
 62
     7
100
AcDbLine
 10
6482.8857408031
 20
5156.8604007849
 30
0.0
 11
6482.8857408031
 21
5156.3603997716
 31
0.0
  0
LINE
  5
91
330
1F
100
AcDbEntity
  8
0
  6
Continuous
 62
     7
100
AcDbLine
 10
6478.8857438728
 20
5267.3604012022
 30
0.0
 11
6478.8857438728
 21
5157.3604017982
 31
0.0
  0
LINE
  5
92
330
1F
100
AcDbEntity
  8
0
  6
Continuous
 62
     7
100
AcDbLine
 10
6501.9982420965
 20
5211.4034195916
 30
0.0
 11
6501.8857420548
 21
5211.4034195916
 31
0.0
  0
LINE
  5
93
330
1F
100
AcDbEntity
  8
0
  6
Continuous
 62
     7
100
AcDbLine
 10
6501.9982420965
 20
5211.8363504784
 30
0.0
 11
6501.8857420548
 21
5211.8363504784
 31
0.0
  0
LINE
  5
94
330
1F
100
AcDbEntity
  8
0
  6
Continuous
 62
     7
100
AcDbLine
 10
6501.8857420548
 20
5205.2938536295
 30
0.0
 11
6501.9982420965
 21
5205.2938536295
 31
0.0
  0
LINE
  5
95
330
1F
100
AcDbEntity
  8
0
  6
Continuous
 62
     7
100
AcDbLine
 10
6501.9982420965
 20
5217.7798197159
 30
0.0
 11
6501.8857420548
 21
5217.7798197159
 31
0.0
  0
LINE
  5
96
330
1F
100
AcDbEntity
  8
0
  6
Continuous
 62
     7
100
AcDbLine
 10
6501.9982420965
 20
5218.2127506027
 30
0.0
 11
6501.8857420548
 21
5218.2127506027
 31
0.0
  0
LINE
  5
97
330
1F
100
AcDbEntity
  8
0
  6
Continuous
 62
     7
100
AcDbLine
 10
6501.8857420548
 20
5211.6702539866
 30
0.0
 11
6501.9982420965
 21
5211.6702539866
 31
0.0
  0
LINE
  5
98
330
1F
100
AcDbEntity
  8
0
  6
Continuous
 62
     7
100
AcDbLine
 10
6501.9982420965
 20
5214.5886568256
 30
0.0
 11
6501.8857420548
 21
5214.5886568256
 31
0.0
  0
LINE
  5
99
330
1F
100
AcDbEntity
  8
0
  6
Continuous
 62
     7
100
AcDbLine
 10
6501.9982420965
 20
5215.0215877706
 30
0.0
 11
6501.8857420548
 21
5215.0215877706
 31
0.0
  0
LINE
  5
9A
330
1F
100
AcDbEntity
  8
0
  6
Continuous
 62
     7
100
AcDbLine
 10
6501.8857420548
 20
5208.4790913874
 30
0.0
 11
6501.9982420965
 21
5208.4790913874
 31
0.0
  0
LINE
  5
9B
330
1F
100
AcDbEntity
  8
0
  6
Continuous
 62
     7
100
AcDbLine
 10
6487.3534628316
 20
5166.2190005669
 30
0.0
 11
6486.9898782238
 21
5166.5089585373
 31
0.0
  0
LINE
  5
9C
330
1F
100
AcDbEntity
  8
0
  6
Continuous
 62
     7
100
AcDbLine
 10
6486.9986959859
 20
5166.5221274385
 30
0.0
 11
6486.9898782238
 21
5166.5089585373
 31
0.0
  0
LINE
  5
9D
330
1F
100
AcDbEntity
  8
0
  6
Continuous
 62
     7
100
AcDbLine
 10
6485.7899771198
 20
5257.8626953551
 30
0.0
 11
6486.2525650426
 21
5257.9104535768
 31
0.0
  0
LINE
  5
9E
330
1F
100
AcDbEntity
  8
0
  6
Continuous
 62
     7
100
AcDbLine
 10
6486.2554931208
 20
5257.894878138
 30
0.0
 11
6486.2525650426
 21
5257.9104535768
 31
0.0
  0
LINE
  5
9F
330
1F
100
AcDbEntity
  8
0
  6
Continuous
 62
     7
100
AcDbLine
 10
6488.8857417866
 20
5267.8604022154
 30
0.0
 11
6482.8857408031
 21
5267.8604022154
 31
0.0
  0
LINE
  5
A0
330
1F
100
AcDbEntity
  8
0
  6
Continuous
 62
     7
100
AcDbLine
 10
6482.3857435151
 20
5270.3603998312
 30
0.0
 11
6489.3857427999
 21
5270.3603998312
 31
0.0
  0
LINE
  5
A1
330
1F
100
AcDbEntity
  8
0
  6
Continuous
 62
     7
100
AcDbLine
 10
6486.963395135
 20
5156.8604007849
 30
0.0
 11
6488.8857417866
 21
5156.8604007849
 31
0.0
  0
LINE
  5
A2
330
1F
100
AcDbEntity
  8
0
  6
Continuous
 62
     7
100
AcDbLine
 10
6482.8857408031
 20
5156.8604007849
 30
0.0
 11
6486.963395135
 21
5156.8604007849
 31
0.0
  0
LINE
  5
A3
330
1F
100
AcDbEntity
  8
0
  6
Continuous
 62
     7
100
AcDbLine
 10
6482.6193527445
 20
5154.3603994438
 30
0.0
 11
6482.3857435151
 21
5154.3603994438
 31
0.0
  0
LINE
  5
A4
330
1F
100
AcDbEntity
  8
0
  6
Continuous
 62
     7
100
AcDbLine
 10
6489.3857427999
 20
5154.3603994438
 30
0.0
 11
6482.6193527445
 21
5154.3603994438
 31
0.0
  0
LINE
  5
A5
330
1F
100
AcDbEntity
  8
0
  6
Continuous
 62
     7
100
AcDbLine
 10
6481.3857414886
 20
5157.0675082991
 30
0.0
 11
6481.3857414886
 21
5267.6532947013
 31
0.0
  0
LINE
  5
A6
330
1F
100
AcDbEntity
  8
0
  6
Continuous
 62
     7
100
AcDbLine
 10
6481.3857414886
 20
5267.6532947013
 30
0.0
 11
6490.8857421144
 21
5267.6532947013
 31
0.0
  0
LINE
  5
A7
330
1F
100
AcDbEntity
  8
0
  6
Continuous
 62
     7
100
AcDbLine
 10
6481.3857414886
 20
5157.0675082991
 30
0.0
 11
6490.8857421144
 21
5157.0675082991
 31
0.0
  0
LINE
  5
A8
330
1F
100
AcDbEntity
  8
0
  6
Continuous
 62
     7
100
AcDbLine
 10
6481.3857414886
 20
5269.8604025433
 30
0.0
 11
6481.3857414886
 21
5268.3603995034
 31
0.0
  0
LINE
  5
A9
330
1F
100
AcDbEntity
  8
0
  6
Continuous
 62
     7
100
AcDbLine
 10
6481.3857414886
 20
5154.8604004571
 30
0.0
 11
6481.3857414886
 21
5156.3603997716
 31
0.0
  0
LINE
  5
AA
330
1F
100
AcDbEntity
  8
0
  6
Continuous
 62
     7
100
AcDbLine
 10
6485.8857431575
 20
5268.3603995034
 30
0.0
 11
6485.8857431575
 21
5269.8604025433
 31
0.0
  0
LINE
  5
AB
330
1F
100
AcDbEntity
  8
0
  6
Continuous
 62
     7
100
AcDbLine
 10
6481.3857414886
 20
5268.3603995034
 30
0.0
 11
6485.8857431575
 21
5268.3603995034
 31
0.0
  0
LINE
  5
AC
330
1F
100
AcDbEntity
  8
0
  6
Continuous
 62
     7
100
AcDbLine
 10
6485.8857431575
 20
5269.8604025433
 30
0.0
 11
6481.3857414886
 21
5269.8604025433
 31
0.0
  0
LINE
  5
AD
330
1F
100
AcDbEntity
  8
0
  6
Continuous
 62
     7
100
AcDbLine
 10
6485.8857431575
 20
5154.8604004571
 30
0.0
 11
6485.8857431575
 21
5156.3603997716
 31
0.0
  0
LINE
  5
AE
330
1F
100
AcDbEntity
  8
0
  6
Continuous
 62
     7
100
AcDbLine
 10
6481.3857414886
 20
5156.3603997716
 30
0.0
 11
6485.8857431575
 21
5156.3603997716
 31
0.0
  0
LINE
  5
AF
330
1F
100
AcDbEntity
  8
0
  6
Continuous
 62
     7
100
AcDbLine
 10
6485.8857431575
 20
5154.8604004571
 30
0.0
 11
6481.3857414886
 21
5154.8604004571
 31
0.0
  0
LINE
  5
B0
330
1F
100
AcDbEntity
  8
0
  6
Continuous
 62
     7
100
AcDbLine
 10
6490.8857421144
 20
5156.3603997716
 30
0.0
 11
6490.8857421144
 21
5154.8604004571
 31
0.0
  0
LINE
  5
B1
330
1F
100
AcDbEntity
  8
0
  6
Continuous
 62
     7
100
AcDbLine
 10
6485.8857431575
 20
5156.3603997716
 30
0.0
 11
6490.8857421144
 21
5156.3603997716
 31
0.0
  0
LINE
  5
B2
330
1F
100
AcDbEntity
  8
0
  6
Continuous
 62
     7
100
AcDbLine
 10
6490.8857421144
 20
5154.8604004571
 30
0.0
 11
6485.8857431575
 21
5154.8604004571
 31
0.0
  0
LINE
  5
B3
330
1F
100
AcDbEntity
  8
0
  6
Continuous
 62
     7
100
AcDbLine
 10
6490.8857421144
 20
5269.8604025433
 30
0.0
 11
6490.8857421144
 21
5268.3603995034
 31
0.0
  0
LINE
  5
B4
330
1F
100
AcDbEntity
  8
0
  6
Continuous
 62
     7
100
AcDbLine
 10
6490.8857421144
 20
5268.3603995034
 30
0.0
 11
6485.8857431575
 21
5268.3603995034
 31
0.0
  0
LINE
  5
B5
330
1F
100
AcDbEntity
  8
0
  6
Continuous
 62
     7
100
AcDbLine
 10
6485.8857431575
 20
5269.8604025433
 30
0.0
 11
6490.8857421144
 21
5269.8604025433
 31
0.0
  0
LINE
  5
B6
330
1F
100
AcDbEntity
  8
0
  6
Continuous
 62
     7
100
AcDbLine
 10
6497.8857413992
 20
5285.3604041526
 30
0.0
 11
6495.8857410713
 21
5285.3604041526
 31
0.0
  0
LINE
  5
B7
330
1F
100
AcDbEntity
  8
0
  6
Continuous
 62
     7
100
AcDbLine
 10
6495.8857410713
 20
5285.3604041526
 30
0.0
 11
6495.8857410713
 21
5148.3604021856
 31
0.0
  0
LINE
  5
B8
330
1F
100
AcDbEntity
  8
0
  6
Continuous
 62
     7
100
AcDbLine
 10
6497.8857413992
 20
5148.3604021856
 30
0.0
 11
6495.8857410713
 21
5148.3604021856
 31
0.0
  0
LINE
  5
B9
330
1F
100
AcDbEntity
  8
0
  6
Continuous
 62
     7
100
AcDbLine
 10
6501.9857437476
 20
5211.094110368
 30
0.0
 11
6501.8857420548
 21
5211.094110368
 31
0.0
  0
LINE
  5
BA
330
1F
100
AcDbEntity
  8
0
  6
Continuous
 62
     7
100
AcDbLine
 10
6501.9857437476
 20
5205.2977102363
 30
0.0
 11
6501.8857420548
 21
5205.2977102363
 31
0.0
  0
LINE
  5
BB
330
1F
100
AcDbEntity
  8
0
  6
Continuous
 62
     7
100
AcDbLine
 10
6501.9857437476
 20
5217.4705104923
 30
0.0
 11
6501.8857420548
 21
5217.4705104923
 31
0.0
  0
LINE
  5
BC
330
1F
100
AcDbEntity
  8
0
  6
Continuous
 62
     7
100
AcDbLine
 10
6501.9857437476
 20
5211.6741103606
 30
0.0
 11
6501.8857420548
 21
5211.6741103606
 31
0.0
  0
LINE
  5
BD
330
1F
100
AcDbEntity
  8
0
  6
Continuous
 62
     7
100
AcDbLine
 10
6501.9857437476
 20
5214.2793477475
 30
0.0
 11
6501.8857420548
 21
5214.2793477475
 31
0.0
  0
LINE
  5
BE
330
1F
100
AcDbEntity
  8
0
  6
Continuous
 62
     7
100
AcDbLine
 10
6501.9857437476
 20
5208.4829475285
 30
0.0
 11
6501.8857420548
 21
5208.4829475285
 31
0.0
  0
LINE
  5
BF
330
1F
100
AcDbEntity
  8
0
  6
Continuous
 62
     7
100
AcDbLine
 10
6501.8857420548
 20
5286.3603987286
 30
0.0
 11
6501.8857420548
 21
5146.3603981325
 31
0.0
  0
LINE
  5
C0
330
1F
100
AcDbEntity
  8
0
  6
Continuous
 62
     7
100
AcDbLine
 10
6501.8857420548
 20
5146.3603981325
 30
0.0
 11
6497.8857413992
 21
5146.3603981325
 31
0.0
  0
LINE
  5
C1
330
1F
100
AcDbEntity
  8
0
  6
Continuous
 62
     7
100
AcDbLine
 10
6501.8857420548
 20
5286.3603987286
 30
0.0
 11
6497.8857413992
 21
5286.3603987286
 31
0.0
  0
LINE
  5
C2
330
1F
100
AcDbEntity
  8
0
  6
Continuous
 62
     7
100
AcDbLine
 10
6497.8857413992
 20
5286.3603987286
 30
0.0
 11
6497.8857413992
 21
5146.3603981325
 31
0.0
  0
LINE
  5
C3
330
1F
100
AcDbEntity
  8
0
  6
Continuous
 62
     7
100
AcDbLine
 10
6192.8136359009
 20
5050.2152787508
 30
0.0
 11
6192.8081820759
 21
5050.2058798434
 31
0.0
  0
LINE
  5
C4
330
1F
100
AcDbEntity
  8
0
  6
Continuous
 62
     7
100
AcDbLine
 10
6192.2984133514
 20
5050.224469042
 30
0.0
 11
6192.0830617699
 21
5050.224469042
 31
0.0
  0
LINE
  5
C5
330
1F
100
AcDbEntity
  8
0
  6
Continuous
 62
     7
100
AcDbLine
 10
6191.9119442853
 20
5050.224469042
 30
0.0
 11
6191.8640817555
 21
5050.224469042
 31
0.0
  0
LINE
  5
C6
330
1F
100
AcDbEntity
  8
0
  6
Continuous
 62
     7
100
AcDbLine
 10
6192.9984177503
 20
5050.224469042
 30
0.0
 11
6192.8234185132
 21
5050.224469042
 31
0.0
  0
LINE
  5
C7
330
1F
100
AcDbEntity
  8
0
  6
Continuous
 62
     7
100
AcDbLine
 10
6193.1737373623
 20
5046.2244683864
 30
0.0
 11
6193.3484162244
 21
5046.2244683864
 31
0.0
  0
LINE
  5
C8
330
1F
100
AcDbEntity
  8
0
  6
Continuous
 62
     7
100
AcDbLine
 10
6192.4737329635
 20
5046.2244683864
 30
0.0
 11
6192.6484192761
 21
5046.2244683864
 31
0.0
  0
LINE
  5
C9
330
1F
100
AcDbEntity
  8
0
  6
Continuous
 62
     7
100
AcDbLine
 10
6191.8640817555
 20
5050.224469042
 30
0.0
 11
6190.3640787157
 21
5048.7244697275
 31
0.0
  0
LINE
  5
CA
330
1F
100
AcDbEntity
  8
0
  6
Continuous
 62
     7
100
AcDbLine
 10
6190.3640787157
 20
5047.7244677009
 30
0.0
 11
6191.8640817555
 21
5046.2244683864
 31
0.0
  0
LINE
  5
CB
330
1F
100
AcDbEntity
  8
0
  6
Continuous
 62
     7
100
AcDbLine
 10
6358.7138290557
 20
5046.2244683864
 30
0.0
 11
6358.8107089552
 21
5046.2244683864
 31
0.0
  0
LINE
  5
CC
330
1F
100
AcDbEntity
  8
0
  6
Continuous
 62
     7
100
AcDbLine
 10
6358.4607104811
 20
5050.224469042
 30
0.0
 11
6358.4119464311
 21
5050.224469042
 31
0.0
  0
LINE
  5
CD
330
1F
100
AcDbEntity
  8
0
  6
Continuous
 62
     7
100
AcDbLine
 10
6359.1607148799
 20
5050.224469042
 30
0.0
 11
6359.0638275298
 21
5050.224469042
 31
0.0
  0
LINE
  5
CE
330
1F
100
AcDbEntity
  8
0
  6
Continuous
 62
     7
100
AcDbLine
 10
6192.0830617699
 20
5050.224469042
 30
0.0
 11
6191.9119442853
 21
5050.224469042
 31
0.0
  0
LINE
  5
CF
330
1F
100
AcDbEntity
  8
0
  6
Continuous
 62
     7
100
AcDbLine
 10
6192.7830661687
 20
5050.224469042
 30
0.0
 11
6192.608059481
 21
5050.224469042
 31
0.0
  0
LINE
  5
D0
330
1F
100
AcDbEntity
  8
0
  6
Continuous
 62
     7
100
AcDbLine
 10
6193.4119398745
 20
5050.224469042
 30
0.0
 11
6193.3080638799
 21
5050.224469042
 31
0.0
  0
LINE
  5
D1
330
1F
100
AcDbEntity
  8
0
  6
Continuous
 62
     7
100
AcDbLine
 10
6192.9580654057
 20
5046.2244683864
 30
0.0
 11
6193.1330646428
 21
5046.2244683864
 31
0.0
  0
LINE
  5
D2
330
1F
100
AcDbEntity
  8
0
  6
Continuous
 62
     7
100
AcDbLine
 10
6191.9119442853
 20
5046.2244683864
 30
0.0
 11
6192.433060244
 21
5046.2244683864
 31
0.0
  0
LINE
  5
D3
330
1F
100
AcDbEntity
  8
0
  6
Continuous
 62
     7
100
AcDbLine
 10
6193.4263194951
 20
5046.6142939391
 30
0.0
 11
6193.4431652578
 21
5046.5853074553
 31
0.0
  0
LINE
  5
D4
330
1F
100
AcDbEntity
  8
0
  6
Continuous
 62
     7
100
AcDbLine
 10
6191.9119442853
 20
5050.224469042
 30
0.0
 11
6190.4119412454
 21
5048.7244697275
 31
0.0
  0
LINE
  5
D5
330
1F
100
AcDbEntity
  8
0
  6
Continuous
 62
     7
100
AcDbLine
 10
6190.4119412454
 20
5047.7244677009
 30
0.0
 11
6191.9119442853
 21
5046.2244683864
 31
0.0
  0
LINE
  5
D6
330
1F
100
AcDbEntity
  8
0
  6
Continuous
 62
     7
100
AcDbLine
 10
6359.4138185533
 20
5046.2244683864
 30
0.0
 11
6359.9119420203
 21
5046.2244683864
 31
0.0
  0
LINE
  5
D7
330
1F
100
AcDbEntity
  8
0
  6
Continuous
 62
     7
100
AcDbLine
 10
6359.2388193163
 20
5046.2244683864
 30
0.0
 11
6359.4138185533
 21
5046.2244683864
 31
0.0
  0
LINE
  5
D8
330
1F
100
AcDbEntity
  8
0
  6
Continuous
 62
     7
100
AcDbLine
 10
6358.5388149175
 20
5046.2244683864
 30
0.0
 11
6358.7138290557
 21
5046.2244683864
 31
0.0
  0
LINE
  5
D9
330
1F
100
AcDbEntity
  8
0
  6
Continuous
 62
     7
100
AcDbLine
 10
6359.0638275298
 20
5050.224469042
 30
0.0
 11
6358.8888282927
 21
5050.224469042
 31
0.0
  0
LINE
  5
DA
330
1F
100
AcDbEntity
  8
0
  6
Continuous
 62
     7
100
AcDbLine
 10
6359.9119420203
 20
5050.224469042
 30
0.0
 11
6359.588825241
 21
5050.224469042
 31
0.0
  0
LINE
  5
DB
330
1F
100
AcDbEntity
  8
0
  6
Continuous
 62
     7
100
AcDbLine
 10
6359.9119420203
 20
5046.2244683864
 30
0.0
 11
6361.4119450601
 21
5047.7244677009
 31
0.0
  0
LINE
  5
DC
330
1F
100
AcDbEntity
  8
0
  6
Continuous
 62
     7
100
AcDbLine
 10
6361.4119450601
 20
5048.7243952217
 30
0.0
 11
6359.9119420203
 21
5050.224469042
 31
0.0
  0
LINE
  5
DD
330
1F
100
AcDbEntity
  8
0
  6
Continuous
 62
     7
100
AcDbLine
 10
6196.1190487298
 20
5051.3680623831
 30
0.0
 11
6195.9119449409
 21
5051.2244710686
 31
0.0
  0
LINE
  5
DE
330
1F
100
AcDbEntity
  8
0
  6
Continuous
 62
     7
100
AcDbLine
 10
6193.4119398745
 20
5044.7244690718
 30
0.0
 11
6193.9119408878
 21
5045.2244700851
 31
0.0
  0
LINE
  5
DF
330
1F
100
AcDbEntity
  8
0
  6
Continuous
 62
     7
100
AcDbLine
 10
6193.9119408878
 20
5051.2244710686
 30
0.0
 11
6193.4119398745
 21
5051.7244683566
 31
0.0
  0
LINE
  5
E0
330
1F
100
AcDbEntity
  8
0
  6
Continuous
 62
     7
100
AcDbLine
 10
6195.4119439277
 20
5045.2244700851
 30
0.0
 11
6195.9119449409
 21
5045.2244738104
 31
0.0
  0
LINE
  5
E1
330
1F
100
AcDbEntity
  8
0
  6
Continuous
 62
     7
100
AcDbLine
 10
6195.9119449409
 20
5051.2244710686
 30
0.0
 11
6195.4119439277
 21
5051.2244710686
 31
0.0
  0
LINE
  5
E2
330
1F
100
AcDbEntity
  8
0
  6
Continuous
 62
     7
100
AcDbLine
 10
6355.9119413647
 20
5051.2244710686
 30
0.0
 11
6355.7048375758
 21
5051.3742016615
 31
0.0
  0
LINE
  5
E3
330
1F
100
AcDbEntity
  8
0
  6
Continuous
 62
     7
100
AcDbLine
 10
6358.4119464311
 20
5051.7244683566
 30
0.0
 11
6357.9119454178
 21
5051.2244710686
 31
0.0
  0
LINE
  5
E4
330
1F
100
AcDbEntity
  8
0
  6
Continuous
 62
     7
100
AcDbLine
 10
6357.9119454178
 20
5045.2244700851
 30
0.0
 11
6358.4119464311
 21
5044.7244690718
 31
0.0
  0
LINE
  5
E5
330
1F
100
AcDbEntity
  8
0
  6
Continuous
 62
     7
100
AcDbLine
 10
6356.4119423779
 20
5051.2244710686
 30
0.0
 11
6355.9119413647
 21
5051.2244710686
 31
0.0
  0
LINE
  5
E6
330
1F
100
AcDbEntity
  8
0
  6
Continuous
 62
     7
100
AcDbLine
 10
6355.9119413647
 20
5045.2244700851
 30
0.0
 11
6356.4119423779
 21
5045.2244700851
 31
0.0
  0
LINE
  5
E7
330
1F
100
AcDbEntity
  8
0
  6
Continuous
 62
     7
100
AcDbLine
 10
6240.3282943221
 20
5032.1119697752
 30
0.0
 11
6240.3282943221
 21
5032.2244698169
 31
0.0
  0
LINE
  5
E8
330
1F
100
AcDbEntity
  8
0
  6
Continuous
 62
     7
100
AcDbLine
 10
6210.7552449259
 20
5032.2244698169
 30
0.0
 11
6210.7552449259
 21
5032.1119697752
 31
0.0
  0
LINE
  5
E9
330
1F
100
AcDbEntity
  8
0
  6
Continuous
 62
     7
100
AcDbLine
 10
6340.7483856233
 20
5032.1119697752
 30
0.0
 11
6340.7483856233
 21
5032.2244698169
 31
0.0
  0
LINE
  5
EA
330
1F
100
AcDbEntity
  8
0
  6
Continuous
 62
     7
100
AcDbLine
 10
6311.1753362271
 20
5032.2244698169
 30
0.0
 11
6311.1753362271
 21
5032.1119697752
 31
0.0
  0
LINE
  5
EB
330
1F
100
AcDbEntity
  8
0
  6
Continuous
 62
     7
100
AcDbLine
 10
6232.3991517576
 20
5048.8696256639
 30
0.0
 11
6232.423358694
 21
5048.8043623032
 31
0.0
  0
LINE
  5
EC
330
1F
100
AcDbEntity
  8
0
  6
Continuous
 62
     7
100
AcDbLine
 10
6232.4159267398
 20
5047.6194517674
 30
0.0
 11
6232.2780500206
 21
5047.3640831174
 31
0.0
  0
LINE
  5
ED
330
1F
100
AcDbEntity
  8
0
  6
Continuous
 62
     7
100
AcDbLine
 10
6322.3013329359
 20
5047.3728151979
 30
0.0
 11
6322.4219019565
 21
5047.6345280172
 31
0.0
  0
LINE
  5
EE
330
1F
100
AcDbEntity
  8
0
  6
Continuous
 62
     7
100
AcDbLine
 10
6321.5530152472
 20
5046.7354999842
 30
0.0
 11
6321.2931836995
 21
5046.6568367543
 31
0.0
  0
LINE
  5
EF
330
1F
100
AcDbEntity
  8
0
  6
Continuous
 62
     7
100
AcDbLine
 10
6191.8640817555
 20
5046.2723309161
 30
0.0
 11
6191.8640817555
 21
5046.2244683864
 31
0.0
  0
LINE
  5
F0
330
1F
100
AcDbEntity
  8
0
  6
Continuous
 62
     7
100
AcDbLine
 10
6191.8640817555
 20
5050.224469042
 30
0.0
 11
6191.8640817555
 21
5050.1766065123
 31
0.0
  0
LINE
  5
F1
330
1F
100
AcDbEntity
  8
0
  6
Continuous
 62
     7
100
AcDbLine
 10
6190.3640787157
 20
5047.7244677009
 30
0.0
 11
6190.3640787157
 21
5048.7244697275
 31
0.0
  0
LINE
  5
F2
330
1F
100
AcDbEntity
  8
0
  6
Continuous
 62
     7
100
AcDbLine
 10
6191.9119442853
 20
5050.224469042
 30
0.0
 11
6191.9119442853
 21
5046.2244683864
 31
0.0
  0
LINE
  5
F3
330
1F
100
AcDbEntity
  8
0
  6
Continuous
 62
     7
100
AcDbLine
 10
6190.4119412454
 20
5048.3169080677
 30
0.0
 11
6190.4119412454
 21
5048.7244697275
 31
0.0
  0
LINE
  5
F4
330
1F
100
AcDbEntity
  8
0
  6
Continuous
 62
     7
100
AcDbLine
 10
6190.4119412454
 20
5047.7244677009
 30
0.0
 11
6190.4119412454
 21
5048.3169080677
 31
0.0
  0
LINE
  5
F5
330
1F
100
AcDbEntity
  8
0
  6
Continuous
 62
     7
100
AcDbLine
 10
6359.9119420203
 20
5046.2872469785
 30
0.0
 11
6359.9277894052
 21
5046.2406175198
 31
0.0
  0
LINE
  5
F6
330
1F
100
AcDbEntity
  8
0
  6
Continuous
 62
     7
100
AcDbLine
 10
6359.9119420203
 20
5046.2247701349
 30
0.0
 11
6359.411941007
 21
5046.2247701349
 31
0.0
  0
LINE
  5
F7
330
1F
100
AcDbEntity
  8
0
  6
Continuous
 62
     7
100
AcDbLine
 10
6359.9119420203
 20
5046.2872469785
 30
0.0
 11
6359.9119420203
 21
5050.224469042
 31
0.0
  0
LINE
  5
F8
330
1F
100
AcDbEntity
  8
0
  6
Continuous
 62
     7
100
AcDbLine
 10
6359.411941007
 20
5046.2247701349
 30
0.0
 11
6359.6306900534
 21
5046.6035986306
 31
0.0
  0
LINE
  5
F9
330
1F
100
AcDbEntity
  8
0
  6
Continuous
 62
     7
100
AcDbLine
 10
6361.4119450601
 20
5048.7243952217
 30
0.0
 11
6361.4119450601
 21
5047.7244677009
 31
0.0
  0
LINE
  5
FA
330
1F
100
AcDbEntity
  8
0
  6
Continuous
 62
     7
100
AcDbLine
 10
6359.9119420203
 20
5046.2247701349
 30
0.0
 11
6359.9277894052
 21
5046.2406175198
 31
0.0
  0
LINE
  5
FB
330
1F
100
AcDbEntity
  8
0
  6
Continuous
 62
     7
100
AcDbLine
 10
6359.6306900534
 20
5046.6035986306
 30
0.0
 11
6359.7141440066
 21
5046.6035986306
 31
0.0
  0
LINE
  5
FC
330
1F
100
AcDbEntity
  8
0
  6
Continuous
 62
     7
100
AcDbLine
 10
6195.9119449409
 20
5051.2244710686
 30
0.0
 11
6195.9119449409
 21
5045.2244738104
 31
0.0
  0
LINE
  5
FD
330
1F
100
AcDbEntity
  8
0
  6
Continuous
 62
     7
100
AcDbLine
 10
6193.4119398745
 20
5044.7244690718
 30
0.0
 11
6193.4119398745
 21
5051.7244683566
 31
0.0
  0
LINE
  5
FE
330
1F
100
AcDbEntity
  8
0
  6
Continuous
 62
     7
100
AcDbLine
 10
6355.9119413647
 20
5051.1946612956
 30
0.0
 11
6355.9119413647
 21
5051.2244710686
 31
0.0
  0
LINE
  5
FF
330
1F
100
AcDbEntity
  8
0
  6
Continuous
 62
     7
100
AcDbLine
 10
6355.9119413647
 20
5045.2244700851
 30
0.0
 11
6355.9119413647
 21
5051.1946612956
 31
0.0
  0
LINE
  5
100
330
1F
100
AcDbEntity
  8
0
  6
Continuous
 62
     7
100
AcDbLine
 10
6358.4119464311
 20
5047.7323206129
 30
0.0
 11
6358.4119464311
 21
5044.7244690718
 31
0.0
  0
LINE
  5
101
330
1F
100
AcDbEntity
  8
0
  6
Continuous
 62
     7
100
AcDbLine
 10
6358.4119464311
 20
5051.7244683566
 30
0.0
 11
6358.4119464311
 21
5047.7323206129
 31
0.0
  0
LINE
  5
102
330
1F
100
AcDbEntity
  8
0
  6
Continuous
 62
     7
100
AcDbLine
 10
6196.1190487298
 20
5048.2244687142
 30
0.0
 11
6196.1190487298
 21
5052.7244703831
 31
0.0
  0
LINE
  5
103
330
1F
100
AcDbEntity
  8
0
  6
Continuous
 62
     7
100
AcDbLine
 10
6355.7048375758
 20
5052.7244703831
 30
0.0
 11
6196.1190487298
 21
5052.7244703831
 31
0.0
  0
LINE
  5
104
330
1F
100
AcDbEntity
  8
0
  6
Continuous
 62
     7
100
AcDbLine
 10
6355.7048375758
 20
5048.2244687142
 30
0.0
 11
6355.7048375758
 21
5052.7244703831
 31
0.0
  0
LINE
  5
105
330
1F
100
AcDbEntity
  8
0
  6
Continuous
 62
     7
100
AcDbLine
 10
6201.119051412
 20
5043.2244697573
 30
0.0
 11
6350.7048348936
 21
5043.2244697573
 31
0.0
  0
LINE
  5
106
330
1F
100
AcDbEntity
  8
0
  6
Continuous
 62
     7
100
AcDbLine
 10
6196.4119459542
 20
5055.2244679989
 30
0.0
 11
6355.4119403514
 21
5055.2244679989
 31
0.0
  0
LINE
  5
107
330
1F
100
AcDbEntity
  8
0
  6
Continuous
 62
     7
100
AcDbLine
 10
6193.9119408878
 20
5052.7244703831
 30
0.0
 11
6195.4119439277
 21
5052.7244703831
 31
0.0
  0
LINE
  5
108
330
1F
100
AcDbEntity
  8
0
  6
Continuous
 62
     7
100
AcDbLine
 10
6357.9119454178
 20
5052.7244703831
 30
0.0
 11
6356.4119423779
 21
5052.7244703831
 31
0.0
  0
LINE
  5
109
330
1F
100
AcDbEntity
  8
0
  6
Continuous
 62
     7
100
AcDbLine
 10
6193.9119408878
 20
5043.2244697573
 30
0.0
 11
6195.4119439277
 21
5043.2244697573
 31
0.0
  0
LINE
  5
10A
330
1F
100
AcDbEntity
  8
0
  6
Continuous
 62
     7
100
AcDbLine
 10
6195.4119439277
 20
5052.7244703831
 30
0.0
 11
6195.4119439277
 21
5043.2244697573
 31
0.0
  0
LINE
  5
10B
330
1F
100
AcDbEntity
  8
0
  6
Continuous
 62
     7
100
AcDbLine
 10
6193.9119408878
 20
5052.7244703831
 30
0.0
 11
6193.9119408878
 21
5043.2244697573
 31
0.0
  0
LINE
  5
10C
330
1F
100
AcDbEntity
  8
0
  6
Continuous
 62
     7
100
AcDbLine
 10
6357.9119454178
 20
5043.2244697573
 30
0.0
 11
6357.9119454178
 21
5052.7244703831
 31
0.0
  0
LINE
  5
10D
330
1F
100
AcDbEntity
  8
0
  6
Continuous
 62
     7
100
AcDbLine
 10
6356.4119423779
 20
5043.2244697573
 30
0.0
 11
6357.9119454178
 21
5043.2244697573
 31
0.0
  0
LINE
  5
10E
330
1F
100
AcDbEntity
  8
0
  6
Continuous
 62
     7
100
AcDbLine
 10
6356.4119423779
 20
5052.7244703831
 30
0.0
 11
6356.4119423779
 21
5043.2244697573
 31
0.0
  0
LINE
  5
10F
330
1F
100
AcDbEntity
  8
0
  6
Continuous
 62
     7
100
AcDbLine
 10
6195.4119439277
 20
5043.2244697573
 30
0.0
 11
6195.4119439277
 21
5038.2244708004
 31
0.0
  0
LINE
  5
110
330
1F
100
AcDbEntity
  8
0
  6
Continuous
 62
     7
100
AcDbLine
 10
6193.9119408878
 20
5038.2244708004
 30
0.0
 11
6193.9119408878
 21
5043.2244697573
 31
0.0
  0
LINE
  5
111
330
1F
100
AcDbEntity
  8
0
  6
Continuous
 62
     7
100
AcDbLine
 10
6357.9119454178
 20
5043.2244697573
 30
0.0
 11
6357.9119454178
 21
5038.2244708004
 31
0.0
  0
LINE
  5
112
330
1F
100
AcDbEntity
  8
0
  6
Continuous
 62
     7
100
AcDbLine
 10
6356.4119423779
 20
5038.2244708004
 30
0.0
 11
6356.4119423779
 21
5043.2244697573
 31
0.0
  0
LINE
  5
113
330
1F
100
AcDbEntity
  8
0
  6
Continuous
 62
     7
100
AcDbLine
 10
6353.7048335227
 20
5044.2244680585
 30
0.0
 11
6353.7048335227
 21
5038.2244708004
 31
0.0
  0
LINE
  5
114
330
1F
100
AcDbEntity
  8
0
  6
Continuous
 62
     7
100
AcDbLine
 10
6198.1190527829
 20
5044.2244680585
 30
0.0
 11
6198.1190527829
 21
5038.2244708004
 31
0.0
  0
LINE
  5
115
330
1F
100
AcDbEntity
  8
0
  6
Continuous
 62
     7
100
AcDbLine
 10
6355.4119403514
 20
5044.8778020205
 30
0.0
 11
6355.4119403514
 21
5038.2244708004
 31
0.0
  0
LINE
  5
116
330
1F
100
AcDbEntity
  8
0
  6
Continuous
 62
     7
100
AcDbLine
 10
6354.4119457754
 20
5044.3839365603
 30
0.0
 11
6354.4119457754
 21
5038.2244708004
 31
0.0
  0
LINE
  5
117
330
1F
100
AcDbEntity
  8
0
  6
Continuous
 62
     7
100
AcDbLine
 10
6196.4119459542
 20
5044.862986541
 30
0.0
 11
6196.4119459542
 21
5038.2244708004
 31
0.0
  0
LINE
  5
118
330
1F
100
AcDbEntity
  8
0
  6
Continuous
 62
     7
100
AcDbLine
 10
6197.4119405302
 20
5044.3590478959
 30
0.0
 11
6197.4119405302
 21
5038.2244708004
 31
0.0
  0
LINE
  5
119
330
1F
100
AcDbEntity
  8
0
  6
Continuous
 62
     7
100
AcDbLine
 10
6389.4119421991
 20
5036.2244704725
 30
0.0
 11
6389.4119421991
 21
5038.2244708004
 31
0.0
  0
LINE
  5
11A
330
1F
100
AcDbEntity
  8
0
  6
Continuous
 62
     7
100
AcDbLine
 10
6162.4119441065
 20
5036.2244704725
 30
0.0
 11
6162.4119441065
 21
5038.2244708004
 31
0.0
  0
LINE
  5
11B
330
1F
100
AcDbEntity
  8
0
  6
Continuous
 62
     7
100
AcDbLine
 10
6389.4119421991
 20
5038.2244708004
 30
0.0
 11
6162.4119441065
 21
5038.2244708004
 31
0.0
  0
LINE
  5
11C
330
1F
100
AcDbEntity
  8
0
  6
Continuous
 62
     7
100
AcDbLine
 10
6231.0150089713
 20
5032.1244681241
 30
0.0
 11
6231.0150089713
 21
5032.2244698169
 31
0.0
  0
LINE
  5
11D
330
1F
100
AcDbEntity
  8
0
  6
Continuous
 62
     7
100
AcDbLine
 10
6219.2017111036
 20
5032.1244681241
 30
0.0
 11
6219.2017111036
 21
5032.2244698169
 31
0.0
  0
LINE
  5
11E
330
1F
100
AcDbEntity
  8
0
  6
Continuous
 62
     7
100
AcDbLine
 10
6211.0285098704
 20
5032.1244681241
 30
0.0
 11
6211.0285098704
 21
5032.2244698169
 31
0.0
  0
LINE
  5
11F
330
1F
100
AcDbEntity
  8
0
  6
Continuous
 62
     7
100
AcDbLine
 10
6331.4351039978
 20
5032.1244681241
 30
0.0
 11
6331.4351039978
 21
5032.2244698169
 31
0.0
  0
LINE
  5
120
330
1F
100
AcDbEntity
  8
0
  6
Continuous
 62
     7
100
AcDbLine
 10
6319.6218024048
 20
5032.1244681241
 30
0.0
 11
6319.6218024048
 21
5032.2244698169
 31
0.0
  0
LINE
  5
121
330
1F
100
AcDbEntity
  8
0
  6
Continuous
 62
     7
100
AcDbLine
 10
6311.4486011716
 20
5032.1244681241
 30
0.0
 11
6311.4486011716
 21
5032.2244698169
 31
0.0
  0
LINE
  5
122
330
1F
100
AcDbEntity
  8
0
  6
Continuous
 62
     7
100
AcDbLine
 10
6390.911945239
 20
5032.2244698169
 30
0.0
 11
6390.911945239
 21
5036.2244704725
 31
0.0
  0
LINE
  5
123
330
1F
100
AcDbEntity
  8
0
  6
Continuous
 62
     7
100
AcDbLine
 10
6390.911945239
 20
5032.2244698169
 30
0.0
 11
6160.9119410666
 21
5032.2244698169
 31
0.0
  0
LINE
  5
124
330
1F
100
AcDbEntity
  8
0
  6
Continuous
 62
     7
100
AcDbLine
 10
6160.9119410666
 20
5032.2244698169
 30
0.0
 11
6160.9119410666
 21
5036.2244704725
 31
0.0
  0
LINE
  5
125
330
1F
100
AcDbEntity
  8
0
  6
Continuous
 62
     7
100
AcDbLine
 10
6390.911945239
 20
5036.2244704725
 30
0.0
 11
6160.9119410666
 21
5036.2244704725
 31
0.0
  0
LWPOLYLINE
  5
126
330
1F
100
AcDbEntity
  8
0
  6
Continuous
 62
     7
100
AcDbPolyline
 90
        3
 70
   128
 43
0.0
 10
6218.0442810059
 20
5202.6367640143
 10
6224.859000908
 20
5203.9969940293
 10
6230.1978228286
 20
5205.1090640968
  0
LWPOLYLINE
  5
127
330
1F
100
AcDbEntity
  8
0
  6
Continuous
 62
     7
100
AcDbPolyline
 90
        5
 70
   128
 43
0.0
 10
6217.3080444336
 20
5206.7372641547
 10
6213.1417988483
 20
5207.6550031942
 10
6211.1467879488
 20
5208.4371106081
 10
6210.1144709909
 20
5208.7221362101
 10
6209.1353220537
 20
5208.433164146
  0
LWPOLYLINE
  5
128
330
1F
100
AcDbEntity
  8
0
  6
Continuous
 62
     7
100
AcDbPolyline
 90
        3
 70
   128
 43
0.0
 10
6229.118347168
 20
5209.175164208
 10
6222.5126666786
 20
5207.7970686087
 10
6217.3085232869
 20
5206.7372641547
  0
LWPOLYLINE
  5
129
330
1F
100
AcDbEntity
  8
0
  6
Continuous
 62
     7
100
AcDbPolyline
 90
        6
 70
   128
 43
0.0
 10
6238.2011413574
 20
5203.6847640781
 10
6238.4357590944
 20
5204.3720690589
 10
6238.2405196918
 20
5205.0768850297
 10
6237.2834714145
 20
5206.1845167506
 10
6234.7803455699
 20
5207.7162890275
 10
6229.1218211546
 20
5209.175164208
  0
LWPOLYLINE
  5
12A
330
1F
100
AcDbEntity
  8
0
  6
Continuous
 62
     7
100
AcDbPolyline
 90
        5
 70
   128
 43
0.0
 10
6230.1940917969
 20
5205.1090640968
 10
6234.3148209717
 20
5204.1585112225
 10
6236.2799598305
 20
5203.3648770352
 10
6237.3169810514
 20
5203.1672180673
 10
6238.2023205653
 20
5203.6847640781
  0
LWPOLYLINE
  5
12B
330
1F
100
AcDbEntity
  8
0
  6
Continuous
 62
     7
100
AcDbPolyline
 90
        5
 70
   128
 43
0.0
 10
6209.1331481934
 20
5208.433164146
 10
6209.0009475193
 20
5207.0238197346
 10
6209.8941103145
 20
5205.8482002926
 10
6212.364621938
 20
5204.214307764
 10
6218.0476208821
 20
5202.6367640143
  0
LWPOLYLINE
  5
12C
330
1F
100
AcDbEntity
  8
0
  6
Continuous
 62
     7
100
AcDbPolyline
 90
        6
 70
   128
 43
0.0
 10
6238.2011413574
 20
5210.0611642023
 10
6238.4357591228
 20
5210.7484691519
 10
6238.240519685
 20
5211.4532851133
 10
6237.2834712622
 20
5212.5609166807
 10
6234.7803455814
 20
5214.0926891918
 10
6229.1218211546
 20
5215.5515640994
  0
LWPOLYLINE
  5
12D
330
1F
100
AcDbEntity
  8
0
  6
Continuous
 62
     7
100
AcDbPolyline
 90
        5
 70
   128
 43
0.0
 10
6230.1940917969
 20
5211.485464221
 10
6234.3148210173
 20
5210.5349112145
 10
6236.27995997
 20
5209.7412772566
 10
6237.3169811024
 20
5209.5436179981
 10
6238.2023205653
 20
5210.0611642023
  0
LWPOLYLINE
  5
12E
330
1F
100
AcDbEntity
  8
0
  6
Continuous
 62
     7
100
AcDbPolyline
 90
        3
 70
   128
 43
0.0
 10
6218.0442810059
 20
5209.0131641386
 10
6224.8590010225
 20
5210.373393801
 10
6230.1978228286
 20
5211.485464221
  0
LWPOLYLINE
  5
12F
330
1F
100
AcDbEntity
  8
0
  6
Continuous
 62
     7
100
AcDbPolyline
 90
        5
 70
   128
 43
0.0
 10
6217.3080444336
 20
5213.1136642789
 10
6213.1417988906
 20
5214.0314032475
 10
6211.1467879492
 20
5214.8135104986
 10
6210.1144710009
 20
5215.0985360692
 10
6209.1353220537
 20
5214.8095642703
  0
LWPOLYLINE
  5
130
330
1F
100
AcDbEntity
  8
0
  6
Continuous
 62
     7
100
AcDbPolyline
 90
        3
 70
   128
 43
0.0
 10
6229.118347168
 20
5215.5515640994
 10
6222.5126666666
 20
5214.1734687175
 10
6217.3085232869
 20
5213.1136642789
  0
LWPOLYLINE
  5
131
330
1F
100
AcDbEntity
  8
0
  6
Continuous
 62
     7
100
AcDbPolyline
 90
        5
 70
   128
 43
0.0
 10
6209.1331481934
 20
5214.8095642703
 10
6209.0009474423
 20
5213.4002198017
 10
6209.8941102234
 20
5212.2246003487
 10
6212.3646219069
 20
5210.5907078746
 10
6218.0476208821
 20
5209.0131641386
  0
LWPOLYLINE
  5
132
330
1F
100
AcDbEntity
  8
0
  6
Continuous
 62
     7
100
AcDbPolyline
 90
        5
 70
   128
 43
0.0
 10
6309.5550537109
 20
5211.6184015255
 10
6309.4210349439
 20
5210.2090568544
 10
6310.3142023071
 20
5209.0334387337
 10
6312.7847141864
 20
5207.3995453276
 10
6318.4677159086
 20
5205.8220013065
  0
LWPOLYLINE
  5
133
330
1F
100
AcDbEntity
  8
0
  6
Continuous
 62
     7
100
AcDbPolyline
 90
        6
 70
   128
 43
0.0
 10
6338.6192321777
 20
5206.8700013703
 10
6338.8558528134
 20
5207.5573061411
 10
6338.6606144026
 20
5208.2621218435
 10
6337.7035648805
 20
5209.3697531648
 10
6335.2004394361
 20
5210.9015250797
 10
6329.5419161811
 20
5212.3604015002
  0
LWPOLYLINE
  5
134
330
1F
100
AcDbEntity
  8
0
  6
Continuous
 62
     7
100
AcDbPolyline
 90
        5
 70
   128
 43
0.0
 10
6330.6159973145
 20
5208.2943016218
 10
6334.7349125427
 20
5207.3437484525
 10
6336.7000513126
 20
5206.5501134633
 10
6337.7370728033
 20
5206.3524551671
 10
6338.6224118665
 20
5206.8700013703
  0
LWPOLYLINE
  5
135
330
1F
100
AcDbEntity
  8
0
  6
Continuous
 62
     7
100
AcDbPolyline
 90
        3
 70
   128
 43
0.0
 10
6318.4661865234
 20
5205.8220013065
 10
6325.2790937158
 20
5207.1822317012
 10
6330.6179141298
 20
5208.2943016218
  0
LWPOLYLINE
  5
136
330
1F
100
AcDbEntity
  8
0
  6
Continuous
 62
     7
100
AcDbPolyline
 90
        5
 70
   128
 43
0.0
 10
6317.7261352539
 20
5209.9225015633
 10
6313.5618904406
 20
5210.8402411377
 10
6311.5668797909
 20
5211.6223489986
 10
6310.5345624926
 20
5211.9073734789
 10
6309.5554133549
 20
5211.6184015255
  0
LWPOLYLINE
  5
137
330
1F
100
AcDbEntity
  8
0
  6
Continuous
 62
     7
100
AcDbPolyline
 90
        3
 70
   128
 43
0.0
 10
6329.5402526855
 20
5212.3604015002
 10
6322.9327595232
 20
5210.9823065102
 10
6317.7286145881
 20
5209.9225015633
  0
LWPOLYLINE
  5
138
330
1F
100
AcDbEntity
  8
0
  6
Continuous
 62
     7
100
AcDbPolyline
 90
        3
 70
   128
 43
0.0
 10
6478.8856506348
 20
5267.3604012022
 10
6479.7934507836
 20
5267.5244194638
 10
6481.3857414886
 20
5267.6532947013
  0
LWPOLYLINE
  5
139
330
1F
100
AcDbEntity
  8
0
  6
Continuous
 62
     7
100
AcDbPolyline
 90
        3
 70
   128
 43
0.0
 10
6481.3842773438
 20
5157.0675082991
 10
6479.4570853282
 20
5157.2315268548
 10
6478.8857438728
 20
5157.3604017982
  0
LWPOLYLINE
  5
13A
330
1F
100
AcDbEntity
  8
0
  6
Continuous
 62
     7
100
AcDbPolyline
 90
        3
 70
   128
 43
0.0
 10
6481.3842773438
 20
5268.3603995034
 10
6480.7023107332
 20
5268.0899101136
 10
6480.4294445678
 20
5267.5801039228
  0
LWPOLYLINE
  5
13B
330
1F
100
AcDbEntity
  8
0
  6
Continuous
 62
     7
100
AcDbPolyline
 90
        3
 70
   128
 43
0.0
 10
6481.3842773438
 20
5269.8604025433
 10
6479.4570872554
 20
5268.9526913815
 10
6478.8857438728
 20
5267.3604012022
  0
LWPOLYLINE
  5
13C
330
1F
100
AcDbEntity
  8
0
  6
Continuous
 62
     7
100
AcDbPolyline
 90
        3
 70
   128
 43
0.0
 10
6480.4267883301
 20
5157.1406990776
 10
6480.8293656381
 20
5156.5290507815
 10
6481.3857414886
 20
5156.3603997716
  0
LWPOLYLINE
  5
13D
330
1F
100
AcDbEntity
  8
0
  6
Continuous
 62
     7
100
AcDbPolyline
 90
        3
 70
   128
 43
0.0
 10
6478.8856506348
 20
5157.3604017982
 10
6479.7934502068
 20
5155.4317458788
 10
6481.3857414886
 20
5154.8604004571
  0
LWPOLYLINE
  5
13E
330
1F
100
AcDbEntity
  8
0
  6
Continuous
 62
     7
100
AcDbPolyline
 90
        4
 70
   128
 43
0.0
 10
6501.9836425781
 20
5211.3971250152
 10
6501.9857437476
 20
5211.3947909457
 10
6501.9857437476
 20
5211.3871617204
 10
6501.9857437476
 20
5211.094110368
  0
LWPOLYLINE
  5
13F
330
1F
100
AcDbEntity
  8
0
  6
Continuous
 62
     7
100
AcDbPolyline
 90
        4
 70
   128
 43
0.0
 10
6501.9836425781
 20
5217.7735249067
 10
6501.9857437476
 20
5217.7711909522
 10
6501.9857437476
 20
5217.7635618176
 10
6501.9857437476
 20
5217.4705104923
  0
LWPOLYLINE
  5
140
330
1F
100
AcDbEntity
  8
0
  6
Continuous
 62
     7
100
AcDbPolyline
 90
        3
 70
   128
 43
0.0
 10
6501.9836425781
 20
5218.2125103215
 10
6501.9857437476
 20
5218.1505556891
 10
6501.9857437476
 20
5217.9619030582
  0
LWPOLYLINE
  5
141
330
1F
100
AcDbEntity
  8
0
  6
Continuous
 62
     7
100
AcDbPolyline
 90
        3
 70
   128
 43
0.0
 10
6193.1571960449
 20
5049.9557489516
 10
6193.0745138423
 20
5050.1018753827
 10
6193.0079470428
 20
5050.216705537
  0
LWPOLYLINE
  5
142
330
1F
100
AcDbEntity
  8
0
  6
Continuous
 62
     7
100
AcDbPolyline
 90
        3
 70
   128
 43
0.0
 10
6192.4591064453
 20
5049.9557489516
 10
6192.3745156987
 20
5050.101879012
 10
6192.307942644
 20
5050.216705537
  0
LWPOLYLINE
  5
143
330
1F
100
AcDbEntity
  8
0
  6
Continuous
 62
     7
100
AcDbPolyline
 90
        3
 70
   128
 43
0.0
 10
6193.359375
 20
5046.2392354371
 10
6193.4405382431
 20
5046.3756759743
 10
6193.502762452
 20
5046.4827800156
  0
LWPOLYLINE
  5
144
330
1F
100
AcDbEntity
  8
0
  6
Continuous
 62
     7
100
AcDbPolyline
 90
        3
 70
   128
 43
0.0
 10
6192.6612854004
 20
5046.2392354371
 10
6192.7405338443
 20
5046.3756759743
 10
6192.8027580532
 20
5046.4827800156
  0
LWPOLYLINE
  5
145
330
1F
100
AcDbEntity
  8
0
  6
Continuous
 62
     7
100
AcDbPolyline
 90
        3
 70
   128
 43
0.0
 10
6358.8180541992
 20
5046.2320530774
 10
6358.9350677933
 20
5046.4295324812
 10
6359.0251366648
 20
5046.5846667053
  0
LWPOLYLINE
  5
146
330
1F
100
AcDbEntity
  8
0
  6
Continuous
 62
     7
100
AcDbPolyline
 90
        3
 70
   128
 43
0.0
 10
6358.6730957031
 20
5049.8638385894
 10
6358.5625254853
 20
5050.0572106682
 10
6358.4743003401
 20
5050.2092996599
  0
LWPOLYLINE
  5
147
330
1F
100
AcDbEntity
  8
0
  6
Continuous
 62
     7
100
AcDbPolyline
 90
        3
 70
   128
 43
0.0
 10
6359.3711853027
 20
5049.8638385894
 10
6359.2625278744
 20
5050.0572138218
 10
6359.1742972883
 20
5050.2092996599
  0
LWPOLYLINE
  5
148
330
1F
100
AcDbEntity
  8
0
  6
Continuous
 62
     7
100
AcDbPolyline
 90
        3
 70
   128
 43
0.0
 10
6193.1419372559
 20
5046.2312931182
 10
6193.2667442444
 20
5046.4446217664
 10
6193.3641294989
 20
5046.6122338535
  0
LWPOLYLINE
  5
149
330
1F
100
AcDbEntity
  8
0
  6
Continuous
 62
     7
100
AcDbPolyline
 90
        3
 70
   128
 43
0.0
 10
6192.440032959
 20
5046.2312931182
 10
6192.5667403964
 20
5046.4446233491
 10
6192.6641251
 20
5046.6122338535
  0
LWPOLYLINE
  5
14A
330
1F
100
AcDbEntity
  8
0
  6
Continuous
 62
     7
100
AcDbPolyline
 90
        3
 70
   128
 43
0.0
 10
6193.3135986328
 20
5050.2218762399
 10
6193.1911718048
 20
5050.0104902864
 10
6193.0943886789
 20
5049.844251013
  0
LWPOLYLINE
  5
14B
330
1F
100
AcDbEntity
  8
0
  6
Continuous
 62
     7
100
AcDbPolyline
 90
        3
 70
   128
 43
0.0
 10
6192.6116943359
 20
5050.2218762399
 10
6192.4911688478
 20
5050.0104918625
 10
6192.3943917307
 20
5049.844251013
  0
LWPOLYLINE
  5
14C
330
1F
100
AcDbEntity
  8
0
  6
Continuous
 62
     7
100
AcDbPolyline
 90
        3
 70
   128
 43
0.0
 10
6192.7261352539
 20
5046.614293939
 10
6192.8501177381
 20
5046.4012865992
 10
6192.9473216685
 20
5046.2338412167
  0
LWPOLYLINE
  5
14D
330
1F
100
AcDbEntity
  8
0
  6
Continuous
 62
     7
100
AcDbPolyline
 90
        3
 70
   128
 43
0.0
 10
6358.4098815918
 20
5046.435163355
 10
6358.4776952999
 20
5046.3218234917
 10
6358.5293452295
 20
5046.2327608825
  0
LWPOLYLINE
  5
14E
330
1F
100
AcDbEntity
  8
0
  6
Continuous
 62
     7
100
AcDbPolyline
 90
        3
 70
   128
 43
0.0
 10
6359.0049743652
 20
5046.6134631993
 10
6359.1321739866
 20
5046.4002981626
 10
6359.2293421778
 20
5046.2327608825
  0
LWPOLYLINE
  5
14F
330
1F
100
AcDbEntity
  8
0
  6
Continuous
 62
     7
100
AcDbPolyline
 90
        3
 70
   128
 43
0.0
 10
6359.7068786621
 20
5046.6134631993
 10
6359.8321778368
 20
5046.4002997472
 10
6359.9293465766
 20
5046.2327608825
  0
LWPOLYLINE
  5
150
330
1F
100
AcDbEntity
  8
0
  6
Continuous
 62
     7
100
AcDbPolyline
 90
        3
 70
   128
 43
0.0
 10
6358.8790893555
 20
5050.2161802711
 10
6358.7556647025
 20
5050.0029562069
 10
6358.6584116372
 20
5049.8354779543
  0
LWPOLYLINE
  5
151
330
1F
100
AcDbEntity
  8
0
  6
Continuous
 62
     7
100
AcDbPolyline
 90
        3
 70
   128
 43
0.0
 10
6359.5771789551
 20
5050.2161802711
 10
6359.4556685516
 20
5050.0029546245
 10
6359.358416036
 20
5049.8354779543
  0
LWPOLYLINE
  5
152
330
1F
100
AcDbEntity
  8
0
  6
Continuous
 62
     7
100
AcDbPolyline
 90
        3
 70
   128
 43
0.0
 10
6358.7188720703
 20
5046.231855637
 10
6358.8464858688
 20
5046.4452641713
 10
6358.943858281
 20
5046.6129267575
  0
LWPOLYLINE
  5
153
330
1F
100
AcDbEntity
  8
0
  6
Continuous
 62
     7
100
AcDbPolyline
 90
        3
 70
   128
 43
0.0
 10
6358.5929870605
 20
5049.8360143961
 10
6358.4699453943
 20
5050.049405473
 10
6358.3726744207
 20
5050.2170817913
  0
LWPOLYLINE
  5
154
330
1F
100
AcDbEntity
  8
0
  6
Continuous
 62
     7
100
AcDbPolyline
 90
        3
 70
   128
 43
0.0
 10
6359.2910766602
 20
5049.8360143961
 10
6359.1699497931
 20
5050.049405473
 10
6359.0726788196
 20
5050.2170817913
  0
LWPOLYLINE
  5
155
330
1F
100
AcDbEntity
  8
0
  6
Continuous
 62
     7
100
AcDbPolyline
 90
        3
 70
   128
 43
0.0
 10
6195.9114074707
 20
5045.2244738104
 10
6197.1232025
 20
5044.429768325
 10
6198.2394616159
 20
5044.2502768697
  0
LWPOLYLINE
  5
156
330
1F
100
AcDbEntity
  8
0
  6
Continuous
 62
     7
100
AcDbPolyline
 90
        3
 70
   128
 43
0.0
 10
6353.5995483398
 20
5044.2584352555
 10
6354.9875437468
 20
5044.5743547939
 10
6355.9119413647
 20
5045.2244700851
  0
LWPOLYLINE
  5
157
330
1F
100
AcDbEntity
  8
0
  6
Continuous
 62
     7
100
AcDbPolyline
 90
        3
 70
   128
 43
0.0
 10
6232.5286865234
 20
5048.1547163786
 10
6232.4890744788
 20
5047.8501839793
 10
6232.4159267398
 20
5047.6194517674
  0
LWPOLYLINE
  5
158
330
1F
100
AcDbEntity
  8
0
  6
Continuous
 62
     7
100
AcDbPolyline
 90
        6
 70
   128
 43
0.0
 10
6192.87109375
 20
5049.9875629308
 10
6192.8446925409
 20
5050.1850431007
 10
6192.8400360578
 20
5050.195857659
 10
6192.8354499566
 20
5050.1992936212
 10
6192.8294114797
 20
5050.1958732862
 10
6192.8234185132
 20
5050.1876818003
  0
LWPOLYLINE
  5
159
330
1F
100
AcDbEntity
  8
0
  6
Continuous
 62
     7
100
AcDbPolyline
 90
        7
 70
   128
 43
0.0
 10
6193.3479309082
 20
5046.261255628
 10
6193.341948215
 20
5046.2529769314
 10
6193.3386926617
 20
5046.2506146109
 10
6193.3354112503
 20
5046.2503847236
 10
6193.3253269559
 20
5046.2694919772
 10
6193.3148273986
 20
5046.3228444798
 10
6193.2930956634
 20
5046.4899661006
  0
LWPOLYLINE
  5
15A
330
1F
100
AcDbEntity
  8
0
  6
Continuous
 62
     7
100
AcDbPolyline
 90
        5
 70
   128
 43
0.0
 10
6193.0618286133
 20
5049.86833874
 10
6193.0396018577
 20
5050.1080103349
 10
6193.0143690039
 20
5050.1923861492
 10
6193.0063444342
 20
5050.192992797
 10
6192.9984177503
 20
5050.1876818003
  0
LWPOLYLINE
  5
15B
330
1F
100
AcDbEntity
  8
0
  6
Continuous
 62
     7
100
AcDbPolyline
 90
        7
 70
   128
 43
0.0
 10
6192.6460266113
 20
5046.261255628
 10
6192.6419515254
 20
5046.252976938
 10
6192.6386960442
 20
5046.250614621
 10
6192.6354146359
 20
5046.2503847377
 10
6192.6253297118
 20
5046.2694920053
 10
6192.6148284196
 20
5046.3228445096
 10
6192.5930912646
 20
5046.4899661006
  0
LWPOLYLINE
  5
15C
330
1F
100
AcDbEntity
  8
0
  6
Continuous
 62
     7
100
AcDbPolyline
 90
        5
 70
   128
 43
0.0
 10
6192.3637390137
 20
5049.86833874
 10
6192.3396012997
 20
5050.108010355
 10
6192.3143642879
 20
5050.1923861364
 10
6192.3063396902
 20
5050.1929927888
 10
6192.2984133514
 20
5050.1876818003
  0
LWPOLYLINE
  5
15D
330
1F
100
AcDbEntity
  8
0
  6
Continuous
 62
     7
100
AcDbPolyline
 90
        3
 70
   128
 43
0.0
 10
6358.470916748
 20
5050.1729557277
 10
6358.494412851
 20
5050.1250426096
 10
6358.5115085396
 20
5049.9778250219
  0
LWPOLYLINE
  5
15E
330
1F
100
AcDbEntity
  8
0
  6
Continuous
 62
     7
100
AcDbPolyline
 90
        6
 70
   128
 43
0.0
 10
6358.7951660156
 20
5046.2454752983
 10
6358.8017032279
 20
5046.2306196884
 10
6358.8028843384
 20
5046.2284871813
 10
6358.8034663866
 20
5046.2281411491
 10
6358.8040432911
 20
5046.2282305994
 10
6358.8107089552
 20
5046.2510781349
  0
LWPOLYLINE
  5
15F
330
1F
100
AcDbEntity
  8
0
  6
Continuous
 62
     7
100
AcDbPolyline
 90
        3
 70
   128
 43
0.0
 10
6359.1728210449
 20
5050.1729557277
 10
6359.1944170629
 20
5050.1250427316
 10
6359.2115054878
 20
5049.9778250219
  0
LWPOLYLINE
  5
160
330
1F
100
AcDbEntity
  8
0
  6
Continuous
 62
     7
100
AcDbPolyline
 90
       11
 70
   128
 43
0.0
 10
6193.1304931641
 20
5046.2635168793
 10
6193.1219405059
 20
5046.2533621867
 10
6193.1177530107
 20
5046.2532228099
 10
6193.1135504109
 20
5046.25655898
 10
6193.0881344401
 20
5046.3662229598
 10
6192.9569917322
 20
5048.2246964498
 10
6192.8263616693
 20
5050.0820058921
 10
6192.8026978266
 20
5050.1880463541
 10
6192.7985575526
 20
5050.1915610143
 10
6192.7943693915
 20
5050.1921405697
 10
6192.7830661687
 20
5050.1854242744
  0
LWPOLYLINE
  5
161
330
1F
100
AcDbEntity
  8
0
  6
Continuous
 62
     7
100
AcDbPolyline
 90
       11
 70
   128
 43
0.0
 10
6192.4324035645
 20
5046.2635168793
 10
6192.4219409319
 20
5046.2533622104
 10
6192.4177548184
 20
5046.2532228418
 10
6192.4135531952
 20
5046.2565590193
 10
6192.3881343798
 20
5046.3662229627
 10
6192.2569899898
 20
5048.2246966234
 10
6192.1263621869
 20
5050.0820059226
 10
6192.10270021
 20
5050.188046401
 10
6192.098558916
 20
5050.1915610523
 10
6192.0943694229
 20
5050.1921405979
 10
6192.0830617699
 20
5050.1854242744
  0
LWPOLYLINE
  5
162
330
1F
100
AcDbEntity
  8
0
  6
Continuous
 62
     7
100
AcDbPolyline
 90
       10
 70
   128
 43
0.0
 10
6193.3631896973
 20
5046.6370815398
 10
6193.352241376
 20
5046.6248174266
 10
6193.3407773122
 20
5046.6210298266
 10
6193.3292226588
 20
5046.6341913125
 10
6193.3175781537
 20
5046.6700097987
 10
6193.1822898801
 20
5048.1277769086
 10
6193.0478854558
 20
5049.7130680705
 10
6193.0236845602
 20
5049.8130802301
 10
6193.0151585986
 20
5049.8184183035
 10
6193.0035512003
 20
5049.8136291267
  0
LWPOLYLINE
  5
163
330
1F
100
AcDbEntity
  8
0
  6
Continuous
 62
     7
100
AcDbPolyline
 90
       10
 70
   128
 43
0.0
 10
6192.6612854004
 20
5046.6370815398
 10
6192.652240078
 20
5046.6248174343
 10
6192.6407786853
 20
5046.6210298535
 10
6192.6292258437
 20
5046.6341913817
 10
6192.6175820587
 20
5046.6700099205
 10
6192.4822928964
 20
5048.1277771715
 10
6192.3478885036
 20
5049.7130680985
 10
6192.3236876099
 20
5049.8130802328
 10
6192.3151616491
 20
5049.8184183035
 10
6192.303554252
 20
5049.8136291267
  0
LWPOLYLINE
  5
164
330
1F
100
AcDbEntity
  8
0
  6
Continuous
 62
     7
100
AcDbPolyline
 90
        5
 70
   128
 43
0.0
 10
6193.4089660645
 20
5049.4020665051
 10
6193.3344647266
 20
5050.1738214784
 10
6193.3280401129
 20
5050.1872950223
 10
6193.3214653415
 20
5050.1917188186
 10
6193.3080638799
 20
5050.1854242744
  0
LWPOLYLINE
  5
165
330
1F
100
AcDbEntity
  8
0
  6
Continuous
 62
     7
100
AcDbPolyline
 90
       11
 70
   128
 43
0.0
 10
6192.9550170898
 20
5046.2635168793
 10
6192.946941268
 20
5046.2533621864
 10
6192.9427537726
 20
5046.2532228103
 10
6192.9385511725
 20
5046.2565589817
 10
6192.9131352005
 20
5046.3662229812
 10
6192.781992457
 20
5048.2246966636
 10
6192.6513637689
 20
5050.0820060311
 10
6192.6276975875
 20
5050.1880463888
 10
6192.6235561657
 20
5050.1915610368
 10
6192.6193666883
 20
5050.1921405834
 10
6192.608059481
 20
5050.1854242744
  0
LWPOLYLINE
  5
166
330
1F
100
AcDbEntity
  8
0
  6
Continuous
 62
     7
100
AcDbPolyline
 90
        7
 70
   128
 43
0.0
 10
6193.4089660645
 20
5046.664507127
 10
6193.2525289831
 20
5048.3844787857
 10
6193.1334241378
 20
5049.7268887908
 10
6193.1192905837
 20
5049.7949741713
 10
6193.1119843516
 20
5049.811690201
 10
6193.1044474762
 20
5049.8166255273
 10
6193.0941949638
 20
5049.8130777838
  0
LWPOLYLINE
  5
167
330
1F
100
AcDbEntity
  8
0
  6
Continuous
 62
     7
100
AcDbPolyline
 90
       12
 70
   128
 43
0.0
 10
6192.7223205566
 20
5046.632681972
 10
6192.7207822512
 20
5046.6306696365
 10
6192.7167995515
 20
5046.63236382
 10
6192.712795757
 20
5046.638314999
 10
6192.7047508733
 20
5046.662111284
 10
6192.6435559705
 20
5047.1716727607
 10
6192.5592458175
 20
5048.2842848707
 10
6192.4350532617
 20
5049.7164185081
 10
6192.4203365294
 20
5049.7915093272
 10
6192.4127401645
 20
5049.8105836352
 10
6192.4048897966
 20
5049.8165856652
 10
6192.394190565
 20
5049.8130777838
  0
LWPOLYLINE
  5
168
330
1F
100
AcDbEntity
  8
0
  6
Continuous
 62
     7
100
AcDbPolyline
 90
        7
 70
   128
 43
0.0
 10
6358.4098815918
 20
5047.4065402509
 10
6358.5077118985
 20
5046.2941384504
 10
6358.5252726421
 20
5046.2218409797
 10
6358.5281740679
 20
5046.2180783037
 10
6358.5310739202
 20
5046.2171647287
 10
6358.5349416196
 20
5046.2206905917
 10
6358.5388149175
 20
5046.2297881009
  0
LWPOLYLINE
  5
169
330
1F
100
AcDbEntity
  8
0
  6
Continuous
 62
     7
100
AcDbPolyline
 90
       12
 70
   128
 43
0.0
 10
6358.8752746582
 20
5050.1925656559
 10
6358.8869788399
 20
5050.2242668725
 10
6358.8911112118
 20
5050.2327359443
 10
6358.8952267443
 20
5050.2352776258
 10
6358.9007020285
 20
5050.2302161885
 10
6358.9695989945
 20
5049.7322844641
 10
6359.1709568826
 20
5046.5864847152
 10
6359.2223963443
 20
5046.227857379
 10
6359.2264975674
 20
5046.2197158936
 10
6359.2305971837
 20
5046.2170370053
 10
6359.2347022937
 20
5046.2203109614
 10
6359.2388193163
 20
5046.2297881009
  0
LWPOLYLINE
  5
16A
330
1F
100
AcDbEntity
  8
0
  6
Continuous
 62
     7
100
AcDbPolyline
 90
        6
 70
   128
 43
0.0
 10
6359.5771789551
 20
5050.1925656559
 10
6359.5939471542
 20
5050.2350969865
 10
6359.5964742437
 20
5050.234939479
 10
6359.5989992623
 20
5050.2327595373
 10
6359.6624159412
 20
5049.80968777
 10
6359.9119420203
 20
5046.2872469785
  0
LWPOLYLINE
  5
16B
330
1F
100
AcDbEntity
  8
0
  6
Continuous
 62
     7
100
AcDbPolyline
 90
        3
 70
   128
 43
0.0
 10
6358.6654663086
 20
5049.8453387977
 10
6358.8593123149
 20
5048.0280294701
 10
6359.0084324631
 20
5046.6326596202
  0
LWPOLYLINE
  5
16C
330
1F
100
AcDbEntity
  8
0
  6
Continuous
 62
     7
100
AcDbPolyline
 90
        3
 70
   128
 43
0.0
 10
6359.3673706055
 20
5049.8453387977
 10
6359.5593150532
 20
5048.0280297947
 10
6359.7084294113
 20
5046.6326596202
  0
LWPOLYLINE
  5
16D
330
1F
100
AcDbEntity
  8
0
  6
Continuous
 62
     7
100
AcDbPolyline
 90
        8
 70
   128
 43
0.0
 10
6358.4098815918
 20
5050.0200735392
 10
6358.6378207601
 20
5046.669786234
 10
6358.6953990768
 20
5046.2296327326
 10
6358.6999895023
 20
5046.2184002782
 10
6358.7045842224
 20
5046.2143531994
 10
6358.7068865933
 20
5046.2152781276
 10
6358.7091941182
 20
5046.2183041418
 10
6358.7138290557
 20
5046.2308013798
  0
LWPOLYLINE
  5
16E
330
1F
100
AcDbEntity
  8
0
  6
Continuous
 62
     7
100
AcDbPolyline
 90
        3
 70
   128
 43
0.0
 10
6359.0621948242
 20
5050.2181397738
 10
6359.2598081056
 20
5047.8677917844
 10
6359.411941007
 20
5046.2247701349
  0
LWPOLYLINE
  5
16F
330
1F
100
AcDbEntity
  8
0
  6
Continuous
 62
     7
100
AcDbPolyline
 90
        3
 70
   128
 43
0.0
 10
6358.5929870605
 20
5049.8107681038
 10
6358.7836016981
 20
5047.8630942809
 10
6358.9306931051
 20
5046.6035986306
  0
LWPOLYLINE
  5
170
330
1F
100
AcDbEntity
  8
0
  6
Continuous
 62
     7
100
AcDbPolyline
 90
        3
 70
   128
 43
0.0
 10
6359.2910766602
 20
5049.8107681038
 10
6359.4836044395
 20
5047.8630943971
 10
6359.6306900534
 20
5046.6035986306
  0
LWPOLYLINE
  5
171
330
1F
100
AcDbEntity
  8
0
  6
Continuous
 62
     7
100
AcDbPolyline
 90
        3
 70
   128
 43
0.0
 10
6355.411529541
 20
5055.2244679989
 10
6355.5759627851
 20
5054.316759902
 10
6355.7048375758
 20
5052.7244703831
  0
LWPOLYLINE
  5
172
330
1F
100
AcDbEntity
  8
0
  6
Continuous
 62
     7
100
AcDbPolyline
 90
        3
 70
   128
 43
0.0
 10
6196.117401123
 20
5052.7244703831
 10
6196.2830711083
 20
5054.6531246163
 10
6196.4119459542
 20
5055.2244679989
  0
LWPOLYLINE
  5
173
330
1F
100
AcDbEntity
  8
0
  6
Continuous
 62
     7
100
AcDbPolyline
 90
        3
 70
   128
 43
0.0
 10
6196.1898803711
 20
5053.6807673039
 10
6195.5805938541
 20
5053.2808477597
 10
6195.4119439277
 20
5052.7244703831
  0
LWPOLYLINE
  5
174
330
1F
100
AcDbEntity
  8
0
  6
Continuous
 62
     7
100
AcDbPolyline
 90
        3
 70
   128
 43
0.0
 10
6196.4111328125
 20
5055.2244679989
 10
6194.4832888643
 20
5054.3167610881
 10
6193.9119408878
 20
5052.7244703831
  0
LWPOLYLINE
  5
175
330
1F
100
AcDbEntity
  8
0
  6
Continuous
 62
     7
100
AcDbPolyline
 90
        3
 70
   128
 43
0.0
 10
6356.4109802246
 20
5052.7244703831
 10
6356.1414529358
 20
5053.4079049509
 10
6355.631643072
 20
5053.6807673039
  0
LWPOLYLINE
  5
176
330
1F
100
AcDbEntity
  8
0
  6
Continuous
 62
     7
100
AcDbPolyline
 90
        3
 70
   128
 43
0.0
 10
6357.91015625
 20
5052.7244703831
 10
6357.00423269
 20
5054.6531263641
 10
6355.4119403514
 20
5055.2244679989
  0
LINE
  5
177
330
1F
100
AcDbEntity
  8
0
  6
Continuous
 62
     7
100
AcDbLine
 10
6231.014251709
 20
5032.1244681241
 30
0.0
 11
6219.2017111036
 21
5032.1244681241
 31
0.0
  0
LINE
  5
178
330
1F
100
AcDbEntity
  8
0
  6
Continuous
 62
     7
100
AcDbLine
 10
6231.0150089713
 20
5032.1244681241
 30
0.0
 11
6240.3173424934
 21
5032.1244681241
 31
0.0
  0
LINE
  5
179
330
1F
100
AcDbEntity
  8
0
  6
Continuous
 62
     7
100
AcDbLine
 10
6219.2001342773
 20
5032.1244681241
 30
0.0
 11
6211.0285098704
 21
5032.1244681241
 31
0.0
  0
LINE
  5
17A
330
1F
100
AcDbEntity
  8
0
  6
Continuous
 62
     7
100
AcDbLine
 10
6211.0252380371
 20
5032.1244681241
 30
0.0
 11
6210.7695947441
 21
5032.1244681241
 31
0.0
  0
LINE
  5
17B
330
1F
100
AcDbEntity
  8
0
  6
Continuous
 62
     7
100
AcDbLine
 10
6331.4323425293
 20
5032.1244681241
 30
0.0
 11
6319.6218024048
 21
5032.1244681241
 31
0.0
  0
LINE
  5
17C
330
1F
100
AcDbEntity
  8
0
  6
Continuous
 62
     7
100
AcDbLine
 10
6331.4351039978
 20
5032.1244681241
 30
0.0
 11
6340.7374371105
 21
5032.1244681241
 31
0.0
  0
LINE
  5
17D
330
1F
100
AcDbEntity
  8
0
  6
Continuous
 62
     7
100
AcDbLine
 10
6319.6182250977
 20
5032.1244681241
 30
0.0
 11
6311.4486011716
 21
5032.1244681241
 31
0.0
  0
LINE
  5
17E
330
1F
100
AcDbEntity
  8
0
  6
Continuous
 62
     7
100
AcDbLine
 10
6311.4471435547
 20
5032.1244681241
 30
0.0
 11
6311.1896860453
 21
5032.1244681241
 31
0.0
  0
ENDSEC
  0
SECTION
  2
OBJECTS
  0
DICTIONARY
  5
C
330
0
100
AcDbDictionary
281
     1
  3
ACAD_GROUP
350
D
  3
ACAD_LAYOUT
350
1A
  3
ACAD_MLINESTYLE
350
17
  3
ACAD_PLOTSETTINGS
350
19
  3
ACAD_PLOTSTYLENAME
350
E
  3
ACAD_SCALELIST
350
47
  3
DWGPROPS
350
17F
  0
DICTIONARY
  5
D
102
{ACAD_REACTORS
330
C
102
}
330
C
100
AcDbDictionary
281
     1
  0
DICTIONARY
  5
1A
102
{ACAD_REACTORS
330
C
102
}
330
C
100
AcDbDictionary
281
     1
  3
Layout1
350
1E
  3
Layout2
350
26
  3
Model
350
22
  0
DICTIONARY
  5
17
102
{ACAD_REACTORS
330
C
102
}
330
C
100
AcDbDictionary
281
     1
  3
Standard
350
18
  0
DICTIONARY
  5
19
102
{ACAD_REACTORS
330
C
102
}
330
C
100
AcDbDictionary
281
     1
  0
ACDBDICTIONARYWDFLT
  5
E
102
{ACAD_REACTORS
330
C
102
}
330
C
100
AcDbDictionary
281
     1
  3
Normal
350
F
100
AcDbDictionaryWithDefault
340
F
  0
DICTIONARY
  5
47
102
{ACAD_REACTORS
330
C
102
}
330
C
100
AcDbDictionary
281
     1
  3
A0
350
48
  3
A1
350
49
  3
A2
350
4A
  3
A3
350
4B
  3
A4
350
4C
  3
A5
350
4D
  3
A6
350
4E
  3
A7
350
4F
  3
A8
350
50
  3
A9
350
51
  3
B0
350
52
  3
B1
350
53
  3
B2
350
54
  3
B3
350
55
  3
B4
350
56
  3
B5
350
57
  3
B6
350
58
  3
B7
350
59
  3
B8
350
5A
  3
B9
350
5B
  3
C0
350
5C
  3
C1
350
5D
  3
C2
350
5E
  3
C3
350
5F
  3
C4
350
60
  3
C5
350
61
  3
C6
350
62
  3
C7
350
63
  3
C8
350
64
  3
C9
350
65
  3
D0
350
66
  3
D1
350
67
  3
D2
350
68
  0
XRECORD
  5
17F
102
{ACAD_REACTORS
330
C
102
}
330
C
100
AcDbXrecord
280
     1
  1
DWGPROPS COOKIE
  2

  3

  4

  6

  7

  8
radek.stransky
  9

300
=
301
=
302
=
303
=
304
=
305
=
306
=
307
=
308
=
309
=
 40
0.0
 41
2459097.481036331
 42
2459097.481112489
  1

 90
        0
  0
LAYOUT
  5
1E
102
{ACAD_REACTORS
330
1A
102
}
330
1A
100
AcDbPlotSettings
  1

  2
none_device
  4

  6

 40
0.0
 41
0.0
 42
0.0
 43
0.0
 44
0.0
 45
0.0
 46
0.0
 47
0.0
 48
0.0
 49
0.0
140
0.0
141
0.0
142
1.0
143
1.0
 70
   688
 72
     1
 73
     0
 74
     5
  7

 75
    16
147
1.0
148
0.0
149
0.0
100
AcDbLayout
  1
Layout1
 70
     1
 71
     1
 10
0.0
 20
0.0
 11
420.0
 21
297.0
 12
0.0
 22
0.0
 32
0.0
 14
1.0000000000E+20
 24
1.0000000000E+20
 34
1.0000000000E+20
 15
-1.0000000000E+20
 25
-1.0000000000E+20
 35
-1.0000000000E+20
146
0.0
 13
0.0
 23
0.0
 33
0.0
 16
1.0
 26
0.0
 36
0.0
 17
0.0
 27
1.0
 37
0.0
 76
     0
330
1B
  0
LAYOUT
  5
26
102
{ACAD_REACTORS
330
1A
102
}
330
1A
100
AcDbPlotSettings
  1

  2
none_device
  4

  6

 40
0.0
 41
0.0
 42
0.0
 43
0.0
 44
0.0
 45
0.0
 46
0.0
 47
0.0
 48
0.0
 49
0.0
140
0.0
141
0.0
142
1.0
143
1.0
 70
   688
 72
     1
 73
     0
 74
     5
  7

 75
    16
147
1.0
148
0.0
149
0.0
100
AcDbLayout
  1
Layout2
 70
     1
 71
     2
 10
0.0
 20
0.0
 11
0.0
 21
0.0
 12
0.0
 22
0.0
 32
0.0
 14
0.0
 24
0.0
 34
0.0
 15
0.0
 25
0.0
 35
0.0
146
0.0
 13
0.0
 23
0.0
 33
0.0
 16
1.0
 26
0.0
 36
0.0
 17
0.0
 27
1.0
 37
0.0
 76
     0
330
23
  0
LAYOUT
  5
22
102
{ACAD_REACTORS
330
1A
102
}
330
1A
100
AcDbPlotSettings
  1

  2
none_device
  4
ANSI_A_(11.00_x_8.50_Inches)
  6

 40
6.35
 41
19.05
 42
6.35000508
 43
19.05000254
 44
279.4
 45
215.9
 46
-4972.0766838725
 47
-4071.9193225073
 48
0.0
 49
0.0
140
0.0
141
0.0
142
0.0317511698
143
1.0
 70
  1696
 72
     0
 73
     0
 74
     0
  7

 75
     0
147
0.0179189148
148
-1300.4909072572
149
0.0
100
AcDbLayout
  1
Model
 70
     1
 71
     0
 10
0.0
 20
0.0
 11
420.0
 21
297.0
 12
0.0
 22
0.0
 32
0.0
 14
6159.0187532499
 24
5032.1119697752
 34
0.0
 15
6501.9982420965
 25
5286.3603987286
 35
0.0
146
0.0
 13
0.0
 23
0.0
 33
0.0
 16
1.0
 26
0.0
 36
0.0
 17
0.0
 27
1.0
 37
0.0
 76
     0
330
1F
331
29
  0
MLINESTYLE
  5
18
102
{ACAD_REACTORS
330
17
102
}
330
17
100
AcDbMlineStyle
  2
Standard
 70
     0
  3

 62
   256
 51
90.0
 52
90.0
 71
     2
 49
0.5
 62
   256
  6
BYLAYER
 49
-0.5
 62
   256
  6
BYLAYER
  0
ACDBPLACEHOLDER
  5
F
102
{ACAD_REACTORS
330
E
102
}
330
E
  0
SCALE
  5
48
102
{ACAD_REACTORS
330
47
102
}
330
47
100
AcDbScale
 70
     0
300
1:1
140
1.0
141
1.0
290
     1
  0
SCALE
  5
49
102
{ACAD_REACTORS
330
47
102
}
330
47
100
AcDbScale
 70
     0
300
1:2
140
1.0
141
2.0
290
     0
  0
SCALE
  5
4A
102
{ACAD_REACTORS
330
47
102
}
330
47
100
AcDbScale
 70
     0
300
1:4
140
1.0
141
4.0
290
     0
  0
SCALE
  5
4B
102
{ACAD_REACTORS
330
47
102
}
330
47
100
AcDbScale
 70
     0
300
1:5
140
1.0
141
5.0
290
     0
  0
SCALE
  5
4C
102
{ACAD_REACTORS
330
47
102
}
330
47
100
AcDbScale
 70
     0
300
1:8
140
1.0
141
8.0
290
     0
  0
SCALE
  5
4D
102
{ACAD_REACTORS
330
47
102
}
330
47
100
AcDbScale
 70
     0
300
1:10
140
1.0
141
10.0
290
     0
  0
SCALE
  5
4E
102
{ACAD_REACTORS
330
47
102
}
330
47
100
AcDbScale
 70
     0
300
1:16
140
1.0
141
16.0
290
     0
  0
SCALE
  5
4F
102
{ACAD_REACTORS
330
47
102
}
330
47
100
AcDbScale
 70
     0
300
1:20
140
1.0
141
20.0
290
     0
  0
SCALE
  5
50
102
{ACAD_REACTORS
330
47
102
}
330
47
100
AcDbScale
 70
     0
300
1:30
140
1.0
141
30.0
290
     0
  0
SCALE
  5
51
102
{ACAD_REACTORS
330
47
102
}
330
47
100
AcDbScale
 70
     0
300
1:40
140
1.0
141
40.0
290
     0
  0
SCALE
  5
52
102
{ACAD_REACTORS
330
47
102
}
330
47
100
AcDbScale
 70
     0
300
1:50
140
1.0
141
50.0
290
     0
  0
SCALE
  5
53
102
{ACAD_REACTORS
330
47
102
}
330
47
100
AcDbScale
 70
     0
300
1:100
140
1.0
141
100.0
290
     0
  0
SCALE
  5
54
102
{ACAD_REACTORS
330
47
102
}
330
47
100
AcDbScale
 70
     0
300
2:1
140
2.0
141
1.0
290
     0
  0
SCALE
  5
55
102
{ACAD_REACTORS
330
47
102
}
330
47
100
AcDbScale
 70
     0
300
4:1
140
4.0
141
1.0
290
     0
  0
SCALE
  5
56
102
{ACAD_REACTORS
330
47
102
}
330
47
100
AcDbScale
 70
     0
300
8:1
140
8.0
141
1.0
290
     0
  0
SCALE
  5
57
102
{ACAD_REACTORS
330
47
102
}
330
47
100
AcDbScale
 70
     0
300
10:1
140
10.0
141
1.0
290
     0
  0
SCALE
  5
58
102
{ACAD_REACTORS
330
47
102
}
330
47
100
AcDbScale
 70
     0
300
100:1
140
100.0
141
1.0
290
     0
  0
SCALE
  5
59
102
{ACAD_REACTORS
330
47
102
}
330
47
100
AcDbScale
 70
     0
300
1/128" = 1'-0"
140
0.0078125
141
12.0
290
     0
  0
SCALE
  5
5A
102
{ACAD_REACTORS
330
47
102
}
330
47
100
AcDbScale
 70
     0
300
1/64" = 1'-0"
140
0.015625
141
12.0
290
     0
  0
SCALE
  5
5B
102
{ACAD_REACTORS
330
47
102
}
330
47
100
AcDbScale
 70
     0
300
1/32" = 1'-0"
140
0.03125
141
12.0
290
     0
  0
SCALE
  5
5C
102
{ACAD_REACTORS
330
47
102
}
330
47
100
AcDbScale
 70
     0
300
1/16" = 1'-0"
140
0.0625
141
12.0
290
     0
  0
SCALE
  5
5D
102
{ACAD_REACTORS
330
47
102
}
330
47
100
AcDbScale
 70
     0
300
3/32" = 1'-0"
140
0.09375
141
12.0
290
     0
  0
SCALE
  5
5E
102
{ACAD_REACTORS
330
47
102
}
330
47
100
AcDbScale
 70
     0
300
1/8" = 1'-0"
140
0.125
141
12.0
290
     0
  0
SCALE
  5
5F
102
{ACAD_REACTORS
330
47
102
}
330
47
100
AcDbScale
 70
     0
300
3/16" = 1'-0"
140
0.1875
141
12.0
290
     0
  0
SCALE
  5
60
102
{ACAD_REACTORS
330
47
102
}
330
47
100
AcDbScale
 70
     0
300
1/4" = 1'-0"
140
0.25
141
12.0
290
     0
  0
SCALE
  5
61
102
{ACAD_REACTORS
330
47
102
}
330
47
100
AcDbScale
 70
     0
300
3/8" = 1'-0"
140
0.375
141
12.0
290
     0
  0
SCALE
  5
62
102
{ACAD_REACTORS
330
47
102
}
330
47
100
AcDbScale
 70
     0
300
1/2" = 1'-0"
140
0.5
141
12.0
290
     0
  0
SCALE
  5
63
102
{ACAD_REACTORS
330
47
102
}
330
47
100
AcDbScale
 70
     0
300
3/4" = 1'-0"
140
0.75
141
12.0
290
     0
  0
SCALE
  5
64
102
{ACAD_REACTORS
330
47
102
}
330
47
100
AcDbScale
 70
     0
300
1" = 1'-0"
140
1.0
141
12.0
290
     0
  0
SCALE
  5
65
102
{ACAD_REACTORS
330
47
102
}
330
47
100
AcDbScale
 70
     0
300
1-1/2" = 1'-0"
140
1.5
141
12.0
290
     0
  0
SCALE
  5
66
102
{ACAD_REACTORS
330
47
102
}
330
47
100
AcDbScale
 70
     0
300
3" = 1'-0"
140
3.0
141
12.0
290
     0
  0
SCALE
  5
67
102
{ACAD_REACTORS
330
47
102
}
330
47
100
AcDbScale
 70
     0
300
6" = 1'-0"
140
6.0
141
12.0
290
     0
  0
SCALE
  5
68
102
{ACAD_REACTORS
330
47
102
}
330
47
100
AcDbScale
 70
     0
300
1'-0" = 1'-0"
140
12.0
141
12.0
290
     0
  0
ENDSEC
  0
EOF
