  0
SECTION
  2
HEADER
  9
$ACADVER
  1
AC1015
  9
$ACADMAINTVER
 70
     6
  9
$DWGCODEPAGE
  3
ANSI_1250
  9
$INSBASE
 10
0.0
 20
0.0
 30
0.0
  9
$EXTMIN
 10
0.0
 20
0.0
 30
0.0
  9
$EXTMAX
 10
20000.0
 20
10000.0
 30
0.0
  9
$LIMMIN
 10
0.0
 20
0.0
  9
$LIMMAX
 10
20000.0
 20
10000.0
  9
$ORTHOMODE
 70
     0
  9
$REGENMODE
 70
     1
  9
$FILLMODE
 70
     1
  9
$QTEXTMODE
 70
     0
  9
$MIRRTEXT
 70
     1
  9
$LTSCALE
 40
1.0
  9
$ATTMODE
 70
     1
  9
$TEXTSIZE
 40
2.0
  9
$TRACEWID
 40
1.0
  9
$TEXTSTYLE
  7
Standard
  9
$CLAYER
  8
0
  9
$CELTYPE
  6
ByLayer
  9
$CECOLOR
 62
   256
  9
$CELTSCALE
 40
1.0
  9
$DISPSILH
 70
     0
  9
$DIMSCALE
 40
1.0
  9
$DIMASZ
 40
2.0
  9
$DIMEXO
 40
1.0
  9
$DIMDLI
 40
3.75
  9
$DIMRND
 40
0.0
  9
$DIMDLE
 40
0.0
  9
$DIMEXE
 40
1.0
  9
$DIMTP
 40
0.0
  9
$DIMTM
 40
0.0
  9
$DIMTXT
 40
2.0
  9
$DIMCEN
 40
2.5
  9
$DIMTSZ
 40
0.0
  9
$DIMTOL
 70
     0
  9
$DIMLIM
 70
     0
  9
$DIMTIH
 70
     1
  9
$DIMTOH
 70
     1
  9
$DIMSE1
 70
     0
  9
$DIMSE2
 70
     0
  9
$DIMTAD
 70
     1
  9
$DIMZIN
 70
     0
  9
$DIMBLK
  1

  9
$DIMASO
 70
     1
  9
$DIMSHO
 70
     1
  9
$DIMPOST
  1

  9
$DIMAPOST
  1

  9
$DIMALT
 70
     0
  9
$DIMALTD
 70
     3
  9
$DIMALTF
 40
0.0393700787
  9
$DIMLFAC
 40
1.0
  9
$DIMTOFL
 70
     1
  9
$DIMTVP
 40
0.0
  9
$DIMTIX
 70
     0
  9
$DIMSOXD
 70
     0
  9
$DIMSAH
 70
     0
  9
$DIMBLK1
  1

  9
$DIMBLK2
  1

  9
$DIMSTYLE
  2
ISO-25
  9
$DIMCLRD
 70
     0
  9
$DIMCLRE
 70
     0
  9
$DIMCLRT
 70
     0
  9
$DIMTFAC
 40
1.0
  9
$DIMGAP
 40
1.524
  9
$DIMJUST
 70
     0
  9
$DIMSD1
 70
     0
  9
$DIMSD2
 70
     0
  9
$DIMTOLJ
 70
     0
  9
$DIMTZIN
 70
     0
  9
$DIMALTZ
 70
     0
  9
$DIMALTTZ
 70
     0
  9
$DIMUPT
 70
     0
  9
$DIMDEC
 70
     2
  9
$DIMTDEC
 70
     0
  9
$DIMALTU
 70
     2
  9
$DIMALTTD
 70
     3
  9
$DIMTXSTY
  7
Standard
  9
$DIMAUNIT
 70
     0
  9
$DIMADEC
 70
     2
  9
$DIMALTRND
 40
0.0
  9
$DIMAZIN
 70
     0
  9
$DIMDSEP
 70
    44
  9
$DIMATFIT
 70
     3
  9
$DIMFRAC
 70
     0
  9
$DIMLDRBLK
  1

  9
$DIMLUNIT
 70
     2
  9
$DIMLWD
 70
    -2
  9
$DIMLWE
 70
    -2
  9
$DIMTMOVE
 70
     0
  9
$LUNITS
 70
     2
  9
$LUPREC
 70
     3
  9
$SKETCHINC
 40
1.0
  9
$FILLETRAD
 40
10.0
  9
$AUNITS
 70
     0
  9
$AUPREC
 70
     2
  9
$MENU
  1
.
  9
$ELEVATION
 40
0.0
  9
$PELEVATION
 40
0.0
  9
$THICKNESS
 40
0.0
  9
$LIMCHECK
 70
     0
  9
$CHAMFERA
 40
0.0
  9
$CHAMFERB
 40
0.0
  9
$CHAMFERC
 40
0.0
  9
$CHAMFERD
 40
0.0
  9
$SKPOLY
 70
     0
  9
$TDCREATE
 40
2458717.420575347
  9
$TDUCREATE
 40
2458717.337242014
  9
$TDUPDATE
 40
2458717.420577419
  9
$TDUUPDATE
 40
2458717.337244086
  9
$TDINDWG
 40
0.0000000116
  9
$TDUSRTIMER
 40
0.0000000116
  9
$USRTIMER
 70
     1
  9
$ANGBASE
 50
0.0
  9
$ANGDIR
 70
     0
  9
$PDMODE
 70
     0
  9
$PDSIZE
 40
-1.0
  9
$PLINEWID
 40
0.0
  9
$SPLFRAME
 70
     0
  9
$SPLINETYPE
 70
     6
  9
$SPLINESEGS
 70
     8
  9
$HANDSEED
  5
1D3
  9
$SURFTAB1
 70
     6
  9
$SURFTAB2
 70
     6
  9
$SURFTYPE
 70
     6
  9
$SURFU
 70
     6
  9
$SURFV
 70
     6
  9
$UCSBASE
  2

  9
$UCSNAME
  2

  9
$UCSORG
 10
0.0
 20
0.0
 30
0.0
  9
$UCSXDIR
 10
1.0
 20
0.0
 30
0.0
  9
$UCSYDIR
 10
0.0
 20
1.0
 30
0.0
  9
$UCSORTHOREF
  2

  9
$UCSORTHOVIEW
 70
     0
  9
$UCSORGTOP
 10
0.0
 20
0.0
 30
0.0
  9
$UCSORGBOTTOM
 10
0.0
 20
0.0
 30
0.0
  9
$UCSORGLEFT
 10
0.0
 20
0.0
 30
0.0
  9
$UCSORGRIGHT
 10
0.0
 20
0.0
 30
0.0
  9
$UCSORGFRONT
 10
0.0
 20
0.0
 30
0.0
  9
$UCSORGBACK
 10
0.0
 20
0.0
 30
0.0
  9
$PUCSBASE
  2

  9
$PUCSNAME
  2

  9
$PUCSORG
 10
0.0
 20
0.0
 30
0.0
  9
$PUCSXDIR
 10
1.0
 20
0.0
 30
0.0
  9
$PUCSYDIR
 10
0.0
 20
1.0
 30
0.0
  9
$PUCSORTHOREF
  2

  9
$PUCSORTHOVIEW
 70
     0
  9
$PUCSORGTOP
 10
0.0
 20
0.0
 30
0.0
  9
$PUCSORGBOTTOM
 10
0.0
 20
0.0
 30
0.0
  9
$PUCSORGLEFT
 10
0.0
 20
0.0
 30
0.0
  9
$PUCSORGRIGHT
 10
0.0
 20
0.0
 30
0.0
  9
$PUCSORGFRONT
 10
0.0
 20
0.0
 30
0.0
  9
$PUCSORGBACK
 10
0.0
 20
0.0
 30
0.0
  9
$USERI1
 70
     0
  9
$USERI2
 70
     0
  9
$USERI3
 70
     0
  9
$USERI4
 70
     0
  9
$USERI5
 70
     0
  9
$USERR1
 40
0.0
  9
$USERR2
 40
0.0
  9
$USERR3
 40
0.0
  9
$USERR4
 40
0.0
  9
$USERR5
 40
0.0
  9
$WORLDVIEW
 70
     1
  9
$SHADEDGE
 70
     3
  9
$SHADEDIF
 70
    70
  9
$TILEMODE
 70
     1
  9
$MAXACTVP
 70
    64
  9
$PINSBASE
 10
0.0
 20
0.0
 30
0.0
  9
$PLIMCHECK
 70
     0
  9
$PEXTMIN
 10
1.0000000000E+20
 20
1.0000000000E+20
 30
1.0000000000E+20
  9
$PEXTMAX
 10
-1.0000000000E+20
 20
-1.0000000000E+20
 30
-1.0000000000E+20
  9
$PLIMMIN
 10
0.0
 20
0.0
  9
$PLIMMAX
 10
420.0
 20
297.0
  9
$UNITMODE
 70
     0
  9
$VISRETAIN
 70
     1
  9
$PLINEGEN
 70
     0
  9
$PSLTSCALE
 70
     1
  9
$TREEDEPTH
 70
  3020
  9
$CMLSTYLE
  2
Standard
  9
$CMLJUST
 70
     0
  9
$CMLSCALE
 40
20.0
  9
$PROXYGRAPHICS
 70
     1
  9
$MEASUREMENT
 70
     1
  9
$CELWEIGHT
370
    -1
  9
$ENDCAPS
280
     0
  9
$JOINSTYLE
280
     0
  9
$LWDISPLAY
290
     1
  9
$INSUNITS
 70
     4
  9
$HYPERLINKBASE
  1

  9
$STYLESHEET
  1

  9
$XEDIT
290
     1
  9
$CEPSNTYPE
380
     0
  9
$PSTYLEMODE
290
     1
  9
$FINGERPRINTGUID
  2
{70401AFB-A1D6-46A8-BB54-4420B342E20F}
  9
$VERSIONGUID
  2
{FAEB1C32-E019-11D5-929B-00C0DF256EC4}
  9
$EXTNAMES
290
     1
  9
$PSVPSCALE
 40
0.0
  9
$OLESTARTUP
290
     0
  0
ENDSEC
  0
SECTION
  2
CLASSES
  0
CLASS
  1
ACDBDICTIONARYWDFLT
  2
AcDbDictionaryWithDefault
  3
ObjectDBX Classes
 90
        0
280
     0
281
     0
  0
CLASS
  1
VISUALSTYLE
  2
AcDbVisualStyle
  3
ObjectDBX Classes
 90
     4095
280
     0
281
     0
  0
CLASS
  1
MATERIAL
  2
AcDbMaterial
  3
ObjectDBX Classes
 90
     1153
280
     0
281
     0
  0
CLASS
  1
SCALE
  2
AcDbScale
  3
ObjectDBX Classes
 90
     1153
280
     0
281
     0
  0
CLASS
  1
TABLESTYLE
  2
AcDbTableStyle
  3
ObjectDBX Classes
 90
     4095
280
     0
281
     0
  0
CLASS
  1
MLEADERSTYLE
  2
AcDbMLeaderStyle
  3
ACDB_MLEADERSTYLE_CLASS
 90
     4095
280
     0
281
     0
  0
CLASS
  1
SUN
  2
AcDbSun
  3
SCENEOE
 90
     1153
280
     0
281
     0
  0
CLASS
  1
ACDBPLACEHOLDER
  2
AcDbPlaceHolder
  3
ObjectDBX Classes
 90
        0
280
     0
281
     0
  0
CLASS
  1
LAYOUT
  2
AcDbLayout
  3
ObjectDBX Classes
 90
        0
280
     0
281
     0
  0
ENDSEC
  0
SECTION
  2
TABLES
  0
TABLE
  2
VPORT
  5
8
330
0
100
AcDbSymbolTable
 70
     1
  0
VPORT
  5
29
330
8
100
AcDbSymbolTableRecord
100
AcDbViewportTableRecord
  2
*Active
 70
     0
 10
0.0
 20
0.0
 11
1.0
 21
1.0
 12
10000.0
 22
5000.0
 13
0.0
 23
0.0
 14
10.0
 24
10.0
 15
10.0
 25
10.0
 16
0.0
 26
0.0
 36
1.0
 17
0.0
 27
0.0
 37
0.0
 40
10000.0
 41
2.0
 42
50.0
 43
0.0
 44
0.0
 50
0.0
 51
0.0
 71
     0
 72
  2000
 73
     1
 74
     3
 75
     0
 76
     0
 77
     0
 78
     0
281
     0
 65
     1
110
0.0
120
0.0
130
0.0
111
1.0
121
0.0
131
0.0
112
0.0
122
1.0
132
0.0
 79
     0
146
0.0
  0
ENDTAB
  0
TABLE
  2
LTYPE
  5
5
330
0
100
AcDbSymbolTable
 70
     6
  0
LTYPE
  5
14
330
5
100
AcDbSymbolTableRecord
100
AcDbLinetypeTableRecord
  2
ByBlock
 70
     0
  3

 72
    65
 73
     0
 40
0.0
  0
LTYPE
  5
15
330
5
100
AcDbSymbolTableRecord
100
AcDbLinetypeTableRecord
  2
ByLayer
 70
     0
  3

 72
    65
 73
     0
 40
0.0
  0
LTYPE
  5
16
330
5
100
AcDbSymbolTableRecord
100
AcDbLinetypeTableRecord
  2
Continuous
 70
     0
  3
Solid line
 72
    65
 73
     0
 40
0.0
  0
LTYPE
  5
6E
330
5
100
AcDbSymbolTableRecord
100
AcDbLinetypeTableRecord
  2
HIDDEN
 70
     0
  3
Hidden __ __ __ __ __ __ __ __ __ __ __ __ __ __
 72
    65
 73
     2
 40
1.905
 49
1.27
 74
     0
 49
-0.635
 74
     0
  0
LTYPE
  5
6F
330
5
100
AcDbSymbolTableRecord
100
AcDbLinetypeTableRecord
  2
PHANTOM
 70
     0
  3
Phantom ______  __  __  ______  __  __  ______
 72
    65
 73
     6
 40
12.7
 49
6.35
 74
     0
 49
-1.27
 74
     0
 49
1.27
 74
     0
 49
-1.27
 74
     0
 49
1.27
 74
     0
 49
-1.27
 74
     0
  0
LTYPE
  5
70
330
5
100
AcDbSymbolTableRecord
100
AcDbLinetypeTableRecord
  2
CENTER
 70
     0
  3
Center ____ _ ____ _ ____ _ ____ _ ____ _ ____
 72
    65
 73
     4
 40
10.16
 49
6.35
 74
     0
 49
-1.27
 74
     0
 49
1.27
 74
     0
 49
-1.27
 74
     0
  0
LTYPE
  5
71
330
5
100
AcDbSymbolTableRecord
100
AcDbLinetypeTableRecord
  2
CENTERX2
 70
     0
  3
Center (2x) ________  __  ________  __  _____
 72
    65
 73
     4
 40
20.32
 49
12.7
 74
     0
 49
-2.54
 74
     0
 49
2.54
 74
     0
 49
-2.54
 74
     0
  0
LTYPE
  5
72
330
5
100
AcDbSymbolTableRecord
100
AcDbLinetypeTableRecord
  2
DOT2
 70
     0
  3
Dot (.5x) ........................................
 72
    65
 73
     2
 40
0.635
 49
0.0
 74
     0
 49
-0.635
 74
     0
  0
ENDTAB
  0
TABLE
  2
LAYER
  5
2
330
0
100
AcDbSymbolTable
 70
    13
  0
LAYER
  5
10
330
2
100
AcDbSymbolTableRecord
100
AcDbLayerTableRecord
  2
0
 70
     0
 62
     7
  6
Continuous
370
    -3
390
F
  0
LAYER
  5
73
330
2
100
AcDbSymbolTableRecord
100
AcDbLayerTableRecord
  2
FORMAT
 70
     0
 62
     7
  6
Continuous
370
    -3
390
F
  0
LAYER
  5
74
330
2
100
AcDbSymbolTableRecord
100
AcDbLayerTableRecord
  2
OSA
 70
     0
 62
     7
  6
CENTER
370
    -3
390
F
  0
LAYER
  5
75
330
2
100
AcDbSymbolTableRecord
100
AcDbLayerTableRecord
  2
0_35
 70
     0
 62
     7
  6
Continuous
370
    35
390
F
  0
LAYER
  5
76
330
2
100
AcDbSymbolTableRecord
100
AcDbLayerTableRecord
  2
0_5
 70
     0
 62
     7
  6
Continuous
370
    50
390
F
  0
LAYER
  5
77
330
2
100
AcDbSymbolTableRecord
100
AcDbLayerTableRecord
  2
0_25
 70
     0
 62
     7
  6
Continuous
370
    25
390
F
  0
LAYER
  5
78
330
2
100
AcDbSymbolTableRecord
100
AcDbLayerTableRecord
  2
0_18
 70
     0
 62
     7
  6
Continuous
370
    -3
390
F
  0
LAYER
  5
79
330
2
100
AcDbSymbolTableRecord
100
AcDbLayerTableRecord
  2
SLD-0
 70
     0
 62
   179
  6
Continuous
370
    -3
390
F
  0
LAYER
  5
7A
330
2
100
AcDbSymbolTableRecord
100
AcDbLayerTableRecord
  2
KOTY
 70
     0
 62
     7
  6
Continuous
370
    -3
390
F
  0
LAYER
  5
7B
330
2
100
AcDbSymbolTableRecord
100
AcDbLayerTableRecord
  2
SILNA
 70
     0
 62
   179
  6
Continuous
370
    -3
390
F
  0
LAYER
  5
7C
330
2
100
AcDbSymbolTableRecord
100
AcDbLayerTableRecord
  2
0_18_1
 70
     0
 62
   179
  6
Continuous
370
    -3
390
F
  0
LAYER
  5
7D
330
2
100
AcDbSymbolTableRecord
100
AcDbLayerTableRecord
  2
0_35_1
 70
     0
 62
   179
  6
Continuous
370
    35
390
F
  0
LAYER
  5
7E
330
2
100
AcDbSymbolTableRecord
100
AcDbLayerTableRecord
  2
0_5_1
 70
     0
 62
   179
  6
Continuous
370
    50
390
F
  0
ENDTAB
  0
TABLE
  2
STYLE
  5
3
330
0
100
AcDbSymbolTable
 70
     1
  0
STYLE
  5
11
330
3
100
AcDbSymbolTableRecord
100
AcDbTextStyleTableRecord
  2
Standard
 70
     0
 40
0.0
 41
1.0
 50
0.0
 71
     0
 42
2.0
  3
txt
  4

  0
ENDTAB
  0
TABLE
  2
VIEW
  5
6
330
0
100
AcDbSymbolTable
 70
     0
  0
ENDTAB
  0
TABLE
  2
UCS
  5
7
330
0
100
AcDbSymbolTable
 70
     0
  0
ENDTAB
  0
TABLE
  2
APPID
  5
9
330
0
100
AcDbSymbolTable
 70
     1
  0
APPID
  5
12
330
9
100
AcDbSymbolTableRecord
100
AcDbRegAppTableRecord
  2
ACAD
 70
     0
  0
ENDTAB
  0
TABLE
  2
DIMSTYLE
  5
A
330
0
100
AcDbSymbolTable
 70
     1
100
AcDbDimStyleTable
  0
DIMSTYLE
105
27
330
A
100
AcDbSymbolTableRecord
100
AcDbDimStyleTableRecord
  2
ISO-25
 70
     0
 41
2.5
 42
0.625
 43
3.75
 44
1.25
 73
     0
 74
     0
 77
     1
 78
     8
140
2.5
141
2.5
143
0.0393700787
147
0.625
171
     3
172
     1
178
     0
271
     2
272
     2
274
     3
278
    44
283
     0
284
     8
340
11
  0
ENDTAB
  0
TABLE
  2
BLOCK_RECORD
  5
1
330
0
100
AcDbSymbolTable
 70
     1
  0
BLOCK_RECORD
  5
1F
330
1
100
AcDbSymbolTableRecord
100
AcDbBlockTableRecord
  2
*Model_Space
340
22
  0
BLOCK_RECORD
  5
1B
330
1
100
AcDbSymbolTableRecord
100
AcDbBlockTableRecord
  2
*Paper_Space
340
1E
  0
BLOCK_RECORD
  5
23
330
1
100
AcDbSymbolTableRecord
100
AcDbBlockTableRecord
  2
*Paper_Space0
340
26
  0
ENDTAB
  0
ENDSEC
  0
SECTION
  2
BLOCKS
  0
BLOCK
  5
20
330
1F
100
AcDbEntity
  8
0
100
AcDbBlockBegin
  2
*Model_Space
 70
     0
 10
0.0
 20
0.0
 30
0.0
  3
*Model_Space
  1

  0
ENDBLK
  5
21
330
1F
100
AcDbEntity
  8
0
100
AcDbBlockEnd
  0
BLOCK
  5
1C
330
1B
100
AcDbEntity
 67
     1
  8
0
100
AcDbBlockBegin
  2
*Paper_Space
 70
     0
 10
0.0
 20
0.0
 30
0.0
  3
*Paper_Space
  1

  0
ENDBLK
  5
1D
330
1B
100
AcDbEntity
 67
     1
  8
0
100
AcDbBlockEnd
  0
BLOCK
  5
24
330
23
100
AcDbEntity
  8
0
100
AcDbBlockBegin
  2
*Paper_Space0
 70
     0
 10
0.0
 20
0.0
 30
0.0
  3
*Paper_Space0
  1

  0
ENDBLK
  5
25
330
23
100
AcDbEntity
  8
0
100
AcDbBlockEnd
  0
ENDSEC
  0
SECTION
  2
ENTITIES
  0
LINE
  5
7F
330
1F
100
AcDbEntity
  8
0
  6
Continuous
 62
     7
370
    25
100
AcDbLine
 10
6020.5373245587
 20
5384.9546264192
 30
0.0
 11
6020.5373245587
 21
5383.754626595
 31
0.0
  0
LINE
  5
80
330
1F
100
AcDbEntity
  8
0
  6
Continuous
 62
     7
370
    25
100
AcDbLine
 10
6527.5008458008
 20
5383.754626595
 30
0.0
 11
6527.5008458008
 21
5384.9546264192
 31
0.0
  0
ARC
  5
81
330
1F
100
AcDbEntity
  8
0
  6
Continuous
 62
     7
370
    25
100
AcDbCircle
 10
6024.0373363076
 20
5384.9546445434
 30
0.0
 40
3.499981983979155
100
AcDbArc
 50
89.9989785044
 51
179.9916217048
  0
ARC
  5
82
330
1F
100
AcDbEntity
  8
0
  6
Continuous
 62
     7
370
    25
100
AcDbCircle
 10
6524.0007932974
 20
5384.9546056748
 30
0.0
 40
3.500020863095586
100
AcDbArc
 50
3.9779606919
 51
89.9176607153
  0
SPLINE
  5
83
330
1F
100
AcDbEntity
  8
0
  6
Continuous
 62
     7
370
    25
100
AcDbSpline
210
0.0
220
0.0
230
1.0
 70
     8
 71
     3
 72
    49
 73
    45
 74
     0
 42
0.000000001
 43
0.00000001
 40
0.0
 40
0.0
 40
0.0
 40
0.0
 40
0.0247925395935825
 40
0.0549292869485894
 40
0.0816318570428715
 40
0.1051924911796396
 40
0.125865091146635
 40
0.1489293921983502
 40
0.1678216493494461
 40
0.1828681777838661
 40
0.2082893039286658
 40
0.2373672545075221
 40
0.2695523714788474
 40
0.3069105809816909
 40
0.3419464748355729
 40
0.3750107573648002
 40
0.3956640702977426
 40
0.4179792709336613
 40
0.441868356150803
 40
0.4672867233577843
 40
0.4933214726755973
 40
0.5196526552114913
 40
0.5429633254090329
 40
0.5637852199853878
 40
0.583843238243533
 40
0.6059563298821186
 40
0.6301581028274236
 40
0.6561725675301124
 40
0.6837436404985602
 40
0.7090963455658457
 40
0.726154828099668
 40
0.7413065521377991
 40
0.7544934204149583
 40
0.7669240157002726
 40
0.7824500518177292
 40
0.8015454754394284
 40
0.8205605894337265
 40
0.8425351805673849
 40
0.8677610154792738
 40
0.8966020136030667
 40
0.9220881908572052
 40
0.950340444258204
 40
0.9816596884808808
 40
1.0
 40
1.0
 40
1.0
 40
1.0
 10
6311.519012164077
 20
5233.604978051548
 30
0.0
 10
6313.787562367337
 20
5233.732407987186
 30
0.0
 10
6318.813664860864
 20
5234.014736284942
 30
0.0
 10
6326.267355154879
 20
5234.629756100264
 30
0.0
 10
6333.59415761718
 20
5235.363854967063
 30
0.0
 10
6340.042478484851
 20
5236.139819066432
 30
0.0
 10
6346.144030195107
 20
5236.98654508687
 30
0.0
 10
6351.805325801044
 20
5237.88430696768
 30
0.0
 10
6356.940416649402
 20
5238.804303962092
 30
0.0
 10
6362.274399399758
 20
5239.855181683746
 30
0.0
 10
6368.49484012241
 20
5241.221713604881
 30
0.0
 10
6376.171586648679
 20
5243.166361813393
 30
0.0
 10
6384.783195076471
 20
5245.712425698408
 30
0.0
 10
6393.734264122005
 20
5248.848819498802
 30
0.0
 10
6402.539728896859
 20
5252.516571035395
 30
0.0
 10
6409.735690714392
 20
5256.030418628357
 30
0.0
 10
6415.71295333606
 20
5259.331029684626
 30
0.0
 10
6420.817790676771
 20
5262.43208081418
 30
0.0
 10
6426.098729758941
 20
5265.976356573331
 30
0.0
 10
6431.428289093059
 20
5269.938142579085
 30
0.0
 10
6436.681390717148
 20
5274.252343609262
 30
0.0
 10
6441.548118832304
 20
5278.634630892143
 30
0.0
 10
6445.872352501191
 20
5282.834359834722
 30
0.0
 10
6449.668967250645
 20
5286.738280086412
 30
0.0
 10
6453.187107018992
 20
5290.5126570069
 30
0.0
 10
6456.830257796282
 20
5294.556076007048
 30
0.0
 10
6460.700478036101
 20
5299.078237139391
 30
0.0
 10
6464.706026496185
 20
5304.084602026884
 30
0.0
 10
6468.57954734068
 20
5309.336008900906
 30
0.0
 10
6471.826006004715
 20
5314.148345463038
 30
0.0
 10
6474.375555367267
 20
5318.229076683353
 30
0.0
 10
6476.315974369849
 20
5321.529946536547
 30
0.0
 10
6478.008899810622
 20
5324.574004297287
 30
0.0
 10
6479.670654952548
 20
5327.723865494149
 30
0.0
 10
6481.457378655569
 20
5331.313087288296
 30
0.0
 10
6483.372095200441
 20
5335.441399024064
 30
0.0
 10
6485.374673291267
 20
5340.10976002818
 30
0.0
 10
6487.426871696088
 20
5345.312565923972
 30
0.0
 10
6489.593993366527
 20
5351.362160307984
 30
0.0
 10
6491.652700439829
 20
5357.776429256156
 30
0.0
 10
6493.5956424149
 20
5364.514608057583
 30
0.0
 10
6495.406380817323
 20
5371.533506175704
 30
0.0
 10
6496.927200407482
 20
5378.019343266482
 30
0.0
 10
6497.761596230653
 20
5382.207757650505
 30
0.0
 10
6498.069756041965
 20
5383.754626594995
 30
0.0
  0
SPLINE
  5
84
330
1F
100
AcDbEntity
  8
0
  6
Continuous
 62
     7
370
    25
100
AcDbSpline
210
0.0
220
0.0
230
1.0
 70
     8
 71
     3
 72
    50
 73
    46
 74
     0
 42
0.000000001
 43
0.00000001
 40
0.0
 40
0.0
 40
0.0
 40
0.0
 40
0.0181848420643405
 40
0.0493829205433193
 40
0.0775399420824851
 40
0.1029530406177906
 40
0.1258784610329416
 40
0.1524995455572618
 40
0.1756376390693959
 40
0.1956204071617372
 40
0.2148238127920197
 40
0.2305771512606058
 40
0.2431276345281032
 40
0.2555514208301566
 40
0.2697895443653383
 40
0.2857905169077777
 40
0.3099913329289078
 40
0.3368899596126825
 40
0.3633543772764142
 40
0.3887210876438674
 40
0.4120280689691975
 40
0.4269137754209099
 40
0.4409300434109328
 40
0.4575404809456574
 40
0.4768444692520401
 40
0.4976589238234159
 40
0.5272979787733051
 40
0.557239902228576
 40
0.5877331312389236
 40
0.6168027363609423
 40
0.6425497643777959
 40
0.6646044447037693
 40
0.6830487565815072
 40
0.7027273523163307
 40
0.7204989259367258
 40
0.7402703551490275
 40
0.7622500879075303
 40
0.7867981075316365
 40
0.8142812178571763
 40
0.8396624890061075
 40
0.8675279715323764
 40
0.8981231426440145
 40
0.9317209546373989
 40
0.9686193001373252
 40
1.0
 40
1.0
 40
1.0
 40
1.0
 10
6049.968011986217
 20
5383.754626594995
 30
0.0
 10
6050.273434708433
 20
5382.221240453325
 30
0.0
 10
6051.102843397823
 20
5378.057163265939
 30
0.0
 10
6052.614853769644
 20
5371.603435596153
 30
0.0
 10
6054.416780723061
 20
5364.609309574618
 30
0.0
 10
6056.213444638572
 20
5358.367979239928
 30
0.0
 10
6058.130208594559
 20
5352.316460204019
 30
0.0
 10
6060.159524098176
 20
5346.518461958967
 30
0.0
 10
6062.286645782973
 20
5341.026877836938
 30
0.0
 10
6064.338561945239
 20
5336.176960014112
 30
0.0
 10
6066.279326007919
 20
5331.943608689979
 30
0.0
 10
6068.065132868454
 20
5328.31696968265
 30
0.0
 10
6069.692104934452
 20
5325.200649476398
 30
0.0
 10
6071.313659026268
 20
5322.251371866633
 30
0.0
 10
6073.121931211195
 20
5319.131514153421
 30
0.0
 10
6075.508518993314
 20
5315.244693125867
 30
0.0
 10
6078.580968902426
 20
5310.596389617869
 30
0.0
 10
6082.335207168007
 20
5305.394622811184
 30
0.0
 10
6086.327137600774
 20
5300.305383410459
 30
0.0
 10
6090.281068122764
 20
5295.61154694146
 30
0.0
 10
6093.72555891497
 20
5291.749528164407
 30
0.0
 10
6096.662296050576
 20
5288.563441432443
 30
0.0
 10
6099.292912556768
 20
5285.783682449807
 30
0.0
 10
6102.252496750666
 20
5282.760680032326
 30
0.0
 10
6105.722433118306
 20
5279.376449746595
 30
0.0
 10
6110.148913388927
 20
5275.309424888285
 30
0.0
 10
6115.502085139985
 20
5270.79033624538
 30
0.0
 10
6121.841293895836
 20
5266.013164269662
 30
0.0
 10
6128.475646165271
 20
5261.602829403356
 30
0.0
 10
6135.078230712979
 20
5257.74842194118
 30
0.0
 10
6141.228834986046
 20
5254.574443797444
 30
0.0
 10
6146.66317039659
 20
5252.062053969547
 30
0.0
 10
6151.686248964198
 20
5249.948948740228
 30
0.0
 10
6156.446519094442
 20
5248.121030549818
 30
0.0
 10
6161.38525051746
 20
5246.390016145132
 30
0.0
 10
6166.578157924274
 20
5244.731375711869
 30
0.0
 10
6172.419830556382
 20
5243.052783599524
 30
0.0
 10
6178.987122589076
 20
5241.374457272868
 30
0.0
 10
6185.89046747955
 20
5239.830289435397
 30
0.0
 10
6193.123155062738
 20
5238.424964384889
 30
0.0
 10
6200.66645699211
 20
5237.163845483338
 30
0.0
 10
6208.983233963445
 20
5235.996439700455
 30
0.0
 10
6218.152053998801
 20
5234.961013810813
 30
0.0
 10
6227.421248718606
 20
5234.131361836466
 30
0.0
 10
6233.654321039832
 20
5233.77428790743
 30
0.0
 10
6236.519009183845
 20
5233.610178556804
 30
0.0
  0
ARC
  5
85
330
1F
100
AcDbEntity
  8
0
  6
Continuous
 62
     7
370
    25
100
AcDbCircle
 10
6306.519010674
 20
5230.9546265272
 30
0.0
 40
5.0
100
AcDbArc
 50
279.5888328595
 51
0.0
  0
ARC
  5
86
330
1F
100
AcDbEntity
  8
0
  6
Continuous
 62
     7
370
    25
100
AcDbCircle
 10
6241.519010674
 20
5230.9546265272
 30
0.0
 40
5.0
100
AcDbArc
 50
180.0
 51
260.4111671405
  0
LINE
  5
87
330
1F
100
AcDbEntity
  8
0
  6
Continuous
 62
     7
370
    25
100
AcDbLine
 10
6311.5190121641
 20
5230.9546277193
 30
0.0
 11
6311.5190121641
 21
5233.6049780515
 31
0.0
  0
LINE
  5
88
330
1F
100
AcDbEntity
  8
0
  6
Continuous
 62
     7
370
    25
100
AcDbLine
 10
6236.5190091838
 20
5233.6101785568
 30
0.0
 11
6236.5190091838
 21
5230.9546277193
 31
0.0
  0
LINE
  5
89
330
1F
100
AcDbEntity
  8
0
  6
Continuous
 62
     7
370
    25
100
AcDbLine
 10
6240.6861263623
 20
5226.0244891313
 30
0.0
 11
6247.0190099736
 21
5224.9546304611
 31
0.0
  0
LINE
  5
8A
330
1F
100
AcDbEntity
  8
0
  6
Continuous
 62
     7
370
    25
100
AcDbLine
 10
6301.0190113743
 20
5224.9546304611
 30
0.0
 11
6307.3518949856
 21
5226.0244891313
 31
0.0
  0
LINE
  5
8B
330
1F
100
AcDbEntity
  8
0
  6
Continuous
 62
     7
370
    25
100
AcDbLine
 10
6247.0190099736
 20
5224.9546304611
 30
0.0
 11
6251.0190106293
 21
5189.9546191362
 31
0.0
  0
LINE
  5
8C
330
1F
100
AcDbEntity
  8
0
  6
Continuous
 62
     7
370
    25
100
AcDbLine
 10
6297.0190107187
 20
5189.9546191362
 30
0.0
 11
6301.0190113743
 21
5224.9546304611
 31
0.0
  0
LINE
  5
8D
330
1F
100
AcDbEntity
  8
0
  6
Continuous
 62
     7
370
    25
100
AcDbLine
 10
6297.0190107187
 20
5185.9546259311
 30
0.0
 11
6297.0190107187
 21
5189.9546191362
 31
0.0
  0
LINE
  5
8E
330
1F
100
AcDbEntity
  8
0
  6
Continuous
 62
     7
370
    25
100
AcDbLine
 10
6251.0190106293
 20
5189.9546191362
 30
0.0
 11
6251.0190106293
 21
5185.9546259311
 31
0.0
  0
LINE
  5
8F
330
1F
100
AcDbEntity
  8
0
  6
Continuous
 62
     7
370
    25
100
AcDbLine
 10
6308.0190125217
 20
5090.4546186594
 30
0.0
 11
6301.328452613
 21
5147.8022739557
 31
0.0
  0
LINE
  5
90
330
1F
100
AcDbEntity
  8
0
  6
Continuous
 62
     7
370
    25
100
AcDbLine
 10
6246.709568735
 20
5147.8022739557
 30
0.0
 11
6240.0190088262
 21
5090.4546186594
 31
0.0
  0
LINE
  5
91
330
1F
100
AcDbEntity
  8
0
  6
Continuous
 62
     7
370
    25
100
AcDbLine
 10
6240.0190088262
 20
5090.4546186594
 30
0.0
 11
6246.9127963593
 21
5023.148964372
 31
0.0
  0
LINE
  5
92
330
1F
100
AcDbEntity
  8
0
  6
Continuous
 62
     7
370
    25
100
AcDbLine
 10
6301.1252249887
 20
5023.148964372
 30
0.0
 11
6308.0190125217
 21
5090.4546186594
 31
0.0
  0
ARC
  5
93
330
1F
100
AcDbEntity
  8
0
  6
Continuous
 62
     7
370
    25
100
AcDbCircle
 10
6249.6893583361
 20
5147.4546265272
 30
0.0
 40
3.0
100
AcDbArc
 50
90.0
 51
173.345574954
  0
ARC
  5
94
330
1F
100
AcDbEntity
  8
0
  6
Continuous
 62
     7
370
    25
100
AcDbCircle
 10
6298.3486630119
 20
5147.4546265272
 30
0.0
 40
3.000000000000701
100
AcDbArc
 50
6.654425046
 51
90.0
  0
ARC
  5
95
330
1F
100
AcDbEntity
  8
0
  6
Continuous
 62
     7
370
    25
100
AcDbCircle
 10
6249.8971828078
 20
5023.4546265272
 30
0.0
 40
2.999999999999091
100
AcDbArc
 50
185.8481280262
 51
270.0
  0
ARC
  5
96
330
1F
100
AcDbEntity
  8
0
  6
Continuous
 62
     7
370
    25
100
AcDbCircle
 10
6298.1408385402
 20
5023.4546265272
 30
0.0
 40
3.000000000000424
100
AcDbArc
 50
270.0
 51
354.1518719738
  0
LINE
  5
97
330
1F
100
AcDbEntity
  8
0
  6
Continuous
 62
     7
370
    25
100
AcDbLine
 10
6299.0190110465
 20
5152.9546335605
 30
0.0
 11
6297.0190107187
 21
5156.9546267656
 31
0.0
  0
LINE
  5
98
330
1F
100
AcDbEntity
  8
0
  6
Continuous
 62
     7
370
    25
100
AcDbLine
 10
6251.0190106293
 20
5156.9546267656
 30
0.0
 11
6249.0190103014
 21
5152.9546335605
 31
0.0
  0
LINE
  5
99
330
1F
100
AcDbEntity
  8
0
  6
Continuous
 62
     7
370
    25
100
AcDbLine
 10
6251.0190106293
 20
5163.9546260504
 30
0.0
 11
6251.0190106293
 21
5156.9546267656
 31
0.0
  0
LINE
  5
9A
330
1F
100
AcDbEntity
  8
0
  6
Continuous
 62
     7
370
    25
100
AcDbLine
 10
6297.0190107187
 20
5156.9546267656
 30
0.0
 11
6297.0190107187
 21
5163.9546260504
 31
0.0
  0
ARC
  5
9B
330
1F
100
AcDbEntity
  8
0
  6
Continuous
 62
     7
370
    25
100
AcDbCircle
 10
6254.019010674
 20
5163.9546265272
 30
0.0
 40
3.0
100
AcDbArc
 50
90.0
 51
180.0
  0
ARC
  5
9C
330
1F
100
AcDbEntity
  8
0
  6
Continuous
 62
     7
370
    25
100
AcDbCircle
 10
6294.019010674
 20
5163.9546265272
 30
0.0
 40
3.0
100
AcDbArc
 50
0.0
 51
90.0
  0
LINE
  5
9D
330
1F
100
AcDbEntity
  8
0
  6
Continuous
 62
     7
370
    25
100
AcDbLine
 10
6258.019009914
 20
5152.9546335605
 30
0.0
 11
6258.019009914
 21
5150.4546210436
 31
0.0
  0
LINE
  5
9E
330
1F
100
AcDbEntity
  8
0
  6
Continuous
 62
     7
370
    25
100
AcDbLine
 10
6290.0190114339
 20
5150.4546210436
 30
0.0
 11
6290.0190114339
 21
5152.9546335605
 31
0.0
  0
LINE
  5
9F
330
1F
100
AcDbEntity
  8
0
  6
Continuous
 62
     7
370
    25
100
AcDbLine
 10
6244.0190113445
 20
5185.9546259311
 30
0.0
 11
6246.0190098097
 21
5181.9546327261
 31
0.0
  0
LINE
  5
A0
330
1F
100
AcDbEntity
  8
0
  6
Continuous
 62
     7
370
    25
100
AcDbLine
 10
6302.0190115382
 20
5181.9546327261
 30
0.0
 11
6304.0190100034
 21
5185.9546259311
 31
0.0
  0
ARC
  5
A1
330
1F
100
AcDbEntity
  8
0
  6
Continuous
 62
     7
370
    25
100
AcDbCircle
 10
6249.019010674
 20
5174.9546265272
 30
0.0
 40
3.0
100
AcDbArc
 50
180.0
 51
270.0
  0
ARC
  5
A2
330
1F
100
AcDbEntity
  8
0
  6
Continuous
 62
     7
370
    25
100
AcDbCircle
 10
6299.019010674
 20
5174.9546265272
 30
0.0
 40
3.0
100
AcDbArc
 50
270.0
 51
0.0
  0
LINE
  5
A3
330
1F
100
AcDbEntity
  8
0
  6
Continuous
 62
     7
370
    25
100
AcDbLine
 10
6246.0190098097
 20
5181.9546327261
 30
0.0
 11
6246.0190098097
 21
5174.9546334413
 31
0.0
  0
LINE
  5
A4
330
1F
100
AcDbEntity
  8
0
  6
Continuous
 62
     7
370
    25
100
AcDbLine
 10
6302.0190115382
 20
5174.9546334413
 30
0.0
 11
6302.0190115382
 21
5181.9546327261
 31
0.0
  0
LINE
  5
A5
330
1F
100
AcDbEntity
  8
0
  6
Continuous
 62
     7
370
    25
100
AcDbLine
 10
6258.019009914
 20
5171.9546273617
 30
0.0
 11
6258.019009914
 21
5166.95463213
 31
0.0
  0
LINE
  5
A6
330
1F
100
AcDbEntity
  8
0
  6
Continuous
 62
     7
370
    25
100
AcDbLine
 10
6258.019009914
 20
5152.9546335605
 30
0.0
 11
6258.019009914
 21
5150.4546210436
 31
0.0
  0
LINE
  5
A7
330
1F
100
AcDbEntity
  8
0
  6
Continuous
 62
     7
370
    25
100
AcDbLine
 10
6290.0190114339
 20
5150.4546210436
 30
0.0
 11
6290.0190114339
 21
5152.9546335605
 31
0.0
  0
LINE
  5
A8
330
1F
100
AcDbEntity
  8
0
  6
Continuous
 62
     7
370
    25
100
AcDbLine
 10
6290.0190114339
 20
5166.95463213
 30
0.0
 11
6290.0190114339
 21
5171.9546273617
 31
0.0
  0
SPLINE
  5
A9
330
1F
100
AcDbEntity
  8
0
  6
Continuous
 62
     7
370
    25
100
AcDbSpline
210
0.0
220
0.0
230
1.0
 70
    24
 71
     3
 72
    54
 73
    50
 74
     0
 42
0.000000001
 43
0.00000001
 40
0.0
 40
0.0
 40
0.0
 40
0.0
 40
0.0000176922940801
 40
0.019489901029641
 40
0.0388029386546563
 40
0.0580828944766161
 40
0.0773316540752218
 40
0.0963310885730454
 40
0.1151537575830792
 40
0.1338753526412214
 40
0.1555282399267731
 40
0.1768050863631943
 40
0.197834328452547
 40
0.2187454534921705
 40
0.2395967629771457
 40
0.2602407452700313
 40
0.2830598196519975
 40
0.3057013338267706
 40
0.3282566145949987
 40
0.3508153090176026
 40
0.3733606124725439
 40
0.3957049499120556
 40
0.4218484742606918
 40
0.4478973723690496
 40
0.4739549702261396
 40
0.5001176858444201
 40
0.5268784124020786
 40
0.5535074151938889
 40
0.5800457200292387
 40
0.6066159741286823
 40
0.6333200695915402
 40
0.6545005933917142
 40
0.6758659795301795
 40
0.69725044474648
 40
0.7186559788014293
 40
0.7401607005570193
 40
0.7598772745373973
 40
0.7798614400837086
 40
0.800030518532911
 40
0.8202486255460895
 40
0.8406068294137886
 40
0.8612295557090643
 40
0.8821920298551438
 40
0.9015161074059668
 40
0.9209058819592496
 40
0.940541702830868
 40
0.9604156206755153
 40
0.9802244920069636
 40
1.0
 40
1.0
 40
1.0
 40
1.0
 10
6020.537890802821
 20
5383.754626594995
 30
0.0
 10
6020.537701896842
 20
5383.754626594995
 30
0.0
 10
6020.329602324003
 20
5383.754626594996
 30
0.0
 10
6021.060046721321
 20
5383.754626594995
 30
0.0
 10
6022.813845119656
 20
5383.754626594995
 30
0.0
 10
6025.913602072404
 20
5383.754626594995
 30
0.0
 10
6030.090329369991
 20
5383.754626594995
 30
0.0
 10
6035.299869682392
 20
5383.754626594995
 30
0.0
 10
6041.430400023154
 20
5383.754626594995
 30
0.0
 10
6048.77460041215
 20
5383.754626594995
 30
0.0
 10
6057.364124614035
 20
5383.754626594995
 30
0.0
 10
6067.203444949527
 20
5383.754626594995
 30
0.0
 10
6077.729613277564
 20
5383.754626594995
 30
0.0
 10
6088.878109563962
 20
5383.754626594995
 30
0.0
 10
6100.562834994572
 20
5383.754626594995
 30
0.0
 10
6113.141593296996
 20
5383.754626594995
 30
0.0
 10
6126.573627238336
 20
5383.754626594995
 30
0.0
 10
6140.859717363513
 20
5383.754626594995
 30
0.0
 10
6155.480146158634
 20
5383.754626594995
 30
0.0
 10
6170.40555906816
 20
5383.754626594995
 30
0.0
 10
6185.555489452428
 20
5383.754626594995
 30
0.0
 10
6201.74199972224
 20
5383.754626594995
 30
0.0
 10
6218.938333656924
 20
5383.754626594995
 30
0.0
 10
6237.163941781118
 20
5383.754626594995
 30
0.0
 10
6255.506356578119
 20
5383.754626594995
 30
0.0
 10
6274.072600500224
 20
5383.754626594995
 30
0.0
 10
6292.773417146879
 20
5383.754626594995
 30
0.0
 10
6311.50317244062
 20
5383.754626594995
 30
0.0
 10
6330.069066574822
 20
5383.754626594995
 30
0.0
 10
6348.469213202051
 20
5383.754626594995
 30
0.0
 10
6365.400515880352
 20
5383.754626594995
 30
0.0
 10
6380.889783738785
 20
5383.754626594995
 30
0.0
 10
6394.937962600558
 20
5383.754626594995
 30
0.0
 10
6408.735514146192
 20
5383.754626594995
 30
0.0
 10
6422.204849370074
 20
5383.754626594995
 30
0.0
 10
6434.916911827921
 20
5383.754626594995
 30
0.0
 10
6446.90120873806
 20
5383.754626594995
 30
0.0
 10
6458.14422466583
 20
5383.754626594995
 30
0.0
 10
6468.929546559795
 20
5383.754626594995
 30
0.0
 10
6479.149213675548
 20
5383.754626594995
 30
0.0
 10
6488.716933205369
 20
5383.754626594995
 30
0.0
 10
6497.55128400221
 20
5383.754626594995
 30
0.0
 10
6505.308780189251
 20
5383.754626594995
 30
0.0
 10
6511.929121393276
 20
5383.754626594995
 30
0.0
 10
6517.391600264106
 20
5383.754626594995
 30
0.0
 10
6521.800079913408
 20
5383.754626594995
 30
0.0
 10
6525.024374782362
 20
5383.754626594995
 30
0.0
 10
6527.084446251563
 20
5383.754626594995
 30
0.0
 10
6527.361686740236
 20
5383.754626594995
 30
0.0
 10
6527.500190149745
 20
5383.754626594995
 30
0.0
  0
SPLINE
  5
AA
330
1F
100
AcDbEntity
  8
0
  6
Continuous
 62
     7
370
    25
100
AcDbSpline
210
0.0
220
0.0
230
1.0
 70
    24
 71
     3
 72
    58
 73
    54
 74
     0
 42
0.000000001
 43
0.00000001
 40
0.0
 40
0.0
 40
0.0
 40
0.0
 40
0.018173727661853
 40
0.0364533404128951
 40
0.0552964949367005
 40
0.0741410760889659
 40
0.0924048795674328
 40
0.1106699616345233
 40
0.1293750051962483
 40
0.1480817119418768
 40
0.164484573308783
 40
0.1809025553078786
 40
0.1973082093324373
 40
0.2141819624112251
 40
0.2310683781822946
 40
0.2479445192680853
 40
0.2692977738280695
 40
0.2906705949957241
 40
0.3120275203533608
 40
0.3339893322551278
 40
0.3559672561563051
 40
0.3779313844248915
 40
0.3997777266237307
 40
0.4216371957754907
 40
0.4434848045550008
 40
0.4657823816365699
 40
0.4880924363243221
 40
0.5103903384640655
 40
0.5362036485800031
 40
0.5620357968664849
 40
0.5878478410038285
 40
0.6144349277454066
 40
0.6410447382484782
 40
0.6676280104029529
 40
0.6869610097908447
 40
0.7063047558566674
 40
0.7256354270733123
 40
0.7454583251976742
 40
0.7652959281666618
 40
0.7851149487840816
 40
0.8077022962170274
 40
0.8302868573828591
 40
0.8457367012275636
 40
0.8611987604752793
 40
0.8766465966438571
 40
0.8955878607015114
 40
0.9145272266149918
 40
0.9339944617888696
 40
0.9534606377230761
 40
0.9650255243075759
 40
0.9765902437723074
 40
0.9882951376763587
 40
1.0
 40
1.0
 40
1.0
 40
1.0
 10
6024.040527950725
 20
5388.454626527195
 30
0.0
 10
6024.148914376085
 20
5388.454626527195
 30
0.0
 10
6024.366318715652
 20
5388.454626527195
 30
0.0
 10
6026.097883653396
 20
5388.454626527195
 30
0.0
 10
6028.882193339447
 20
5388.454626527195
 30
0.0
 10
6032.760335668258
 20
5388.454626527195
 30
0.0
 10
6037.589291285247
 20
5388.454626527195
 30
0.0
 10
6043.320051917394
 20
5388.454626527195
 30
0.0
 10
6049.964254575105
 20
5388.454626527195
 30
0.0
 10
6057.149060805858
 20
5388.454626527195
 30
0.0
 10
6064.655215171285
 20
5388.454626527195
 30
0.0
 10
6072.33453576194
 20
5388.454626527195
 30
0.0
 10
6080.552718521078
 20
5388.454626527195
 30
0.0
 10
6089.282952836578
 20
5388.454626527195
 30
0.0
 10
6098.492286839702
 20
5388.454626527195
 30
0.0
 10
6108.9032101138
 20
5388.454626527195
 30
0.0
 10
6120.587547359766
 20
5388.454626527195
 30
0.0
 10
6133.589695729765
 20
5388.454626527195
 30
0.0
 10
6147.098493181681
 20
5388.454626527195
 30
0.0
 10
6161.06856802616
 20
5388.454626527195
 30
0.0
 10
6175.455665375474
 20
5388.454626527195
 30
0.0
 10
6190.057233770308
 20
5388.454626527195
 30
0.0
 10
6204.828202483173
 20
5388.454626527195
 30
0.0
 10
6219.727867851898
 20
5388.454626527195
 30
0.0
 10
6234.849005116203
 20
5388.454626527195
 30
0.0
 10
6250.159451941478
 20
5388.454626527195
 30
0.0
 10
6265.6260733765
 20
5388.454626527195
 30
0.0
 10
6281.924447032246
 20
5388.454626527195
 30
0.0
 10
6299.020420297535
 20
5388.454626527195
 30
0.0
 10
6316.855213894662
 20
5388.454626527195
 30
0.0
 10
6334.738924288725
 20
5388.454626527195
 30
0.0
 10
6352.607547560461
 20
5388.454626527195
 30
0.0
 10
6370.384379841306
 20
5388.454626527195
 30
0.0
 10
6386.235572272988
 20
5388.454626527195
 30
0.0
 10
6400.195808113615
 20
5388.454626527195
 30
0.0
 10
6412.343117702583
 20
5388.454626527195
 30
0.0
 10
6424.286296053131
 20
5388.454626527195
 30
0.0
 10
6435.970941858035
 20
5388.454626527195
 30
0.0
 10
6447.335391341869
 20
5388.454626527195
 30
0.0
 10
6458.727080513708
 20
5388.454626527195
 30
0.0
 10
6469.985297348292
 20
5388.454626527195
 30
0.0
 10
6479.76408291171
 20
5388.454626527195
 30
0.0
 10
6487.763058764724
 20
5388.454626527195
 30
0.0
 10
6494.214723391669
 20
5388.454626527195
 30
0.0
 10
6500.595427464294
 20
5388.454626527195
 30
0.0
 10
6506.70265037412
 20
5388.454626527195
 30
0.0
 10
6512.344781180734
 20
5388.454626527195
 30
0.0
 10
6516.993640023966
 20
5388.454626527195
 30
0.0
 10
6520.080697828601
 20
5388.454626527195
 30
0.0
 10
6521.997335679908
 20
5388.454626527195
 30
0.0
 10
6523.125322060449
 20
5388.454626527195
 30
0.0
 10
6523.845814590088
 20
5388.454626527195
 30
0.0
 10
6523.94874184867
 20
5388.454626527195
 30
0.0
 10
6524.000205408534
 20
5388.454626527195
 30
0.0
  0
LINE
  5
AB
330
1F
100
AcDbEntity
  8
0
  6
Continuous
 62
     7
370
    25
100
AcDbLine
 10
6274.019010674
 20
5224.9546304611
 30
0.0
 11
6247.0190099736
 21
5224.9546304611
 31
0.0
  0
LINE
  5
AC
330
1F
100
AcDbEntity
  8
0
  6
Continuous
 62
     7
370
    25
100
AcDbLine
 10
6301.0190113743
 20
5224.9546304611
 30
0.0
 11
6274.019010674
 21
5224.9546304611
 31
0.0
  0
LINE
  5
AD
330
1F
100
AcDbEntity
  8
0
  6
Continuous
 62
     7
370
    25
100
AcDbLine
 10
6274.019010674
 20
5189.9546191362
 30
0.0
 11
6251.0190106293
 21
5189.9546191362
 31
0.0
  0
LINE
  5
AE
330
1F
100
AcDbEntity
  8
0
  6
Continuous
 62
     7
370
    25
100
AcDbLine
 10
6297.0190107187
 20
5189.9546191362
 30
0.0
 11
6274.019010674
 21
5189.9546191362
 31
0.0
  0
LINE
  5
AF
330
1F
100
AcDbEntity
  8
0
  6
Continuous
 62
     7
370
    25
100
AcDbLine
 10
6240.0190088262
 20
5090.4546186594
 30
0.0
 11
6308.0190125217
 21
5090.4546186594
 31
0.0
  0
LINE
  5
B0
330
1F
100
AcDbEntity
  8
0
  6
Continuous
 62
     7
370
    25
100
AcDbLine
 10
6249.6893576642
 20
5150.4546210436
 30
0.0
 11
6298.3486636837
 21
5150.4546210436
 31
0.0
  0
LINE
  5
B1
330
1F
100
AcDbEntity
  8
0
  6
Continuous
 62
     7
370
    25
100
AcDbLine
 10
6249.8971822967
 20
5020.4546258119
 30
0.0
 11
6298.1408390512
 21
5020.4546258119
 31
0.0
  0
LINE
  5
B2
330
1F
100
AcDbEntity
  8
0
  6
Continuous
 62
     7
370
    25
100
AcDbLine
 10
6251.0190106293
 20
5156.9546267656
 30
0.0
 11
6297.0190107187
 21
5156.9546267656
 31
0.0
  0
LINE
  5
B3
330
1F
100
AcDbEntity
  8
0
  6
Continuous
 62
     7
370
    25
100
AcDbLine
 10
6249.0190103014
 20
5152.9546335605
 30
0.0
 11
6299.0190110465
 21
5152.9546335605
 31
0.0
  0
LINE
  5
B4
330
1F
100
AcDbEntity
  8
0
  6
Continuous
 62
     7
370
    25
100
AcDbLine
 10
6254.019011121
 20
5166.95463213
 30
0.0
 11
6294.0190102269
 21
5166.95463213
 31
0.0
  0
LINE
  5
B5
330
1F
100
AcDbEntity
  8
0
  6
Continuous
 62
     7
370
    25
100
AcDbLine
 10
6290.5190105846
 20
5150.4546210436
 30
0.0
 11
6290.0190114339
 21
5150.8208915857
 31
0.0
  0
LINE
  5
B6
330
1F
100
AcDbEntity
  8
0
  6
Continuous
 62
     7
370
    25
100
AcDbLine
 10
6258.019009914
 20
5150.8208915857
 30
0.0
 11
6257.5190107634
 21
5150.4546210436
 31
0.0
  0
ARC
  5
B7
330
1F
100
AcDbEntity
  8
0
  6
Continuous
 62
     7
370
    25
100
AcDbCircle
 10
6274.019010674
 20
5128.4546265272
 30
0.0
 40
40.00000000000026
100
AcDbArc
 50
342.5671773855
 51
54.9003678046
  0
ARC
  5
B8
330
1F
100
AcDbEntity
  8
0
  6
Continuous
 62
     7
370
    25
100
AcDbCircle
 10
6274.019010674
 20
5128.4546265272
 30
0.0
 40
40.00000000000026
100
AcDbArc
 50
125.0996321954
 51
216.1070114058
  0
ARC
  5
B9
330
1F
100
AcDbEntity
  8
0
  6
Continuous
 62
     7
370
    25
100
AcDbCircle
 10
6274.019010674
 20
5128.4546265272
 30
0.0
 40
39.99999999999982
100
AcDbArc
 50
323.8929885942
 51
342.5671773855
  0
LINE
  5
BA
330
1F
100
AcDbEntity
  8
0
  6
Continuous
 62
     7
370
    25
100
AcDbLine
 10
6266.4869272446
 20
5185.9546259311
 30
0.0
 11
6304.0190100034
 21
5185.9546259311
 31
0.0
  0
LINE
  5
BB
330
1F
100
AcDbEntity
  8
0
  6
Continuous
 62
     7
370
    25
100
AcDbLine
 10
6244.0190113445
 20
5185.9546259311
 30
0.0
 11
6266.4869272446
 21
5185.9546259311
 31
0.0
  0
LINE
  5
BC
330
1F
100
AcDbEntity
  8
0
  6
Continuous
 62
     7
370
    25
100
AcDbLine
 10
6266.9890661088
 20
5181.9546327261
 30
0.0
 11
6302.0190115382
 21
5181.9546327261
 31
0.0
  0
LINE
  5
BD
330
1F
100
AcDbEntity
  8
0
  6
Continuous
 62
     7
370
    25
100
AcDbLine
 10
6246.0190098097
 20
5181.9546327261
 30
0.0
 11
6266.9890661088
 21
5181.9546327261
 31
0.0
  0
LINE
  5
BE
330
1F
100
AcDbEntity
  8
0
  6
Continuous
 62
     7
370
    25
100
AcDbLine
 10
6267.742274638
 20
5171.9546273617
 30
0.0
 11
6299.0190110465
 21
5171.9546273617
 31
0.0
  0
LINE
  5
BF
330
1F
100
AcDbEntity
  8
0
  6
Continuous
 62
     7
370
    25
100
AcDbLine
 10
6249.0190103014
 20
5171.9546273617
 30
0.0
 11
6267.742274638
 21
5171.9546273617
 31
0.0
  0
SPLINE
  5
C0
330
1F
100
AcDbEntity
  8
0
  6
Continuous
 62
     8
370
    25
100
AcDbSpline
210
0.0
220
0.0
230
1.0
 70
    24
 71
     3
 72
    60
 73
    56
 74
     0
 42
0.000000001
 43
0.00000001
 40
0.0
 40
0.0
 40
0.0
 40
0.0
 40
0.0116531615595403
 40
0.0233063473472775
 40
0.0351014197519015
 40
0.0468966486598576
 40
0.0620121864972811
 40
0.0774104928366455
 40
0.0928094826814988
 40
0.1084865205533084
 40
0.1241644166945792
 40
0.1392346426936638
 40
0.154317958517483
 40
0.1693899479323076
 40
0.1926302120754005
 40
0.2158735906342402
 40
0.2351438680758936
 40
0.2544312263569223
 40
0.2737049617988268
 40
0.2935021491765119
 40
0.3133135326698329
 40
0.3331132486880605
 40
0.3587850003509414
 40
0.3844808552416779
 40
0.4101559838510228
 40
0.436630534060226
 40
0.4631270727227487
 40
0.4896030785424233
 40
0.5113446019331371
 40
0.5330975084626028
 40
0.5548387314460472
 40
0.5770195581554379
 40
0.599212898577266
 40
0.6213923877937257
 40
0.6427020434038199
 40
0.6640244226763016
 40
0.685332039951137
 40
0.7072071190029197
 40
0.7290992591153465
 40
0.7509703218498902
 40
0.7674036995594168
 40
0.7838465808665479
 40
0.800277845015493
 40
0.8171482926150284
 40
0.834032048610504
 40
0.8508994506804513
 40
0.8692613065597533
 40
0.8876216627898927
 40
0.9064058552974443
 40
0.925188663336631
 40
0.9436097507735812
 40
0.9620295614837835
 40
0.981006373478809
 40
0.9999823001721913
 40
1.0
 40
1.0
 40
1.0
 40
1.0
 10
6527.500190149745
 20
5384.954626419161
 30
0.0
 10
6527.448664007013
 20
5384.954626419161
 30
0.0
 10
6527.345611614418
 20
5384.954626419161
 30
0.0
 10
6526.619610151606
 20
5384.954626419161
 30
0.0
 10
6525.468617465142
 20
5384.954626419161
 30
0.0
 10
6523.701301768145
 20
5384.954626419161
 30
0.0
 10
6521.178022426963
 20
5384.954626419161
 30
0.0
 10
6517.726744130604
 20
5384.954626419161
 30
0.0
 10
6513.540321896039
 20
5384.954626419161
 30
0.0
 10
6508.661393827125
 20
5384.954626419161
 30
0.0
 10
6503.198283641819
 20
5384.954626419161
 30
0.0
 10
6497.246662187358
 20
5384.954626419161
 30
0.0
 10
6490.873540744458
 20
5384.954626419161
 30
0.0
 10
6482.800068354024
 20
5384.954626419161
 30
0.0
 10
6472.745812603031
 20
5384.954626419161
 30
0.0
 10
6461.183560118303
 20
5384.954626419161
 30
0.0
 10
6449.700582264026
 20
5384.954626419161
 30
0.0
 10
6438.493148905941
 20
5384.954626419161
 30
0.0
 10
6426.776035293234
 20
5384.954626419161
 30
0.0
 10
6414.584996084727
 20
5384.954626419161
 30
0.0
 10
6401.957811442036
 20
5384.954626419161
 30
0.0
 10
6387.773409366576
 20
5384.954626419161
 30
0.0
 10
6371.977169926579
 20
5384.954626419161
 30
0.0
 10
6354.550642924711
 20
5384.954626419161
 30
0.0
 10
6336.682497536732
 20
5384.954626419161
 30
0.0
 10
6318.429065728897
 20
5384.954626419161
 30
0.0
 10
6299.848696570068
 20
5384.954626419161
 30
0.0
 10
6282.299012743939
 20
5384.954626419161
 30
0.0
 10
6265.846890361187
 20
5384.954626419161
 30
0.0
 10
6250.524851820584
 20
5384.954626419161
 30
0.0
 10
6235.149655375237
 20
5384.954626419161
 30
0.0
 10
6219.756070775285
 20
5384.954626419161
 30
0.0
 10
6204.38327650971
 20
5384.954626419161
 30
0.0
 10
6189.371675882219
 20
5384.954626419161
 30
0.0
 10
6174.755044948194
 20
5384.954626419161
 30
0.0
 10
6160.564425700745
 20
5384.954626419161
 30
0.0
 10
6146.524034164079
 20
5384.954626419161
 30
0.0
 10
6132.694149691907
 20
5384.954626419161
 30
0.0
 10
6119.146690196086
 20
5384.954626419161
 30
0.0
 10
6107.151032951656
 20
5384.954626419161
 30
0.0
 10
6096.640431530004
 20
5384.954626419161
 30
0.0
 10
6087.515823572993
 20
5384.954626419161
 30
0.0
 10
6078.694489636643
 20
5384.954626419161
 30
0.0
 10
6070.233041950905
 20
5384.954626419161
 30
0.0
 10
6062.190027340865
 20
5384.954626419161
 30
0.0
 10
6054.469595493762
 20
5384.954626419161
 30
0.0
 10
6047.193391256731
 20
5384.954626419161
 30
0.0
 10
6040.436657225179
 20
5384.954626419161
 30
0.0
 10
6034.511247591062
 20
5384.954626419161
 30
0.0
 10
6029.536563383179
 20
5384.954626419161
 30
0.0
 10
6025.615711376578
 20
5384.954626419161
 30
0.0
 10
6022.705491031934
 20
5384.954626419161
 30
0.0
 10
6021.015702611964
 20
5384.954626419162
 30
0.0
 10
6020.388215066294
 20
5384.954626419161
 30
0.0
 10
6020.537602579603
 20
5384.954626419161
 30
0.0
 10
6020.53774179121
 20
5384.954626419161
 30
0.0
  0
LINE
  5
C1
330
1F
100
AcDbEntity
  8
0
  6
Continuous
 62
     8
370
    25
100
AcDbLine
 10
6274.019010674
 20
5230.9546277193
 30
0.0
 11
6236.5190091838
 21
5230.9546277193
 31
0.0
  0
LINE
  5
C2
330
1F
100
AcDbEntity
  8
0
  6
Continuous
 62
     8
370
    25
100
AcDbLine
 10
6311.5190121641
 20
5230.9546277193
 30
0.0
 11
6274.019010674
 21
5230.9546277193
 31
0.0
  0
LINE
  5
C3
330
1F
100
AcDbEntity
  8
0
  6
Continuous
 62
     8
370
    25
100
AcDbLine
 10
6274.019010674
 20
5226.0244891313
 30
0.0
 11
6240.6861263623
 21
5226.0244891313
 31
0.0
  0
LINE
  5
C4
330
1F
100
AcDbEntity
  8
0
  6
Continuous
 62
     8
370
    25
100
AcDbLine
 10
6307.3518949856
 20
5226.0244891313
 30
0.0
 11
6274.019010674
 21
5226.0244891313
 31
0.0
  0
LINE
  5
C5
330
1F
100
AcDbEntity
  8
0
  6
Continuous
 62
     8
370
    25
100
AcDbLine
 10
6301.328452613
 20
5147.8022739557
 30
0.0
 11
6246.709568735
 21
5147.8022739557
 31
0.0
  0
LINE
  5
C6
330
1F
100
AcDbEntity
  8
0
  6
Continuous
 62
     8
370
    25
100
AcDbLine
 10
6246.9127963593
 20
5023.148964372
 30
0.0
 11
6301.1252249887
 21
5023.148964372
 31
0.0
  0
LINE
  5
C7
330
1F
100
AcDbEntity
  8
0
  6
Continuous
 62
     8
370
    25
100
AcDbLine
 10
6251.0190106293
 20
5163.9546260504
 30
0.0
 11
6297.0190107187
 21
5163.9546260504
 31
0.0
  0
LINE
  5
C8
330
1F
100
AcDbEntity
  8
0
  6
Continuous
 62
     8
370
    25
100
AcDbLine
 10
6266.9890661088
 20
5174.9546334413
 30
0.0
 11
6302.0190115382
 21
5174.9546334413
 31
0.0
  0
LINE
  5
C9
330
1F
100
AcDbEntity
  8
0
  6
Continuous
 62
     8
370
    25
100
AcDbLine
 10
6246.0190098097
 20
5174.9546334413
 30
0.0
 11
6266.9890661088
 21
5174.9546334413
 31
0.0
  0
SPLINE
  5
CA
330
1F
100
AcDbEntity
  8
0
  6
Continuous
 62
     7
370
    25
100
AcDbSpline
210
0.0
220
0.0
230
1.0
 70
     8
 71
     3
 72
    36
 73
    32
 74
     0
 42
0.000000001
 43
0.00000001
 40
0.0
 40
0.0
 40
0.0
 40
0.0
 40
0.0750890226750035
 40
0.1430513575275571
 40
0.2040395918575702
 40
0.2583445990875683
 40
0.3063311029502394
 40
0.3484070801710892
 40
0.385012998363106
 40
0.4165431808506405
 40
0.4440615282358442
 40
0.4702354674750833
 40
0.4953868518743371
 40
0.5196364607336436
 40
0.5546209313774455
 40
0.5900990834052502
 40
0.6081901778668315
 40
0.6263134430998342
 40
0.6442928471788303
 40
0.6644689549826733
 40
0.6883438227895033
 40
0.7160820768577525
 40
0.7481708255359776
 40
0.7853365522373269
 40
0.8092621419495454
 40
0.8354286876919532
 40
0.8639944789848166
 40
0.8950404050430935
 40
0.9289030463786703
 40
0.9659449422411552
 40
1.0
 40
1.0
 40
1.0
 40
1.0
 10
7260.933572271405
 20
5303.594100501899
 30
0.0
 10
7260.90078571451
 20
5299.766507504355
 30
0.0
 10
7260.838324367891
 20
5292.474597783654
 30
0.0
 10
7260.610445446281
 20
5282.075971944615
 30
0.0
 10
7260.432414491236
 20
5272.736152862542
 30
0.0
 10
7260.362015114022
 20
5264.412899699078
 30
0.0
 10
7260.441797784463
 20
5257.053546978157
 30
0.0
 10
7260.677475621184
 20
5250.599972148032
 30
0.0
 10
7261.066273332623
 20
5244.994161512651
 30
0.0
 10
7261.584396838951
 20
5240.144566612139
 30
0.0
 10
7262.215167399188
 20
5235.84516033813
 30
0.0
 10
7262.972812447749
 20
5231.896675461238
 30
0.0
 10
7263.885630969442
 20
5228.152036976851
 30
0.0
 10
7265.136390561936
 20
5224.034011250563
 30
0.0
 10
7266.887015323885
 20
5219.526741656434
 30
0.0
 10
7268.99896040905
 20
5215.519474390184
 30
0.0
 10
7271.075187405422
 20
5212.507014614005
 30
0.0
 10
7272.833120769533
 20
5210.371701990449
 30
0.0
 10
7274.834440481793
 20
5208.311692936605
 30
0.0
 10
7277.236548497682
 20
5206.248292625455
 30
0.0
 10
7280.236974706911
 20
5204.142403982969
 30
0.0
 10
7283.968237886384
 20
5202.057320857011
 30
0.0
 10
7288.514791649551
 20
5200.094339146927
 30
0.0
 10
7293.042930056788
 20
5198.635620964494
 30
0.0
 10
7297.364120151093
 20
5197.574320610775
 30
0.0
 10
7301.302998406099
 20
5196.81540429889
 30
0.0
 10
7305.632505412665
 20
5196.192857918199
 30
0.0
 10
7310.374787903022
 20
5195.71622734742
 30
0.0
 10
7315.562046591958
 20
5195.386069011254
 30
0.0
 10
7320.909929503102
 20
5195.195838485035
 30
0.0
 10
7324.53419727993
 20
5195.175070719731
 30
0.0
 10
7326.270202019749
 20
5195.165123072033
 30
0.0
  0
SPLINE
  5
CB
330
1F
100
AcDbEntity
  8
0
  6
Continuous
 62
     7
370
    25
100
AcDbSpline
210
0.0
220
0.0
230
1.0
 70
     8
 71
     3
 72
    33
 73
    29
 74
     0
 42
0.000000001
 43
0.00000001
 40
0.0
 40
0.0
 40
0.0
 40
0.0
 40
0.0387601046188754
 40
0.080944928709278
 40
0.1180977112456017
 40
0.1505573482462977
 40
0.1786579622902057
 40
0.2029425760174788
 40
0.2333278066099728
 40
0.2573632345085335
 40
0.2759690838965968
 40
0.2900526983806326
 40
0.31168365259453
 40
0.3314602079470244
 40
0.355940763229537
 40
0.3778386023919167
 40
0.3934879696484536
 40
0.4133734085052689
 40
0.4381761342920244
 40
0.4686313446563385
 40
0.505494296869662
 40
0.5495322640355381
 40
0.6014696755420872
 40
0.6619560708026565
 40
0.7316034312157499
 40
0.8109138248694648
 40
0.9002773581644061
 40
1.0
 40
1.0
 40
1.0
 40
1.0
 10
7326.270202019749
 20
5220.164547887211
 30
0.0
 10
7324.802754489566
 20
5220.172526906659
 30
0.0
 10
7321.738200436286
 20
5220.189189946316
 30
0.0
 10
7317.26896789915
 20
5220.338905753284
 30
0.0
 10
7313.043377066429
 20
5220.591441539242
 30
0.0
 10
7309.359554249357
 20
5220.938185536698
 30
0.0
 10
7306.174443632123
 20
5221.362001855719
 30
0.0
 10
7303.089801792843
 20
5221.919301587523
 30
0.0
 10
7300.189909760546
 20
5222.616662196568
 30
0.0
 10
7297.555019646816
 20
5223.461245084386
 30
0.0
 10
7295.566355412396
 20
5224.282145891701
 30
0.0
 10
7293.741690334622
 20
5225.227448812011
 30
0.0
 10
7291.967325155974
 20
5226.397793525254
 30
0.0
 10
7290.409146539215
 20
5228.391481272151
 30
0.0
 10
7289.36907057656
 20
5230.681254034106
 30
0.0
 10
7288.570125421539
 20
5232.889953991734
 30
0.0
 10
7287.958189370862
 20
5234.977510426552
 30
0.0
 10
7287.417281672187
 20
5237.197634571143
 30
0.0
 10
7286.875507333672
 20
5239.99152392083
 30
0.0
 10
7286.36869569279
 20
5243.443285796458
 30
0.0
 10
7285.938633502523
 20
5247.638313434792
 30
0.0
 10
7285.612763511468
 20
5252.657850950143
 30
0.0
 10
7285.416672506512
 20
5258.578926773884
 30
0.0
 10
7285.366794045342
 20
5265.472322132631
 30
0.0
 10
7285.448048859739
 20
5273.401474831478
 30
0.0
 10
7285.623812493357
 20
5282.422370043586
 30
0.0
 10
7285.843483957427
 20
5292.581368488764
 30
0.0
 10
7285.902381824542
 20
5299.739833150882
 30
0.0
 10
7285.933444121419
 20
5303.515154149894
 30
0.0
  0
LINE
  5
CC
330
1F
100
AcDbEntity
  8
0
  6
Continuous
 62
     7
370
    25
100
AcDbLine
 10
7327.2701891451
 20
5230.1546290783
 30
0.0
 11
7326.2702020197
 21
5229.1546270517
 31
0.0
  0
LINE
  5
CD
330
1F
100
AcDbEntity
  8
0
  6
Continuous
 62
     7
370
    25
100
AcDbLine
 10
7326.2702020197
 20
5186.1546293167
 30
0.0
 11
7327.2701891451
 21
5185.1546272901
 31
0.0
  0
LINE
  5
CE
330
1F
100
AcDbEntity
  8
0
  6
Continuous
 62
     7
370
    25
100
AcDbLine
 10
7340.2701931387
 20
5230.1546290783
 30
0.0
 11
7327.2701891451
 21
5230.1546290783
 31
0.0
  0
LINE
  5
CF
330
1F
100
AcDbEntity
  8
0
  6
Continuous
 62
     7
370
    25
100
AcDbLine
 10
7327.2701891451
 20
5185.1546272901
 30
0.0
 11
7340.2701931387
 21
5185.1546272901
 31
0.0
  0
LINE
  5
D0
330
1F
100
AcDbEntity
  8
0
  6
Continuous
 62
     7
370
    25
100
AcDbLine
 10
7340.2701931387
 20
5185.1546272901
 30
0.0
 11
7341.2701951652
 21
5186.1546293167
 31
0.0
  0
LINE
  5
D1
330
1F
100
AcDbEntity
  8
0
  6
Continuous
 62
     7
370
    25
100
AcDbLine
 10
7341.2701951652
 20
5229.1546270517
 30
0.0
 11
7340.2701931387
 21
5230.1546290783
 31
0.0
  0
LINE
  5
D2
330
1F
100
AcDbEntity
  8
0
  6
Continuous
 62
     7
370
    25
100
AcDbLine
 10
7262.1510567456
 20
5347.0546260742
 30
0.0
 11
7261.151054719
 21
5346.0546277729
 31
0.0
  0
LINE
  5
D3
330
1F
100
AcDbEntity
  8
0
  6
Continuous
 62
     7
370
    25
100
AcDbLine
 10
7261.151054719
 20
5343.0546254185
 30
0.0
 11
7262.1510567456
 21
5342.0546271173
 31
0.0
  0
LINE
  5
D4
330
1F
100
AcDbEntity
  8
0
  6
Continuous
 62
     7
370
    25
100
AcDbLine
 10
7265.006000021
 20
5347.0546260742
 30
0.0
 11
7262.1510567456
 21
5347.0546260742
 31
0.0
  0
LINE
  5
D5
330
1F
100
AcDbEntity
  8
0
  6
Continuous
 62
     7
370
    25
100
AcDbLine
 10
7262.1510567456
 20
5342.0546271173
 30
0.0
 11
7265.0031688004
 21
5342.0546345679
 31
0.0
  0
LINE
  5
D6
330
1F
100
AcDbEntity
  8
0
  6
Continuous
 62
     7
370
    25
100
AcDbLine
 10
7289.3825115948
 20
5360.5546273557
 30
0.0
 11
7288.4980680733
 21
5359.8267764119
 31
0.0
  0
LINE
  5
D7
330
1F
100
AcDbEntity
  8
0
  6
Continuous
 62
     7
370
    25
100
AcDbLine
 10
7288.4980680733
 20
5329.2824767796
 30
0.0
 11
7289.3825115948
 21
5328.5546258358
 31
0.0
  0
LINE
  5
D8
330
1F
100
AcDbEntity
  8
0
  6
Continuous
 62
     7
370
    25
100
AcDbLine
 10
7290.5846925765
 20
5360.5546273557
 30
0.0
 11
7289.3825115948
 21
5360.5546273557
 31
0.0
  0
LINE
  5
D9
330
1F
100
AcDbEntity
  8
0
  6
Continuous
 62
     7
370
    25
100
AcDbLine
 10
7289.3825115948
 20
5328.5546258358
 30
0.0
 11
7290.4801162272
 21
5328.5546258358
 31
0.0
  0
ARC
  5
DA
330
1F
100
AcDbEntity
  8
0
  6
Continuous
 62
     7
370
    25
100
AcDbCircle
 10
7289.1335104447
 20
5359.0546265272
 30
0.0
 40
0.999999999999789
100
AcDbArc
 50
129.4526388279
 51
180.0
  0
ARC
  5
DB
330
1F
100
AcDbEntity
  8
0
  6
Continuous
 62
     7
370
    25
100
AcDbCircle
 10
7289.1335104447
 20
5330.0546265272
 30
0.0
 40
0.9999999999990905
100
AcDbArc
 50
180.0
 51
230.5473611721
  0
ARC
  5
DC
330
1F
100
AcDbEntity
  8
0
  6
Continuous
 62
     7
370
    25
100
AcDbCircle
 10
7270.5970501981
 20
5357.594634754
 30
0.0
 40
3.459991773190268
100
AcDbArc
 50
90.0
 51
160.8171239321
  0
LINE
  5
DD
330
1F
100
AcDbEntity
  8
0
  6
Continuous
 62
     7
370
    25
100
AcDbLine
 10
7284.9014194995
 20
5328.0546248225
 30
0.0
 11
7285.133505085
 21
5328.0546248225
 31
0.0
  0
LINE
  5
DE
330
1F
100
AcDbEntity
  8
0
  6
Continuous
 62
     7
370
    25
100
AcDbLine
 10
7285.133505085
 20
5361.0546265063
 30
0.0
 11
7270.5970498114
 21
5361.0546265063
 31
0.0
  0
ARC
  5
DF
330
1F
100
AcDbEntity
  8
0
  6
Continuous
 62
     7
370
    25
100
AcDbCircle
 10
7308.078918608
 20
5344.5546265272
 30
0.0
 40
43.14540816326518
100
AcDbArc
 50
160.8171239321
 51
176.6782160679
  0
LINE
  5
E0
330
1F
100
AcDbEntity
  8
0
  6
Continuous
 62
     7
370
    25
100
AcDbLine
 10
7262.433508256
 20
5304.5546293525
 30
0.0
 11
7262.50247083
 21
5303.5891458658
 31
0.0
  0
LINE
  5
E1
330
1F
100
AcDbEntity
  8
0
  6
Continuous
 62
     7
370
    25
100
AcDbLine
 10
7284.3596132784
 20
5303.5201236872
 30
0.0
 11
7284.4335081368
 21
5304.5546293525
 31
0.0
  0
ARC
  5
E2
330
1F
100
AcDbEntity
  8
0
  6
Continuous
 62
     7
370
    25
100
AcDbCircle
 10
7300.8226408795
 20
5329.5546265272
 30
0.0
 40
37.88913043478257
100
AcDbArc
 50
161.2563578797
 51
180.0
  0
LINE
  5
E3
330
1F
100
AcDbEntity
  8
0
  6
Continuous
 62
     7
370
    25
100
AcDbLine
 10
7262.9335167199
 20
5329.5546278623
 30
0.0
 11
7262.9335167199
 21
5304.5546293525
 31
0.0
  0
LINE
  5
E4
330
1F
100
AcDbEntity
  8
0
  6
Continuous
 62
     7
370
    25
100
AcDbLine
 10
7283.9335145741
 20
5304.5546293525
 30
0.0
 11
7283.9335145741
 21
5327.1420963374
 31
0.0
  0
SPLINE
  5
E5
330
1F
100
AcDbEntity
  8
0
  6
Continuous
 62
     7
370
    25
100
AcDbSpline
210
0.0
220
0.0
230
1.0
 70
     8
 71
     3
 72
    10
 73
     6
 74
     0
 42
0.000000001
 43
0.00000001
 40
0.0
 40
0.0
 40
0.0
 40
0.0
 40
0.3391102029441737
 40
0.9011642443835374
 40
0.9999999999999999
 40
0.9999999999999999
 40
0.9999999999999999
 40
0.9999999999999999
 10
7265.002453544675
 20
5342.104207005863
 30
0.0
 10
7265.001923267931
 20
5342.06144988002
 30
0.0
 10
7265.000514090512
 20
5341.947825481023
 30
0.0
 10
7264.98152302262
 20
5341.819420894083
 30
0.0
 10
7264.94509321125
 20
5341.744129814192
 30
0.0
 10
7264.939645150243
 20
5341.732870068912
 30
0.0
  0
SPLINE
  5
E6
330
1F
100
AcDbEntity
  8
0
  6
Continuous
 62
     7
370
    25
100
AcDbSpline
210
0.0
220
0.0
230
1.0
 70
     8
 71
     3
 72
    13
 73
     9
 74
     0
 42
0.000000001
 43
0.00000001
 40
0.0
 40
0.0
 40
0.0
 40
0.0
 40
0.1367953894146278
 40
0.3841822051356449
 40
0.6310109267058795
 40
0.826349111067363
 40
0.9901289099164845
 40
1.0
 40
1.0
 40
1.0
 40
1.0
 10
7283.948847868977
 20
5327.127597507601
 30
0.0
 10
7283.95214599105
 20
5327.19450468036
 30
0.0
 10
7283.961408582546
 20
5327.382409735348
 30
0.0
 10
7284.11348887346
 20
5327.662480512279
 30
0.0
 10
7284.359509843594
 20
5327.899228469243
 30
0.0
 10
7284.631867449189
 20
5328.017859410186
 30
0.0
 10
7284.81067711775
 20
5328.0592654296
 30
0.0
 10
7284.895001877881
 20
5328.054257565977
 30
0.0
 10
7284.899795272885
 20
5328.0539728967
 30
0.0
  0
LINE
  5
E7
330
1F
100
AcDbEntity
  8
0
  6
Continuous
 62
     7
370
    25
100
AcDbLine
 10
7288.1335111647
 20
5362.5546258209
 30
0.0
 11
7285.133505085
 21
5362.5546258209
 31
0.0
  0
LINE
  5
E8
330
1F
100
AcDbEntity
  8
0
  6
Continuous
 62
     7
370
    25
100
AcDbLine
 10
7285.133505085
 20
5326.554625508
 30
0.0
 11
7288.1335111647
 21
5326.554625508
 31
0.0
  0
LINE
  5
E9
330
1F
100
AcDbEntity
  8
0
  6
Continuous
 62
     7
370
    25
100
AcDbLine
 10
7648.7196030408
 20
5383.754626595
 30
0.0
 11
7648.7196030408
 21
5384.9546264192
 31
0.0
  0
LINE
  5
EA
330
1F
100
AcDbEntity
  8
0
  6
Continuous
 62
     7
370
    25
100
AcDbLine
 10
7261.7703618794
 20
5384.9546264192
 30
0.0
 11
7261.7703618794
 21
5383.754626595
 31
0.0
  0
ARC
  5
EB
330
1F
100
AcDbEntity
  8
0
  6
Continuous
 62
     7
370
    25
100
AcDbCircle
 10
7645.2196038885
 20
5384.9546265272
 30
0.0
 40
3.500000000000075
100
AcDbArc
 50
0.2261890997
 51
90.0750345743
  0
ARC
  5
EC
330
1F
100
AcDbEntity
  8
0
  6
Continuous
 62
     7
370
    25
100
AcDbCircle
 10
7265.270377967
 20
5384.9546283432
 30
0.0
 40
3.499998178667377
100
AcDbArc
 50
90.1895634706
 51
179.8506322962
  0
LINE
  5
ED
330
1F
100
AcDbEntity
  8
0
  6
Continuous
 62
     7
370
    25
100
AcDbLine
 10
7265.2703764229
 20
5387.4546264797
 30
0.0
 11
7265.2774544745
 21
5387.454616468
 31
0.0
  0
LINE
  5
EE
330
1F
100
AcDbEntity
  8
0
  6
Continuous
 62
     7
370
    25
100
AcDbLine
 10
7621.7763813525
 20
5388.4545560034
 30
0.0
 11
7621.7535378724
 21
5388.4546264712
 31
0.0
  0
LINE
  5
EF
330
1F
100
AcDbEntity
  8
0
  6
Continuous
 62
     7
370
    25
100
AcDbLine
 10
7287.828201273
 20
5388.4546259465
 30
0.0
 11
7287.8302278309
 21
5388.4546265272
 31
0.0
  0
SPLINE
  5
F0
330
1F
100
AcDbEntity
  8
0
  6
Continuous
 62
     7
370
    25
100
AcDbSpline
210
0.0
220
0.0
230
1.0
 70
     8
 71
     3
 72
    36
 73
    32
 74
     0
 42
0.000000001
 43
0.00000001
 40
0.0
 40
0.0
 40
0.0
 40
0.0
 40
0.0414852338677233
 40
0.089140057649983
 40
0.1335438183135004
 40
0.1748480313797995
 40
0.2131752546476483
 40
0.2486235297377682
 40
0.2812702844278885
 40
0.3158966806683545
 40
0.3468638877167191
 40
0.3742238936836135
 40
0.3980132701282323
 40
0.4189473852200613
 40
0.4420306966672682
 40
0.468254267151563
 40
0.4976202109807418
 40
0.5301365276790307
 40
0.5658184857219453
 40
0.6047182497879251
 40
0.6470451679023241
 40
0.6812676029109587
 40
0.7178804893283726
 40
0.7572273659369484
 40
0.7997700909643176
 40
0.8302021186769458
 40
0.8625377447544975
 40
0.89702962646483
 40
0.9339668172736306
 40
0.973676628996221
 40
1.0
 40
1.0
 40
1.0
 40
1.0
 10
7417.770193734704
 20
5233.851815786724
 30
0.0
 10
7421.374717901464
 20
5234.391361941366
 30
0.0
 10
7429.119822895939
 20
5235.550694331369
 30
0.0
 10
7440.607602189444
 20
5237.95655510094
 30
0.0
 10
7451.976493131608
 20
5240.791109006617
 30
0.0
 10
7462.432690600192
 20
5243.864461339283
 30
0.0
 10
7472.019951287797
 20
5247.075821025561
 30
0.0
 10
7480.776199720403
 20
5250.354733886053
 30
0.0
 10
7489.121029494161
 20
5253.790725811173
 30
0.0
 10
7496.99330367728
 20
5257.329562885105
 30
0.0
 10
7504.334474390285
 20
5260.906599093737
 30
0.0
 10
7510.730735469023
 20
5264.242672727725
 30
0.0
 10
7516.273971042007
 20
5267.304004735045
 30
0.0
 10
7521.427507873055
 20
5270.290938463805
 30
0.0
 10
7526.702433039156
 20
5273.492522032575
 30
0.0
 10
7532.528573081244
 20
5277.210420633527
 30
0.0
 10
7538.946924492637
 20
5281.536536760862
 30
0.0
 10
7545.919584561278
 20
5286.521477644026
 30
0.0
 10
7553.4068103868
 20
5292.219831607366
 30
0.0
 10
7561.374866076204
 20
5298.701820188824
 30
0.0
 10
7568.956667050231
 20
5305.443527894907
 30
0.0
 10
7576.057255732764
 20
5312.404606738038
 30
0.0
 10
7582.629254066188
 20
5319.515884259181
 30
0.0
 10
7589.257053624047
 20
5327.550331387661
 30
0.0
 10
7595.052186521465
 20
5335.54461100014
 30
0.0
 10
7600.060771752896
 20
5343.325498514851
 30
0.0
 10
7604.347246403133
 20
5350.719244619486
 30
0.0
 10
7608.545077999589
 20
5358.814269381156
 30
0.0
 10
7612.603685595316
 20
5367.695767830089
 30
0.0
 10
7616.028427570573
 20
5376.073893568295
 30
0.0
 10
7617.89831568395
 20
5381.565471880176
 30
0.0
 10
7618.643725135861
 20
5383.754626594995
 30
0.0
  0
SPLINE
  5
F1
330
1F
100
AcDbEntity
  8
0
  6
Continuous
 62
     7
370
    25
100
AcDbSpline
210
0.0
220
0.0
230
1.0
 70
     8
 71
     3
 72
    32
 73
    28
 74
     0
 42
0.000000001
 43
0.00000001
 40
0.0
 40
0.0
 40
0.0
 40
0.0
 40
0.0206455223297245
 40
0.0766626090013231
 40
0.1272762580015669
 40
0.1730275590412449
 40
0.2341664844333599
 40
0.2867718400795858
 40
0.3321399935517675
 40
0.3713738372906079
 40
0.4054018643894716
 40
0.4353777058141848
 40
0.4793385180848051
 40
0.5235917731090703
 40
0.568953094026363
 40
0.6144540395548824
 40
0.6371476745625494
 40
0.6609854548314108
 40
0.6910880548597882
 40
0.7290648778143849
 40
0.7596597275281108
 40
0.7954420624031835
 40
0.8375973070351432
 40
0.8743236275612962
 40
0.9163118908538146
 40
0.964512825227722
 40
1.0
 40
1.0
 40
1.0
 40
1.0
 10
7290.445009091435
 20
5328.164122280245
 30
0.0
 10
7290.438837578135
 20
5327.302801979175
 30
0.0
 10
7290.415921020081
 20
5324.10447837121
 30
0.0
 10
7290.381111734911
 20
5318.794556432556
 30
0.0
 10
7290.358360024325
 20
5312.437113686191
 30
0.0
 10
7290.36994993049
 20
5305.865948735943
 30
0.0
 10
7290.444690588356
 20
5299.211892141643
 30
0.0
 10
7290.636130808608
 20
5292.575934305358
 30
0.0
 10
7290.936985715996
 20
5286.858796009842
 30
0.0
 10
7291.343467639887
 20
5281.925365914002
 30
0.0
 10
7291.846748343164
 20
5277.646675642291
 30
0.0
 10
7292.54872039064
 20
5273.196323569325
 30
0.0
 10
7293.589970200704
 20
5268.371617445319
 30
0.0
 10
7295.241590491158
 20
5263.039387453659
 30
0.0
 10
7297.493917310911
 20
5257.858759508236
 30
0.0
 10
7299.893608036136
 20
5253.757108278231
 30
0.0
 10
7302.168070640296
 20
5250.65996412988
 30
0.0
 10
7304.251541627975
 20
5248.230449450445
 30
0.0
 10
7307.004508650853
 20
5245.551559110444
 30
0.0
 10
7310.27120944065
 20
5243.027753552667
 30
0.0
 10
7313.988085589957
 20
5240.749784339785
 30
0.0
 10
7318.063479178114
 20
5238.759613978938
 30
0.0
 10
7322.555298868278
 20
5237.091425600531
 30
0.0
 10
7327.416050043518
 20
5235.732365501736
 30
0.0
 10
7332.608903972927
 20
5234.681447266878
 30
0.0
 10
7337.806407311736
 20
5233.944580464175
 30
0.0
 10
7341.29211559285
 20
5233.728861657646
 30
0.0
 10
7342.770198205052
 20
5233.637388077144
 30
0.0
  0
SPLINE
  5
F2
330
1F
100
AcDbEntity
  8
0
  6
Continuous
 62
     7
370
    25
100
AcDbSpline
210
0.0
220
0.0
230
1.0
 70
     8
 71
     3
 72
    10
 73
     6
 74
     0
 42
0.000000001
 43
0.00000001
 40
0.0
 40
0.0
 40
0.0
 40
0.0
 40
0.3103882405804447
 40
0.7575563148343682
 40
1.0
 40
1.0
 40
1.0
 40
1.0
 10
7290.341431119977
 20
5383.754626594995
 30
0.0
 10
7290.378455572864
 20
5381.390370100099
 30
0.0
 10
7290.468820169265
 20
5375.619992220294
 30
0.0
 10
7290.533618622409
 20
5368.002141757799
 30
0.0
 10
7290.548331800615
 20
5362.748686958377
 30
0.0
 10
7290.553504446088
 20
5360.901753631
 30
0.0
  0
ARC
  5
F3
330
1F
100
AcDbEntity
  8
0
  6
Continuous
 62
     7
370
    25
100
AcDbCircle
 10
7412.7701952248
 20
5230.9546265272
 30
0.0
 40
5.0
100
AcDbArc
 50
279.5888328595
 51
0.0
  0
ARC
  5
F4
330
1F
100
AcDbEntity
  8
0
  6
Continuous
 62
     7
370
    25
100
AcDbCircle
 10
7347.7701952248
 20
5230.9546265272
 30
0.0
 40
4.999999999999363
100
AcDbArc
 50
180.0
 51
260.4111671405
  0
LINE
  5
F5
330
1F
100
AcDbEntity
  8
0
  6
Continuous
 62
     7
370
    25
100
AcDbLine
 10
7417.7701937347
 20
5230.9546277193
 30
0.0
 11
7417.7701937347
 21
5233.8039085535
 31
0.0
  0
LINE
  5
F6
330
1F
100
AcDbEntity
  8
0
  6
Continuous
 62
     7
370
    25
100
AcDbLine
 10
7342.7701982051
 20
5233.5890338091
 30
0.0
 11
7342.7701982051
 21
5230.9546277193
 31
0.0
  0
LINE
  5
F7
330
1F
100
AcDbEntity
  8
0
  6
Continuous
 62
     7
370
    25
100
AcDbLine
 10
7346.9373153835
 20
5226.0244891313
 30
0.0
 11
7353.2701971322
 21
5224.9546304611
 31
0.0
  0
LINE
  5
F8
330
1F
100
AcDbEntity
  8
0
  6
Continuous
 62
     7
370
    25
100
AcDbLine
 10
7407.2701948076
 20
5224.9546304611
 30
0.0
 11
7413.6030765563
 21
5226.0244891313
 31
0.0
  0
LINE
  5
F9
330
1F
100
AcDbEntity
  8
0
  6
Continuous
 62
     7
370
    25
100
AcDbLine
 10
7357.2149442821
 20
5190.4380426077
 30
0.0
 11
7357.2701977878
 21
5189.9546191362
 31
0.0
  0
LINE
  5
FA
330
1F
100
AcDbEntity
  8
0
  6
Continuous
 62
     7
370
    25
100
AcDbLine
 10
7403.2701941519
 20
5189.9546191362
 30
0.0
 11
7407.2701948076
 21
5224.9546304611
 31
0.0
  0
LINE
  5
FB
330
1F
100
AcDbEntity
  8
0
  6
Continuous
 62
     7
370
    25
100
AcDbLine
 10
7403.2701941519
 20
5185.9546259311
 30
0.0
 11
7403.2701941519
 21
5189.9546191362
 31
0.0
  0
LINE
  5
FC
330
1F
100
AcDbEntity
  8
0
  6
Continuous
 62
     7
370
    25
100
AcDbLine
 10
7357.2701977878
 20
5189.9546191362
 30
0.0
 11
7357.2701977878
 21
5185.9546259311
 31
0.0
  0
LINE
  5
FD
330
1F
100
AcDbEntity
  8
0
  6
Continuous
 62
     7
370
    25
100
AcDbLine
 10
7341.2701951652
 20
5190.4046193031
 30
0.0
 11
7357.2418408781
 21
5190.4046193031
 31
0.0
  0
LINE
  5
FE
330
1F
100
AcDbEntity
  8
0
  6
Continuous
 62
     7
370
    25
100
AcDbLine
 10
7353.3070253521
 20
5224.9046221641
 30
0.0
 11
7341.2701951652
 21
5224.9046221641
 31
0.0
  0
LINE
  5
FF
330
1F
100
AcDbEntity
  8
0
  6
Continuous
 62
     7
370
    25
100
AcDbLine
 10
7414.2701940923
 20
5090.4546186594
 30
0.0
 11
7407.5796360462
 21
5147.8022739557
 31
0.0
  0
LINE
  5
100
330
1F
100
AcDbEntity
  8
0
  6
Continuous
 62
     7
370
    25
100
AcDbLine
 10
7348.1412994056
 20
5106.4926490454
 30
0.0
 11
7346.2701978474
 21
5090.4546186594
 31
0.0
  0
LINE
  5
101
330
1F
100
AcDbEntity
  8
0
  6
Continuous
 62
     7
370
    25
100
AcDbLine
 10
7346.2701978474
 20
5090.4546186594
 30
0.0
 11
7353.1639816552
 21
5023.148964372
 31
0.0
  0
LINE
  5
102
330
1F
100
AcDbEntity
  8
0
  6
Continuous
 62
     7
370
    25
100
AcDbLine
 10
7407.3764102846
 20
5023.148964372
 30
0.0
 11
7414.2701940923
 21
5090.4546186594
 31
0.0
  0
LINE
  5
103
330
1F
100
AcDbEntity
  8
0
  6
Continuous
 62
     7
370
    25
100
AcDbLine
 10
7336.270192483
 20
5155.9546247391
 30
0.0
 11
7332.2701918274
 21
5154.4546291498
 31
0.0
  0
LINE
  5
104
330
1F
100
AcDbEntity
  8
0
  6
Continuous
 62
     7
370
    25
100
AcDbLine
 10
7332.2701918274
 20
5102.4546131758
 30
0.0
 11
7336.270192483
 21
5100.9546324877
 31
0.0
  0
ARC
  5
105
330
1F
100
AcDbEntity
  8
0
  6
Continuous
 62
     7
370
    25
100
AcDbCircle
 10
7404.5998475627
 20
5147.4546265272
 30
0.0
 40
3.0
100
AcDbArc
 50
6.654425046
 51
90.0
  0
ARC
  5
106
330
1F
100
AcDbEntity
  8
0
  6
Continuous
 62
     7
370
    25
100
AcDbCircle
 10
7356.1483673586
 20
5023.4546265272
 30
0.0
 40
2.999999999999519
100
AcDbArc
 50
185.8481280262
 51
270.0
  0
ARC
  5
107
330
1F
100
AcDbEntity
  8
0
  6
Continuous
 62
     7
370
    25
100
AcDbCircle
 10
7404.392023091
 20
5023.4546265272
 30
0.0
 40
3.000000000000424
100
AcDbArc
 50
270.0
 51
354.1518719738
  0
ARC
  5
108
330
1F
100
AcDbEntity
  8
0
  6
Continuous
 62
     7
370
    25
100
AcDbCircle
 10
7323.2701952248
 20
5151.4546265272
 30
0.0
 40
3.0
100
AcDbArc
 50
90.0
 51
180.0
  0
ARC
  5
109
330
1F
100
AcDbEntity
  8
0
  6
Continuous
 62
     7
370
    25
100
AcDbCircle
 10
7323.2701952248
 20
5105.4546265272
 30
0.0
 40
3.0
100
AcDbArc
 50
180.0
 51
270.0
  0
LINE
  5
10A
330
1F
100
AcDbEntity
  8
0
  6
Continuous
 62
     7
370
    25
100
AcDbLine
 10
7332.2701918274
 20
5154.4546291498
 30
0.0
 11
7323.2701959401
 21
5154.4546291498
 31
0.0
  0
LINE
  5
10B
330
1F
100
AcDbEntity
  8
0
  6
Continuous
 62
     7
370
    25
100
AcDbLine
 10
7323.2701959401
 20
5102.4546131758
 30
0.0
 11
7332.2701918274
 21
5102.4546131758
 31
0.0
  0
LINE
  5
10C
330
1F
100
AcDbEntity
  8
0
  6
Continuous
 62
     7
370
    25
100
AcDbLine
 10
7405.2701944798
 20
5152.9546335605
 30
0.0
 11
7403.2701941519
 21
5156.9546267656
 31
0.0
  0
LINE
  5
10D
330
1F
100
AcDbEntity
  8
0
  6
Continuous
 62
     7
370
    25
100
AcDbLine
 10
7357.2701977878
 20
5156.9546267656
 30
0.0
 11
7355.2701937347
 21
5152.9546335605
 31
0.0
  0
ARC
  5
10E
330
1F
100
AcDbEntity
  8
0
  6
Continuous
 62
     7
370
    25
100
AcDbCircle
 10
7360.2701952248
 20
5163.9546265272
 30
0.0
 40
3.0
100
AcDbArc
 50
90.0
 51
180.0
  0
ARC
  5
10F
330
1F
100
AcDbEntity
  8
0
  6
Continuous
 62
     7
370
    25
100
AcDbCircle
 10
7400.2701952248
 20
5163.9546265272
 30
0.0
 40
3.0
100
AcDbArc
 50
0.0
 51
90.0
  0
LINE
  5
110
330
1F
100
AcDbEntity
  8
0
  6
Continuous
 62
     7
370
    25
100
AcDbLine
 10
7357.2701977878
 20
5163.9546260504
 30
0.0
 11
7357.2701977878
 21
5156.9546267656
 31
0.0
  0
LINE
  5
111
330
1F
100
AcDbEntity
  8
0
  6
Continuous
 62
     7
370
    25
100
AcDbLine
 10
7403.2701941519
 20
5156.9546267656
 30
0.0
 11
7403.2701941519
 21
5163.9546260504
 31
0.0
  0
LINE
  5
112
330
1F
100
AcDbEntity
  8
0
  6
Continuous
 62
     7
370
    25
100
AcDbLine
 10
7336.270192483
 20
5106.454621282
 30
0.0
 11
7348.1650369554
 21
5106.454621282
 31
0.0
  0
LINE
  5
113
330
1F
100
AcDbEntity
  8
0
  6
Continuous
 62
     7
370
    25
100
AcDbLine
 10
7353.2701971322
 20
5150.4546210436
 30
0.0
 11
7336.270192483
 21
5150.4546210436
 31
0.0
  0
LINE
  5
114
330
1F
100
AcDbEntity
  8
0
  6
Continuous
 62
     7
370
    25
100
AcDbLine
 10
7364.2701970726
 20
5152.9546335605
 30
0.0
 11
7364.2701970726
 21
5150.4546210436
 31
0.0
  0
LINE
  5
115
330
1F
100
AcDbEntity
  8
0
  6
Continuous
 62
     7
370
    25
100
AcDbLine
 10
7396.2701948672
 20
5150.4546210436
 30
0.0
 11
7396.2701948672
 21
5152.9546335605
 31
0.0
  0
LINE
  5
116
330
1F
100
AcDbEntity
  8
0
  6
Continuous
 62
     7
370
    25
100
AcDbLine
 10
7241.2701936751
 20
5168.4546277193
 30
0.0
 11
7226.2701930791
 21
5168.4546277193
 31
0.0
  0
LINE
  5
117
330
1F
100
AcDbEntity
  8
0
  6
Continuous
 62
     7
370
    25
100
AcDbLine
 10
7226.2701930791
 20
5088.4546146063
 30
0.0
 11
7241.2701936751
 21
5088.4546146063
 31
0.0
  0
ARC
  5
118
330
1F
100
AcDbEntity
  8
0
  6
Continuous
 62
     7
370
    25
100
AcDbCircle
 10
7241.2701952248
 20
5148.4546265272
 30
0.0
 40
19.99999999999909
100
AcDbArc
 50
0.0
 51
90.0
  0
ARC
  5
119
330
1F
100
AcDbEntity
  8
0
  6
Continuous
 62
     7
370
    25
100
AcDbCircle
 10
7241.2701952248
 20
5108.4546265272
 30
0.0
 40
20.00000000000091
100
AcDbArc
 50
270.0
 51
0.0
  0
LINE
  5
11A
330
1F
100
AcDbEntity
  8
0
  6
Continuous
 62
     7
370
    25
100
AcDbLine
 10
7226.2701930791
 20
5148.4546318916
 30
0.0
 11
7216.2702026158
 21
5148.4546318916
 31
0.0
  0
LINE
  5
11B
330
1F
100
AcDbEntity
  8
0
  6
Continuous
 62
     7
370
    25
100
AcDbLine
 10
7216.2702026158
 20
5108.4546253351
 30
0.0
 11
7226.2701930791
 21
5108.4546253351
 31
0.0
  0
LINE
  5
11C
330
1F
100
AcDbEntity
  8
0
  6
Continuous
 62
     7
370
    25
100
AcDbLine
 10
7320.2701898604
 20
5148.4546318916
 30
0.0
 11
7261.2701895028
 21
5148.4546318916
 31
0.0
  0
LINE
  5
11D
330
1F
100
AcDbEntity
  8
0
  6
Continuous
 62
     7
370
    25
100
AcDbLine
 10
7261.2701895028
 20
5108.4546253351
 30
0.0
 11
7320.2701898604
 21
5108.4546253351
 31
0.0
  0
LINE
  5
11E
330
1F
100
AcDbEntity
  8
0
  6
Continuous
 62
     7
370
    25
100
AcDbLine
 10
7350.2701985031
 20
5185.9546259311
 30
0.0
 11
7352.2701951056
 21
5181.9546327261
 31
0.0
  0
LINE
  5
11F
330
1F
100
AcDbEntity
  8
0
  6
Continuous
 62
     7
370
    25
100
AcDbLine
 10
7408.2701968341
 20
5181.9546327261
 30
0.0
 11
7410.2701934367
 21
5185.9546259311
 31
0.0
  0
ARC
  5
120
330
1F
100
AcDbEntity
  8
0
  6
Continuous
 62
     7
370
    25
100
AcDbCircle
 10
7355.2701952248
 20
5174.9546265272
 30
0.0
 40
3.0
100
AcDbArc
 50
180.0
 51
270.0
  0
ARC
  5
121
330
1F
100
AcDbEntity
  8
0
  6
Continuous
 62
     7
370
    25
100
AcDbCircle
 10
7405.2701952248
 20
5174.9546265272
 30
0.0
 40
3.0
100
AcDbArc
 50
270.0
 51
0.0
  0
LINE
  5
122
330
1F
100
AcDbEntity
  8
0
  6
Continuous
 62
     7
370
    25
100
AcDbLine
 10
7352.2701951056
 20
5181.9546327261
 30
0.0
 11
7352.2701951056
 21
5174.9546334413
 31
0.0
  0
LINE
  5
123
330
1F
100
AcDbEntity
  8
0
  6
Continuous
 62
     7
370
    25
100
AcDbLine
 10
7408.2701968341
 20
5174.9546334413
 30
0.0
 11
7408.2701968341
 21
5181.9546327261
 31
0.0
  0
LINE
  5
124
330
1F
100
AcDbEntity
  8
0
  6
Continuous
 62
     7
370
    25
100
AcDbLine
 10
7364.2701970726
 20
5171.9546273617
 30
0.0
 11
7364.2701970726
 21
5166.95463213
 31
0.0
  0
LINE
  5
125
330
1F
100
AcDbEntity
  8
0
  6
Continuous
 62
     7
370
    25
100
AcDbLine
 10
7364.2701970726
 20
5152.9546335605
 30
0.0
 11
7364.2701970726
 21
5150.4546210436
 31
0.0
  0
LINE
  5
126
330
1F
100
AcDbEntity
  8
0
  6
Continuous
 62
     7
370
    25
100
AcDbLine
 10
7396.2701948672
 20
5150.4546210436
 30
0.0
 11
7396.2701948672
 21
5152.9546335605
 31
0.0
  0
LINE
  5
127
330
1F
100
AcDbEntity
  8
0
  6
Continuous
 62
     7
370
    25
100
AcDbLine
 10
7396.2701948672
 20
5166.95463213
 30
0.0
 11
7396.2701948672
 21
5171.9546273617
 31
0.0
  0
LWPOLYLINE
  5
128
330
1F
100
AcDbEntity
  8
0
  6
Continuous
 62
     7
370
    25
100
AcDbPolyline
 90
       20
 70
   128
 43
0.0
 10
7260.9335722714
 20
5303.5941005019
 10
7261.0348107606
 20
5303.5937801269
 10
7261.4814879685
 20
5303.5923719672
 10
7262.2719945698
 20
5303.5898760227
 10
7263.3835913926
 20
5303.5863667992
 10
7264.784315446
 20
5303.5819411544
 10
7266.433859089
 20
5303.5767331985
 10
7268.2847770243
 20
5303.5708844928
 10
7270.2837976008
 20
5303.564573851
 10
7272.3734470397
 20
5303.5579726366
 10
7274.4935842543
 20
5303.5512820152
 10
7276.583218792
 20
5303.5446808008
 10
7278.5822542697
 20
5303.538370159
 10
7280.4331573039
 20
5303.5325214533
 10
7282.0827009469
 20
5303.5273134974
 10
7283.4834250002
 20
5303.5228878526
 10
7284.595021823
 20
5303.5193786291
 10
7285.3855284243
 20
5303.5168826846
 10
7285.8322056323
 20
5303.5154745249
 10
7285.9334441214
 20
5303.5151541499
  0
LINE
  5
129
330
1F
100
AcDbEntity
  8
0
  6
Continuous
 62
     7
370
    25
100
AcDbLine
 10
7327.2701891451
 20
5230.1546290783
 30
0.0
 11
7327.2701891451
 21
5185.1546272901
 31
0.0
  0
LINE
  5
12A
330
1F
100
AcDbEntity
  8
0
  6
Continuous
 62
     7
370
    25
100
AcDbLine
 10
7326.2702020197
 20
5186.1546293167
 30
0.0
 11
7326.2702020197
 21
5229.1546270517
 31
0.0
  0
LINE
  5
12B
330
1F
100
AcDbEntity
  8
0
  6
Continuous
 62
     7
370
    25
100
AcDbLine
 10
7340.2701931387
 20
5229.9442544845
 30
0.0
 11
7340.2701931387
 21
5230.1546290783
 31
0.0
  0
LINE
  5
12C
330
1F
100
AcDbEntity
  8
0
  6
Continuous
 62
     7
370
    25
100
AcDbLine
 10
7340.2701931387
 20
5185.1546272901
 30
0.0
 11
7340.2701931387
 21
5229.9442544845
 31
0.0
  0
LINE
  5
12D
330
1F
100
AcDbEntity
  8
0
  6
Continuous
 62
     7
370
    25
100
AcDbLine
 10
7341.2701951652
 20
5228.9536103872
 30
0.0
 11
7341.2701951652
 21
5186.1546293167
 31
0.0
  0
LINE
  5
12E
330
1F
100
AcDbEntity
  8
0
  6
Continuous
 62
     7
370
    25
100
AcDbLine
 10
7341.2701951652
 20
5229.1546270517
 30
0.0
 11
7341.2701951652
 21
5228.9536103872
 31
0.0
  0
LINE
  5
12F
330
1F
100
AcDbEntity
  8
0
  6
Continuous
 62
     7
370
    25
100
AcDbLine
 10
7262.1510567456
 20
5347.0546260742
 30
0.0
 11
7262.1510567456
 21
5342.0546271173
 31
0.0
  0
LINE
  5
130
330
1F
100
AcDbEntity
  8
0
  6
Continuous
 62
     7
370
    25
100
AcDbLine
 10
7261.151054719
 20
5343.0546254185
 30
0.0
 11
7261.151054719
 21
5346.0546277729
 31
0.0
  0
LINE
  5
131
330
1F
100
AcDbEntity
  8
0
  6
Continuous
 62
     7
370
    25
100
AcDbLine
 10
7291.4335074216
 20
5362.5546258209
 30
0.0
 11
7291.4335074216
 21
5326.554625508
 31
0.0
  0
LINE
  5
132
330
1F
100
AcDbEntity
  8
0
  6
Continuous
 62
     7
370
    25
100
AcDbLine
 10
7289.3825115948
 20
5360.5546273557
 30
0.0
 11
7289.3825115948
 21
5328.5546258358
 31
0.0
  0
SPLINE
  5
133
330
1F
100
AcDbEntity
  8
0
  6
Continuous
 62
     7
370
    25
100
AcDbSpline
210
0.0
220
0.0
230
1.0
 70
     8
 71
     3
 72
    12
 73
     8
 74
     0
 42
0.000000001
 43
0.00000001
 40
0.0
 40
0.0
 40
0.0
 40
0.0
 40
0.2268034630912237
 40
0.4519683042681241
 40
0.6849862094377016
 40
0.9412045706495734
 40
1.0
 40
1.0
 40
1.0
 40
1.0
 10
7267.329180458127
 20
5333.346373614435
 30
0.0
 10
7267.459997053829
 20
5333.061508906942
 30
0.0
 10
7267.720685114426
 20
5332.493837597882
 30
0.0
 10
7268.438825257176
 20
5331.949502755342
 30
0.0
 10
7269.331103610614
 20
5331.676121042394
 30
0.0
 10
7270.088347776682
 20
5331.695679012979
 30
0.0
 10
7270.517037460332
 20
5331.792439914093
 30
0.0
 10
7270.597049811421
 20
5331.810499754314
 30
0.0
  0
SPLINE
  5
134
330
1F
100
AcDbEntity
  8
0
  6
Continuous
 62
     7
370
    25
100
AcDbSpline
210
0.0
220
0.0
230
1.0
 70
     8
 71
     3
 72
    11
 73
     7
 74
     0
 42
0.000000001
 43
0.00000001
 40
0.0
 40
0.0
 40
0.0
 40
0.0
 40
0.2920496548689178
 40
0.5839645008155298
 40
0.8755236890390494
 40
1.0
 40
1.0
 40
1.0
 40
1.0
 10
7270.597049811421
 20
5331.810499754314
 30
0.0
 10
7271.62679438816
 20
5331.948401865698
 30
0.0
 10
7273.685808215767
 20
5332.224142433416
 30
0.0
 10
7276.814553912175
 20
5331.785138502557
 30
0.0
 10
7279.081832441962
 20
5331.058951771203
 30
0.0
 10
7280.231088586497
 20
5330.56081072407
 30
0.0
 10
7280.574941852627
 20
5330.411768731241
 30
0.0
  0
ARC
  5
135
330
1F
100
AcDbEntity
  8
0
  6
Continuous
 62
     7
370
    25
100
AcDbCircle
 10
7281.3752559727
 20
5329.1784265377
 30
0.0
 40
1.470250202208606
100
AcDbArc
 50
122.97948597
 51
165.174518318
  0
SPLINE
  5
136
330
1F
100
AcDbEntity
  8
0
  6
Continuous
 62
     7
370
    25
100
AcDbSpline
210
0.0
220
0.0
230
1.0
 70
     8
 71
     3
 72
    11
 73
     7
 74
     0
 42
0.000000001
 43
0.00000001
 40
0.0
 40
0.0
 40
0.0
 40
0.0
 40
0.1270576943388047
 40
0.4209652165901796
 40
0.7106431951098932
 40
1.0
 40
1.0
 40
1.0
 40
1.0
 10
7279.953950861035
 20
5329.554627862339
 30
0.0
 10
7279.640460309983
 20
5329.708409308078
 30
0.0
 10
7278.601809180592
 20
5330.217915166422
 30
0.0
 10
7276.543579518229
 20
5330.968320800645
 30
0.0
 10
7273.664312872456
 20
5331.428162519858
 30
0.0
 10
7271.783840586642
 20
5331.14265531479
 30
0.0
 10
7270.844125965176
 20
5330.999980893497
 30
0.0
  0
ARC
  5
137
330
1F
100
AcDbEntity
  8
0
  6
Continuous
 62
     7
370
    25
100
AcDbCircle
 10
7267.6874221368
 20
5330.4806191167
 30
0.0
 40
3.199142965704522
100
AcDbArc
 50
9.3429786509
 51
24.5633456426
  0
LINE
  5
138
330
1F
100
AcDbEntity
  8
0
  6
Continuous
 62
     7
370
    25
100
AcDbLine
 10
7262.433508256
 20
5304.5546293525
 30
0.0
 11
7284.4335081368
 21
5304.5546293525
 31
0.0
  0
SPLINE
  5
139
330
1F
100
AcDbEntity
  8
0
  6
Continuous
 62
     7
370
    25
100
AcDbSpline
210
0.0
220
0.0
230
1.0
 70
     8
 71
     3
 72
    12
 73
     8
 74
     0
 42
0.000000001
 43
0.00000001
 40
0.0
 40
0.0
 40
0.0
 40
0.0
 40
0.0572646917851136
 40
0.3076649709166348
 40
0.5386821081653337
 40
0.7668332829844449
 40
1.0
 40
1.0
 40
1.0
 40
1.0
 10
7270.844125965176
 20
5330.999980893497
 30
0.0
 10
7270.749951049314
 20
5330.981613141523
 30
0.0
 10
7270.243979186959
 20
5330.882929053631
 30
0.0
 10
7269.345973179788
 20
5330.894217966388
 30
0.0
 10
7268.293780042865
 20
5331.27281927246
 30
0.0
 10
7267.456647351834
 20
5331.968864563138
 30
0.0
 10
7267.155808709511
 20
5332.650997188234
 30
0.0
 10
7267.003753998814
 20
5332.995771643285
 30
0.0
  0
ARC
  5
13A
330
1F
100
AcDbEntity
  8
0
  6
Continuous
 62
     7
370
    25
100
AcDbCircle
 10
7266.6834625903
 20
5333.6193943788
 30
0.0
 40
0.7010648348475174
100
AcDbArc
 50
297.1849429264
 51
337.080511744
  0
LINE
  5
13B
330
1F
100
AcDbEntity
  8
0
  6
Continuous
 62
     7
370
    25
100
AcDbLine
 10
7288.1335111647
 20
5362.5546258209
 30
0.0
 11
7288.1335111647
 21
5326.554625508
 31
0.0
  0
LINE
  5
13C
330
1F
100
AcDbEntity
  8
0
  6
Continuous
 62
     7
370
    25
100
AcDbLine
 10
7285.133505085
 20
5362.5546258209
 30
0.0
 11
7285.133505085
 21
5326.554625508
 31
0.0
  0
SPLINE
  5
13D
330
1F
100
AcDbEntity
  8
0
  6
Continuous
 62
     7
370
    25
100
AcDbSpline
210
0.0
220
0.0
230
1.0
 70
    24
 71
     3
 72
    54
 73
    50
 74
     0
 42
0.000000001
 43
0.00000001
 40
0.0
 40
0.0
 40
0.0
 40
0.0
 40
0.0264398314884156
 40
0.0531831894942202
 40
0.0799491818297732
 40
0.1065928563374108
 40
0.1332052735275047
 40
0.154171389135233
 40
0.1752622015765034
 40
0.1965543010240927
 40
0.2181111783730664
 40
0.2398129136446077
 40
0.2603825785983403
 40
0.2810678309104169
 40
0.3019930854155511
 40
0.3232348967393066
 40
0.3446234607766938
 40
0.3661148795523523
 40
0.3847409883278646
 40
0.4036497812740156
 40
0.4227313753081565
 40
0.4418289891403566
 40
0.4610502735783892
 40
0.4805223919792777
 40
0.5001049365956701
 40
0.5195661585025567
 40
0.5388682991082122
 40
0.5581373765765993
 40
0.5773752754235166
 40
0.5963639898466648
 40
0.6151760385186356
 40
0.6338870702677968
 40
0.6555277403176902
 40
0.6767925816924514
 40
0.6978099584262543
 40
0.7187092847556585
 40
0.7395488292802197
 40
0.760181163593172
 40
0.7829873627402768
 40
0.805616101865206
 40
0.8281586562391731
 40
0.8507046223414254
 40
0.8732372050316176
 40
0.8955689350976862
 40
0.9216977084529009
 40
0.9477319089589189
 40
0.973774804304999
 40
0.9999227581015439
 40
0.9999999999999999
 40
0.9999999999999999
 40
0.9999999999999999
 40
0.9999999999999999
 10
7261.77340171629
 20
5383.754626594995
 30
0.0
 10
7261.871681052155
 20
5383.754626594995
 30
0.0
 10
7262.069367960445
 20
5383.754626594995
 30
0.0
 10
7263.708632762449
 20
5383.754626594995
 30
0.0
 10
7266.339581254537
 20
5383.754626594995
 30
0.0
 10
7270.070628055146
 20
5383.754626594995
 30
0.0
 10
7274.532714744126
 20
5383.754626594995
 30
0.0
 10
7279.510377376713
 20
5383.754626594995
 30
0.0
 10
7284.812019498871
 20
5383.754626594995
 30
0.0
 10
7290.885812417372
 20
5383.754626594995
 30
0.0
 10
7297.774041595955
 20
5383.754626594995
 30
0.0
 10
7305.350006221754
 20
5383.754626594995
 30
0.0
 10
7313.565444672851
 20
5383.754626594995
 30
0.0
 10
7322.413055893672
 20
5383.754626594995
 30
0.0
 10
7332.110945590332
 20
5383.754626594995
 30
0.0
 10
7342.673345764164
 20
5383.754626594995
 30
0.0
 10
7354.089932180405
 20
5383.754626594995
 30
0.0
 10
7365.76242236561
 20
5383.754626594995
 30
0.0
 10
7377.565696866835
 20
5383.754626594995
 30
0.0
 10
7389.39504441847
 20
5383.754626594995
 30
0.0
 10
7401.783568742512
 20
5383.754626594995
 30
0.0
 10
7414.635186248462
 20
5383.754626594995
 30
0.0
 10
7427.893325032821
 20
5383.754626594995
 30
0.0
 10
7441.489232159068
 20
5383.754626594995
 30
0.0
 10
7455.255106429244
 20
5383.754626594995
 30
0.0
 10
7468.981334748888
 20
5383.754626594995
 30
0.0
 10
7482.518298041963
 20
5383.754626594995
 30
0.0
 10
7495.781271404259
 20
5383.754626594995
 30
0.0
 10
7508.656165955594
 20
5383.754626594995
 30
0.0
 10
7521.034701716799
 20
5383.754626594995
 30
0.0
 10
7532.841707612171
 20
5383.754626594995
 30
0.0
 10
7544.674182988646
 20
5383.754626594995
 30
0.0
 10
7556.365274920667
 20
5383.754626594995
 30
0.0
 10
7567.750158281155
 20
5383.754626594995
 30
0.0
 10
7578.255140275834
 20
5383.754626594995
 30
0.0
 10
7587.943113607741
 20
5383.754626594995
 30
0.0
 10
7596.826394584378
 20
5383.754626594995
 30
0.0
 10
7605.225730240435
 20
5383.754626594995
 30
0.0
 10
7613.056056112579
 20
5383.754626594995
 30
0.0
 10
7620.251792164109
 20
5383.754626594995
 30
0.0
 10
7626.586556239455
 20
5383.754626594995
 30
0.0
 10
7632.098296189688
 20
5383.754626594995
 30
0.0
 10
7636.792098542555
 20
5383.754626594995
 30
0.0
 10
7640.913758677573
 20
5383.754626594995
 30
0.0
 10
7644.307088084731
 20
5383.754626594995
 30
0.0
 10
7646.872467388001
 20
5383.754626594995
 30
0.0
 10
7648.30052821734
 20
5383.754626594995
 30
0.0
 10
7648.891065757367
 20
5383.754626594995
 30
0.0
 10
7648.718591117325
 20
5383.754626594995
 30
0.0
 10
7648.718083122311
 20
5383.754626594995
 30
0.0
  0
SPLINE
  5
13E
330
1F
100
AcDbEntity
  8
0
  6
Continuous
 62
     7
370
    25
100
AcDbSpline
210
0.0
220
0.0
230
1.0
 70
    24
 71
     3
 72
    56
 73
    52
 74
     0
 42
0.000000001
 43
0.00000001
 40
0.0
 40
0.0
 40
0.0
 40
0.0
 40
0.0178303590213466
 40
0.0417809618477993
 40
0.0657160824312673
 40
0.0919713973948548
 40
0.1182477414982309
 40
0.1445001904747598
 40
0.1716902902609576
 40
0.1989086337526928
 40
0.2260915368829646
 40
0.2514507536798913
 40
0.2768067150185082
 40
0.2941315576076508
 40
0.3114692395528451
 40
0.3287914923015724
 40
0.3494036234146631
 40
0.37001372834756
 40
0.3911812091917508
 40
0.4123461337695623
 40
0.4303925378120078
 40
0.4484375361954143
 40
0.4669982145106727
 40
0.4855589728345544
 40
0.5000643642507305
 40
0.518333847931874
 40
0.5366041475012225
 40
0.5554377017274643
 40
0.5742726818553208
 40
0.5925271802066755
 40
0.6107829564952326
 40
0.629478470124806
 40
0.6481756460909163
 40
0.6645701504521088
 40
0.680979767741761
 40
0.6973770633377901
 40
0.7142422194987759
 40
0.7311200319005962
 40
0.747987574851932
 40
0.7693299502569706
 40
0.7906918823007937
 40
0.8120379266332699
 40
0.8339885493294807
 40
0.8559552758162858
 40
0.8779082136991628
 40
0.8997434255224844
 40
0.921591757610746
 40
0.9434282353694351
 40
0.9657144521782505
 40
0.9880131402361003
 40
1.0
 40
1.0
 40
1.0
 40
1.0
 10
7265.349576094685
 20
5388.454626527195
 30
0.0
 10
7265.363747144639
 20
5388.454626527195
 30
0.0
 10
7265.39695343604
 20
5388.454626527195
 30
0.0
 10
7266.425178206591
 20
5388.454626527195
 30
0.0
 10
7268.339935021611
 20
5388.454626527195
 30
0.0
 10
7271.288021606984
 20
5388.454626527195
 30
0.0
 10
7275.345339633938
 20
5388.454626527195
 30
0.0
 10
7280.506748633594
 20
5388.454626527195
 30
0.0
 10
7286.840169760392
 20
5388.454626527195
 30
0.0
 10
7294.411946103464
 20
5388.454626527195
 30
0.0
 10
7302.975161111973
 20
5388.454626527195
 30
0.0
 10
7312.454630048123
 20
5388.454626527195
 30
0.0
 10
7321.694556625977
 20
5388.454626527195
 30
0.0
 10
7330.571199538334
 20
5388.454626527195
 30
0.0
 10
7338.765049610595
 20
5388.454626527195
 30
0.0
 10
7348.004940601736
 20
5388.454626527195
 30
0.0
 10
7358.404143658356
 20
5388.454626527195
 30
0.0
 10
7370.167267556696
 20
5388.454626527195
 30
0.0
 10
7382.696408298152
 20
5388.454626527195
 30
0.0
 10
7395.29735510944
 20
5388.454626527195
 30
0.0
 10
7407.690840681232
 20
5388.454626527195
 30
0.0
 10
7419.845681815124
 20
5388.454626527195
 30
0.0
 10
7432.379241505627
 20
5388.454626527195
 30
0.0
 10
7444.269995827546
 20
5388.454626527195
 30
0.0
 10
7456.154473624076
 20
5388.454626527195
 30
0.0
 10
7467.974430380961
 20
5388.454626527195
 30
0.0
 10
7480.698558675585
 20
5388.454626527195
 30
0.0
 10
7493.357318829339
 20
5388.454626527195
 30
0.0
 10
7505.725470549226
 20
5388.454626527195
 30
0.0
 10
7517.605880978526
 20
5388.454626527195
 30
0.0
 10
7529.042137606793
 20
5388.454626527195
 30
0.0
 10
7540.091966991024
 20
5388.454626527195
 30
0.0
 10
7550.273552648903
 20
5388.454626527195
 30
0.0
 10
7559.544241613678
 20
5388.454626527195
 30
0.0
 10
7567.96339505531
 20
5388.454626527195
 30
0.0
 10
7576.013175836752
 20
5388.454626527195
 30
0.0
 10
7583.66983621637
 20
5388.454626527195
 30
0.0
 10
7590.919536217944
 20
5388.454626527195
 30
0.0
 10
7598.29140690146
 20
5388.454626527195
 30
0.0
 10
7605.630832943396
 20
5388.454626527195
 30
0.0
 10
7612.772187441735
 20
5388.454626527195
 30
0.0
 10
7619.233589392605
 20
5388.454626527195
 30
0.0
 10
7625.002612727376
 20
5388.454626527195
 30
0.0
 10
7630.072777553391
 20
5388.454626527195
 30
0.0
 10
7634.392784080009
 20
5388.454626527195
 30
0.0
 10
7637.97670875454
 20
5388.454626527195
 30
0.0
 10
7640.837350325226
 20
5388.454626527195
 30
0.0
 10
7643.016982186927
 20
5388.454626527195
 30
0.0
 10
7644.458442218836
 20
5388.454626527195
 30
0.0
 10
7645.184354324201
 20
5388.454626527195
 30
0.0
 10
7645.143607727714
 20
5388.454626527195
 30
0.0
 10
7645.129361966191
 20
5388.454626527195
 30
0.0
  0
SPLINE
  5
13F
330
1F
100
AcDbEntity
  8
0
  6
Continuous
 62
     7
370
    25
100
AcDbSpline
210
0.0
220
0.0
230
1.0
 70
     8
 71
     3
 72
    26
 73
    22
 74
     0
 42
0.000000001
 43
0.00000001
 40
0.0
 40
0.0
 40
0.0
 40
0.0
 40
0.036556342548474
 40
0.0893594693638195
 40
0.1436917472295756
 40
0.1965381170270609
 40
0.2509113486430046
 40
0.3038557566353493
 40
0.3583348742291106
 40
0.411284025452711
 40
0.4657746479832046
 40
0.5186184581369244
 40
0.5729988302415909
 40
0.6257783381160312
 40
0.6800840164554453
 40
0.7329470810286007
 40
0.7873361553896497
 40
0.8403179580236309
 40
0.8948383745225986
 40
0.9477707260952105
 40
0.9999999999999999
 40
0.9999999999999999
 40
0.9999999999999999
 40
0.9999999999999999
 10
7290.562236526547
 20
5360.901783433323
 30
0.0
 10
7290.56223558187
 20
5360.901864335852
 30
0.0
 10
7290.562233272671
 20
5360.902062096528
 30
0.0
 10
7290.597191477734
 20
5360.367902591046
 30
0.0
 10
7290.657747245554
 20
5359.394622025009
 30
0.0
 10
7290.739667633911
 20
5357.972671242383
 30
0.0
 10
7290.83139939254
 20
5356.189208347523
 30
0.0
 10
7290.924842384017
 20
5354.055791496266
 30
0.0
 10
7291.007976361745
 20
5351.671691132588
 30
0.0
 10
7291.072583579004
 20
5349.062046983458
 30
0.0
 10
7291.109671497741
 20
5346.349614156296
 30
0.0
 10
7291.114745861091
 20
5343.56289713823
 30
0.0
 10
7291.085889832505
 20
5340.83246951506
 30
0.0
 10
7291.02438888992
 20
5338.184654006444
 30
0.0
 10
7290.936572078854
 20
5335.740332892371
 30
0.0
 10
7290.829492991959
 20
5333.523112227908
 30
0.0
 10
7290.716037891495
 20
5331.634856768495
 30
0.0
 10
7290.606876066098
 20
5330.093148441865
 30
0.0
 10
7290.518075717322
 20
5328.983393089883
 30
0.0
 10
7290.456577671302
 20
5328.280715258385
 30
0.0
 10
7290.449355829882
 20
5328.202810507182
 30
0.0
 10
7290.445769050656
 20
5328.164118554954
 30
0.0
  0
LINE
  5
140
330
1F
100
AcDbEntity
  8
0
  6
Continuous
 62
     7
370
    25
100
AcDbLine
 10
7407.2701948076
 20
5224.9546304611
 30
0.0
 11
7353.2701971322
 21
5224.9546304611
 31
0.0
  0
LINE
  5
141
330
1F
100
AcDbEntity
  8
0
  6
Continuous
 62
     7
370
    25
100
AcDbLine
 10
7403.2701941519
 20
5189.9546191362
 30
0.0
 11
7357.2701977878
 21
5189.9546191362
 31
0.0
  0
SPLINE
  5
142
330
1F
100
AcDbEntity
  8
0
  6
Continuous
 62
     7
370
    25
100
AcDbSpline
210
0.0
220
0.0
230
1.0
 70
     8
 71
     3
 72
    26
 73
    22
 74
     0
 42
0.000000001
 43
0.00000001
 40
0.0
 40
0.0
 40
0.0
 40
0.0
 40
0.0518150987940054
 40
0.1113808941296767
 40
0.172281801169493
 40
0.2246887107577251
 40
0.2783592171521447
 40
0.3194182928116343
 40
0.3616212561286938
 40
0.402706918721827
 40
0.4449493733050487
 40
0.5015056058981004
 40
0.5596413537764972
 40
0.6344160122333
 40
0.7113478439689324
 40
0.7733911946469947
 40
0.8370630448339064
 40
0.8877152796692976
 40
0.9397478758014721
 40
0.9904520344138898
 40
0.9999999999999999
 40
0.9999999999999999
 40
0.9999999999999999
 40
0.9999999999999999
 10
7355.048442104398
 20
5147.802273955707
 30
0.0
 10
7355.375554870334
 20
5147.28425017693
 30
0.0
 10
7356.078711154875
 20
5146.170714682379
 30
0.0
 10
7357.338287193094
 20
5143.97661844932
 30
0.0
 10
7358.60019235137
 20
5141.440819038326
 30
0.0
 10
7359.699620002768
 20
5138.668162201082
 30
0.0
 10
7360.441845734976
 20
5135.970323291721
 30
0.0
 10
7360.817850516147
 20
5133.283429363774
 30
0.0
 10
7360.841594129466
 20
5130.752774622025
 30
0.0
 10
7360.521651101837
 20
5128.187583365633
 30
0.0
 10
7359.822254505799
 20
5125.399389771998
 30
0.0
 10
7358.686487991357
 20
5122.430565218063
 30
0.0
 10
7357.025622781583
 20
5119.116531545908
 30
0.0
 10
7355.01225494075
 20
5115.787009949377
 30
0.0
 10
7352.972068154163
 20
5112.805559815331
 30
0.0
 10
7351.199536680755
 20
5110.386557609648
 30
0.0
 10
7349.883266452713
 20
5108.665570300675
 30
0.0
 10
7348.916706754007
 20
5107.432721974264
 30
0.0
 10
7348.352308280061
 20
5106.723392201583
 30
0.0
 10
7348.099912125634
 20
5106.408418960407
 30
0.0
 10
7348.156160676474
 20
5106.478734712208
 30
0.0
 10
7348.165074208317
 20
5106.489877429371
 30
0.0
  0
LINE
  5
143
330
1F
100
AcDbEntity
  8
0
  6
Continuous
 62
     7
370
    25
100
AcDbLine
 10
7346.2701978474
 20
5090.4546186594
 30
0.0
 11
7414.2701940923
 21
5090.4546186594
 31
0.0
  0
LINE
  5
144
330
1F
100
AcDbEntity
  8
0
  6
Continuous
 62
     7
370
    25
100
AcDbLine
 10
7336.270192483
 20
5155.9546247391
 30
0.0
 11
7336.270192483
 21
5100.9546324877
 31
0.0
  0
LINE
  5
145
330
1F
100
AcDbEntity
  8
0
  6
Continuous
 62
     7
370
    25
100
AcDbLine
 10
7332.2701918274
 20
5154.4546291498
 30
0.0
 11
7332.2701918274
 21
5102.4546131758
 31
0.0
  0
ARC
  5
146
330
1F
100
AcDbEntity
  8
0
  6
Continuous
 62
     7
370
    25
100
AcDbCircle
 10
7357.9014430205
 20
5147.5959533556
 30
0.0
 40
2.860451435961795
100
AcDbArc
 50
92.0235300544
 51
175.8637389605
  0
LINE
  5
147
330
1F
100
AcDbEntity
  8
0
  6
Continuous
 62
     7
370
    25
100
AcDbLine
 10
7357.8004407077
 20
5150.4546210436
 30
0.0
 11
7404.599847117
 21
5150.4546210436
 31
0.0
  0
LINE
  5
148
330
1F
100
AcDbEntity
  8
0
  6
Continuous
 62
     7
370
    25
100
AcDbLine
 10
7356.1483638673
 20
5020.4546258119
 30
0.0
 11
7404.3920243471
 21
5020.4546258119
 31
0.0
  0
LINE
  5
149
330
1F
100
AcDbEntity
  8
0
  6
Continuous
 62
     7
370
    25
100
AcDbLine
 10
7320.2701898604
 20
5151.4546230701
 30
0.0
 11
7320.2701898604
 21
5105.4546341566
 31
0.0
  0
LINE
  5
14A
330
1F
100
AcDbEntity
  8
0
  6
Continuous
 62
     7
370
    25
100
AcDbLine
 10
7357.2701977878
 20
5156.9546267656
 30
0.0
 11
7403.2701941519
 21
5156.9546267656
 31
0.0
  0
LINE
  5
14B
330
1F
100
AcDbEntity
  8
0
  6
Continuous
 62
     7
370
    25
100
AcDbLine
 10
7355.2701937347
 20
5152.9546335605
 30
0.0
 11
7405.2701944798
 21
5152.9546335605
 31
0.0
  0
LINE
  5
14C
330
1F
100
AcDbEntity
  8
0
  6
Continuous
 62
     7
370
    25
100
AcDbLine
 10
7360.2701964169
 20
5166.95463213
 30
0.0
 11
7400.2701955228
 21
5166.95463213
 31
0.0
  0
SPLINE
  5
14D
330
1F
100
AcDbEntity
  8
0
  6
Continuous
 62
     7
370
    25
100
AcDbSpline
210
0.0
220
0.0
230
1.0
 70
     8
 71
     3
 72
    11
 73
     7
 74
     0
 42
0.000000001
 43
0.00000001
 40
0.0
 40
0.0
 40
0.0
 40
0.0
 40
0.1561474565272757
 40
0.4307961730178026
 40
0.7130083183968041
 40
1.0
 40
1.0
 40
1.0
 40
1.0
 10
7353.270197132169
 20
5150.454621043567
 30
0.0
 10
7353.279663493964
 20
5150.441104442526
 30
0.0
 10
7353.305780297431
 20
5150.403813409228
 30
0.0
 10
7353.589604515697
 20
5149.995041178009
 30
0.0
 10
7354.172851332069
 20
5149.146524132097
 30
0.0
 10
7354.75494924485
 20
5148.252858681683
 30
0.0
 10
7355.048442104398
 20
5147.802273955707
 30
0.0
  0
SPLINE
  5
14E
330
1F
100
AcDbEntity
  8
0
  6
Continuous
 62
     7
370
    25
100
AcDbSpline
210
0.0
220
0.0
230
1.0
 70
    24
 71
     3
 72
    12
 73
     8
 74
     0
 42
0.000000001
 43
0.00000001
 40
0.0
 40
0.0
 40
0.0
 40
0.0
 40
0.0026572796928213
 40
0.051670067100449
 40
0.3670805959772521
 40
0.7311419982434852
 40
1.0
 40
1.0
 40
1.0
 40
1.0
 10
7353.270197132169
 20
5150.454621043567
 30
0.0
 10
7353.273593205984
 20
5150.454621043567
 30
0.0
 10
7353.339628920003
 20
5150.454621043568
 30
0.0
 10
7353.819976333353
 20
5150.454621043567
 30
0.0
 10
7354.907355628581
 20
5150.454621043568
 30
0.0
 10
7356.500578714464
 20
5150.454621043567
 30
0.0
 10
7357.412896846216
 20
5150.454621043567
 30
0.0
 10
7357.800440707741
 20
5150.454621043567
 30
0.0
  0
LINE
  5
14F
330
1F
100
AcDbEntity
  8
0
  6
Continuous
 62
     7
370
    25
100
AcDbLine
 10
7226.2701930791
 20
5088.4546146063
 30
0.0
 11
7226.2701930791
 21
5168.4546277193
 31
0.0
  0
LINE
  5
150
330
1F
100
AcDbEntity
  8
0
  6
Continuous
 62
     7
370
    25
100
AcDbLine
 10
7261.2701895028
 20
5148.4546318916
 30
0.0
 11
7261.2701895028
 21
5108.4546253351
 31
0.0
  0
LINE
  5
151
330
1F
100
AcDbEntity
  8
0
  6
Continuous
 62
     7
370
    25
100
AcDbLine
 10
7216.2702026158
 20
5148.4546318916
 30
0.0
 11
7216.2702026158
 21
5108.4546253351
 31
0.0
  0
LINE
  5
152
330
1F
100
AcDbEntity
  8
0
  6
Continuous
 62
     7
370
    25
100
AcDbLine
 10
7407.3733294695
 20
5181.9546327261
 30
0.0
 11
7408.2701968341
 21
5181.9546327261
 31
0.0
  0
LINE
  5
153
330
1F
100
AcDbEntity
  8
0
  6
Continuous
 62
     7
370
    25
100
AcDbLine
 10
7352.2701951056
 20
5181.9546327261
 30
0.0
 11
7407.3733294695
 21
5181.9546327261
 31
0.0
  0
LINE
  5
154
330
1F
100
AcDbEntity
  8
0
  6
Continuous
 62
     7
370
    25
100
AcDbLine
 10
7409.3092659801
 20
5185.9546259311
 30
0.0
 11
7410.2701934367
 21
5185.9546259311
 31
0.0
  0
LINE
  5
155
330
1F
100
AcDbEntity
  8
0
  6
Continuous
 62
     7
370
    25
100
AcDbLine
 10
7350.2701985031
 20
5185.9546259311
 30
0.0
 11
7409.3092659801
 21
5185.9546259311
 31
0.0
  0
LINE
  5
156
330
1F
100
AcDbEntity
  8
0
  6
Continuous
 62
     7
370
    25
100
AcDbLine
 10
7404.4694209784
 20
5171.9546273617
 30
0.0
 11
7405.2701944798
 21
5171.9546273617
 31
0.0
  0
LINE
  5
157
330
1F
100
AcDbEntity
  8
0
  6
Continuous
 62
     7
370
    25
100
AcDbLine
 10
7355.2701937347
 20
5171.9546273617
 30
0.0
 11
7404.4694209784
 21
5171.9546273617
 31
0.0
  0
LINE
  5
158
330
1F
100
AcDbEntity
  8
0
  6
Continuous
 62
     8
370
    25
100
AcDbLine
 10
7288.4980680733
 20
5359.8267764119
 30
0.0
 11
7288.4980680733
 21
5329.2824767796
 31
0.0
  0
LINE
  5
159
330
1F
100
AcDbEntity
  8
0
  6
Continuous
 62
     8
370
    25
100
AcDbLine
 10
7267.3291804581
 20
5333.3463736144
 30
0.0
 11
7267.3291804581
 21
5358.7315336136
 31
0.0
  0
LINE
  5
15A
330
1F
100
AcDbEntity
  8
0
  6
Continuous
 62
     8
370
    25
100
AcDbLine
 10
7270.5970498114
 20
5331.8104997543
 30
0.0
 11
7270.5970498114
 21
5361.0546265063
 31
0.0
  0
SPLINE
  5
15B
330
1F
100
AcDbEntity
  8
0
  6
Continuous
 62
     8
370
    25
100
AcDbSpline
210
0.0
220
0.0
230
1.0
 70
     8
 71
     3
 72
    13
 73
     9
 74
     0
 42
0.000000001
 43
0.00000001
 40
0.0
 40
0.0
 40
0.0
 40
0.0
 40
0.1938659489046589
 40
0.3928817661189918
 40
0.583737019295262
 40
0.7820699777108986
 40
0.9479910372289344
 40
1.0
 40
1.0
 40
1.0
 40
1.0
 10
7280.574941852627
 20
5330.411768731241
 30
0.0
 10
7281.055540227556
 20
5330.185611108917
 30
0.0
 10
7282.029503625474
 20
5329.727288197741
 30
0.0
 10
7283.203797563545
 20
5329.082785788139
 30
0.0
 10
7284.14479430714
 20
5328.537137173512
 30
0.0
 10
7284.705848930935
 20
5328.195578318826
 30
0.0
 10
7284.949378229665
 20
5328.044829650311
 30
0.0
 10
7284.910659675762
 20
5328.068767787438
 30
0.0
 10
7284.901419499455
 20
5328.074480619793
 30
0.0
  0
SPLINE
  5
15C
330
1F
100
AcDbEntity
  8
0
  6
Continuous
 62
     8
370
    25
100
AcDbSpline
210
0.0
220
0.0
230
1.0
 70
     8
 71
     3
 72
    13
 73
     9
 74
     0
 42
0.000000001
 43
0.00000001
 40
0.0
 40
0.0
 40
0.0
 40
0.0
 40
0.0999768327064399
 40
0.2756825896195183
 40
0.4276649621075312
 40
0.5834332980169644
 40
0.7900377967047703
 40
0.9999999999999999
 40
0.9999999999999999
 40
0.9999999999999999
 40
0.9999999999999999
 10
7265.013018467961
 20
5342.061850455169
 30
0.0
 10
7265.02333581576
 20
5341.99853474823
 30
0.0
 10
7265.051785538381
 20
5341.823943919732
 30
0.0
 10
7265.235449987479
 20
5340.792719103077
 30
0.0
 10
7265.5321688002
 20
5339.394383691499
 30
0.0
 10
7265.949492799717
 20
5337.696730717354
 30
0.0
 10
7266.522792403227
 20
5335.674321171144
 30
0.0
 10
7267.05894390353
 20
5334.126514792351
 30
0.0
 10
7267.329180458127
 20
5333.346373614435
 30
0.0
  0
SPLINE
  5
15D
330
1F
100
AcDbEntity
  8
0
  6
Continuous
 62
     8
370
    25
100
AcDbSpline
210
0.0
220
0.0
230
1.0
 70
     8
 71
     3
 72
    14
 73
    10
 74
     0
 42
0.000000001
 43
0.00000001
 40
0.0
 40
0.0
 40
0.0
 40
0.0
 40
0.202728971934033
 40
0.4082655903668325
 40
0.5556183219090999
 40
0.7057356314807166
 40
0.8715295692875951
 40
0.9872401171676233
 40
1.0
 40
1.0
 40
1.0
 40
1.0
 10
7267.003753998814
 20
5332.995771643285
 30
0.0
 10
7266.75932319024
 20
5333.759637058743
 30
0.0
 10
7266.267076386961
 20
5335.297946861368
 30
0.0
 10
7265.754699282822
 20
5337.303000941421
 30
0.0
 10
7265.388101015551
 20
5338.997358730285
 30
0.0
 10
7265.133449711061
 20
5340.423548748508
 30
0.0
 10
7264.993901163774
 20
5341.397116202283
 30
0.0
 10
7264.941135612847
 20
5341.820528382938
 30
0.0
 10
7264.952372285228
 20
5341.733188932703
 30
0.0
 10
7264.953488328992
 20
5341.724514242773
 30
0.0
  0
LINE
  5
15E
330
1F
100
AcDbEntity
  8
0
  6
Continuous
 62
     8
370
    25
100
AcDbLine
 10
7262.9335167199
 20
5329.5546278623
 30
0.0
 11
7279.953950861
 21
5329.5546278623
 31
0.0
  0
SPLINE
  5
15F
330
1F
100
AcDbEntity
  8
0
  6
Continuous
 62
     8
370
    25
100
AcDbSpline
210
0.0
220
0.0
230
1.0
 70
     8
 71
     3
 72
    11
 73
     7
 74
     0
 42
0.000000001
 43
0.00000001
 40
0.0
 40
0.0
 40
0.0
 40
0.0
 40
0.2186724105905314
 40
0.4104039936575011
 40
0.6100078938108618
 40
1.0
 40
1.0
 40
1.0
 40
1.0
 10
7283.811429360448
 20
5327.142096337442
 30
0.0
 10
7283.8208050065
 20
5327.135934686756
 30
0.0
 10
7283.838401202434
 20
5327.124370511639
 30
0.0
 10
7283.205048865415
 20
5327.569753867202
 30
0.0
 10
7282.123627386352
 20
5328.315148686478
 30
0.0
 10
7280.81773912779
 20
5329.061168327471
 30
0.0
 10
7279.953950861035
 20
5329.554627862339
 30
0.0
  0
SPLINE
  5
160
330
1F
100
AcDbEntity
  8
0
  6
Continuous
 62
     8
370
    25
100
AcDbSpline
210
0.0
220
0.0
230
1.0
 70
    24
 71
     3
 72
    57
 73
    53
 74
     0
 42
0.000000001
 43
0.00000001
 40
0.0
 40
0.0
 40
0.0
 40
0.0
 40
0.0115292863018599
 40
0.0332703229801413
 40
0.0549996824877313
 40
0.0771684058438607
 40
0.0993496360841032
 40
0.1215170226771278
 40
0.1428150503035989
 40
0.1641257946495703
 40
0.1854217850530356
 40
0.2072849275880757
 40
0.2291651218740959
 40
0.2510242502834703
 40
0.2674486608350862
 40
0.2838825697985034
 40
0.300304867942839
 40
0.3171661098896885
 40
0.3340406529705207
 40
0.3508988510496282
 40
0.3692506874634185
 40
0.3876010250463556
 40
0.4063749676330803
 40
0.4251475265068992
 40
0.4435585621576097
 40
0.4619683217782403
 40
0.4809347787462708
 40
0.4999003508957382
 40
0.5145184623259792
 40
0.5326839654688703
 40
0.5508493584312143
 40
0.5695451671548357
 40
0.5882425386049751
 40
0.6089153699351431
 40
0.629590437269183
 40
0.6508529495203352
 40
0.6721177240969197
 40
0.6889980448128223
 40
0.7058926583810973
 40
0.7227752852303237
 40
0.7401071479260157
 40
0.7574513157512712
 40
0.7747856434173171
 40
0.8008982361620903
 40
0.8270424773870291
 40
0.853161286452057
 40
0.8802714666481113
 40
0.9074084367661123
 40
0.9345220077479177
 40
0.9578012496613084
 40
0.9810948873211431
 40
1.0
 40
1.0
 40
1.0
 40
1.0
 10
7648.63182030016
 20
5384.954626419161
 30
0.0
 10
7648.64647217583
 20
5384.954626419161
 30
0.0
 10
7648.688753425771
 20
5384.954626419161
 30
0.0
 10
7647.990470075894
 20
5384.954626419161
 30
0.0
 10
7646.578549964864
 20
5384.954626419161
 30
0.0
 10
7644.396454309591
 20
5384.954626419161
 30
0.0
 10
7641.467937065117
 20
5384.954626419161
 30
0.0
 10
7637.833472227215
 20
5384.954626419161
 30
0.0
 10
7633.519082384002
 20
5384.954626419161
 30
0.0
 10
7628.549900626383
 20
5384.954626419161
 30
0.0
 10
7622.808617465078
 20
5384.954626419161
 30
0.0
 10
7616.255109095495
 20
5384.954626419161
 30
0.0
 10
7608.854482401204
 20
5384.954626419161
 30
0.0
 10
7601.332970020902
 20
5384.954626419161
 30
0.0
 10
7593.900160180622
 20
5384.954626419161
 30
0.0
 10
7586.746130234649
 20
5384.954626419161
 30
0.0
 10
7579.06330215141
 20
5384.954626419161
 30
0.0
 10
7570.83515117669
 20
5384.954626419161
 30
0.0
 10
7562.057207539384
 20
5384.954626419161
 30
0.0
 10
7552.537373167688
 20
5384.954626419161
 30
0.0
 10
7542.242407050275
 20
5384.954626419161
 30
0.0
 10
7531.0677008179
 20
5384.954626419161
 30
0.0
 10
7519.317951853345
 20
5384.954626419161
 30
0.0
 10
7507.117830460821
 20
5384.954626419161
 30
0.0
 10
7494.631654465956
 20
5384.954626419161
 30
0.0
 10
7481.817225883052
 20
5384.954626419161
 30
0.0
 10
7468.669186734803
 20
5384.954626419161
 30
0.0
 10
7456.30588373
 20
5384.954626419161
 30
0.0
 10
7444.134084246704
 20
5384.954626419161
 30
0.0
 10
7432.210976499849
 20
5384.954626419161
 30
0.0
 10
7419.500758457543
 20
5384.954626419161
 30
0.0
 10
7406.932395430294
 20
5384.954626419161
 30
0.0
 10
7394.156011933111
 20
5384.954626419161
 30
0.0
 10
7381.417046385186
 20
5384.954626419161
 30
0.0
 10
7368.72804901581
 20
5384.954626419161
 30
0.0
 10
7356.590862214746
 20
5384.954626419161
 30
0.0
 10
7345.858976542392
 20
5384.954626419161
 30
0.0
 10
7336.503754623778
 20
5384.954626419161
 30
0.0
 10
7328.371738544327
 20
5384.954626419161
 30
0.0
 10
7320.65827498223
 20
5384.954626419161
 30
0.0
 10
7313.386152024058
 20
5384.954626419161
 30
0.0
 10
7306.564691283979
 20
5384.954626419161
 30
0.0
 10
7299.183693851571
 20
5384.954626419161
 30
0.0
 10
7291.573270604134
 20
5384.954626419161
 30
0.0
 10
7284.120308079161
 20
5384.954626419161
 30
0.0
 10
7277.683910700341
 20
5384.954626419161
 30
0.0
 10
7272.294265533852
 20
5384.954626419161
 30
0.0
 10
7267.975809566657
 20
5384.954626419161
 30
0.0
 10
7264.920524048062
 20
5384.954626419161
 30
0.0
 10
7262.973752615531
 20
5384.954626419161
 30
0.0
 10
7261.918036473326
 20
5384.954626419161
 30
0.0
 10
7261.858501113056
 20
5384.954626419161
 30
0.0
 10
7261.831829169331
 20
5384.954626419161
 30
0.0
  0
LINE
  5
161
330
1F
100
AcDbEntity
  8
0
  6
Continuous
 62
     8
370
    25
100
AcDbLine
 10
7417.7701937347
 20
5230.9546277193
 30
0.0
 11
7342.7701982051
 21
5230.9546277193
 31
0.0
  0
LINE
  5
162
330
1F
100
AcDbEntity
  8
0
  6
Continuous
 62
     8
370
    25
100
AcDbLine
 10
7413.6030765563
 20
5226.0244891313
 30
0.0
 11
7346.9373153835
 21
5226.0244891313
 31
0.0
  0
LINE
  5
163
330
1F
100
AcDbEntity
  8
0
  6
Continuous
 62
     8
370
    25
100
AcDbLine
 10
7407.5796360462
 20
5147.8022739557
 30
0.0
 11
7355.0484421044
 21
5147.8022739557
 31
0.0
  0
LINE
  5
164
330
1F
100
AcDbEntity
  8
0
  6
Continuous
 62
     8
370
    25
100
AcDbLine
 10
7353.1639816552
 20
5023.148964372
 30
0.0
 11
7407.3764102846
 21
5023.148964372
 31
0.0
  0
LINE
  5
165
330
1F
100
AcDbEntity
  8
0
  6
Continuous
 62
     8
370
    25
100
AcDbLine
 10
7323.2701959401
 20
5154.4546291498
 30
0.0
 11
7323.2701959401
 21
5102.4546131758
 31
0.0
  0
LINE
  5
166
330
1F
100
AcDbEntity
  8
0
  6
Continuous
 62
     8
370
    25
100
AcDbLine
 10
7357.2701977878
 20
5163.9546260504
 30
0.0
 11
7403.2701941519
 21
5163.9546260504
 31
0.0
  0
LINE
  5
167
330
1F
100
AcDbEntity
  8
0
  6
Continuous
 62
     8
370
    25
100
AcDbLine
 10
7241.2701936751
 20
5088.4546146063
 30
0.0
 11
7241.2701936751
 21
5168.4546277193
 31
0.0
  0
LINE
  5
168
330
1F
100
AcDbEntity
  8
0
  6
Continuous
 62
     8
370
    25
100
AcDbLine
 10
7407.3733294695
 20
5174.9546334413
 30
0.0
 11
7408.2701968341
 21
5174.9546334413
 31
0.0
  0
LINE
  5
169
330
1F
100
AcDbEntity
  8
0
  6
Continuous
 62
     8
370
    25
100
AcDbLine
 10
7352.2701951056
 20
5174.9546334413
 30
0.0
 11
7407.3733294695
 21
5174.9546334413
 31
0.0
  0
SPLINE
  5
16A
330
1F
100
AcDbEntity
  8
0
  6
Continuous
 62
     7
370
    25
100
AcDbSpline
210
0.0
220
0.0
230
1.0
 70
     8
 71
     3
 72
    14
 73
    10
 74
     0
 42
0.000000001
 43
0.00000001
 40
0.0
 40
0.0
 40
0.0
 40
0.0
 40
0.0421811266327958
 40
0.1859826727284478
 40
0.3222833311787024
 40
0.4906782855652098
 40
0.6906975680997401
 40
0.9177423496515635
 40
1.0
 40
1.0
 40
1.0
 40
1.0
 10
6280.042696121833
 20
4473.568170224177
 30
0.0
 10
6279.89700069308
 20
4473.659662270802
 30
0.0
 10
6279.254608528459
 20
4474.063063903784
 30
0.0
 10
6278.012050621033
 20
4474.524774213227
 30
0.0
 10
6276.247768562457
 20
4475.001934034824
 30
0.0
 10
6274.187181251227
 20
4475.22192114432
 30
0.0
 10
6271.767001430555
 20
4475.016502862331
 30
0.0
 10
6269.70843814598
 20
4474.521148060391
 30
0.0
 10
6268.626494317335
 20
4473.869055868487
 30
0.0
 10
6268.338756013414
 20
4473.695634757029
 30
0.0
  0
LINE
  5
16B
330
1F
100
AcDbEntity
  8
0
  6
Continuous
 62
     7
370
    25
100
AcDbLine
 10
6276.2976110277
 20
4473.6089547024
 30
0.0
 11
6275.519010687
 21
4474.3875552759
 31
0.0
  0
LINE
  5
16C
330
1F
100
AcDbEntity
  8
0
  6
Continuous
 62
     7
370
    25
100
AcDbLine
 10
6272.5190106609
 20
4474.3875552759
 30
0.0
 11
6271.7895052226
 21
4473.6580540285
 31
0.0
  0
LINE
  5
16D
330
1F
100
AcDbEntity
  8
0
  6
Continuous
 62
     7
370
    25
100
AcDbLine
 10
6314.0190097799
 20
4494.2684163198
 30
0.0
 11
6314.0190097799
 21
4509.2684169159
 31
0.0
  0
LINE
  5
16E
330
1F
100
AcDbEntity
  8
0
  6
Continuous
 62
     7
370
    25
100
AcDbLine
 10
6234.019011568
 20
4509.2684169159
 30
0.0
 11
6234.019011568
 21
4494.2684163198
 31
0.0
  0
ARC
  5
16F
330
1F
100
AcDbEntity
  8
0
  6
Continuous
 62
     7
370
    25
100
AcDbCircle
 10
6294.019010674
 20
4494.2684147701
 30
0.0
 40
20.0
100
AcDbArc
 50
270.0
 51
0.0
  0
ARC
  5
170
330
1F
100
AcDbEntity
  8
0
  6
Continuous
 62
     7
370
    25
100
AcDbCircle
 10
6254.019010674
 20
4494.2684147701
 30
0.0
 40
20.00000000000091
100
AcDbArc
 50
180.0
 51
270.0
  0
LINE
  5
171
330
1F
100
AcDbEntity
  8
0
  6
Continuous
 62
     7
370
    25
100
AcDbLine
 10
6294.0190102269
 20
4509.2684169159
 30
0.0
 11
6294.0190102269
 21
4519.2684073791
 31
0.0
  0
LINE
  5
172
330
1F
100
AcDbEntity
  8
0
  6
Continuous
 62
     7
370
    25
100
AcDbLine
 10
6254.019011121
 20
4519.2684073791
 30
0.0
 11
6254.019011121
 21
4509.2684169159
 31
0.0
  0
LINE
  5
173
330
1F
100
AcDbEntity
  8
0
  6
Continuous
 62
     7
370
    25
100
AcDbLine
 10
6294.0190102269
 20
4473.0362732754
 30
0.0
 11
6294.0190102269
 21
4474.2684204922
 31
0.0
  0
LINE
  5
174
330
1F
100
AcDbEntity
  8
0
  6
Continuous
 62
     7
370
    25
100
AcDbLine
 10
6254.019011121
 20
4474.2684204922
 30
0.0
 11
6254.019011121
 21
4473.0383296356
 31
0.0
  0
ARC
  5
175
330
1F
100
AcDbEntity
  8
0
  6
Continuous
 62
     7
370
    25
100
AcDbCircle
 10
6274.0190180142
 20
4462.1050512539
 30
0.0
 40
12.49998924626473
100
AcDbArc
 50
68.5993143961
 51
110.6504301768
  0
LINE
  5
176
330
1F
100
AcDbEntity
  8
0
  6
Continuous
 62
     7
370
    25
100
AcDbLine
 10
6272.5190106609
 20
4474.3875552759
 30
0.0
 11
6275.519010687
 21
4474.3875552759
 31
0.0
  0
ARC
  5
177
330
1F
100
AcDbEntity
  8
0
  6
Continuous
 62
     7
370
    25
100
AcDbCircle
 10
6274.019010674
 20
4355.2684147701
 30
0.0
 40
5.250000000000309
100
AcDbArc
 50
19.1602611172
 51
182.7338397137
  0
LWPOLYLINE
  5
178
330
1F
100
AcDbEntity
  8
0
  6
Continuous
 62
     7
370
    25
100
AcDbPolyline
 90
        9
 70
   128
 43
0.0
 10
6278.9781827775
 20
4356.9915284262
 10
6277.8275938069
 20
4356.7689795837
 10
6276.5709977427
 20
4356.5259267435
 10
6275.2421097427
 20
4356.2688891635
 10
6273.8765843566
 20
4356.0047660813
 10
6272.5110589124
 20
4355.7406429992
 10
6271.1821709124
 20
4355.4836128697
 10
6269.925575081
 20
4355.2405600295
 10
6268.7749856447
 20
4355.0180111871
  0
ARC
  5
179
330
1F
100
AcDbEntity
  8
0
  6
Continuous
 62
     7
370
    25
100
AcDbCircle
 10
6274.019010674
 20
4355.2684147701
 30
0.0
 40
5.250000000000723
100
AcDbArc
 50
199.1602611172
 51
2.7338397137
  0
LWPOLYLINE
  5
17A
330
1F
100
AcDbEntity
  8
0
  6
Continuous
 62
     7
370
    25
100
AcDbPolyline
 90
        9
 70
   128
 43
0.0
 10
6269.0598385704
 20
4353.5453070745
 10
6270.210427541
 20
4353.767855917
 10
6271.4670236052
 20
4354.0109087572
 10
6272.7959116052
 20
4354.2679388866
 10
6274.1614369913
 20
4354.5320619688
 10
6275.5269624356
 20
4354.796185051
 10
6276.8558504355
 20
4355.053222631
 10
6278.1124462669
 20
4355.2962754712
 10
6279.2630357032
 20
4355.5188243136
  0
ARC
  5
17B
330
1F
100
AcDbEntity
  8
0
  6
Continuous
 62
     7
370
    25
100
AcDbCircle
 10
6274.019010674
 20
4355.2684147701
 30
0.0
 40
5.250000000000723
100
AcDbArc
 50
2.7338397137
 51
19.1602611172
  0
ARC
  5
17C
330
1F
100
AcDbEntity
  8
0
  6
Continuous
 62
     7
370
    25
100
AcDbCircle
 10
6274.019010674
 20
4355.2684147701
 30
0.0
 40
5.249999999999858
100
AcDbArc
 50
182.7338397137
 51
199.1602611172
  0
LINE
  5
17D
330
1F
100
AcDbEntity
  8
0
  6
Continuous
 62
     7
370
    25
100
AcDbLine
 10
6286.1265757417
 20
4443.4051056251
 30
0.0
 11
6257.2167109062
 21
4443.4051056251
 31
0.0
  0
LINE
  5
17E
330
1F
100
AcDbEntity
  8
0
  6
Continuous
 62
     7
370
    25
100
AcDbLine
 10
6290.8213067164
 20
4443.4051056251
 30
0.0
 11
6286.1265757417
 21
4443.4051056251
 31
0.0
  0
CIRCLE
  5
17F
330
1F
100
AcDbEntity
  8
0
  6
Continuous
 62
     7
370
    25
100
AcDbCircle
 10
6274.019010674
 20
4355.2684147701
 30
0.0
 40
24.49999999999909
  0
CIRCLE
  5
180
330
1F
100
AcDbEntity
  8
0
  6
Continuous
 62
     7
370
    25
100
AcDbCircle
 10
6274.019010674
 20
4355.2684147701
 30
0.0
 40
35.0
  0
CIRCLE
  5
181
330
1F
100
AcDbEntity
  8
0
  6
Continuous
 62
     7
370
    25
100
AcDbCircle
 10
6274.019010674
 20
4355.2684147701
 30
0.0
 40
22.5
  0
CIRCLE
  5
182
330
1F
100
AcDbEntity
  8
0
  6
Continuous
 62
     7
370
    25
100
AcDbCircle
 10
6274.019010674
 20
4355.2684147701
 30
0.0
 40
21.49999999999909
  0
CIRCLE
  5
183
330
1F
100
AcDbEntity
  8
0
  6
Continuous
 62
     7
370
    25
100
AcDbCircle
 10
6274.019010674
 20
4355.2684147701
 30
0.0
 40
19.5529899245621
  0
CIRCLE
  5
184
330
1F
100
AcDbEntity
  8
0
  6
Continuous
 62
     7
370
    25
100
AcDbCircle
 10
6274.019010674
 20
4355.2684147701
 30
0.0
 40
6.182050807568885
  0
ARC
  5
185
330
1F
100
AcDbEntity
  8
0
  6
Continuous
 62
     7
370
    25
100
AcDbCircle
 10
6278.269010674
 20
4363.7647375041
 30
0.0
 40
0.9999999999998828
100
AcDbArc
 50
180.0
 51
243.425030481
  0
ARC
  5
186
330
1F
100
AcDbEntity
  8
0
  6
Continuous
 62
     7
370
    25
100
AcDbCircle
 10
6274.019010674
 20
4355.2684147701
 30
0.0
 40
8.500000000000021
100
AcDbArc
 50
56.574969519
 51
63.425030481
  0
ARC
  5
187
330
1F
100
AcDbEntity
  8
0
  6
Continuous
 62
     7
370
    25
100
AcDbCircle
 10
6279.2520420003
 20
4363.1971841032
 30
0.0
 40
1.000000000000474
100
AcDbArc
 50
236.574969519
 51
300.0
  0
LINE
  5
188
330
1F
100
AcDbEntity
  8
0
  6
Continuous
 62
     7
370
    25
100
AcDbLine
 10
6279.7520419878
 20
4362.3311583743
 30
0.0
 11
6287.5417213251
 21
4366.8285299883
 31
0.0
  0
ARC
  5
189
330
1F
100
AcDbEntity
  8
0
  6
Continuous
 62
     7
370
    25
100
AcDbCircle
 10
6287.041720897
 20
4367.6945573111
 30
0.0
 40
1.000000000000081
100
AcDbArc
 50
300.0
 51
43.6571280147
  0
ARC
  5
18A
330
1F
100
AcDbEntity
  8
0
  6
Continuous
 62
     7
370
    25
100
AcDbCircle
 10
6291.291720897
 20
4360.3333413789
 30
0.0
 40
0.9999999999996882
100
AcDbArc
 50
16.3428719853
 51
120.0
  0
LINE
  5
18B
330
1F
100
AcDbEntity
  8
0
  6
Continuous
 62
     7
370
    25
100
AcDbLine
 10
6290.7917204609
 20
4361.1993704781
 30
0.0
 11
6283.0020415892
 21
4356.7019914136
 31
0.0
  0
ARC
  5
18C
330
1F
100
AcDbEntity
  8
0
  6
Continuous
 62
     7
370
    25
100
AcDbCircle
 10
6283.5020420003
 20
4355.835968171
 30
0.0
 40
0.9999999999996897
100
AcDbArc
 50
120.0
 51
183.425030481
  0
ARC
  5
18D
330
1F
100
AcDbEntity
  8
0
  6
Continuous
 62
     7
370
    25
100
AcDbCircle
 10
6274.019010674
 20
4355.2684147701
 30
0.0
 40
8.500000000000622
100
AcDbArc
 50
356.574969519
 51
3.425030481
  0
ARC
  5
18E
330
1F
100
AcDbEntity
  8
0
  6
Continuous
 62
     7
370
    25
100
AcDbCircle
 10
6283.5020420003
 20
4354.7008613692
 30
0.0
 40
1.000000000000476
100
AcDbArc
 50
176.574969519
 51
240.0
  0
LINE
  5
18F
330
1F
100
AcDbEntity
  8
0
  6
Continuous
 62
     7
370
    25
100
AcDbLine
 10
6283.0020415892
 20
4353.8348366365
 30
0.0
 11
6290.7917204609
 21
4349.3374650226
 31
0.0
  0
ARC
  5
190
330
1F
100
AcDbEntity
  8
0
  6
Continuous
 62
     7
370
    25
100
AcDbCircle
 10
6291.291720897
 20
4350.2034881613
 30
0.0
 40
1.00000000000044
100
AcDbArc
 50
240.0
 51
343.6571280148
  0
ARC
  5
191
330
1F
100
AcDbEntity
  8
0
  6
Continuous
 62
     7
370
    25
100
AcDbCircle
 10
6274.019010674
 20
4355.2684147701
 30
0.0
 40
19.00000000000076
100
AcDbArc
 50
343.6571280148
 51
16.3428719852
  0
ARC
  5
192
330
1F
100
AcDbEntity
  8
0
  6
Continuous
 62
     7
370
    25
100
AcDbCircle
 10
6287.041720897
 20
4342.8422722292
 30
0.0
 40
1.000000000000709
100
AcDbArc
 50
316.3428719852
 51
60.0
  0
LINE
  5
193
330
1F
100
AcDbEntity
  8
0
  6
Continuous
 62
     7
370
    25
100
AcDbLine
 10
6287.5417213251
 20
4343.7082980618
 30
0.0
 11
6279.7520419878
 21
4348.2056696758
 31
0.0
  0
ARC
  5
194
330
1F
100
AcDbEntity
  8
0
  6
Continuous
 62
     7
370
    25
100
AcDbCircle
 10
6279.2520420003
 20
4347.339645437
 30
0.0
 40
1.000000000000474
100
AcDbArc
 50
60.0
 51
123.425030481
  0
ARC
  5
195
330
1F
100
AcDbEntity
  8
0
  6
Continuous
 62
     7
370
    25
100
AcDbCircle
 10
6274.019010674
 20
4355.2684147701
 30
0.0
 40
8.500000000000021
100
AcDbArc
 50
296.574969519
 51
303.425030481
  0
ARC
  5
196
330
1F
100
AcDbEntity
  8
0
  6
Continuous
 62
     7
370
    25
100
AcDbCircle
 10
6278.269010674
 20
4346.7720920361
 30
0.0
 40
0.9999999999998828
100
AcDbArc
 50
116.574969519
 51
180.0
  0
LINE
  5
197
330
1F
100
AcDbEntity
  8
0
  6
Continuous
 62
     7
370
    25
100
AcDbLine
 10
6277.269010741
 20
4346.772088562
 30
0.0
 11
6277.269010741
 21
4337.777345334
 31
0.0
  0
ARC
  5
198
330
1F
100
AcDbEntity
  8
0
  6
Continuous
 62
     7
370
    25
100
AcDbCircle
 10
6278.269010674
 20
4337.7773456204
 30
0.0
 40
0.9999999999998413
100
AcDbArc
 50
180.0
 51
283.6571280148
  0
ARC
  5
199
330
1F
100
AcDbEntity
  8
0
  6
Continuous
 62
     7
370
    25
100
AcDbCircle
 10
6274.019010674
 20
4355.2684147701
 30
0.0
 40
19.00000000000076
100
AcDbArc
 50
283.6571280148
 51
316.3428719852
  0
ARC
  5
19A
330
1F
100
AcDbEntity
  8
0
  6
Continuous
 62
     7
370
    25
100
AcDbCircle
 10
6269.769010674
 20
4337.7773456204
 30
0.0
 40
1.0
100
AcDbArc
 50
256.3428719852
 51
0.0
  0
LINE
  5
19B
330
1F
100
AcDbEntity
  8
0
  6
Continuous
 62
     7
370
    25
100
AcDbLine
 10
6270.7690106069
 20
4337.777345334
 30
0.0
 11
6270.7690106069
 21
4346.772088562
 31
0.0
  0
ARC
  5
19C
330
1F
100
AcDbEntity
  8
0
  6
Continuous
 62
     7
370
    25
100
AcDbCircle
 10
6269.769010674
 20
4346.7720920361
 30
0.0
 40
1.0
100
AcDbArc
 50
0.0
 51
63.425030481
  0
ARC
  5
19D
330
1F
100
AcDbEntity
  8
0
  6
Continuous
 62
     7
370
    25
100
AcDbCircle
 10
6274.019010674
 20
4355.2684147701
 30
0.0
 40
8.500000000000021
100
AcDbArc
 50
236.574969519
 51
243.425030481
  0
ARC
  5
19E
330
1F
100
AcDbEntity
  8
0
  6
Continuous
 62
     7
370
    25
100
AcDbCircle
 10
6268.7859793476
 20
4347.339645437
 30
0.0
 40
1.000000000000474
100
AcDbArc
 50
56.574969519
 51
120.0
  0
LINE
  5
19F
330
1F
100
AcDbEntity
  8
0
  6
Continuous
 62
     7
370
    25
100
AcDbLine
 10
6268.2859793601
 20
4348.2056696758
 30
0.0
 11
6260.4963000228
 21
4343.7082980618
 31
0.0
  0
ARC
  5
1A0
330
1F
100
AcDbEntity
  8
0
  6
Continuous
 62
     7
370
    25
100
AcDbCircle
 10
6260.996300451
 20
4342.8422722292
 30
0.0
 40
1.000000000000709
100
AcDbArc
 50
120.0
 51
223.6571280148
  0
ARC
  5
1A1
330
1F
100
AcDbEntity
  8
0
  6
Continuous
 62
     7
370
    25
100
AcDbCircle
 10
6274.019010674
 20
4355.2684147701
 30
0.0
 40
19.00000000000055
100
AcDbArc
 50
223.6571280148
 51
256.3428719852
  0
ARC
  5
1A2
330
1F
100
AcDbEntity
  8
0
  6
Continuous
 62
     7
370
    25
100
AcDbCircle
 10
6256.746300451
 20
4350.2034881613
 30
0.0
 40
1.000000000000021
100
AcDbArc
 50
196.3428719853
 51
299.9999999999
  0
LINE
  5
1A3
330
1F
100
AcDbEntity
  8
0
  6
Continuous
 62
     7
370
    25
100
AcDbLine
 10
6257.2463008871
 20
4349.3374650226
 30
0.0
 11
6265.0359797587
 21
4353.8348366365
 31
0.0
  0
ARC
  5
1A4
330
1F
100
AcDbEntity
  8
0
  6
Continuous
 62
     7
370
    25
100
AcDbCircle
 10
6264.5359793476
 20
4354.7008613692
 30
0.0
 40
1.000000000000931
100
AcDbArc
 50
300.0
 51
3.425030481
  0
ARC
  5
1A5
330
1F
100
AcDbEntity
  8
0
  6
Continuous
 62
     7
370
    25
100
AcDbCircle
 10
6274.019010674
 20
4355.2684147701
 30
0.0
 40
8.499999999999714
100
AcDbArc
 50
176.574969519
 51
183.425030481
  0
ARC
  5
1A6
330
1F
100
AcDbEntity
  8
0
  6
Continuous
 62
     7
370
    25
100
AcDbCircle
 10
6264.5359793476
 20
4355.835968171
 30
0.0
 40
1.000000000000652
100
AcDbArc
 50
356.5749695189
 51
59.9999999999
  0
LINE
  5
1A7
330
1F
100
AcDbEntity
  8
0
  6
Continuous
 62
     7
370
    25
100
AcDbLine
 10
6265.0359797587
 20
4356.7019914136
 30
0.0
 11
6257.2463008871
 21
4361.1993704781
 31
0.0
  0
ARC
  5
1A8
330
1F
100
AcDbEntity
  8
0
  6
Continuous
 62
     7
370
    25
100
AcDbCircle
 10
6256.746300451
 20
4360.3333413789
 30
0.0
 40
0.9999999999995671
100
AcDbArc
 50
60.0
 51
163.6571280147
  0
ARC
  5
1A9
330
1F
100
AcDbEntity
  8
0
  6
Continuous
 62
     7
370
    25
100
AcDbCircle
 10
6274.019010674
 20
4355.2684147701
 30
0.0
 40
18.99999999999902
100
AcDbArc
 50
163.6571280148
 51
196.3428719853
  0
ARC
  5
1AA
330
1F
100
AcDbEntity
  8
0
  6
Continuous
 62
     7
370
    25
100
AcDbCircle
 10
6260.996300451
 20
4367.6945573111
 30
0.0
 40
1.000000000000081
100
AcDbArc
 50
136.3428719853
 51
240.0
  0
LINE
  5
1AB
330
1F
100
AcDbEntity
  8
0
  6
Continuous
 62
     7
370
    25
100
AcDbLine
 10
6260.4963000228
 20
4366.8285299883
 30
0.0
 11
6268.2859793601
 21
4362.3311583743
 31
0.0
  0
ARC
  5
1AC
330
1F
100
AcDbEntity
  8
0
  6
Continuous
 62
     7
370
    25
100
AcDbCircle
 10
6268.7859793476
 20
4363.1971841032
 30
0.0
 40
1.000000000000474
100
AcDbArc
 50
240.0
 51
303.425030481
  0
ARC
  5
1AD
330
1F
100
AcDbEntity
  8
0
  6
Continuous
 62
     7
370
    25
100
AcDbCircle
 10
6274.019010674
 20
4355.2684147701
 30
0.0
 40
8.500000000000021
100
AcDbArc
 50
116.574969519
 51
123.425030481
  0
ARC
  5
1AE
330
1F
100
AcDbEntity
  8
0
  6
Continuous
 62
     7
370
    25
100
AcDbCircle
 10
6269.769010674
 20
4363.7647375041
 30
0.0
 40
1.0
100
AcDbArc
 50
296.574969519
 51
0.0
  0
ARC
  5
1AF
330
1F
100
AcDbEntity
  8
0
  6
Continuous
 62
     7
370
    25
100
AcDbCircle
 10
6274.019010674
 20
4355.2684147701
 30
0.0
 40
19.00000000000013
100
AcDbArc
 50
43.6571280147
 51
76.3428719852
  0
ARC
  5
1B0
330
1F
100
AcDbEntity
  8
0
  6
Continuous
 62
     7
370
    25
100
AcDbCircle
 10
6269.769010674
 20
4372.7594839198
 30
0.0
 40
1.0
100
AcDbArc
 50
0.0
 51
103.6571280148
  0
LINE
  5
1B1
330
1F
100
AcDbEntity
  8
0
  6
Continuous
 62
     7
370
    25
100
AcDbLine
 10
6270.7690106069
 20
4363.7647394881
 30
0.0
 11
6270.7690106069
 21
4372.7594827161
 31
0.0
  0
ARC
  5
1B2
330
1F
100
AcDbEntity
  8
0
  6
Continuous
 62
     7
370
    25
100
AcDbCircle
 10
6274.019010674
 20
4355.2684147701
 30
0.0
 40
18.99999999999966
100
AcDbArc
 50
103.6571280148
 51
136.3428719852
  0
ARC
  5
1B3
330
1F
100
AcDbEntity
  8
0
  6
Continuous
 62
     7
370
    25
100
AcDbCircle
 10
6278.269010674
 20
4372.7594839198
 30
0.0
 40
0.9999999999998413
100
AcDbArc
 50
76.3428719852
 51
180.0
  0
LINE
  5
1B4
330
1F
100
AcDbEntity
  8
0
  6
Continuous
 62
     7
370
    25
100
AcDbLine
 10
6277.269010741
 20
4372.7594827161
 30
0.0
 11
6277.269010741
 21
4363.7647394881
 31
0.0
  0
CIRCLE
  5
1B5
330
1F
100
AcDbEntity
  8
0
  6
Continuous
 62
     7
370
    25
100
AcDbCircle
 10
6274.019010674
 20
4355.2684147701
 30
0.0
 40
5.682050807568885
  0
SPLINE
  5
1B6
330
1F
100
AcDbEntity
  8
0
  6
Continuous
 62
     7
370
    25
100
AcDbSpline
210
0.0
220
0.0
230
1.0
 70
    11
 71
     3
 72
   203
 73
   199
 74
     0
 42
0.000000001
 43
0.00000001
 40
0.0
 40
0.0
 40
0.0
 40
0.0
 40
0.0078125
 40
0.0078125
 40
0.01171875
 40
0.01171875
 40
0.015625
 40
0.015625
 40
0.03125
 40
0.03125
 40
0.0468750000000001
 40
0.0468750000000001
 40
0.05078125
 40
0.05078125
 40
0.0546875
 40
0.0546875
 40
0.0625000000000001
 40
0.0625000000000001
 40
0.0781250000000001
 40
0.0781250000000001
 40
0.0859375000000001
 40
0.0859375000000001
 40
0.0898437500000001
 40
0.0898437500000001
 40
0.0937500000000001
 40
0.0937500000000001
 40
0.1015625000000002
 40
0.1015625000000002
 40
0.1093750000000002
 40
0.1093750000000002
 40
0.1250000000000003
 40
0.1250000000000003
 40
0.1406250000000004
 40
0.1406250000000004
 40
0.1445312500000004
 40
0.1445312500000004
 40
0.1484375000000004
 40
0.1484375000000004
 40
0.1562500000000005
 40
0.1562500000000005
 40
0.1875000000000007
 40
0.1875000000000007
 40
0.2031250000000009
 40
0.2031250000000009
 40
0.2109375000000009
 40
0.2109375000000009
 40
0.2148437500000009
 40
0.2148437500000009
 40
0.218750000000001
 40
0.218750000000001
 40
0.2500000000000012
 40
0.2500000000000012
 40
0.2812500000000014
 40
0.2812500000000014
 40
0.2851562500000014
 40
0.2851562500000014
 40
0.2890625000000014
 40
0.2968750000000014
 40
0.2968750000000014
 40
0.3125000000000014
 40
0.3125000000000014
 40
0.3437500000000016
 40
0.3437500000000016
 40
0.3593750000000017
 40
0.3593750000000017
 40
0.3632812500000017
 40
0.3632812500000017
 40
0.3671875000000017
 40
0.3671875000000017
 40
0.3750000000000017
 40
0.3750000000000017
 40
0.4062500000000018
 40
0.4062500000000018
 40
0.4140625000000018
 40
0.4140625000000018
 40
0.4179687500000018
 40
0.4179687500000018
 40
0.4218750000000018
 40
0.4218750000000018
 40
0.4375000000000018
 40
0.4375000000000018
 40
0.4531250000000019
 40
0.4531250000000019
 40
0.4570312500000019
 40
0.4570312500000019
 40
0.4609375000000018
 40
0.4609375000000018
 40
0.4687500000000019
 40
0.4687500000000019
 40
0.484375000000002
 40
0.484375000000002
 40
0.4921875000000021
 40
0.4921875000000021
 40
0.4960937500000021
 40
0.4960937500000021
 40
0.5000000000000021
 40
0.5000000000000021
 40
0.5039062500000021
 40
0.5039062500000021
 40
0.5078125000000021
 40
0.5078125000000021
 40
0.5156250000000021
 40
0.5156250000000021
 40
0.5312500000000022
 40
0.5312500000000022
 40
0.5351562500000022
 40
0.5351562500000022
 40
0.5390625000000022
 40
0.5390625000000022
 40
0.5468750000000023
 40
0.5468750000000023
 40
0.5625000000000024
 40
0.5625000000000024
 40
0.5703125000000026
 40
0.5703125000000026
 40
0.5781250000000027
 40
0.5781250000000027
 40
0.5937500000000027
 40
0.5937500000000027
 40
0.6093750000000028
 40
0.6093750000000028
 40
0.6171875000000028
 40
0.6171875000000028
 40
0.6210937500000028
 40
0.6210937500000028
 40
0.6250000000000028
 40
0.6250000000000028
 40
0.6406250000000028
 40
0.6406250000000028
 40
0.6562500000000028
 40
0.6562500000000028
 40
0.6875000000000028
 40
0.6875000000000028
 40
0.6914062500000028
 40
0.6914062500000028
 40
0.6953125000000028
 40
0.6953125000000028
 40
0.7031250000000027
 40
0.7031250000000027
 40
0.7187500000000024
 40
0.7187500000000024
 40
0.750000000000002
 40
0.750000000000002
 40
0.753906250000002
 40
0.753906250000002
 40
0.757812500000002
 40
0.757812500000002
 40
0.7656250000000019
 40
0.7656250000000019
 40
0.7812500000000017
 40
0.7812500000000017
 40
0.8125000000000013
 40
0.8125000000000013
 40
0.8281250000000011
 40
0.8281250000000011
 40
0.8320312500000011
 40
0.8320312500000011
 40
0.8359375000000011
 40
0.8359375000000011
 40
0.8437500000000011
 40
0.8437500000000011
 40
0.859375000000001
 40
0.859375000000001
 40
0.8750000000000009
 40
0.8750000000000009
 40
0.8906250000000008
 40
0.8906250000000008
 40
0.8945312500000007
 40
0.8945312500000007
 40
0.8984375000000006
 40
0.8984375000000006
 40
0.9062500000000006
 40
0.9062500000000006
 40
0.9218750000000003
 40
0.9218750000000003
 40
0.9296875000000003
 40
0.9296875000000003
 40
0.9375000000000003
 40
0.9375000000000003
 40
0.9414062500000003
 40
0.9414062500000003
 40
0.9453125000000003
 40
0.9453125000000003
 40
0.9531250000000003
 40
0.9531250000000003
 40
0.9687500000000002
 40
0.9687500000000002
 40
0.9765625000000001
 40
0.9765625000000001
 40
0.9804687500000001
 40
0.9804687500000001
 40
0.9843750000000001
 40
0.9843750000000001
 40
0.9921875
 40
0.9921875
 40
0.99609375
 40
0.99609375
 40
1.0
 40
1.0
 40
1.0
 40
1.0
 10
6524.000205281369
 20
4279.93857054079
 30
0.0
 10
6524.010934683073
 20
4283.600751807195
 30
0.0
 10
6523.883791389593
 20
4287.253265107827
 30
0.0
 10
6523.486390210632
 20
4292.71754172143
 30
0.0
 10
6523.319580949234
 20
4294.536559101319
 30
0.0
 10
6522.918724434942
 20
4298.169878971033
 30
0.0
 10
6522.684445679001
 20
4299.985788181827
 30
0.0
 10
6521.34600884238
 20
4309.035539231614
 30
0.0
 10
6519.749614360295
 20
4316.109500552258
 30
0.0
 10
6515.586490319764
 20
4329.951285213357
 30
0.0
 10
6513.018554111627
 20
4336.718727859236
 30
0.0
 10
6509.221594294805
 20
4344.992821841948
 30
0.0
 10
6508.432535119324
 20
4346.638775992725
 30
0.0
 10
6506.796394863259
 20
4349.910356391741
 30
0.0
 10
6505.953109664411
 20
4351.528476425928
 30
0.0
 10
6503.349968264274
 20
4356.331479454198
 30
0.0
 10
6501.516928797354
 20
4359.46507723033
 30
0.0
 10
6495.739942623766
 20
4368.671146953981
 30
0.0
 10
6491.519889985795
 20
4374.550129956421
 30
0.0
 10
6484.675514824153
 20
4383.008197026484
 30
0.0
 10
6482.307989973166
 20
4385.767239237532
 30
0.0
 10
6478.631835341905
 20
4389.818298266756
 30
0.0
 10
6477.384285508419
 20
4391.155387508367
 30
0.0
 10
6474.861686052088
 20
4393.786664194795
 30
0.0
 10
6473.585302957334
 20
4395.082398882586
 30
0.0
 10
6469.71217606225
 20
4398.911571126151
 30
0.0
 10
6467.07103224237
 20
4401.386419461495
 30
0.0
 10
6461.680033239191
 20
4406.192663176565
 30
0.0
 10
6458.929716459126
 20
4408.523449444064
 30
0.0
 10
6450.519609850096
 20
4415.305789381448
 30
0.0
 10
6444.70046520801
 20
4419.547062191857
 30
0.0
 10
6432.670556248349
 20
4427.512835709355
 30
0.0
 10
6426.46092677201
 20
4431.238833926221
 30
0.0
 10
6418.467109132932
 20
4435.590479219142
 30
0.0
 10
6416.856804808898
 20
4436.44535573997
 30
0.0
 10
6413.627876871805
 20
4438.116940585835
 30
0.0
 10
6412.007409265116
 20
4438.934650453612
 30
0.0
 10
6407.128407375346
 20
4441.33477284013
 30
0.0
 10
6403.852271775867
 20
4442.864171375175
 30
0.0
 10
6387.359889780041
 20
4450.174719103988
 30
0.0
 10
6373.812957322881
 20
4454.959864076165
 30
0.0
 10
6353.014846086351
 20
4460.698743392529
 30
0.0
 10
6346.002803981382
 20
4462.372741350654
 30
0.0
 10
6335.366646674329
 20
4464.528046634985
 30
0.0
 10
6331.801568343893
 20
4465.187169056414
 30
0.0
 10
6326.424518802272
 20
4466.087205341397
 30
0.0
 10
6324.627853073153
 20
4466.37231925241
 30
0.0
 10
6321.03724525391
 20
4466.911226618223
 30
0.0
 10
6319.241771958843
 20
4467.165282506799
 30
0.0
 10
6303.081000433194
 20
4469.314350647324
 30
0.0
 10
6288.705209113901
 20
4470.255500405113
 30
0.0
 10
6259.933197582782
 20
4470.280734291342
 30
0.0
 10
6245.536976783419
 20
4469.364765010673
 30
0.0
 10
6229.329181290305
 20
4467.239171978079
 30
0.0
 10
6227.526903489789
 20
4466.987467041295
 30
0.0
 10
6223.934740999473
 20
4466.454869058565
 30
0.0
 10
6218.561207595248
 20
4465.61174652554
 30
0.0
 10
6213.231804524537
 20
4464.635949300645
 30
0.0
 10
6202.631816570113
 20
4462.507522177849
 30
0.0
 10
6195.643510622623
 20
4460.853009006947
 30
0.0
 10
6174.913979341473
 20
4455.181796630563
 30
0.0
 10
6161.410459991363
 20
4450.450451384347
 30
0.0
 10
6141.680038605669
 20
4441.775486555515
 30
0.0
 10
6135.191576357049
 20
4438.618229048729
 30
0.0
 10
6127.202187879924
 20
4434.307310100101
 30
0.0
 10
6125.61037473227
 20
4433.42689368119
 30
0.0
 10
6122.439233834408
 20
4431.6285243888
 30
0.0
 10
6120.86301880332
 20
4430.712295343002
 30
0.0
 10
6116.175414967684
 20
4427.918923732209
 30
0.0
 10
6113.100257838194
 20
4425.993807151792
 30
0.0
 10
6097.973189610619
 20
4416.054941950534
 30
0.0
 10
6086.678698681897
 20
4407.087153471088
 30
0.0
 10
6073.739356709925
 20
4394.392647303309
 30
0.0
 10
6071.210741737762
 20
4391.779110974394
 30
0.0
 10
6067.512540897997
 20
4387.739495954107
 30
0.0
 10
6066.296487928424
 20
4386.37382220791
 30
0.0
 10
6063.91174215989
 20
4383.618049212337
 30
0.0
 10
6062.741263834695
 20
4382.225986982517
 30
0.0
 10
6056.999766715735
 20
4375.19387667956
 30
0.0
 10
6052.760965553599
 20
4369.338732787081
 30
0.0
 10
6045.027118183747
 20
4357.146897467975
 30
0.0
 10
6041.534449249418
 20
4350.808666864863
 30
0.0
 10
6037.687783681347
 20
4342.549739240511
 30
0.0
 10
6036.943925207255
 20
4340.880091731598
 30
0.0
 10
6035.511316265318
 20
4337.510863815822
 30
0.0
 10
6034.825710675396
 20
4335.81877568109
 30
0.0
 10
6032.861069648783
 20
4330.720069488092
 30
0.0
 10
6031.674661759369
 20
4327.290899641444
 30
0.0
 10
6028.488833500072
 20
4316.912480490995
 30
0.0
 10
6026.861499340365
 20
4309.872640323912
 30
0.0
 10
6025.208165881463
 20
4299.121108644312
 30
0.0
 10
6024.787132503925
 20
4295.50559505294
 30
0.0
 10
6024.353804700999
 20
4290.034064006203
 30
0.0
 10
6024.242689130016
 20
4288.20290695795
 30
0.0
 10
6024.08909073678
 20
4284.542745495024
 30
0.0
 10
6024.046407639434
 20
4282.711487790872
 30
0.0
 10
6024.030832695814
 20
4279.046564651372
 30
0.0
 10
6024.058153051631
 20
4277.217241184106
 30
0.0
 10
6024.181257071595
 20
4273.573491124879
 30
0.0
 10
6024.277018786127
 20
4271.757667525328
 30
0.0
 10
6024.664670179732
 20
4266.327950733915
 30
0.0
 10
6025.056754037913
 20
4262.731781111299
 30
0.0
 10
6026.622308424813
 20
4252.012136876236
 30
0.0
 10
6028.187064021282
 20
4244.957877542098
 30
0.0
 10
6030.779739584545
 20
4236.252686136808
 30
0.0
 10
6031.330335186303
 20
4234.517319106352
 30
0.0
 10
6032.495380556024
 20
4231.057880349683
 30
0.0
 10
6033.110987848594
 20
4229.330710128283
 30
0.0
 10
6035.041278995166
 20
4224.19998047335
 30
0.0
 10
6036.440817831927
 20
4220.841346624722
 30
0.0
 10
6040.962118275028
 20
4210.942576582134
 30
0.0
 10
6044.406052673276
 20
4204.579291309921
 30
0.0
 10
6050.16515761209
 20
4195.359991636981
 30
0.0
 10
6052.183498869245
 20
4192.3410381747
 30
0.0
 10
6056.413972477688
 20
4186.409509363013
 30
0.0
 10
6058.631714091373
 20
4183.490284189546
 30
0.0
 10
6065.487821667508
 20
4174.988170742795
 30
0.0
 10
6070.347634784376
 20
4169.63092157313
 30
0.0
 10
6080.582984957579
 20
4159.470953357124
 30
0.0
 10
6085.95822898194
 20
4154.667919229311
 30
0.0
 10
6094.380724849885
 20
4147.850058589453
 30
0.0
 10
6097.248368021377
 20
4145.6421085641
 30
0.0
 10
6101.637163932376
 20
4142.424086003267
 30
0.0
 10
6103.114648275526
 20
4141.367059197557
 30
0.0
 10
6106.098377046369
 20
4139.283929753135
 30
0.0
 10
6107.606322250598
 20
4138.256705577099
 30
0.0
 10
6115.196185894504
 20
4133.211415847187
 30
0.0
 10
6121.403991775164
 20
4129.479174394103
 30
0.0
 10
6134.065370063397
 20
4122.564378180144
 30
0.0
 10
6140.519951025409
 20
4119.38407917379
 30
0.0
 10
6160.22602958133
 20
4110.608857466039
 30
0.0
 10
6173.816060281798
 20
4105.771105181157
 30
0.0
 10
6189.583180461137
 20
4101.398489628831
 30
0.0
 10
6191.342629100965
 20
4100.927551069803
 30
0.0
 10
6194.862475821419
 20
4100.018597073989
 30
0.0
 10
6196.624305402163
 20
4099.580084694522
 30
0.0
 10
6201.915457150046
 20
4098.311975292634
 30
0.0
 10
6205.450442836812
 20
4097.529810311303
 30
0.0
 10
6216.077589349833
 20
4095.369152285419
 30
0.0
 10
6223.191947198176
 20
4094.176559552475
 30
0.0
 10
6244.619802578291
 20
4091.308830183612
 30
0.0
 10
6259.017551077989
 20
4090.339296359169
 30
0.0
 10
6275.342570472872
 20
4090.316823039186
 30
0.0
 10
6277.158240880189
 20
4090.329228192625
 30
0.0
 10
6280.793148634157
 20
4090.383911656857
 30
0.0
 10
6282.612872304464
 20
4090.426218311206
 30
0.0
 10
6288.058974076727
 20
4090.597399169601
 30
0.0
 10
6291.678326550678
 20
4090.770487639626
 30
0.0
 10
6302.502262624792
 20
4091.466528389385
 30
0.0
 10
6309.672562682395
 20
4092.167096305172
 30
0.0
 10
6331.048457126002
 20
4094.968235603008
 30
0.0
 10
6345.11952437711
 20
4097.765763041714
 30
0.0
 10
6365.939868196445
 20
4103.445090243164
 30
0.0
 10
6372.831683692146
 20
4105.588426580747
 30
0.0
 10
6381.382008691636
 20
4108.601469378129
 30
0.0
 10
6383.088861342001
 20
4109.220720427345
 30
0.0
 10
6386.496023927975
 20
4110.493118919105
 30
0.0
 10
6388.198001621053
 20
4111.146945772613
 30
0.0
 10
6393.275290744231
 20
4113.153095805404
 30
0.0
 10
6396.625178441755
 20
4114.551293554501
 30
0.0
 10
6406.56834576185
 20
4118.930926355229
 30
0.0
 10
6413.054776111122
 20
4122.098015178417
 30
0.0
 10
6425.727407429471
 20
4128.953850249737
 30
0.0
 10
6431.914701182544
 20
4132.640697753364
 30
0.0
 10
6443.970517026202
 20
4140.568267949292
 30
0.0
 10
6449.836952287685
 20
4144.812616568855
 30
0.0
 10
6456.946694406983
 20
4150.50604609691
 30
0.0
 10
6458.359294498386
 20
4151.665714563064
 30
0.0
 10
6461.149080054106
 20
4154.014582056378
 30
0.0
 10
6462.526853687397
 20
4155.204165990224
 30
0.0
 10
6466.60802457836
 20
4158.81906977055
 30
0.0
 10
6469.258864945482
 20
4161.290901679985
 30
0.0
 10
6477.000881008538
 20
4168.892691222329
 30
0.0
 10
6481.878289424706
 20
4174.211829704228
 30
0.0
 10
6488.72486053332
 20
4182.606074653642
 30
0.0
 10
6490.928873188886
 20
4185.473342412368
 30
0.0
 10
6495.174234913499
 20
4191.351832773753
 30
0.0
 10
6497.216287544465
 20
4194.362432734629
 30
0.0
 10
6500.149119587804
 20
4198.993599239351
 30
0.0
 10
6501.104669851982
 20
4200.556050056703
 30
0.0
 10
6502.958464185385
 20
4203.697922238964
 30
0.0
 10
6503.858430233205
 20
4205.28001217737
 30
0.0
 10
6506.476710314409
 20
4210.06008509617
 30
0.0
 10
6508.112842958144
 20
4213.292104488977
 30
0.0
 10
6512.686948062521
 20
4223.126614068241
 30
0.0
 10
6515.291529937072
 20
4229.867181981672
 30
0.0
 10
6518.480360374699
 20
4240.275419750028
 30
0.0
 10
6519.42380856813
 20
4243.794322751425
 30
0.0
 10
6520.65409137189
 20
4249.14925146133
 30
0.0
 10
6521.031851271495
 20
4250.941367533493
 30
0.0
 10
6521.719518383234
 20
4254.530106336283
 30
0.0
 10
6522.029505962572
 20
4256.328314570601
 30
0.0
 10
6522.8576693298
 20
4261.734485425156
 30
0.0
 10
6523.275390747915
 20
4265.353841646095
 30
0.0
 10
6523.699811496665
 20
4270.805805254032
 30
0.0
 10
6523.80755673637
 20
4272.626951947552
 30
0.0
 10
6523.955068617554
 20
4276.276955511921
 30
0.0
 10
6523.994840580517
 20
4278.107479907588
 30
0.0
 10
6524.000205281369
 20
4279.938570540789
 30
0.0
  0
SPLINE
  5
1B7
330
1F
100
AcDbEntity
  8
0
  6
Continuous
 62
     7
370
    25
100
AcDbSpline
210
0.0
220
0.0
230
1.0
 70
    11
 71
     3
 72
   200
 73
   196
 74
     0
 42
0.000000001
 43
0.00000001
 40
0.0
 40
0.0
 40
0.0
 40
0.0
 40
0.0156250000000001
 40
0.0156250000000001
 40
0.0234375000000001
 40
0.0234375000000001
 40
0.0273437500000001
 40
0.0273437500000001
 40
0.0312500000000002
 40
0.0312500000000002
 40
0.0468750000000003
 40
0.0468750000000003
 40
0.0546875000000003
 40
0.0546875000000003
 40
0.0585937500000004
 40
0.0585937500000004
 40
0.0625000000000004
 40
0.0625000000000004
 40
0.0703125000000004
 40
0.0703125000000004
 40
0.0781250000000004
 40
0.0781250000000004
 40
0.0937500000000005
 40
0.0937500000000005
 40
0.1015625000000006
 40
0.1015625000000006
 40
0.1054687500000006
 40
0.1054687500000006
 40
0.1093750000000006
 40
0.1093750000000006
 40
0.1250000000000008
 40
0.1250000000000008
 40
0.140625000000001
 40
0.140625000000001
 40
0.1562500000000012
 40
0.1562500000000012
 40
0.1640625000000013
 40
0.1640625000000013
 40
0.1679687500000013
 40
0.1679687500000013
 40
0.1718750000000014
 40
0.1718750000000014
 40
0.1875000000000016
 40
0.1875000000000016
 40
0.2187500000000021
 40
0.2187500000000021
 40
0.2343750000000023
 40
0.2343750000000023
 40
0.2421875000000024
 40
0.2421875000000024
 40
0.2460937500000025
 40
0.2460937500000025
 40
0.2500000000000026
 40
0.2500000000000026
 40
0.281250000000003
 40
0.281250000000003
 40
0.2968750000000032
 40
0.2968750000000032
 40
0.3046875000000034
 40
0.3046875000000034
 40
0.3085937500000034
 40
0.3085937500000034
 40
0.3125000000000034
 40
0.3125000000000034
 40
0.3437500000000036
 40
0.3437500000000036
 40
0.3593750000000036
 40
0.3593750000000036
 40
0.3750000000000037
 40
0.3750000000000037
 40
0.3828125000000038
 40
0.3828125000000038
 40
0.3906250000000039
 40
0.3906250000000039
 40
0.4062500000000041
 40
0.4062500000000041
 40
0.4218750000000042
 40
0.4218750000000042
 40
0.4257812500000043
 40
0.4257812500000043
 40
0.4296875000000043
 40
0.4296875000000043
 40
0.4375000000000045
 40
0.4375000000000045
 40
0.4531250000000048
 40
0.4531250000000048
 40
0.4609375000000049
 40
0.4609375000000049
 40
0.464843750000005
 40
0.464843750000005
 40
0.4687500000000051
 40
0.4687500000000051
 40
0.4843750000000053
 40
0.4843750000000053
 40
0.4921875000000053
 40
0.4921875000000053
 40
0.4960937500000054
 40
0.4960937500000054
 40
0.5000000000000054
 40
0.5000000000000054
 40
0.5039062500000054
 40
0.5039062500000054
 40
0.5078125000000054
 40
0.5078125000000054
 40
0.5156250000000057
 40
0.5156250000000057
 40
0.5312500000000058
 40
0.5312500000000058
 40
0.5390625000000059
 40
0.5390625000000059
 40
0.5429687500000059
 40
0.5429687500000059
 40
0.546875000000006
 40
0.546875000000006
 40
0.5625000000000061
 40
0.5625000000000061
 40
0.5781250000000063
 40
0.5781250000000063
 40
0.5820312500000063
 40
0.5820312500000063
 40
0.5859375000000063
 40
0.5859375000000063
 40
0.5937500000000062
 40
0.5937500000000062
 40
0.6093750000000061
 40
0.6093750000000061
 40
0.6250000000000059
 40
0.6250000000000059
 40
0.6328125000000059
 40
0.6328125000000059
 40
0.6406250000000058
 40
0.6406250000000058
 40
0.6562500000000057
 40
0.6562500000000057
 40
0.6875000000000054
 40
0.6875000000000054
 40
0.7031250000000053
 40
0.7031250000000053
 40
0.7109375000000052
 40
0.7109375000000052
 40
0.7148437500000051
 40
0.7148437500000051
 40
0.718750000000005
 40
0.718750000000005
 40
0.7500000000000047
 40
0.7500000000000047
 40
0.7812500000000042
 40
0.7812500000000042
 40
0.7851562500000041
 40
0.7851562500000041
 40
0.789062500000004
 40
0.789062500000004
 40
0.7968750000000039
 40
0.7968750000000039
 40
0.8125000000000038
 40
0.8125000000000038
 40
0.8437500000000033
 40
0.8437500000000033
 40
0.8515625000000032
 40
0.8515625000000032
 40
0.8554687500000031
 40
0.8554687500000031
 40
0.859375000000003
 40
0.859375000000003
 40
0.8750000000000029
 40
0.8750000000000029
 40
0.8906250000000027
 40
0.8906250000000027
 40
0.8984375000000027
 40
0.8984375000000027
 40
0.9062500000000026
 40
0.9062500000000026
 40
0.9101562500000024
 40
0.9101562500000024
 40
0.9140625000000023
 40
0.9140625000000023
 40
0.9218750000000021
 40
0.9218750000000021
 40
0.9375000000000018
 40
0.9375000000000018
 40
0.9453125000000016
 40
0.9453125000000016
 40
0.9492187500000014
 40
0.9492187500000014
 40
0.9531250000000013
 40
0.9531250000000013
 40
0.9687500000000009
 40
0.9687500000000009
 40
0.9843750000000003
 40
0.9843750000000003
 40
0.9882812500000003
 40
0.9882812500000003
 40
0.9921875000000002
 40
0.9921875000000002
 40
1.0
 40
1.0
 40
1.0
 40
1.0
 10
6527.500190260102
 20
4279.928316339247
 30
0.0
 10
6527.478388541192
 20
4272.486909188313
 30
0.0
 10
6526.905627142512
 20
4265.107987364438
 30
0.0
 10
6525.238410434944
 20
4254.131249821769
 30
0.0
 10
6524.545315044533
 20
4250.486990724352
 30
0.0
 10
6523.305830026869
 20
4245.046093757929
 30
0.0
 10
6522.860387580051
 20
4243.240921094656
 30
0.0
 10
6521.905649655792
 20
4239.647309408148
 30
0.0
 10
6521.39598954125
 20
4237.857681647568
 30
0.0
 10
6518.690982438012
 20
4228.965142647627
 30
0.0
 10
6516.040550210369
 20
4222.071672352037
 30
0.0
 10
6511.395580905451
 20
4212.034957823184
 30
0.0
 10
6509.73549854249
 20
4208.74006143399
 30
0.0
 10
6507.08165060228
 20
4203.871954576666
 30
0.0
 10
6506.169886978955
 20
4202.261561875573
 30
0.0
 10
6504.292791469891
 20
4199.065065987442
 30
0.0
 10
6503.326031097336
 20
4197.476723765827
 30
0.0
 10
6500.356582962956
 20
4192.765092073494
 30
0.0
 10
6498.288898958875
 20
4189.701910469396
 30
0.0
 10
6493.989973912853
 20
4183.720258547376
 30
0.0
 10
6491.758075166889
 20
4180.802370149964
 30
0.0
 10
6484.824454096044
 20
4172.259215058917
 30
0.0
 10
6479.884492952803
 20
4166.844736273111
 30
0.0
 10
6472.041369415656
 20
4159.106286827261
 30
0.0
 10
6469.355671888467
 20
4156.589908546168
 30
0.0
 10
6465.220636650335
 20
4152.909559953235
 30
0.0
 10
6463.824613326809
 20
4151.698418369065
 30
0.0
 10
6460.997757547074
 20
4149.30693347408
 30
0.0
 10
6459.565567064567
 20
4148.125560218257
 30
0.0
 10
6452.355295931029
 20
4142.324224883726
 30
0.0
 10
6446.405162670197
 20
4137.999171471872
 30
0.0
 10
6434.175678785215
 20
4129.920962530339
 30
0.0
 10
6427.898333883641
 20
4126.16432277224
 30
0.0
 10
6415.040120397434
 20
4119.178307522371
 30
0.0
 10
6408.458042945002
 20
4115.951032007732
 30
0.0
 10
6398.367125146225
 20
4111.488471456999
 30
0.0
 10
6394.967287074711
 20
4110.063833801407
 30
0.0
 10
6389.814026850649
 20
4108.019819922486
 30
0.0
 10
6388.086064510891
 20
4107.353481011078
 30
0.0
 10
6384.626320329769
 20
4106.05659666532
 30
0.0
 10
6382.893107967061
 20
4105.425455422028
 30
0.0
 10
6374.210652494711
 20
4102.35466011229
 30
0.0
 10
6367.212077236732
 20
4100.17052176047
 30
0.0
 10
6346.068389105491
 20
4094.38447729168
 30
0.0
 10
6331.777776304763
 20
4091.536187613427
 30
0.0
 10
6310.066935845374
 20
4088.687706930329
 30
0.0
 10
6302.784046331877
 20
4087.976173413773
 30
0.0
 10
6291.789785762939
 20
4087.271056193675
 30
0.0
 10
6288.113419826412
 20
4087.096163581514
 30
0.0
 10
6282.581433983943
 20
4086.924139229772
 30
0.0
 10
6280.7330359274
 20
4086.881865087492
 30
0.0
 10
6277.041228403991
 20
4086.827877368443
 30
0.0
 10
6275.197146220702
 20
4086.816136731527
 30
0.0
 10
6258.616746120899
 20
4086.847292334285
 30
0.0
 10
6243.994365547665
 20
4087.844257664029
 30
0.0
 10
6222.233103589444
 20
4090.782556547208
 30
0.0
 10
6215.008225210583
 20
4092.003783142435
 30
0.0
 10
6204.216250075097
 20
4094.215303764734
 30
0.0
 10
6200.626480216109
 20
4095.015741634739
 30
0.0
 10
6195.253394153571
 20
4096.313270663709
 30
0.0
 10
6193.464293460474
 20
4096.761924650793
 30
0.0
 10
6189.889985842745
 20
4097.691837599158
 30
0.0
 10
6188.103801295912
 20
4098.173572843274
 30
0.0
 10
6172.102325111005
 20
4102.644270982506
 30
0.0
 10
6158.312584082179
 20
4107.588233345652
 30
0.0
 10
6138.32114423285
 20
4116.554183123549
 30
0.0
 10
6131.773949875404
 20
4119.803605471806
 30
0.0
 10
6118.932500734368
 20
4126.868050177011
 30
0.0
 10
6112.637170403243
 20
4130.680667494341
 30
0.0
 10
6103.402561744641
 20
4136.865568784651
 30
0.0
 10
6100.379260227382
 20
4138.991734902927
 30
0.0
 10
6094.454180695519
 20
4143.369338047511
 30
0.0
 10
6091.550965932915
 20
4145.621913398139
 30
0.0
 10
6083.025023156107
 20
4152.577116715699
 30
0.0
 10
6077.585028305951
 20
4157.476180985121
 30
0.0
 10
6067.229627383382
 20
4167.838237152346
 30
0.0
 10
6062.314430787354
 20
4173.301454235141
 30
0.0
 10
6056.538113204087
 20
4180.525725892438
 30
0.0
 10
6055.400028447752
 20
4181.992031423923
 30
0.0
 10
6053.167576525504
 20
4184.957955232755
 30
0.0
 10
6052.075636019444
 20
4186.454245325472
 30
0.0
 10
6048.87339194905
 20
4190.983495908466
 30
0.0
 10
6046.836699037633
 20
4194.056854927018
 30
0.0
 10
6041.02654114807
 20
4203.441532624612
 30
0.0
 10
6037.55398929427
 20
4209.917996522176
 30
0.0
 10
6032.997491602233
 20
4219.990700000378
 30
0.0
 10
6031.587510275833
 20
4223.408006867277
 30
0.0
 10
6029.643471078538
 20
4228.627777410695
 30
0.0
 10
6029.024209197529
 20
4230.383129502682
 30
0.0
 10
6027.852452517649
 20
4233.898565581298
 30
0.0
 10
6027.298851206601
 20
4235.661991398478
 30
0.0
 10
6024.692188409711
 20
4244.507652055129
 30
0.0
 10
6023.120729984736
 20
4251.675052208388
 30
0.0
 10
6021.551165703749
 20
4262.565433509657
 30
0.0
 10
6021.158806334192
 20
4266.218695989081
 30
0.0
 10
6020.772350847751
 20
4271.734325590872
 30
0.0
 10
6020.677255410181
 20
4273.578832280995
 30
0.0
 10
6020.556015320543
 20
4277.280038721791
 30
0.0
 10
6020.529900394215
 20
4279.138331839328
 30
0.0
 10
6020.548374257406
 20
4282.860274037531
 30
0.0
 10
6020.592731985133
 20
4284.720033658833
 30
0.0
 10
6020.750181296436
 20
4288.4371819546
 30
0.0
 10
6020.863476041079
 20
4290.296850840165
 30
0.0
 10
6021.304093029911
 20
4295.853519338701
 30
0.0
 10
6021.731018620587
 20
4299.525547519533
 30
0.0
 10
6023.40496859327
 20
4310.445930026161
 30
0.0
 10
6025.049915074779
 20
4317.597426389676
 30
0.0
 10
6028.268933354257
 20
4328.141724813592
 30
0.0
 10
6029.467428609886
 20
4331.625945718581
 30
0.0
 10
6031.452011506297
 20
4336.806798468689
 30
0.0
 10
6032.144557108874
 20
4338.526199321159
 30
0.0
 10
6033.591617510036
 20
4341.949917143959
 30
0.0
 10
6034.343923017557
 20
4343.648813081531
 30
0.0
 10
6038.232365628675
 20
4352.04844301939
 30
0.0
 10
6041.763218417984
 20
4358.496217008185
 30
0.0
 10
6049.583636533423
 20
4370.900650229366
 30
0.0
 10
6053.87067359457
 20
4376.858946008115
 30
0.0
 10
6059.678440345878
 20
4384.016197097818
 30
0.0
 10
6060.862483278494
 20
4385.433089805208
 30
0.0
 10
6063.274999016116
 20
4388.238115755899
 30
0.0
 10
6064.504842915004
 20
4389.627755268949
 30
0.0
 10
6068.250319292144
 20
4393.743851713234
 30
0.0
 10
6070.811608390378
 20
4396.406935565324
 30
0.0
 10
6078.676299004317
 20
4404.168472518073
 30
0.0
 10
6084.159931817863
 20
4409.039956560187
 30
0.0
 10
6095.570268024654
 20
4418.224956558142
 30
0.0
 10
6101.49882825154
 20
4422.536134164382
 30
0.0
 10
6110.699918084973
 20
4428.614715513295
 30
0.0
 10
6113.817639496245
 20
4430.57707246752
 30
0.0
 10
6120.15461735183
 20
4434.373921176451
 30
0.0
 10
6123.379453426619
 20
4436.211611173689
 30
0.0
 10
6133.109140207686
 20
4441.489434643485
 30
0.0
 10
6139.694567257575
 20
4444.71052894835
 30
0.0
 10
6159.721504741647
 20
4453.560346710466
 30
0.0
 10
6173.42998485961
 20
4458.386685346391
 30
0.0
 10
6194.476877241191
 20
4464.171000252113
 30
0.0
 10
6201.572608925839
 20
4465.858359762132
 30
0.0
 10
6212.336130979464
 20
4468.028962521675
 30
0.0
 10
6215.943981945602
 20
4468.692355316106
 30
0.0
 10
6221.385790305818
 20
4469.597182762654
 30
0.0
 10
6223.204731653535
 20
4469.883748560387
 30
0.0
 10
6226.852626452536
 20
4470.426788499689
 30
0.0
 10
6228.683045148534
 20
4470.683436547823
 30
0.0
 10
6245.145525637052
 20
4472.850768206588
 30
0.0
 10
6259.76790534682
 20
4473.783364556934
 30
0.0
 10
6288.991804946366
 20
4473.752756637014
 30
0.0
 10
6303.59332468471
 20
4472.789538603906
 30
0.0
 10
6320.007783599809
 20
4470.592531129397
 30
0.0
 10
6321.83144082214
 20
4470.332828591109
 30
0.0
 10
6325.478409215547
 20
4469.78197337834
 30
0.0
 10
6327.303330991718
 20
4469.490540083667
 30
0.0
 10
6332.763030144057
 20
4468.570924006598
 30
0.0
 10
6336.382796865965
 20
4467.897523444438
 30
0.0
 10
6347.181802576801
 20
4465.695761072456
 30
0.0
 10
6354.300791344516
 20
4463.985971775086
 30
0.0
 10
6375.414797335437
 20
4458.124993639284
 30
0.0
 10
6389.165639891882
 20
4453.238537852046
 30
0.0
 10
6405.903527059279
 20
4445.773407453806
 30
0.0
 10
6409.228273184096
 20
4444.211630971505
 30
0.0
 10
6414.179438013863
 20
4441.760699280575
 30
0.0
 10
6415.823833813684
 20
4440.925677303173
 30
0.0
 10
6419.100367122172
 20
4439.218720770763
 30
0.0
 10
6420.734152305993
 20
4438.345881644454
 30
0.0
 10
6428.838350286788
 20
4433.906218461037
 30
0.0
 10
6435.132766040695
 20
4430.105222549966
 30
0.0
 10
6447.324635787972
 20
4421.979533045158
 30
0.0
 10
6453.220826795135
 20
4417.653173238163
 30
0.0
 10
6461.740755846652
 20
4410.735720144978
 30
0.0
 10
6464.526722440814
 20
4408.358649276161
 30
0.0
 10
6469.987124617123
 20
4403.457368598855
 30
0.0
 10
6472.661859436743
 20
4400.933553563833
 30
0.0
 10
6476.583729003343
 20
4397.028790234274
 30
0.0
 10
6477.876098869994
 20
4395.707519041415
 30
0.0
 10
6480.430117060316
 20
4393.024446805051
 30
0.0
 10
6481.692152529159
 20
4391.66208840175
 30
0.0
 10
6485.409409986726
 20
4387.536157372712
 30
0.0
 10
6487.803032533513
 20
4384.726297523721
 30
0.0
 10
6494.721875133402
 20
4376.11313062198
 30
0.0
 10
6498.986685204065
 20
4370.127367801853
 30
0.0
 10
6504.822984317087
 20
4360.755718829777
 30
0.0
 10
6506.674523579871
 20
4357.566049341237
 30
0.0
 10
6509.303439914284
 20
4352.677574138839
 30
0.0
 10
6510.155503998616
 20
4351.029692211294
 30
0.0
 10
6511.806350423431
 20
4347.702539845055
 30
0.0
 10
6512.602029250919
 20
4346.029581616282
 30
0.0
 10
6516.431720292679
 20
4337.617886183212
 30
0.0
 10
6519.021064981041
 20
4330.738890875074
 30
0.0
 10
6523.218142496153
 20
4316.671277877139
 30
0.0
 10
6524.826839501318
 20
4309.482964310824
 30
0.0
 10
6526.17535353375
 20
4300.288650039306
 30
0.0
 10
6526.411284989065
 20
4298.444637749227
 30
0.0
 10
6526.815018912149
 20
4294.754411390632
 30
0.0
 10
6526.982997016243
 20
4292.906922123618
 30
0.0
 10
6527.383118494253
 20
4287.357175576142
 30
0.0
 10
6527.511091119556
 20
4283.649019914713
 30
0.0
 10
6527.500190260101
 20
4279.928316339247
 30
0.0
  0
SPLINE
  5
1B8
330
1F
100
AcDbEntity
  8
0
  6
Continuous
 62
     7
370
    25
100
AcDbSpline
210
0.0
220
0.0
230
1.0
 70
     8
 71
     3
 72
    45
 73
    41
 74
     0
 42
0.000000001
 43
0.00000001
 40
0.0
 40
0.0
 40
0.0
 40
0.0
 40
0.0095947653780847
 40
0.0289629756343409
 40
0.0514600888400343
 40
0.0740363443820232
 40
0.096626948090477
 40
0.11914371237009
 40
0.1470506519155261
 40
0.1750468415615649
 40
0.2030669905271311
 40
0.2310067283426133
 40
0.2622150459732008
 40
0.2935383955987424
 40
0.3249412970245919
 40
0.3563680398760801
 40
0.3877465405377096
 40
0.4189917718396864
 40
0.4526177944251688
 40
0.4863363935633155
 40
0.5200860764940939
 40
0.5538042539524443
 40
0.5874299168749028
 40
0.6203487102997314
 40
0.6533775512579649
 40
0.6864260070397642
 40
0.7194209623948722
 40
0.7523112292054324
 40
0.7764683586272169
 40
0.8007059485888891
 40
0.824952444376098
 40
0.8491547115156896
 40
0.8732821090361373
 40
0.8932998996629425
 40
0.9133671066333787
 40
0.9334255637963935
 40
0.9534313983576841
 40
0.9722634839898954
 40
0.9911533776554183
 40
1.0
 40
1.0
 40
1.0
 40
1.0
 10
6492.149971734485
 20
4316.17214054321
 30
0.0
 10
6491.675367255765
 20
4317.836412620963
 30
0.0
 10
6490.242715449134
 20
4322.860221931296
 30
0.0
 10
6486.769764975883
 20
4331.486068065073
 30
0.0
 10
6481.675966861882
 20
4341.939740986088
 30
0.0
 10
6475.354341079001
 20
4352.3946898514
 30
0.0
 10
6468.220664243981
 20
4362.311718704399
 30
0.0
 10
6459.715232178212
 20
4372.377995461285
 30
0.0
 10
6449.709034102993
 20
4382.39601617327
 30
0.0
 10
6438.152042363184
 20
4392.189513645828
 30
0.0
 10
6425.876615098544
 20
4401.072912679855
 30
0.0
 10
6412.509834947427
 20
4409.3652458901
 30
0.0
 10
6398.065609449864
 20
4416.978144326827
 30
0.0
 10
6382.562622294729
 20
4423.832255210446
 30
0.0
 10
6366.609684272554
 20
4429.674069790523
 30
0.0
 10
6350.316783934394
 20
4434.518333249951
 30
0.0
 10
6333.792882074006
 20
4438.377791628387
 30
0.0
 10
6316.683992543237
 20
4441.348181719478
 30
0.0
 10
6299.008262749496
 20
4443.34934505161
 30
0.0
 10
6280.793021530674
 20
4444.30055672751
 30
0.0
 10
6262.536958860242
 20
4444.158614073609
 30
0.0
 10
6244.338834865805
 20
4442.923658380285
 30
0.0
 10
6226.397462531634
 20
4440.606287488757
 30
0.0
 10
6208.752701167785
 20
4437.225518915591
 30
0.0
 10
6191.44760378277
 20
4432.79911903724
 30
0.0
 10
6174.444464375423
 20
4427.277743057744
 30
0.0
 10
6157.869096364919
 20
4420.645252014539
 30
0.0
 10
6143.241952743861
 20
4413.56352934459
 30
0.0
 10
6130.489047563471
 20
4406.323774647287
 30
0.0
 10
6119.490980037664
 20
4399.194745738233
 30
0.0
 10
6108.950473674319
 20
4391.389681917785
 30
0.0
 10
6098.96848711734
 20
4382.91083212643
 30
0.0
 10
6090.161611308933
 20
4374.272405542276
 30
0.0
 10
6082.49199589595
 20
4365.587273255286
 30
0.0
 10
6075.873659292722
 20
4356.984803751566
 30
0.0
 10
6069.881537397673
 20
4347.938276876955
 30
0.0
 10
6064.671766189892
 20
4338.669249142857
 30
0.0
 10
6060.328007191604
 20
4329.204941769525
 30
0.0
 10
6057.28262256081
 20
4321.36114492068
 30
0.0
 10
6055.957837509349
 20
4316.537030464671
 30
0.0
 10
6055.535294424495
 20
4314.99836862539
 30
0.0
  0
SPLINE
  5
1B9
330
1F
100
AcDbEntity
  8
0
  6
Continuous
 62
     7
370
    25
100
AcDbSpline
210
0.0
220
0.0
230
1.0
 70
    11
 71
     3
 72
   206
 73
   202
 74
     0
 42
0.000000001
 43
0.00000001
 40
0.0
 40
0.0
 40
0.0
 40
0.0
 40
0.0156249999999999
 40
0.0156249999999999
 40
0.0195312499999999
 40
0.0195312499999999
 40
0.0234374999999999
 40
0.0234374999999999
 40
0.0312499999999998
 40
0.0312499999999998
 40
0.0468749999999997
 40
0.0468749999999997
 40
0.0507812499999997
 40
0.0507812499999997
 40
0.0546874999999997
 40
0.0546874999999997
 40
0.0624999999999997
 40
0.0624999999999997
 40
0.0781249999999996
 40
0.0781249999999996
 40
0.0820312499999996
 40
0.0820312499999996
 40
0.0859374999999996
 40
0.0859374999999996
 40
0.0937499999999995
 40
0.0937499999999995
 40
0.1093749999999994
 40
0.1093749999999994
 40
0.1249999999999994
 40
0.1249999999999994
 40
0.1328124999999993
 40
0.1328124999999993
 40
0.1367187499999993
 40
0.1367187499999993
 40
0.1406249999999993
 40
0.1406249999999993
 40
0.1562499999999992
 40
0.1562499999999992
 40
0.187499999999999
 40
0.187499999999999
 40
0.203124999999999
 40
0.203124999999999
 40
0.2109374999999989
 40
0.2109374999999989
 40
0.2187499999999989
 40
0.2187499999999989
 40
0.2343749999999988
 40
0.2343749999999988
 40
0.2499999999999987
 40
0.2499999999999987
 40
0.2812499999999986
 40
0.2812499999999986
 40
0.2890624999999985
 40
0.2890624999999985
 40
0.2968749999999984
 40
0.2968749999999984
 40
0.3124999999999984
 40
0.3124999999999984
 40
0.3437499999999983
 40
0.3437499999999983
 40
0.3593749999999982
 40
0.3593749999999982
 40
0.3671874999999982
 40
0.3671874999999982
 40
0.3710937499999981
 40
0.3710937499999981
 40
0.374999999999998
 40
0.374999999999998
 40
0.3906249999999977
 40
0.3906249999999977
 40
0.4062499999999973
 40
0.4062499999999973
 40
0.4140624999999971
 40
0.4140624999999971
 40
0.4179687499999971
 40
0.4179687499999971
 40
0.4218749999999969
 40
0.4218749999999969
 40
0.4374999999999968
 40
0.4374999999999968
 40
0.4531249999999966
 40
0.4531249999999966
 40
0.4570312499999966
 40
0.4570312499999966
 40
0.4609374999999965
 40
0.4609374999999965
 40
0.4687499999999964
 40
0.4687499999999964
 40
0.4843749999999964
 40
0.4843749999999964
 40
0.4921874999999963
 40
0.4921874999999963
 40
0.4960937499999963
 40
0.4960937499999963
 40
0.4999999999999963
 40
0.4999999999999963
 40
0.5039062499999963
 40
0.5039062499999963
 40
0.5078124999999963
 40
0.5078124999999963
 40
0.5156249999999962
 40
0.5156249999999962
 40
0.5312499999999961
 40
0.5312499999999961
 40
0.5390624999999961
 40
0.5390624999999961
 40
0.546874999999996
 40
0.546874999999996
 40
0.562499999999996
 40
0.562499999999996
 40
0.5703124999999959
 40
0.5703124999999959
 40
0.5742187499999959
 40
0.5742187499999959
 40
0.5781249999999959
 40
0.5781249999999959
 40
0.5937499999999959
 40
0.5937499999999959
 40
0.6093749999999959
 40
0.6093749999999959
 40
0.6171874999999959
 40
0.6171874999999959
 40
0.6210937499999958
 40
0.6210937499999958
 40
0.6249999999999958
 40
0.6249999999999958
 40
0.6406249999999959
 40
0.6406249999999959
 40
0.6562499999999961
 40
0.6562499999999961
 40
0.6718749999999962
 40
0.6718749999999962
 40
0.6874999999999963
 40
0.6874999999999963
 40
0.6953124999999963
 40
0.6953124999999963
 40
0.7031249999999964
 40
0.7031249999999964
 40
0.7187499999999966
 40
0.7187499999999966
 40
0.7343749999999967
 40
0.7343749999999967
 40
0.7499999999999968
 40
0.7499999999999968
 40
0.7578124999999969
 40
0.7578124999999969
 40
0.761718749999997
 40
0.761718749999997
 40
0.7656249999999971
 40
0.7656249999999971
 40
0.7812499999999972
 40
0.7812499999999972
 40
0.7968749999999973
 40
0.7968749999999973
 40
0.8124999999999974
 40
0.8124999999999974
 40
0.8281249999999976
 40
0.8281249999999976
 40
0.8359374999999977
 40
0.8359374999999977
 40
0.8398437499999978
 40
0.8398437499999978
 40
0.8437499999999978
 40
0.8437499999999978
 40
0.859374999999998
 40
0.859374999999998
 40
0.8749999999999981
 40
0.8749999999999981
 40
0.8906249999999982
 40
0.8906249999999982
 40
0.8984374999999982
 40
0.8984374999999982
 40
0.9023437499999983
 40
0.9023437499999983
 40
0.9062499999999984
 40
0.9062499999999984
 40
0.9218749999999986
 40
0.9218749999999986
 40
0.9374999999999987
 40
0.9374999999999987
 40
0.9414062499999988
 40
0.9414062499999988
 40
0.9453124999999989
 40
0.9453124999999989
 40
0.9531249999999991
 40
0.9531249999999991
 40
0.9687499999999994
 40
0.9687499999999994
 40
0.9765624999999996
 40
0.9765624999999996
 40
0.9804687499999997
 40
0.9804687499999997
 40
0.9843749999999998
 40
0.9843749999999998
 40
0.9921874999999999
 40
0.9921874999999999
 40
0.99609375
 40
0.99609375
 40
0.998046875
 40
0.998046875
 40
1.0
 40
1.0
 40
1.0
 40
1.0
 10
6047.153782803147
 20
4280.239679213924
 30
0.0
 10
6047.097416495168
 20
4286.801311894279
 30
0.0
 10
6047.560504249057
 20
4293.325051023241
 30
0.0
 10
6048.78502027132
 20
4301.432625078814
 30
0.0
 10
6049.061467571522
 20
4303.047024095139
 30
0.0
 10
6049.674393645212
 20
4306.253282808807
 30
0.0
 10
6050.01107997871
 20
4307.846533792092
 30
0.0
 10
6051.109815208179
 20
4312.597303242071
 30
0.0
 10
6051.960496605731
 20
4315.725852501027
 30
0.0
 10
6054.856633178573
 20
4324.999034946728
 30
0.0
 10
6057.242915211616
 20
4331.032270126325
 30
0.0
 10
6060.770377604174
 20
4338.395810370414
 30
0.0
 10
6061.504615960617
 20
4339.862066839198
 30
0.0
 10
6063.020112965543
 20
4342.762614372064
 30
0.0
 10
6063.800983397281
 20
4344.196445915237
 30
0.0
 10
6066.210648240149
 20
4348.450258130889
 30
0.0
 10
6067.906405081584
 20
4351.222621183916
 30
0.0
 10
6073.246621366488
 20
4359.359838212977
 30
0.0
 10
6077.145481935956
 20
4364.543785134846
 30
0.0
 10
6082.41299626259
 20
4370.743585300962
 30
0.0
 10
6083.48605680346
 20
4371.969637685565
 30
0.0
 10
6085.670867674921
 20
4374.394229778259
 30
0.0
 10
6086.784057896258
 20
4375.594261835359
 30
0.0
 10
6090.170295079365
 20
4379.142646996812
 30
0.0
 10
6092.483748538363
 20
4381.433482258556
 30
0.0
 10
6099.579176217673
 20
4388.098846920475
 30
0.0
 10
6104.516993526829
 20
4392.265198890574
 30
0.0
 10
6114.760761242822
 20
4400.106145366463
 30
0.0
 10
6120.065604910857
 20
4403.782218269797
 30
0.0
 10
6128.277131173945
 20
4408.956682458666
 30
0.0
 10
6131.056949189461
 20
4410.624541266512
 30
0.0
 10
6135.288538572119
 20
4413.043692852617
 30
0.0
 10
6136.709375666473
 20
4413.836308075511
 30
0.0
 10
6139.571274949531
 20
4415.3945215506
 30
0.0
 10
6141.013510620757
 20
4416.160742990066
 30
0.0
 10
6148.244490306658
 20
4419.909883548452
 30
0.0
 10
6154.112048806604
 20
4422.65737140864
 30
0.0
 10
6171.94076483262
 20
4430.212154734063
 30
0.0
 10
6184.124501392645
 20
4434.342300798486
 30
0.0
 10
6202.800936328982
 20
4439.318079525057
 30
0.0
 10
6209.093942662973
 20
4440.771232780681
 30
0.0
 10
6218.633266559858
 20
4442.647298580513
 30
0.0
 10
6221.829621692006
 20
4443.222211200568
 30
0.0
 10
6228.255707250335
 20
4444.270499202627
 30
0.0
 10
6231.473660362795
 20
4444.741805300586
 30
0.0
 10
6241.122404489878
 20
4445.997183526705
 30
0.0
 10
6247.55653571873
 20
4446.625077284941
 30
0.0
 10
6260.427985098465
 20
4447.473471622374
 30
0.0
 10
6266.865314919432
 20
4447.692480382031
 30
0.0
 10
6286.182090336983
 20
4447.73770465796
 30
0.0
 10
6299.066302992019
 20
4446.954533725865
 30
0.0
 10
6315.179717944252
 20
4444.933843483396
 30
0.0
 10
6318.408250759632
 20
4444.476094220987
 30
0.0
 10
6324.826094430554
 20
4443.459699206074
 30
0.0
 10
6328.018022855964
 20
4442.900947163607
 30
0.0
 10
6337.543345268573
 20
4441.074566570425
 30
0.0
 10
6343.826092240593
 20
4439.656265712362
 30
0.0
 10
6362.469145239725
 20
4434.790939468108
 30
0.0
 10
6374.627343634634
 20
4430.74265410304
 30
0.0
 10
6392.415884806943
 20
4423.335198413479
 30
0.0
 10
6398.269846642069
 20
4420.64128347028
 30
0.0
 10
6406.926456545991
 20
4416.230527121822
 30
0.0
 10
6409.791376769605
 20
4414.698942226084
 30
0.0
 10
6414.055767181524
 20
4412.303421529392
 30
0.0
 10
6415.472893868804
 20
4411.487753472774
 30
0.0
 10
6418.282437422876
 20
4409.83025422519
 30
0.0
 10
6419.676268153888
 20
4408.987661933978
 30
0.0
 10
6426.589898908624
 20
4404.704452620282
 30
0.0
 10
6431.943767858889
 20
4401.053898754489
 30
0.0
 10
6442.274608547896
 20
4393.275938742079
 30
0.0
 10
6447.250275663293
 20
4389.146881979332
 30
0.0
 10
6454.395774650563
 20
4382.550959474899
 30
0.0
 10
6456.724720674273
 20
4380.285405772401
 30
0.0
 10
6460.133237611798
 20
4376.779656649717
 30
0.0
 10
6461.255199874588
 20
4375.5930949812
 30
0.0
 10
6463.469566534267
 20
4373.18257488096
 30
0.0
 10
6464.559309819871
 20
4371.961430203251
 30
0.0
 10
6469.901532255785
 20
4365.795730201887
 30
0.0
 10
6473.85203112633
 20
4360.651211926744
 30
0.0
 10
6481.064166375851
 20
4349.910521945646
 30
0.0
 10
6484.33033202716
 20
4344.317319861951
 30
0.0
 10
6487.939407536272
 20
4337.015280220716
 30
0.0
 10
6488.637415646051
 20
4335.539263212624
 30
0.0
 10
6489.984303872538
 20
4332.555018375135
 30
0.0
 10
6490.633447141397
 20
4331.045805876017
 30
0.0
 10
6492.490210756162
 20
4326.505134071075
 30
0.0
 10
6493.612745339561
 20
4323.449082070811
 30
0.0
 10
6496.630009414529
 20
4314.193005397808
 30
0.0
 10
6498.174463315298
 20
4307.905076135381
 30
0.0
 10
6499.760579968645
 20
4298.289841044879
 30
0.0
 10
6500.1669133545
 20
4295.054052362821
 30
0.0
 10
6500.583425958303
 20
4290.151937518481
 30
0.0
 10
6500.689941844405
 20
4288.511479440906
 30
0.0
 10
6500.83741382307
 20
4285.232675788566
 30
0.0
 10
6500.878564035455
 20
4283.592215219345
 30
0.0
 10
6500.895688028243
 20
4280.309176436303
 30
0.0
 10
6500.871523212176
 20
4278.665748258974
 30
0.0
 10
6500.758697993032
 20
4275.396603308215
 30
0.0
 10
6500.670096099601
 20
4273.768445877529
 30
0.0
 10
6500.309089053185
 20
4268.902946390868
 30
0.0
 10
6499.941033857928
 20
4265.68466655755
 30
0.0
 10
6498.470200359571
 20
4256.102900787885
 30
0.0
 10
6497.004052745533
 20
4249.811831199167
 30
0.0
 10
6494.091581880453
 20
4240.517371235358
 30
0.0
 10
6493.001886139416
 20
4237.44290809501
 30
0.0
 10
6490.586740517208
 20
4231.340965566804
 30
0.0
 10
6489.275753968192
 20
4228.349883432142
 30
0.0
 10
6485.050111087786
 20
4219.546559837553
 30
0.0
 10
6481.84263007994
 20
4213.904127625032
 30
0.0
 10
6476.500755240789
 20
4205.748294184874
 30
0.0
 10
6474.631256975504
 20
4203.081235583778
 30
0.0
 10
6471.697131830771
 20
4199.15598557376
 30
0.0
 10
6470.696020718448
 20
4197.858330911453
 30
0.0
 10
6468.658358033834
 20
4195.296757793213
 30
0.0
 10
6467.623042618799
 20
4194.034258276764
 30
0.0
 10
6462.367176011777
 20
4187.809722636724
 30
0.0
 10
6457.909969822399
 20
4183.110226002462
 30
0.0
 10
6448.547610005163
 20
4174.208175089027
 30
0.0
 10
6443.642348083725
 20
4170.005740948201
 30
0.0
 10
6435.975303588076
 20
4164.045055267496
 30
0.0
 10
6433.367933181094
 20
4162.11550250018
 30
0.0
 10
6429.381742187846
 20
4159.304526776104
 30
0.0
 10
6428.040482109728
 20
4158.381435074811
 30
0.0
 10
6425.3332177865
 20
4156.562702269243
 30
0.0
 10
6423.965568456326
 20
4155.666031101183
 30
0.0
 10
6417.093555517598
 20
4151.267915542006
 30
0.0
 10
6411.481360790692
 20
4148.015519192123
 30
0.0
 10
6400.050529492966
 20
4141.990140623408
 30
0.0
 10
6394.231795545433
 20
4139.217384539805
 30
0.0
 10
6382.402786342212
 20
4134.116683405425
 30
0.0
 10
6376.392483843294
 20
4131.788801620844
 30
0.0
 10
6364.18932146371
 20
4127.556985963017
 30
0.0
 10
6357.996355834087
 20
4125.653297667624
 30
0.0
 10
6348.57263084549
 20
4123.109591894554
 30
0.0
 10
6345.406813027648
 20
4122.313428072437
 30
0.0
 10
6339.073858918263
 20
4120.834218121064
 30
0.0
 10
6335.901529765138
 20
4120.149671855507
 30
0.0
 10
6326.367461459236
 20
4118.256735991068
 30
0.0
 10
6319.988688346123
 20
4117.208608201775
 30
0.0
 10
6307.187218768424
 20
4115.525599786544
 30
0.0
 10
6300.764504338896
 20
4114.890888181436
 30
0.0
 10
6287.875607061964
 20
4114.03043195077
 30
0.0
 10
6281.409427109319
 20
4113.804660090237
 30
0.0
 10
6271.677222360498
 20
4113.775865286313
 30
0.0
 10
6268.427656113538
 20
4113.817994214318
 30
0.0
 10
6263.544965535883
 20
4113.959664774069
 30
0.0
 10
6261.915765188989
 20
4114.020010102078
 30
0.0
 10
6258.665461489419
 20
4114.166477907792
 30
0.0
 10
6257.043002879188
 20
4114.252631006511
 30
0.0
 10
6248.94409790288
 20
4114.747617731692
 30
0.0
 10
6242.507745599853
 20
4115.348778495403
 30
0.0
 10
6229.719748158007
 20
4116.957431662919
 30
0.0
 10
6223.368083251999
 20
4117.964829245528
 30
0.0
 10
6210.750451947745
 20
4120.390711424902
 30
0.0
 10
6204.484505532597
 20
4121.809291878554
 30
0.0
 10
6192.041674043423
 20
4125.073670969173
 30
0.0
 10
6185.864780632578
 20
4126.919429615261
 30
0.0
 10
6176.670390470052
 20
4130.028407286919
 30
0.0
 10
6173.617431425215
 20
4131.121517303714
 30
0.0
 10
6169.056484494858
 20
4132.849884827912
 30
0.0
 10
6167.539253110183
 20
4133.440802211232
 30
0.0
 10
6164.511106369507
 20
4134.652934324189
 30
0.0
 10
6163.00109589746
 20
4135.273826494941
 30
0.0
 10
6155.498273266856
 20
4138.44229875034
 30
0.0
 10
6149.623165486913
 20
4141.190843270055
 30
0.0
 10
6138.138470648066
 20
4147.134329065537
 30
0.0
 10
6132.528836027229
 20
4150.329190379589
 30
0.0
 10
6121.593702013693
 20
4157.196604705818
 30
0.0
 10
6116.268033174772
 20
4160.86887284289
 30
0.0
 10
6108.515897802959
 20
4166.774659694739
 30
0.0
 10
6105.971370865791
 20
4168.809693781719
 30
0.0
 10
6102.217799704425
 20
4171.968529896293
 30
0.0
 10
6100.979819031068
 20
4173.037015348657
 30
0.0
 10
6098.537595343591
 20
4175.199574463458
 30
0.0
 10
6097.332283217792
 20
4176.294544020559
 30
0.0
 10
6091.38585760741
 20
4181.838826487456
 30
0.0
 10
6086.884482189001
 20
4186.495865514094
 30
0.0
 10
6078.433596026211
 20
4196.288118383706
 30
0.0
 10
6074.483962091922
 20
4201.423225486179
 30
0.0
 10
6069.935547464757
 20
4208.178844131292
 30
0.0
 10
6069.045327131066
 20
4209.546831634478
 30
0.0
 10
6067.305205502787
 20
4212.317741924851
 30
0.0
 10
6066.45439113316
 20
4213.722393476254
 30
0.0
 10
6063.981854611796
 20
4217.960835660373
 30
0.0
 10
6062.434493266946
 20
4220.827281619307
 30
0.0
 10
6058.103558988722
 20
4229.55237118453
 30
0.0
 10
6055.627944960865
 20
4235.535476891611
 30
0.0
 10
6052.575669505789
 20
4244.777338534127
 30
0.0
 10
6051.669531113028
 20
4247.902935809237
 30
0.0
 10
6050.485630972136
 20
4252.662182516935
 30
0.0
 10
6050.119662964657
 20
4254.262802586614
 30
0.0
 10
6049.450035141484
 20
4257.476428444758
 30
0.0
 10
6049.146819376138
 20
4259.086781183016
 30
0.0
 10
6048.332126911702
 20
4263.928476793499
 30
0.0
 10
6047.915415184294
 20
4267.170435792214
 30
0.0
 10
6047.484227536655
 20
4272.055093855722
 30
0.0
 10
6047.37279135719
 20
4273.686930865074
 30
0.0
 10
6047.254166744538
 20
4276.140122955118
 30
0.0
 10
6047.222716604731
 20
4276.958760097509
 30
0.0
 10
6047.176052552143
 20
4278.597853259421
 30
0.0
 10
6047.160828591645
 20
4279.419475128881
 30
0.0
 10
6047.153782803147
 20
4280.239679213924
 30
0.0
  0
CIRCLE
  5
1BA
330
1F
100
AcDbEntity
  8
0
  6
Continuous
 62
     7
370
    25
100
AcDbCircle
 10
6274.019010674
 20
4355.2684147701
 30
0.0
 40
36.80000000000018
  0
CIRCLE
  5
1BB
330
1F
100
AcDbEntity
  8
0
  6
Continuous
 62
     7
370
    25
100
AcDbCircle
 10
6274.019010674
 20
4355.2684147701
 30
0.0
 40
34.40000000000055
  0
CIRCLE
  5
1BC
330
1F
100
AcDbEntity
  8
0
  6
Continuous
 62
     7
370
    25
100
AcDbCircle
 10
6274.019010674
 20
4355.2684147701
 30
0.0
 40
32.0
  0
CIRCLE
  5
1BD
330
1F
100
AcDbEntity
  8
0
  6
Continuous
 62
     7
370
    25
100
AcDbCircle
 10
6274.019010674
 20
4355.2684147701
 30
0.0
 40
29.60000000000036
  0
CIRCLE
  5
1BE
330
1F
100
AcDbEntity
  8
0
  6
Continuous
 62
     7
370
    25
100
AcDbCircle
 10
6274.019010674
 20
4355.2684147701
 30
0.0
 40
27.20000000000073
  0
ARC
  5
1BF
330
1F
100
AcDbEntity
  8
0
  6
Continuous
 62
     7
370
    25
100
AcDbCircle
 10
6274.019010674
 20
4355.2684147701
 30
0.0
 40
18.00000000000048
100
AcDbArc
 50
220.4736196617
 51
259.5263803384
  0
ARC
  5
1C0
330
1F
100
AcDbEntity
  8
0
  6
Continuous
 62
     7
370
    25
100
AcDbCircle
 10
6274.019010674
 20
4355.2684147701
 30
0.0
 40
18.00000000000027
100
AcDbArc
 50
160.4736196616
 51
199.5263803385
  0
ARC
  5
1C1
330
1F
100
AcDbEntity
  8
0
  6
Continuous
 62
     7
370
    25
100
AcDbCircle
 10
6274.019010674
 20
4355.2684147701
 30
0.0
 40
17.99999999999968
100
AcDbArc
 50
100.4736196616
 51
139.5263803384
  0
ARC
  5
1C2
330
1F
100
AcDbEntity
  8
0
  6
Continuous
 62
     7
370
    25
100
AcDbCircle
 10
6274.019010674
 20
4355.2684147701
 30
0.0
 40
17.99999999999984
100
AcDbArc
 50
40.4736196617
 51
79.5263803384
  0
ARC
  5
1C3
330
1F
100
AcDbEntity
  8
0
  6
Continuous
 62
     7
370
    25
100
AcDbCircle
 10
6274.019010674
 20
4355.2684147701
 30
0.0
 40
18.00000000000013
100
AcDbArc
 50
340.4736196616
 51
19.5263803383
  0
ARC
  5
1C4
330
1F
100
AcDbEntity
  8
0
  6
Continuous
 62
     7
370
    25
100
AcDbCircle
 10
6274.019010674
 20
4355.2684147701
 30
0.0
 40
18.0000000000006
100
AcDbArc
 50
280.4736196616
 51
319.5263803384
  0
LINE
  5
1C5
330
1F
100
AcDbEntity
  8
0
  6
Continuous
 62
     7
370
    25
100
AcDbLine
 10
6314.0190097799
 20
4509.2684169159
 30
0.0
 11
6234.019011568
 21
4509.2684169159
 31
0.0
  0
LINE
  5
1C6
330
1F
100
AcDbEntity
  8
0
  6
Continuous
 62
     7
370
    25
100
AcDbLine
 10
6294.0190102269
 20
4474.2684204922
 30
0.0
 11
6278.5775734407
 21
4474.2684204922
 31
0.0
  0
LINE
  5
1C7
330
1F
100
AcDbEntity
  8
0
  6
Continuous
 62
     7
370
    25
100
AcDbLine
 10
6269.4743483623
 20
4474.2684204922
 30
0.0
 11
6254.019011121
 21
4474.2684204922
 31
0.0
  0
LINE
  5
1C8
330
1F
100
AcDbEntity
  8
0
  6
Continuous
 62
     7
370
    25
100
AcDbLine
 10
6294.0190102269
 20
4519.2684073791
 30
0.0
 11
6254.019011121
 21
4519.2684073791
 31
0.0
  0
LINE
  5
1C9
330
1F
100
AcDbEntity
  8
0
  6
Continuous
 62
     7
370
    25
100
AcDbLine
 10
6270.2529689593
 20
4340.74887902
 30
0.0
 11
6270.7690106069
 21
4340.6247299955
 31
0.0
  0
ARC
  5
1CA
330
1F
100
AcDbEntity
  8
0
  6
Continuous
 62
     7
370
    25
100
AcDbCircle
 10
6274.019010674
 20
4355.2684147701
 30
0.0
 40
15.00000000000085
100
AcDbArc
 50
282.5133253629
 51
317.4866746371
  0
ARC
  5
1CB
330
1F
100
AcDbEntity
  8
0
  6
Continuous
 62
     7
370
    25
100
AcDbCircle
 10
6274.019010674
 20
4355.2684147701
 30
0.0
 40
15.00000000000032
100
AcDbArc
 50
342.5133253628
 51
17.4866746371
  0
ARC
  5
1CC
330
1F
100
AcDbEntity
  8
0
  6
Continuous
 62
     7
370
    25
100
AcDbCircle
 10
6274.019010674
 20
4355.2684147701
 30
0.0
 40
14.99999999999994
100
AcDbArc
 50
42.5133253628
 51
77.4866746371
  0
ARC
  5
1CD
330
1F
100
AcDbEntity
  8
0
  6
Continuous
 62
     7
370
    25
100
AcDbCircle
 10
6274.019010674
 20
4355.2684147701
 30
0.0
 40
14.99999999999984
100
AcDbArc
 50
102.5133253629
 51
137.4866746372
  0
ARC
  5
1CE
330
1F
100
AcDbEntity
  8
0
  6
Continuous
 62
     7
370
    25
100
AcDbCircle
 10
6274.019010674
 20
4355.2684147701
 30
0.0
 40
15.00000000000053
100
AcDbArc
 50
162.5133253629
 51
197.4866746372
  0
ARC
  5
1CF
330
1F
100
AcDbEntity
  8
0
  6
Continuous
 62
     7
370
    25
100
AcDbCircle
 10
6274.019010674
 20
4355.2684147701
 30
0.0
 40
15.00000000000034
100
AcDbArc
 50
222.5133253629
 51
255.4591948188
  0
SPLINE
  5
1D0
330
1F
100
AcDbEntity
  8
0
  6
Continuous
 62
     8
370
    25
100
AcDbSpline
210
0.0
220
0.0
230
1.0
 70
     8
 71
     3
 72
    55
 73
    51
 74
     0
 42
0.000000001
 43
0.00000001
 40
0.0
 40
0.0
 40
0.0
 40
0.0
 40
0.0192120955499994
 40
0.0384253253402719
 40
0.0560842726593217
 40
0.073059968418042
 40
0.0900663291624424
 40
0.1070477675345358
 40
0.1279353003759204
 40
0.1488950891725033
 40
0.1698719076633726
 40
0.1907827253063392
 40
0.2127754681181868
 40
0.234833325743216
 40
0.2569273889981588
 40
0.2790118281084978
 40
0.3010269414003567
 40
0.3267040681504058
 40
0.3524645840977532
 40
0.3782764339171921
 40
0.4040984986133763
 40
0.4298826386344528
 40
0.4555755667313566
 40
0.4816010047442581
 40
0.507689834339889
 40
0.5337969984955864
 40
0.5598799958256365
 40
0.5859005257175631
 40
0.6113233402591245
 40
0.6368311776943535
 40
0.6623522818965427
 40
0.687830348305823
 40
0.7132280941059235
 40
0.7321852663690469
 40
0.7512063161053196
 40
0.7702358855553882
 40
0.7892316821185986
 40
0.8081675729080243
 40
0.8243428897973218
 40
0.8405593806292807
 40
0.8567684891225388
 40
0.8729336814473712
 40
0.8904927967663565
 40
0.9081248197997309
 40
0.9257504561610788
 40
0.9433008140316689
 40
0.9593273604512673
 40
0.9755197130206313
 40
0.9917696843425841
 40
1.0
 40
1.0
 40
1.0
 40
1.0
 10
6050.5853968968
 20
4280.269157761688
 30
0.0
 10
6050.738407347598
 20
4276.126781712791
 30
0.0
 10
6051.044437282596
 20
4267.841785058139
 30
0.0
 10
6053.055049766753
 20
4255.88730607001
 30
0.0
 10
6055.994540480147
 20
4244.645228418283
 30
0.0
 10
6059.77467434294
 20
4234.158480265864
 30
0.0
 10
6064.335149743441
 20
4224.150678511508
 30
0.0
 10
6070.074685748637
 20
4213.793044707378
 30
0.0
 10
6077.150866292808
 20
4203.246928656696
 30
0.0
 10
6085.645761583442
 20
4192.679083390565
 30
0.0
 10
6094.958245419444
 20
4182.81944549292
 30
0.0
 10
6105.147904309172
 20
4173.537299420661
 30
0.0
 10
6116.17055366389
 20
4164.878919549388
 30
0.0
 10
6127.973688496528
 20
4156.858869973599
 30
0.0
 10
6140.287965299822
 20
4149.611376093002
 30
0.0
 10
6153.012557272619
 20
4143.133596105354
 30
0.0
 10
6166.798958696118
 20
4137.096223254325
 30
0.0
 10
6181.670397492239
 20
4131.625303666375
 30
0.0
 10
6197.634061780095
 20
4126.846661718928
 30
0.0
 10
6213.883208015482
 20
4123.017294597503
 30
0.0
 10
6230.330188767626
 20
4120.128108777885
 30
0.0
 10
6246.887702877754
 20
4118.170417421533
 30
0.0
 10
6263.571794221501
 20
4117.129380570565
 30
0.0
 10
6280.353857536749
 20
4117.015457510693
 30
0.0
 10
6297.205539357215
 20
4117.838221854555
 30
0.0
 10
6313.997475636764
 20
4119.602514557593
 30
0.0
 10
6330.648217884665
 20
4122.312942589178
 30
0.0
 10
6346.970851075654
 20
4125.949614189021
 30
0.0
 10
6362.930801862016
 20
4130.510756878478
 30
0.0
 10
6378.485007189443
 20
4135.992754831169
 30
0.0
 10
6393.674103613813
 20
4142.451012171638
 30
0.0
 10
6408.378429184118
 20
4149.897648952479
 30
0.0
 10
6421.306759497376
 20
4157.639166515643
 30
0.0
 10
6432.540757244262
 20
4165.428165085839
 30
0.0
 10
6442.208792127955
 20
4173.028173085928
 30
0.0
 10
6451.385933069458
 20
4181.227981036293
 30
0.0
 10
6459.980711299636
 20
4190.012058302591
 30
0.0
 10
6467.528308665595
 20
4198.920108065263
 30
0.0
 10
6474.060924331168
 20
4207.861385079164
 30
0.0
 10
6479.651705255155
 20
4216.732633202902
 30
0.0
 10
6484.592753438271
 20
4225.979789181069
 30
0.0
 10
6488.942417353632
 20
4235.838361586208
 30
0.0
 10
6492.538215858893
 20
4246.325296908036
 30
0.0
 10
6495.260624886796
 20
4257.396330744094
 30
0.0
 10
6496.980172822826
 20
4268.66616593678
 30
0.0
 10
6497.611545216966
 20
4279.702047687049
 30
0.0
 10
6497.251233533641
 20
4290.440658047212
 30
0.0
 10
6495.947397058296
 20
4300.815030330278
 30
0.0
 10
6494.243229949073
 20
4309.435968397213
 30
0.0
 10
6492.676656493241
 20
4314.477252078456
 30
0.0
 10
6492.149971734485
 20
4316.17214054321
 30
0.0
  0
SPLINE
  5
1D1
330
1F
100
AcDbEntity
  8
0
  6
Continuous
 62
     8
370
    25
100
AcDbSpline
210
0.0
220
0.0
230
1.0
 70
     8
 71
     3
 72
    11
 73
     7
 74
     0
 42
0.000000001
 43
0.00000001
 40
0.0
 40
0.0
 40
0.0
 40
0.0
 40
0.1542016548807958
 40
0.4433970651143613
 40
0.7216996775203279
 40
1.0
 40
1.0
 40
1.0
 40
1.0
 10
6055.535294424495
 20
4314.99836862539
 30
0.0
 10
6055.015564012206
 20
4313.264175736959
 30
0.0
 10
6053.521112220246
 20
4308.277614226537
 30
0.0
 10
6051.958285745965
 20
4299.936591416397
 30
0.0
 10
6050.745888769503
 20
4290.072921720803
 30
0.0
 10
6050.638894040972
 20
4283.53707011832
 30
0.0
 10
6050.5853968968
 20
4280.269157761688
 30
0.0
  0
LINE
  5
1D2
330
1F
100
AcDbEntity
  8
0
  6
Continuous
 62
     8
370
    25
100
AcDbLine
 10
6314.0190097799
 20
4494.2684163198
 30
0.0
 11
6234.019011568
 21
4494.2684163198
 31
0.0
  0
ENDSEC
  0
SECTION
  2
OBJECTS
  0
DICTIONARY
  5
C
330
0
100
AcDbDictionary
281
     1
  3
ACAD_GROUP
350
D
  3
ACAD_LAYOUT
350
1A
  3
ACAD_MLINESTYLE
350
17
  3
ACAD_PLOTSETTINGS
350
19
  3
ACAD_PLOTSTYLENAME
350
E
  3
ACAD_SCALELIST
350
47
  0
DICTIONARY
  5
D
102
{ACAD_REACTORS
330
C
102
}
330
C
100
AcDbDictionary
281
     1
  0
DICTIONARY
  5
1A
102
{ACAD_REACTORS
330
C
102
}
330
C
100
AcDbDictionary
281
     1
  3
Layout1
350
1E
  3
Layout2
350
26
  3
Model
350
22
  0
DICTIONARY
  5
17
102
{ACAD_REACTORS
330
C
102
}
330
C
100
AcDbDictionary
281
     1
  3
Standard
350
18
  0
DICTIONARY
  5
19
102
{ACAD_REACTORS
330
C
102
}
330
C
100
AcDbDictionary
281
     1
  0
ACDBDICTIONARYWDFLT
  5
E
102
{ACAD_REACTORS
330
C
102
}
330
C
100
AcDbDictionary
281
     1
  3
Normal
350
F
100
AcDbDictionaryWithDefault
340
F
  0
DICTIONARY
  5
47
102
{ACAD_REACTORS
330
C
102
}
330
C
100
AcDbDictionary
281
     1
  3
A0
350
48
  3
A1
350
49
  3
A2
350
4A
  3
A3
350
4B
  3
A4
350
4C
  3
A5
350
4D
  3
A6
350
4E
  3
A7
350
4F
  3
A8
350
50
  3
A9
350
51
  3
B0
350
52
  3
B1
350
53
  3
B2
350
54
  3
B3
350
55
  3
B4
350
56
  3
B5
350
57
  3
B6
350
58
  3
B7
350
59
  3
B8
350
5A
  3
B9
350
5B
  3
C0
350
5C
  3
C1
350
5D
  3
C2
350
5E
  3
C3
350
5F
  3
C4
350
60
  3
C5
350
61
  3
C6
350
62
  3
C7
350
63
  3
C8
350
64
  3
C9
350
65
  3
D0
350
66
  3
D1
350
67
  3
D2
350
68
  0
LAYOUT
  5
1E
102
{ACAD_REACTORS
330
1A
102
}
330
1A
100
AcDbPlotSettings
  1

  2
none_device
  4

  6

 40
0.0
 41
0.0
 42
0.0
 43
0.0
 44
0.0
 45
0.0
 46
0.0
 47
0.0
 48
0.0
 49
0.0
140
0.0
141
0.0
142
1.0
143
1.0
 70
   688
 72
     1
 73
     0
 74
     5
  7

 75
    16
147
1.0
148
0.0
149
0.0
100
AcDbLayout
  1
Layout1
 70
     1
 71
     1
 10
0.0
 20
0.0
 11
420.0
 21
297.0
 12
0.0
 22
0.0
 32
0.0
 14
1.0000000000E+20
 24
1.0000000000E+20
 34
1.0000000000E+20
 15
-1.0000000000E+20
 25
-1.0000000000E+20
 35
-1.0000000000E+20
146
0.0
 13
0.0
 23
0.0
 33
0.0
 16
1.0
 26
0.0
 36
0.0
 17
0.0
 27
1.0
 37
0.0
 76
     0
330
1B
  0
LAYOUT
  5
26
102
{ACAD_REACTORS
330
1A
102
}
330
1A
100
AcDbPlotSettings
  1

  2
none_device
  4

  6

 40
0.0
 41
0.0
 42
0.0
 43
0.0
 44
0.0
 45
0.0
 46
0.0
 47
0.0
 48
0.0
 49
0.0
140
0.0
141
0.0
142
1.0
143
1.0
 70
   688
 72
     1
 73
     0
 74
     5
  7

 75
    16
147
1.0
148
0.0
149
0.0
100
AcDbLayout
  1
Layout2
 70
     1
 71
     2
 10
0.0
 20
0.0
 11
0.0
 21
0.0
 12
0.0
 22
0.0
 32
0.0
 14
0.0
 24
0.0
 34
0.0
 15
0.0
 25
0.0
 35
0.0
146
0.0
 13
0.0
 23
0.0
 33
0.0
 16
1.0
 26
0.0
 36
0.0
 17
0.0
 27
1.0
 37
0.0
 76
     0
330
23
  0
LAYOUT
  5
22
102
{ACAD_REACTORS
330
1A
102
}
330
1A
100
AcDbPlotSettings
  1

  2
none_device
  4
Letter_(8.50_x_11.00_Inches)
  6

 40
6.35
 41
6.35
 42
6.35000508
 43
6.35000508
 44
215.9
 45
279.4
 46
0.0
 47
0.0
 48
0.0
 49
0.0
140
0.0
141
0.0
142
1.0
143
1.0
 70
  1712
 72
     1
 73
     0
 74
     0
  7

 75
     0
147
1.0
148
0.0
149
0.0
100
AcDbLayout
  1
Model
 70
     1
 71
     0
 10
0.0
 20
0.0
 11
20000.0
 21
10000.0
 12
0.0
 22
0.0
 32
0.0
 14
0.0
 24
0.0
 34
0.0
 15
20000.0
 25
10000.0
 35
0.0
146
0.0
 13
0.0
 23
0.0
 33
0.0
 16
1.0
 26
0.0
 36
0.0
 17
0.0
 27
1.0
 37
0.0
 76
     0
330
1F
331
29
  0
MLINESTYLE
  5
18
102
{ACAD_REACTORS
330
17
102
}
330
17
100
AcDbMlineStyle
  2
Standard
 70
     0
  3

 62
   256
 51
90.0
 52
90.0
 71
     2
 49
0.5
 62
   256
  6
BYLAYER
 49
-0.5
 62
   256
  6
BYLAYER
  0
ACDBPLACEHOLDER
  5
F
102
{ACAD_REACTORS
330
E
102
}
330
E
  0
SCALE
  5
48
102
{ACAD_REACTORS
330
47
102
}
330
47
100
AcDbScale
 70
     0
300
1:1
140
1.0
141
1.0
290
     1
  0
SCALE
  5
49
102
{ACAD_REACTORS
330
47
102
}
330
47
100
AcDbScale
 70
     0
300
1:2
140
1.0
141
2.0
290
     0
  0
SCALE
  5
4A
102
{ACAD_REACTORS
330
47
102
}
330
47
100
AcDbScale
 70
     0
300
1:4
140
1.0
141
4.0
290
     0
  0
SCALE
  5
4B
102
{ACAD_REACTORS
330
47
102
}
330
47
100
AcDbScale
 70
     0
300
1:5
140
1.0
141
5.0
290
     0
  0
SCALE
  5
4C
102
{ACAD_REACTORS
330
47
102
}
330
47
100
AcDbScale
 70
     0
300
1:8
140
1.0
141
8.0
290
     0
  0
SCALE
  5
4D
102
{ACAD_REACTORS
330
47
102
}
330
47
100
AcDbScale
 70
     0
300
1:10
140
1.0
141
10.0
290
     0
  0
SCALE
  5
4E
102
{ACAD_REACTORS
330
47
102
}
330
47
100
AcDbScale
 70
     0
300
1:16
140
1.0
141
16.0
290
     0
  0
SCALE
  5
4F
102
{ACAD_REACTORS
330
47
102
}
330
47
100
AcDbScale
 70
     0
300
1:20
140
1.0
141
20.0
290
     0
  0
SCALE
  5
50
102
{ACAD_REACTORS
330
47
102
}
330
47
100
AcDbScale
 70
     0
300
1:30
140
1.0
141
30.0
290
     0
  0
SCALE
  5
51
102
{ACAD_REACTORS
330
47
102
}
330
47
100
AcDbScale
 70
     0
300
1:40
140
1.0
141
40.0
290
     0
  0
SCALE
  5
52
102
{ACAD_REACTORS
330
47
102
}
330
47
100
AcDbScale
 70
     0
300
1:50
140
1.0
141
50.0
290
     0
  0
SCALE
  5
53
102
{ACAD_REACTORS
330
47
102
}
330
47
100
AcDbScale
 70
     0
300
1:100
140
1.0
141
100.0
290
     0
  0
SCALE
  5
54
102
{ACAD_REACTORS
330
47
102
}
330
47
100
AcDbScale
 70
     0
300
2:1
140
2.0
141
1.0
290
     0
  0
SCALE
  5
55
102
{ACAD_REACTORS
330
47
102
}
330
47
100
AcDbScale
 70
     0
300
4:1
140
4.0
141
1.0
290
     0
  0
SCALE
  5
56
102
{ACAD_REACTORS
330
47
102
}
330
47
100
AcDbScale
 70
     0
300
8:1
140
8.0
141
1.0
290
     0
  0
SCALE
  5
57
102
{ACAD_REACTORS
330
47
102
}
330
47
100
AcDbScale
 70
     0
300
10:1
140
10.0
141
1.0
290
     0
  0
SCALE
  5
58
102
{ACAD_REACTORS
330
47
102
}
330
47
100
AcDbScale
 70
     0
300
100:1
140
100.0
141
1.0
290
     0
  0
SCALE
  5
59
102
{ACAD_REACTORS
330
47
102
}
330
47
100
AcDbScale
 70
     0
300
1/128" = 1'-0"
140
0.0078125
141
12.0
290
     0
  0
SCALE
  5
5A
102
{ACAD_REACTORS
330
47
102
}
330
47
100
AcDbScale
 70
     0
300
1/64" = 1'-0"
140
0.015625
141
12.0
290
     0
  0
SCALE
  5
5B
102
{ACAD_REACTORS
330
47
102
}
330
47
100
AcDbScale
 70
     0
300
1/32" = 1'-0"
140
0.03125
141
12.0
290
     0
  0
SCALE
  5
5C
102
{ACAD_REACTORS
330
47
102
}
330
47
100
AcDbScale
 70
     0
300
1/16" = 1'-0"
140
0.0625
141
12.0
290
     0
  0
SCALE
  5
5D
102
{ACAD_REACTORS
330
47
102
}
330
47
100
AcDbScale
 70
     0
300
3/32" = 1'-0"
140
0.09375
141
12.0
290
     0
  0
SCALE
  5
5E
102
{ACAD_REACTORS
330
47
102
}
330
47
100
AcDbScale
 70
     0
300
1/8" = 1'-0"
140
0.125
141
12.0
290
     0
  0
SCALE
  5
5F
102
{ACAD_REACTORS
330
47
102
}
330
47
100
AcDbScale
 70
     0
300
3/16" = 1'-0"
140
0.1875
141
12.0
290
     0
  0
SCALE
  5
60
102
{ACAD_REACTORS
330
47
102
}
330
47
100
AcDbScale
 70
     0
300
1/4" = 1'-0"
140
0.25
141
12.0
290
     0
  0
SCALE
  5
61
102
{ACAD_REACTORS
330
47
102
}
330
47
100
AcDbScale
 70
     0
300
3/8" = 1'-0"
140
0.375
141
12.0
290
     0
  0
SCALE
  5
62
102
{ACAD_REACTORS
330
47
102
}
330
47
100
AcDbScale
 70
     0
300
1/2" = 1'-0"
140
0.5
141
12.0
290
     0
  0
SCALE
  5
63
102
{ACAD_REACTORS
330
47
102
}
330
47
100
AcDbScale
 70
     0
300
3/4" = 1'-0"
140
0.75
141
12.0
290
     0
  0
SCALE
  5
64
102
{ACAD_REACTORS
330
47
102
}
330
47
100
AcDbScale
 70
     0
300
1" = 1'-0"
140
1.0
141
12.0
290
     0
  0
SCALE
  5
65
102
{ACAD_REACTORS
330
47
102
}
330
47
100
AcDbScale
 70
     0
300
1-1/2" = 1'-0"
140
1.5
141
12.0
290
     0
  0
SCALE
  5
66
102
{ACAD_REACTORS
330
47
102
}
330
47
100
AcDbScale
 70
     0
300
3" = 1'-0"
140
3.0
141
12.0
290
     0
  0
SCALE
  5
67
102
{ACAD_REACTORS
330
47
102
}
330
47
100
AcDbScale
 70
     0
300
6" = 1'-0"
140
6.0
141
12.0
290
     0
  0
SCALE
  5
68
102
{ACAD_REACTORS
330
47
102
}
330
47
100
AcDbScale
 70
     0
300
1'-0" = 1'-0"
140
12.0
141
12.0
290
     0
  0
ENDSEC
  0
EOF
