  0
SECTION
  2
HEADER
  9
$ACADVER
  1
AC1015
  9
$ACADMAINTVER
 70
     6
  9
$DWGCODEPAGE
  3
ANSI_1250
  9
$INSBASE
 10
0.0
 20
0.0
 30
0.0
  9
$EXTMIN
 10
0.0
 20
0.0
 30
0.0
  9
$EXTMAX
 10
20000.0
 20
10000.0
 30
0.0
  9
$LIMMIN
 10
0.0
 20
0.0
  9
$LIMMAX
 10
20000.0
 20
10000.0
  9
$ORTHOMODE
 70
     0
  9
$REGENMODE
 70
     1
  9
$FILLMODE
 70
     1
  9
$QTEXTMODE
 70
     0
  9
$MIRRTEXT
 70
     1
  9
$LTSCALE
 40
1.0
  9
$ATTMODE
 70
     1
  9
$TEXTSIZE
 40
2.0
  9
$TRACEWID
 40
1.0
  9
$TEXTSTYLE
  7
Standard
  9
$CLAYER
  8
0
  9
$CELTYPE
  6
ByLayer
  9
$CECOLOR
 62
   256
  9
$CELTSCALE
 40
1.0
  9
$DISPSILH
 70
     0
  9
$DIMSCALE
 40
1.0
  9
$DIMASZ
 40
2.0
  9
$DIMEXO
 40
1.0
  9
$DIMDLI
 40
3.75
  9
$DIMRND
 40
0.0
  9
$DIMDLE
 40
0.0
  9
$DIMEXE
 40
1.0
  9
$DIMTP
 40
0.0
  9
$DIMTM
 40
0.0
  9
$DIMTXT
 40
2.0
  9
$DIMCEN
 40
2.5
  9
$DIMTSZ
 40
0.0
  9
$DIMTOL
 70
     0
  9
$DIMLIM
 70
     0
  9
$DIMTIH
 70
     1
  9
$DIMTOH
 70
     1
  9
$DIMSE1
 70
     0
  9
$DIMSE2
 70
     0
  9
$DIMTAD
 70
     1
  9
$DIMZIN
 70
     0
  9
$DIMBLK
  1

  9
$DIMASO
 70
     1
  9
$DIMSHO
 70
     1
  9
$DIMPOST
  1

  9
$DIMAPOST
  1

  9
$DIMALT
 70
     0
  9
$DIMALTD
 70
     3
  9
$DIMALTF
 40
0.0393700787
  9
$DIMLFAC
 40
1.0
  9
$DIMTOFL
 70
     1
  9
$DIMTVP
 40
0.0
  9
$DIMTIX
 70
     0
  9
$DIMSOXD
 70
     0
  9
$DIMSAH
 70
     0
  9
$DIMBLK1
  1

  9
$DIMBLK2
  1

  9
$DIMSTYLE
  2
ISO-25
  9
$DIMCLRD
 70
     0
  9
$DIMCLRE
 70
     0
  9
$DIMCLRT
 70
     0
  9
$DIMTFAC
 40
1.0
  9
$DIMGAP
 40
1.524
  9
$DIMJUST
 70
     0
  9
$DIMSD1
 70
     0
  9
$DIMSD2
 70
     0
  9
$DIMTOLJ
 70
     0
  9
$DIMTZIN
 70
     0
  9
$DIMALTZ
 70
     0
  9
$DIMALTTZ
 70
     0
  9
$DIMUPT
 70
     0
  9
$DIMDEC
 70
     2
  9
$DIMTDEC
 70
     0
  9
$DIMALTU
 70
     2
  9
$DIMALTTD
 70
     3
  9
$DIMTXSTY
  7
Standard
  9
$DIMAUNIT
 70
     0
  9
$DIMADEC
 70
     2
  9
$DIMALTRND
 40
0.0
  9
$DIMAZIN
 70
     0
  9
$DIMDSEP
 70
    44
  9
$DIMATFIT
 70
     3
  9
$DIMFRAC
 70
     0
  9
$DIMLDRBLK
  1

  9
$DIMLUNIT
 70
     2
  9
$DIMLWD
 70
    -2
  9
$DIMLWE
 70
    -2
  9
$DIMTMOVE
 70
     0
  9
$LUNITS
 70
     2
  9
$LUPREC
 70
     3
  9
$SKETCHINC
 40
1.0
  9
$FILLETRAD
 40
10.0
  9
$AUNITS
 70
     0
  9
$AUPREC
 70
     2
  9
$MENU
  1
.
  9
$ELEVATION
 40
0.0
  9
$PELEVATION
 40
0.0
  9
$THICKNESS
 40
0.0
  9
$LIMCHECK
 70
     0
  9
$CHAMFERA
 40
0.0
  9
$CHAMFERB
 40
0.0
  9
$CHAMFERC
 40
0.0
  9
$CHAMFERD
 40
0.0
  9
$SKPOLY
 70
     0
  9
$TDCREATE
 40
2458697.35819691
  9
$TDUCREATE
 40
2458697.274863577
  9
$TDUPDATE
 40
2458697.358197384
  9
$TDUUPDATE
 40
2458697.274864051
  9
$TDINDWG
 40
0.0000000116
  9
$TDUSRTIMER
 40
0.0000000116
  9
$USRTIMER
 70
     1
  9
$ANGBASE
 50
0.0
  9
$ANGDIR
 70
     0
  9
$PDMODE
 70
     0
  9
$PDSIZE
 40
-1.0
  9
$PLINEWID
 40
0.0
  9
$SPLFRAME
 70
     0
  9
$SPLINETYPE
 70
     6
  9
$SPLINESEGS
 70
     8
  9
$HANDSEED
  5
297
  9
$SURFTAB1
 70
     6
  9
$SURFTAB2
 70
     6
  9
$SURFTYPE
 70
     6
  9
$SURFU
 70
     6
  9
$SURFV
 70
     6
  9
$UCSBASE
  2

  9
$UCSNAME
  2

  9
$UCSORG
 10
0.0
 20
0.0
 30
0.0
  9
$UCSXDIR
 10
1.0
 20
0.0
 30
0.0
  9
$UCSYDIR
 10
0.0
 20
1.0
 30
0.0
  9
$UCSORTHOREF
  2

  9
$UCSORTHOVIEW
 70
     0
  9
$UCSORGTOP
 10
0.0
 20
0.0
 30
0.0
  9
$UCSORGBOTTOM
 10
0.0
 20
0.0
 30
0.0
  9
$UCSORGLEFT
 10
0.0
 20
0.0
 30
0.0
  9
$UCSORGRIGHT
 10
0.0
 20
0.0
 30
0.0
  9
$UCSORGFRONT
 10
0.0
 20
0.0
 30
0.0
  9
$UCSORGBACK
 10
0.0
 20
0.0
 30
0.0
  9
$PUCSBASE
  2

  9
$PUCSNAME
  2

  9
$PUCSORG
 10
0.0
 20
0.0
 30
0.0
  9
$PUCSXDIR
 10
1.0
 20
0.0
 30
0.0
  9
$PUCSYDIR
 10
0.0
 20
1.0
 30
0.0
  9
$PUCSORTHOREF
  2

  9
$PUCSORTHOVIEW
 70
     0
  9
$PUCSORGTOP
 10
0.0
 20
0.0
 30
0.0
  9
$PUCSORGBOTTOM
 10
0.0
 20
0.0
 30
0.0
  9
$PUCSORGLEFT
 10
0.0
 20
0.0
 30
0.0
  9
$PUCSORGRIGHT
 10
0.0
 20
0.0
 30
0.0
  9
$PUCSORGFRONT
 10
0.0
 20
0.0
 30
0.0
  9
$PUCSORGBACK
 10
0.0
 20
0.0
 30
0.0
  9
$USERI1
 70
     0
  9
$USERI2
 70
     0
  9
$USERI3
 70
     0
  9
$USERI4
 70
     0
  9
$USERI5
 70
     0
  9
$USERR1
 40
0.0
  9
$USERR2
 40
0.0
  9
$USERR3
 40
0.0
  9
$USERR4
 40
0.0
  9
$USERR5
 40
0.0
  9
$WORLDVIEW
 70
     1
  9
$SHADEDGE
 70
     3
  9
$SHADEDIF
 70
    70
  9
$TILEMODE
 70
     1
  9
$MAXACTVP
 70
    64
  9
$PINSBASE
 10
0.0
 20
0.0
 30
0.0
  9
$PLIMCHECK
 70
     0
  9
$PEXTMIN
 10
1.0000000000E+20
 20
1.0000000000E+20
 30
1.0000000000E+20
  9
$PEXTMAX
 10
-1.0000000000E+20
 20
-1.0000000000E+20
 30
-1.0000000000E+20
  9
$PLIMMIN
 10
0.0
 20
0.0
  9
$PLIMMAX
 10
420.0
 20
297.0
  9
$UNITMODE
 70
     0
  9
$VISRETAIN
 70
     1
  9
$PLINEGEN
 70
     0
  9
$PSLTSCALE
 70
     1
  9
$TREEDEPTH
 70
  3020
  9
$CMLSTYLE
  2
Standard
  9
$CMLJUST
 70
     0
  9
$CMLSCALE
 40
20.0
  9
$PROXYGRAPHICS
 70
     1
  9
$MEASUREMENT
 70
     1
  9
$CELWEIGHT
370
    -1
  9
$ENDCAPS
280
     0
  9
$JOINSTYLE
280
     0
  9
$LWDISPLAY
290
     1
  9
$INSUNITS
 70
     4
  9
$HYPERLINKBASE
  1

  9
$STYLESHEET
  1

  9
$XEDIT
290
     1
  9
$CEPSNTYPE
380
     0
  9
$PSTYLEMODE
290
     1
  9
$FINGERPRINTGUID
  2
{2513F94A-97B8-4969-A73C-52A4A6EB0E06}
  9
$VERSIONGUID
  2
{FAEB1C32-E019-11D5-929B-00C0DF256EC4}
  9
$EXTNAMES
290
     1
  9
$PSVPSCALE
 40
0.0
  9
$OLESTARTUP
290
     0
  0
ENDSEC
  0
SECTION
  2
CLASSES
  0
CLASS
  1
ACDBDICTIONARYWDFLT
  2
AcDbDictionaryWithDefault
  3
ObjectDBX Classes
 90
        0
280
     0
281
     0
  0
CLASS
  1
VISUALSTYLE
  2
AcDbVisualStyle
  3
ObjectDBX Classes
 90
     4095
280
     0
281
     0
  0
CLASS
  1
MATERIAL
  2
AcDbMaterial
  3
ObjectDBX Classes
 90
     1153
280
     0
281
     0
  0
CLASS
  1
SCALE
  2
AcDbScale
  3
ObjectDBX Classes
 90
     1153
280
     0
281
     0
  0
CLASS
  1
TABLESTYLE
  2
AcDbTableStyle
  3
ObjectDBX Classes
 90
     4095
280
     0
281
     0
  0
CLASS
  1
MLEADERSTYLE
  2
AcDbMLeaderStyle
  3
ACDB_MLEADERSTYLE_CLASS
 90
     4095
280
     0
281
     0
  0
CLASS
  1
SUN
  2
AcDbSun
  3
SCENEOE
 90
     1153
280
     0
281
     0
  0
CLASS
  1
ACDBPLACEHOLDER
  2
AcDbPlaceHolder
  3
ObjectDBX Classes
 90
        0
280
     0
281
     0
  0
CLASS
  1
LAYOUT
  2
AcDbLayout
  3
ObjectDBX Classes
 90
        0
280
     0
281
     0
  0
ENDSEC
  0
SECTION
  2
TABLES
  0
TABLE
  2
VPORT
  5
8
330
0
100
AcDbSymbolTable
 70
     1
  0
VPORT
  5
29
330
8
100
AcDbSymbolTableRecord
100
AcDbViewportTableRecord
  2
*Active
 70
     0
 10
0.0
 20
0.0
 11
1.0
 21
1.0
 12
10000.0
 22
5000.0
 13
0.0
 23
0.0
 14
10.0
 24
10.0
 15
10.0
 25
10.0
 16
0.0
 26
0.0
 36
1.0
 17
0.0
 27
0.0
 37
0.0
 40
10000.0
 41
2.0
 42
50.0
 43
0.0
 44
0.0
 50
0.0
 51
0.0
 71
     0
 72
  2000
 73
     1
 74
     3
 75
     0
 76
     0
 77
     0
 78
     0
281
     0
 65
     1
110
0.0
120
0.0
130
0.0
111
1.0
121
0.0
131
0.0
112
0.0
122
1.0
132
0.0
 79
     0
146
0.0
  0
ENDTAB
  0
TABLE
  2
LTYPE
  5
5
330
0
100
AcDbSymbolTable
 70
     6
  0
LTYPE
  5
14
330
5
100
AcDbSymbolTableRecord
100
AcDbLinetypeTableRecord
  2
ByBlock
 70
     0
  3

 72
    65
 73
     0
 40
0.0
  0
LTYPE
  5
15
330
5
100
AcDbSymbolTableRecord
100
AcDbLinetypeTableRecord
  2
ByLayer
 70
     0
  3

 72
    65
 73
     0
 40
0.0
  0
LTYPE
  5
16
330
5
100
AcDbSymbolTableRecord
100
AcDbLinetypeTableRecord
  2
Continuous
 70
     0
  3
Solid line
 72
    65
 73
     0
 40
0.0
  0
LTYPE
  5
6E
330
5
100
AcDbSymbolTableRecord
100
AcDbLinetypeTableRecord
  2
HIDDEN
 70
     0
  3
Hidden __ __ __ __ __ __ __ __ __ __ __ __ __ __
 72
    65
 73
     2
 40
1.905
 49
1.27
 74
     0
 49
-0.635
 74
     0
  0
LTYPE
  5
6F
330
5
100
AcDbSymbolTableRecord
100
AcDbLinetypeTableRecord
  2
PHANTOM
 70
     0
  3
Phantom ______  __  __  ______  __  __  ______
 72
    65
 73
     6
 40
12.7
 49
6.35
 74
     0
 49
-1.27
 74
     0
 49
1.27
 74
     0
 49
-1.27
 74
     0
 49
1.27
 74
     0
 49
-1.27
 74
     0
  0
LTYPE
  5
70
330
5
100
AcDbSymbolTableRecord
100
AcDbLinetypeTableRecord
  2
CENTER
 70
     0
  3
Center ____ _ ____ _ ____ _ ____ _ ____ _ ____
 72
    65
 73
     4
 40
10.16
 49
6.35
 74
     0
 49
-1.27
 74
     0
 49
1.27
 74
     0
 49
-1.27
 74
     0
  0
LTYPE
  5
71
330
5
100
AcDbSymbolTableRecord
100
AcDbLinetypeTableRecord
  2
CENTERX2
 70
     0
  3
Center (2x) ________  __  ________  __  _____
 72
    65
 73
     4
 40
20.32
 49
12.7
 74
     0
 49
-2.54
 74
     0
 49
2.54
 74
     0
 49
-2.54
 74
     0
  0
LTYPE
  5
72
330
5
100
AcDbSymbolTableRecord
100
AcDbLinetypeTableRecord
  2
DOT2
 70
     0
  3
Dot (.5x) ........................................
 72
    65
 73
     2
 40
0.635
 49
0.0
 74
     0
 49
-0.635
 74
     0
  0
ENDTAB
  0
TABLE
  2
LAYER
  5
2
330
0
100
AcDbSymbolTable
 70
    13
  0
LAYER
  5
10
330
2
100
AcDbSymbolTableRecord
100
AcDbLayerTableRecord
  2
0
 70
     0
 62
     7
  6
Continuous
370
    -3
390
F
  0
LAYER
  5
73
330
2
100
AcDbSymbolTableRecord
100
AcDbLayerTableRecord
  2
FORMAT
 70
     0
 62
     7
  6
Continuous
370
    -3
390
F
  0
LAYER
  5
74
330
2
100
AcDbSymbolTableRecord
100
AcDbLayerTableRecord
  2
OSA
 70
     0
 62
     7
  6
CENTER
370
    -3
390
F
  0
LAYER
  5
75
330
2
100
AcDbSymbolTableRecord
100
AcDbLayerTableRecord
  2
0_35
 70
     0
 62
     7
  6
Continuous
370
    35
390
F
  0
LAYER
  5
76
330
2
100
AcDbSymbolTableRecord
100
AcDbLayerTableRecord
  2
0_5
 70
     0
 62
     7
  6
Continuous
370
    50
390
F
  0
LAYER
  5
77
330
2
100
AcDbSymbolTableRecord
100
AcDbLayerTableRecord
  2
0_25
 70
     0
 62
     7
  6
Continuous
370
    25
390
F
  0
LAYER
  5
78
330
2
100
AcDbSymbolTableRecord
100
AcDbLayerTableRecord
  2
0_18
 70
     0
 62
     7
  6
Continuous
370
    -3
390
F
  0
LAYER
  5
79
330
2
100
AcDbSymbolTableRecord
100
AcDbLayerTableRecord
  2
SLD-0
 70
     0
 62
   179
  6
Continuous
370
    -3
390
F
  0
LAYER
  5
7A
330
2
100
AcDbSymbolTableRecord
100
AcDbLayerTableRecord
  2
KOTY
 70
     0
 62
     7
  6
Continuous
370
    -3
390
F
  0
LAYER
  5
7B
330
2
100
AcDbSymbolTableRecord
100
AcDbLayerTableRecord
  2
SILNA
 70
     0
 62
   179
  6
Continuous
370
    -3
390
F
  0
LAYER
  5
7C
330
2
100
AcDbSymbolTableRecord
100
AcDbLayerTableRecord
  2
0_18_1
 70
     0
 62
   179
  6
Continuous
370
    -3
390
F
  0
LAYER
  5
7D
330
2
100
AcDbSymbolTableRecord
100
AcDbLayerTableRecord
  2
0_35_1
 70
     0
 62
   179
  6
Continuous
370
    35
390
F
  0
LAYER
  5
7E
330
2
100
AcDbSymbolTableRecord
100
AcDbLayerTableRecord
  2
0_5_1
 70
     0
 62
   179
  6
Continuous
370
    50
390
F
  0
ENDTAB
  0
TABLE
  2
STYLE
  5
3
330
0
100
AcDbSymbolTable
 70
     1
  0
STYLE
  5
11
330
3
100
AcDbSymbolTableRecord
100
AcDbTextStyleTableRecord
  2
Standard
 70
     0
 40
0.0
 41
1.0
 50
0.0
 71
     0
 42
2.0
  3
txt
  4

  0
ENDTAB
  0
TABLE
  2
VIEW
  5
6
330
0
100
AcDbSymbolTable
 70
     0
  0
ENDTAB
  0
TABLE
  2
UCS
  5
7
330
0
100
AcDbSymbolTable
 70
     0
  0
ENDTAB
  0
TABLE
  2
APPID
  5
9
330
0
100
AcDbSymbolTable
 70
     1
  0
APPID
  5
12
330
9
100
AcDbSymbolTableRecord
100
AcDbRegAppTableRecord
  2
ACAD
 70
     0
  0
ENDTAB
  0
TABLE
  2
DIMSTYLE
  5
A
330
0
100
AcDbSymbolTable
 70
     1
100
AcDbDimStyleTable
  0
DIMSTYLE
105
27
330
A
100
AcDbSymbolTableRecord
100
AcDbDimStyleTableRecord
  2
ISO-25
 70
     0
 41
2.5
 42
0.625
 43
3.75
 44
1.25
 73
     0
 74
     0
 77
     1
 78
     8
140
2.5
141
2.5
143
0.0393700787
147
0.625
171
     3
172
     1
178
     0
271
     2
272
     2
274
     3
278
    44
283
     0
284
     8
340
11
  0
ENDTAB
  0
TABLE
  2
BLOCK_RECORD
  5
1
330
0
100
AcDbSymbolTable
 70
     1
  0
BLOCK_RECORD
  5
1F
330
1
100
AcDbSymbolTableRecord
100
AcDbBlockTableRecord
  2
*Model_Space
340
22
  0
BLOCK_RECORD
  5
1B
330
1
100
AcDbSymbolTableRecord
100
AcDbBlockTableRecord
  2
*Paper_Space
340
1E
  0
BLOCK_RECORD
  5
23
330
1
100
AcDbSymbolTableRecord
100
AcDbBlockTableRecord
  2
*Paper_Space0
340
26
  0
ENDTAB
  0
ENDSEC
  0
SECTION
  2
BLOCKS
  0
BLOCK
  5
20
330
1F
100
AcDbEntity
  8
0
100
AcDbBlockBegin
  2
*Model_Space
 70
     0
 10
0.0
 20
0.0
 30
0.0
  3
*Model_Space
  1

  0
ENDBLK
  5
21
330
1F
100
AcDbEntity
  8
0
100
AcDbBlockEnd
  0
BLOCK
  5
1C
330
1B
100
AcDbEntity
 67
     1
  8
0
100
AcDbBlockBegin
  2
*Paper_Space
 70
     0
 10
0.0
 20
0.0
 30
0.0
  3
*Paper_Space
  1

  0
ENDBLK
  5
1D
330
1B
100
AcDbEntity
 67
     1
  8
0
100
AcDbBlockEnd
  0
BLOCK
  5
24
330
23
100
AcDbEntity
  8
0
100
AcDbBlockBegin
  2
*Paper_Space0
 70
     0
 10
0.0
 20
0.0
 30
0.0
  3
*Paper_Space0
  1

  0
ENDBLK
  5
25
330
23
100
AcDbEntity
  8
0
100
AcDbBlockEnd
  0
ENDSEC
  0
SECTION
  2
ENTITIES
  0
LINE
  5
7F
330
1F
100
AcDbEntity
  8
0
  6
Continuous
 62
     7
370
    25
100
AcDbLine
 10
6280.4787326959
 20
5540.7396634861
 30
0.0
 11
6280.4787326959
 21
5541.6490515514
 31
0.0
  0
LINE
  5
80
330
1F
100
AcDbEntity
  8
0
  6
Continuous
 62
     7
370
    25
100
AcDbLine
 10
6267.4787361529
 20
5541.6490515514
 30
0.0
 11
6267.4787361529
 21
5540.7396634861
 31
0.0
  0
ARC
  5
81
330
1F
100
AcDbEntity
  8
0
  6
Continuous
 62
     7
370
    25
100
AcDbCircle
 10
6264.2287340224
 20
5569.7843778582
 30
0.0
 40
1.000000000000909
100
AcDbArc
 50
90.0
 51
180.0
  0
LINE
  5
82
330
1F
100
AcDbEntity
  8
0
  6
Continuous
 62
     7
370
    25
100
AcDbLine
 10
6283.7287355569
 20
5570.7843681617
 30
0.0
 11
6264.2287332919
 21
5570.7843681617
 31
0.0
  0
ARC
  5
83
330
1F
100
AcDbEntity
  8
0
  6
Continuous
 62
     7
370
    25
100
AcDbCircle
 10
6283.7287340224
 20
5569.7843778582
 30
0.0
 40
1.000000000000909
100
AcDbArc
 50
0.0
 51
90.0
  0
SPLINE
  5
84
330
1F
100
AcDbEntity
  8
0
  6
Continuous
 62
     7
370
    25
100
AcDbSpline
210
0.0
220
0.0
230
1.0
 70
    24
 71
     3
 72
    16
 73
    12
 74
     0
 42
0.000000001
 43
0.00000001
 40
0.0
 40
0.0
 40
0.0
 40
0.0
 40
0.0521598995494561
 40
0.1613738083234457
 40
0.2577800983111386
 40
0.3482599978890872
 40
0.4396743272753695
 40
0.536131721002638
 40
0.6938654679746485
 40
0.851415416994279
 40
1.0
 40
1.0
 40
1.0
 40
1.0
 10
6259.979145636839
 20
5545.365162734562
 30
0.0
 10
6259.979145636839
 20
5544.707773258876
 30
0.0
 10
6259.979145636839
 20
5542.673922654115
 30
0.0
 10
6259.979145636839
 20
5539.435050833891
 30
0.0
 10
6259.979145636839
 20
5535.720055443394
 30
0.0
 10
6259.979145636839
 20
5532.231555632844
 30
0.0
 10
6259.979145636839
 20
5528.738673738596
 30
0.0
 10
6259.979145636839
 20
5524.393288081927
 30
0.0
 10
6259.979145636839
 20
5519.207497770542
 30
0.0
 10
6259.979145636839
 20
5513.356989524201
 30
0.0
 10
6259.979145636839
 20
5509.49096405656
 30
0.0
 10
6259.979145636839
 20
5507.614560966068
 30
0.0
  0
SPLINE
  5
85
330
1F
100
AcDbEntity
  8
0
  6
Continuous
 62
     7
370
    25
100
AcDbSpline
210
0.0
220
0.0
230
1.0
 70
    24
 71
     3
 72
    15
 73
    11
 74
     0
 42
0.000000001
 43
0.00000001
 40
0.0
 40
0.0
 40
0.0
 40
0.0
 40
0.1910457815722069
 40
0.392734883665806
 40
0.5869666649379858
 40
0.6723003148394759
 40
0.7581843810246218
 40
0.8503858546912625
 40
0.9546736932659636
 40
1.0
 40
1.0
 40
1.0
 40
1.0
 10
6287.978382816596
 20
5507.614560966068
 30
0.0
 10
6287.978382816596
 20
5510.026862900088
 30
0.0
 10
6287.978382816596
 20
5514.985858129544
 30
0.0
 10
6287.978382816596
 20
5522.384535117552
 30
0.0
 10
6287.978382816596
 20
5528.43812914181
 30
0.0
 10
6287.978382816596
 20
5533.021635964699
 30
0.0
 10
6287.978382816596
 20
5536.323560663048
 30
0.0
 10
6287.978382816596
 20
5539.86691891731
 30
0.0
 10
6287.978382816596
 20
5542.905586343251
 30
0.0
 10
6287.978382816596
 20
5544.791150590176
 30
0.0
 10
6287.978382816596
 20
5545.36239111858
 30
0.0
  0
LINE
  5
86
330
1F
100
AcDbEntity
  8
0
  6
Continuous
 62
     7
370
    25
100
AcDbLine
 10
6261.0888202098
 20
5554.5256813808
 30
0.0
 11
6261.0888202098
 21
5552.5364657684
 31
0.0
  0
LINE
  5
87
330
1F
100
AcDbEntity
  8
0
  6
Continuous
 62
     7
370
    25
100
AcDbLine
 10
6286.8686411884
 20
5552.5364657684
 30
0.0
 11
6286.8686411884
 21
5554.5256813808
 31
0.0
  0
SPLINE
  5
88
330
1F
100
AcDbEntity
  8
0
  6
Continuous
 62
     7
370
    25
100
AcDbSpline
210
0.0
220
0.0
230
1.0
 70
     8
 71
     3
 72
    12
 73
     8
 74
     0
 42
0.000000001
 43
0.00000001
 40
0.0
 40
0.0
 40
0.0
 40
0.0
 40
0.1544274443858931
 40
0.386765193754793
 40
0.6222914169846352
 40
0.8817241528628501
 40
1.0
 40
1.0
 40
1.0
 40
1.0
 10
6286.829406431002
 20
5554.508068208271
 30
0.0
 10
6286.83279964329
 20
5554.730659546308
 30
0.0
 10
6286.841297979924
 20
5555.288141944118
 30
0.0
 10
6286.504847282449
 20
5556.123519148049
 30
0.0
 10
6285.933633644895
 20
5556.939626035097
 30
0.0
 10
6285.337306402119
 20
5557.522332891359
 30
0.0
 10
6284.873861075621
 20
5557.803122453429
 30
0.0
 10
6284.728737583441
 20
5557.891049031788
 30
0.0
  0
SPLINE
  5
89
330
1F
100
AcDbEntity
  8
0
  6
Continuous
 62
     7
370
    25
100
AcDbSpline
210
0.0
220
0.0
230
1.0
 70
     8
 71
     3
 72
    12
 73
     8
 74
     0
 42
0.000000001
 43
0.00000001
 40
0.0
 40
0.0
 40
0.0
 40
0.0
 40
0.0556147447970242
 40
0.3462792157328615
 40
0.5965343691066268
 40
0.8271564401976869
 40
1.0
 40
1.0
 40
1.0
 40
1.0
 10
6263.228731265349
 20
5557.899900321537
 30
0.0
 10
6263.157830531657
 20
5557.860261544667
 30
0.0
 10
6262.71637475321
 20
5557.613454971753
 30
0.0
 10
6262.130736334611
 20
5557.057256202058
 30
0.0
 10
6261.495881006893
 20
5556.212848224985
 30
0.0
 10
6261.133838280451
 20
5555.344963653814
 30
0.0
 10
6261.120014603935
 20
5554.763467739058
 30
0.0
 10
6261.114092579169
 20
5554.514356498295
 30
0.0
  0
LINE
  5
8A
330
1F
100
AcDbEntity
  8
0
  6
Continuous
 62
     7
370
    25
100
AcDbLine
 10
6443.5187522676
 20
4862.1144970699
 30
0.0
 11
6443.5187522676
 21
5471.1145242496
 31
0.0
  0
LINE
  5
8B
330
1F
100
AcDbEntity
  8
0
  6
Continuous
 62
     7
370
    25
100
AcDbLine
 10
6104.5187507179
 20
5471.1145242496
 30
0.0
 11
6104.5187507179
 21
4862.1144970699
 31
0.0
  0
ARC
  5
8C
330
1F
100
AcDbEntity
  8
0
  6
Continuous
 62
     7
370
    25
100
AcDbCircle
 10
6442.8334806108
 20
5492.6145313272
 30
0.0
 40
4.324969328314234
100
AcDbArc
 50
26.059831153
 51
61.4762140417
  0
ARC
  5
8D
330
1F
100
AcDbEntity
  8
0
  6
Continuous
 62
     7
370
    25
100
AcDbCircle
 10
6442.8334806108
 20
5492.6145313272
 30
0.0
 40
4.324969328314634
100
AcDbArc
 50
298.5237859583
 51
333.940168847
  0
LINE
  5
8E
330
1F
100
AcDbEntity
  8
0
  6
Continuous
 62
     7
370
    25
100
AcDbLine
 10
6444.8987562564
 20
5496.4145501895
 30
0.0
 11
6444.5187542942
 21
5496.4145501895
 31
0.0
  0
LINE
  5
8F
330
1F
100
AcDbEntity
  8
0
  6
Continuous
 62
     7
370
    25
100
AcDbLine
 10
6444.5187542942
 20
5488.8145407482
 30
0.0
 11
6444.8987562564
 21
5488.8145407482
 31
0.0
  0
LINE
  5
90
330
1F
100
AcDbEntity
  8
0
  6
Continuous
 62
     7
370
    25
100
AcDbLine
 10
6103.1387541798
 20
5488.8145407482
 30
0.0
 11
6103.5187635925
 21
5488.8145407482
 31
0.0
  0
LINE
  5
91
330
1F
100
AcDbEntity
  8
0
  6
Continuous
 62
     7
370
    25
100
AcDbLine
 10
6103.5187635925
 20
5496.4145501895
 30
0.0
 11
6103.1387541798
 21
5496.4145501895
 31
0.0
  0
ARC
  5
92
330
1F
100
AcDbEntity
  8
0
  6
Continuous
 62
     7
370
    25
100
AcDbCircle
 10
6105.2040300614
 20
5492.6145313272
 30
0.0
 40
4.324969328314634
100
AcDbArc
 50
206.059831153
 51
241.4762140417
  0
ARC
  5
93
330
1F
100
AcDbEntity
  8
0
  6
Continuous
 62
     7
370
    25
100
AcDbCircle
 10
6105.2040300614
 20
5492.6145313272
 30
0.0
 40
4.324969328314234
100
AcDbArc
 50
118.5237859583
 51
153.940168847
  0
LINE
  5
94
330
1F
100
AcDbEntity
  8
0
  6
Continuous
 62
     7
370
    25
100
AcDbLine
 10
6064.0187654999
 20
4861.6145333095
 30
0.0
 11
6064.0187654999
 21
4856.6145380779
 31
0.0
  0
LINE
  5
95
330
1F
100
AcDbEntity
  8
0
  6
Continuous
 62
     7
370
    25
100
AcDbLine
 10
6484.0187523869
 20
4856.6145380779
 30
0.0
 11
6484.0187523869
 21
4861.6145333095
 31
0.0
  0
ARC
  5
96
330
1F
100
AcDbEntity
  8
0
  6
Continuous
 62
     7
370
    25
100
AcDbCircle
 10
6064.5187553361
 20
4861.6145313272
 30
0.0
 40
0.5000000000009095
100
AcDbArc
 50
90.0
 51
180.0
  0
ARC
  5
97
330
1F
100
AcDbEntity
  8
0
  6
Continuous
 62
     7
370
    25
100
AcDbCircle
 10
6483.5187553361
 20
4861.6145313272
 30
0.0
 40
0.5000000000009095
100
AcDbArc
 50
0.0
 51
90.0
  0
LINE
  5
98
330
1F
100
AcDbEntity
  8
0
  6
Continuous
 62
     7
370
    25
100
AcDbLine
 10
6444.5187542942
 20
5496.4145501895
 30
0.0
 11
6444.5187542942
 21
5507.6145609661
 31
0.0
  0
LINE
  5
99
330
1F
100
AcDbEntity
  8
0
  6
Continuous
 62
     7
370
    25
100
AcDbLine
 10
6444.5187542942
 20
5471.1145242496
 30
0.0
 11
6444.5187542942
 21
5488.8145407482
 31
0.0
  0
LINE
  5
9A
330
1F
100
AcDbEntity
  8
0
  6
Continuous
 62
     7
370
    25
100
AcDbLine
 10
6103.5187635925
 20
5488.8145407482
 30
0.0
 11
6103.5187635925
 21
5471.1145242496
 31
0.0
  0
LINE
  5
9B
330
1F
100
AcDbEntity
  8
0
  6
Continuous
 62
     7
370
    25
100
AcDbLine
 10
6103.5187635925
 20
5507.6145609661
 30
0.0
 11
6103.5187635925
 21
5496.4145501895
 31
0.0
  0
ELLIPSE
  5
9C
330
1F
100
AcDbEntity
  8
0
  6
Continuous
 62
     7
370
    25
100
AcDbEllipse
 10
6273.9787340224
 20
5541.8397947501
 30
0.0
 11
9.456659520289577
 21
0.0
 31
0.0
210
0.0
220
0.0
230
1.0
 40
0.457531705
 41
3.405961509865187
 42
6.018816450904274
  0
SPLINE
  5
9D
330
1F
100
AcDbEntity
  8
0
  6
Continuous
 62
     7
370
    25
100
AcDbSpline
210
0.0
220
0.0
230
1.0
 70
     8
 71
     3
 72
    13
 73
     9
 74
     0
 42
0.000000001
 43
0.00000001
 40
0.0
 40
0.0
 40
0.0
 40
0.0
 40
0.0207350760897072
 40
0.0782534619407431
 40
0.3088997109978249
 40
0.5393485263781478
 40
0.7696754644829545
 40
0.9999999999999999
 40
0.9999999999999999
 40
0.9999999999999999
 40
0.9999999999999999
 10
6283.106843045039
 20
5540.709205512577
 30
0.0
 10
6283.111781265368
 20
5540.708754855182
 30
0.0
 10
6283.130417938561
 20
5540.707054089716
 30
0.0
 10
6283.203821392056
 20
5540.695924773232
 30
0.0
 10
6283.325216265252
 20
5540.653449462709
 30
0.0
 10
6283.460862022462
 20
5540.551706414476
 30
0.0
 10
6283.560756245719
 20
5540.416663753393
 30
0.0
 10
6283.583434866501
 20
5540.314264237393
 30
0.0
 10
6283.594774117751
 20
5540.263064746433
 30
0.0
  0
ELLIPSE
  5
9E
330
1F
100
AcDbEntity
  8
0
  6
Continuous
 62
     7
370
    25
100
AcDbEllipse
 10
6273.9787340224
 20
5541.3851243871
 30
0.0
 11
9.956659520290486
 21
0.0
 31
0.0
210
0.0
220
0.0
230
1.0
 40
0.43455554
 41
3.403918197483804
 42
6.020859763285659
  0
SPLINE
  5
9F
330
1F
100
AcDbEntity
  8
0
  6
Continuous
 62
     7
370
    25
100
AcDbSpline
210
0.0
220
0.0
230
1.0
 70
     8
 71
     3
 72
    13
 73
     9
 74
     0
 42
0.000000001
 43
0.00000001
 40
0.0
 40
0.0
 40
0.0
 40
0.0
 40
0.0207252564613684
 40
0.0782442190809149
 40
0.3088927809548742
 40
0.5393439071722983
 40
0.7696731548920759
 40
1.0
 40
1.0
 40
1.0
 40
1.0
 10
6264.850618353171
 20
5540.709205512577
 30
0.0
 10
6264.845682630417
 20
5540.708754801513
 30
0.0
 10
6264.827048758591
 20
5540.707053228591
 30
0.0
 10
6264.753647084867
 20
5540.695925577292
 30
0.0
 10
6264.632252729294
 20
5540.653449147553
 30
0.0
 10
6264.496606787497
 20
5540.551706498438
 30
0.0
 10
6264.396712612775
 20
5540.416663732407
 30
0.0
 10
6264.374033985524
 20
5540.314264230398
 30
0.0
 10
6264.362694731039
 20
5540.263064746433
 30
0.0
  0
LINE
  5
A0
330
1F
100
AcDbEntity
  8
0
  6
Continuous
 62
     7
370
    25
100
AcDbLine
 10
6264.3616814521
 20
5540.2438720508
 30
0.0
 11
6264.3616814521
 21
5507.6145609661
 31
0.0
  0
SPLINE
  5
A1
330
1F
100
AcDbEntity
  8
0
  6
Continuous
 62
     7
370
    25
100
AcDbSpline
210
0.0
220
0.0
230
1.0
 70
     8
 71
     3
 72
     9
 73
     5
 74
     0
 42
0.000000001
 43
0.00000001
 40
0.0
 40
0.0
 40
0.0
 40
0.0
 40
0.7997069396961869
 40
0.9999999999999999
 40
0.9999999999999999
 40
0.9999999999999999
 40
0.9999999999999999
 10
6264.362694731039
 20
5540.263064746433
 30
0.0
 10
6264.362259124497
 20
5540.258038202532
 30
0.0
 10
6264.361714416778
 20
5540.251752720123
 30
0.0
 10
6264.361686952901
 20
5540.245187099136
 30
0.0
 10
6264.361681452078
 20
5540.243872050815
 30
0.0
  0
SPLINE
  5
A2
330
1F
100
AcDbEntity
  8
0
  6
Continuous
 62
     7
370
    25
100
AcDbSpline
210
0.0
220
0.0
230
1.0
 70
     8
 71
     3
 72
     9
 73
     5
 74
     0
 42
0.000000001
 43
0.00000001
 40
0.0
 40
0.0
 40
0.0
 40
0.0
 40
0.8012252099202097
 40
1.0
 40
1.0
 40
1.0
 40
1.0
 10
6283.595787396712
 20
5540.243872050815
 30
0.0
 10
6283.59568127996
 20
5540.249178002208
 30
0.0
 10
6283.595548836861
 20
5540.255800299321
 30
0.0
 10
6283.594902577766
 20
5540.261860192448
 30
0.0
 10
6283.594774117751
 20
5540.263064746433
 30
0.0
  0
LINE
  5
A3
330
1F
100
AcDbEntity
  8
0
  6
Continuous
 62
     7
370
    25
100
AcDbLine
 10
6283.5957873967
 20
5540.2438720508
 30
0.0
 11
6283.5957873967
 21
5507.6145609661
 31
0.0
  0
LINE
  5
A4
330
1F
100
AcDbEntity
  8
0
  6
Continuous
 62
     7
370
    25
100
AcDbLine
 10
6263.8071272877
 20
5543.8814541145
 30
0.0
 11
6264.8506183532
 21
5540.7092055126
 31
0.0
  0
SPLINE
  5
A5
330
1F
100
AcDbEntity
  8
0
  6
Continuous
 62
     7
370
    25
100
AcDbSpline
210
0.0
220
0.0
230
1.0
 70
     8
 71
     3
 72
     9
 73
     5
 74
     0
 42
0.000000001
 43
0.00000001
 40
0.0
 40
0.0
 40
0.0
 40
0.0
 40
0.0119605913245414
 40
0.9999999999999999
 40
0.9999999999999999
 40
0.9999999999999999
 40
0.9999999999999999
 10
6264.228733291907
 20
5544.138499145084
 30
0.0
 10
6264.22701196466
 20
5544.137485935158
 30
0.0
 10
6264.083095397335
 20
5544.052773574518
 30
0.0
 10
6263.944277444813
 20
5543.966613482842
 30
0.0
 10
6263.807119837088
 20
5543.881483916813
 30
0.0
  0
SPLINE
  5
A6
330
1F
100
AcDbEntity
  8
0
  6
Continuous
 62
     7
370
    25
100
AcDbSpline
210
0.0
220
0.0
230
1.0
 70
     8
 71
     3
 72
     9
 73
     5
 74
     0
 42
0.000000001
 43
0.00000001
 40
0.0
 40
0.0
 40
0.0
 40
0.0
 40
0.047606228443772
 40
0.9999999999999999
 40
0.9999999999999999
 40
0.9999999999999999
 40
0.9999999999999999
 10
6283.106843045039
 20
5540.709205512577
 30
0.0
 10
6283.127015773996
 20
5540.763482011344
 30
0.0
 10
6283.550757154429
 20
5541.903595407036
 30
0.0
 10
6283.893582101636
 20
5543.048294683691
 30
0.0
 10
6284.220086446089
 20
5544.138499145084
 30
0.0
  0
LWPOLYLINE
  5
A7
330
1F
100
AcDbEntity
  8
0
  6
Continuous
 62
     7
370
    25
100
AcDbPolyline
 90
        8
 70
   128
 43
0.0
 10
6273.9787344244
 20
5538.035341148
 10
6275.4777390864
 20
5538.1082376285
 10
6276.8959273007
 20
5538.3229931636
 10
6278.1568561104
 20
5538.6680444522
 10
6279.1925315168
 20
5539.1247948452
 10
6279.9471412209
 20
5539.6685680194
 10
6280.3799827006
 20
5540.2700980945
 10
6280.4787326959
 20
5540.7396634861
  0
LWPOLYLINE
  5
A8
330
1F
100
AcDbEntity
  8
0
  6
Continuous
 62
     7
370
    25
100
AcDbPolyline
 90
        8
 70
   128
 43
0.0
 10
6267.4787361529
 20
5540.7396634861
 10
6267.5774861482
 20
5540.2700980945
 10
6268.0103276279
 20
5539.6685680194
 10
6268.7649298814
 20
5539.1247948452
 10
6269.8006127384
 20
5538.6680444522
 10
6271.0615415481
 20
5538.3229931636
 10
6272.4797297624
 20
5538.1082376285
 10
6273.9787344244
 20
5538.035341148
  0
LWPOLYLINE
  5
A9
330
1F
100
AcDbEntity
  8
0
  6
Continuous
 62
     7
370
    25
100
AcDbPolyline
 90
       23
 70
   128
 43
0.0
 10
6269.79049485
 20
5543.7171241088
 10
6268.7649298814
 20
5543.2639499946
 10
6268.0103276279
 20
5542.720147018
 10
6267.5774861482
 20
5542.1186169429
 10
6267.4897332099
 20
5541.4917548938
 10
6267.7517999318
 20
5540.8734163089
 10
6268.3495674637
 20
5540.29686058
 10
6269.2508045938
 20
5539.7932013317
 10
6270.4069260862
 20
5539.3895586772
 10
6271.7556003836
 20
5539.1078075214
 10
6273.224132171
 20
5538.9629682346
 10
6274.7333366778
 20
5538.9629682346
 10
6276.2018684652
 20
5539.1078075214
 10
6277.5505427626
 20
5539.3895586772
 10
6278.7066642549
 20
5539.7932013317
 10
6279.6079013851
 20
5540.29686058
 10
6280.205668917
 20
5540.8734163089
 10
6280.4677356389
 20
5541.4917548938
 10
6280.3799827006
 20
5542.1186169429
 10
6279.9471412209
 20
5542.720147018
 10
6279.1925315168
 20
5543.2639499946
 10
6278.1568561104
 20
5543.7206705852
 10
6278.1324033049
 20
5543.7291642471
  0
LINE
  5
AA
330
1F
100
AcDbEntity
  8
0
  6
Continuous
 62
     7
370
    25
100
AcDbLine
 10
6270.1981980708
 20
5540.5450543209
 30
0.0
 11
6274.3864376452
 21
5539.7348483844
 31
0.0
  0
LINE
  5
AB
330
1F
100
AcDbEntity
  8
0
  6
Continuous
 62
     7
370
    25
100
AcDbLine
 10
6274.3864376452
 20
5539.7348483844
 30
0.0
 11
6278.1669739988
 21
5540.838845615
 31
0.0
  0
LINE
  5
AC
330
1F
100
AcDbEntity
  8
0
  6
Continuous
 62
     7
370
    25
100
AcDbLine
 10
6269.79049485
 20
5542.4591978832
 30
0.0
 11
6270.1981980708
 21
5540.5450543209
 31
0.0
  0
LINE
  5
AD
330
1F
100
AcDbEntity
  8
0
  6
Continuous
 62
     7
370
    25
100
AcDbLine
 10
6273.5710312036
 20
5546.2912102981
 30
0.0
 11
6269.79049485
 21
5545.1872428699
 31
0.0
  0
LINE
  5
AE
330
1F
100
AcDbEntity
  8
0
  6
Continuous
 62
     7
370
    25
100
AcDbLine
 10
6277.759270778
 20
5545.481034164
 30
0.0
 11
6273.5710312036
 21
5546.2912102981
 31
0.0
  0
LINE
  5
AF
330
1F
100
AcDbEntity
  8
0
  6
Continuous
 62
     7
370
    25
100
AcDbLine
 10
6278.1669739988
 20
5543.5668607994
 30
0.0
 11
6277.759270778
 21
5545.481034164
 31
0.0
  0
LINE
  5
B0
330
1F
100
AcDbEntity
  8
0
  6
Continuous
 62
     7
370
    25
100
AcDbLine
 10
6274.3864376452
 20
5542.4628933712
 30
0.0
 11
6278.1669739988
 21
5543.5668607994
 31
0.0
  0
LINE
  5
B1
330
1F
100
AcDbEntity
  8
0
  6
Continuous
 62
     7
370
    25
100
AcDbLine
 10
6270.1981980708
 20
5543.2730695053
 30
0.0
 11
6274.3864376452
 21
5542.4628933712
 31
0.0
  0
LINE
  5
B2
330
1F
100
AcDbEntity
  8
0
  6
Continuous
 62
     7
370
    25
100
AcDbLine
 10
6269.79049485
 20
5545.1872428699
 30
0.0
 11
6270.1981980708
 21
5543.2730695053
 31
0.0
  0
LWPOLYLINE
  5
B3
330
1F
100
AcDbEntity
  8
0
  6
Continuous
 62
     7
370
    25
100
AcDbPolyline
 90
       17
 70
   128
 43
0.0
 10
6273.9787344244
 20
5545.232274179
 10
6273.1921095756
 20
5545.1671561046
 10
6272.5252379086
 20
5544.9817856594
 10
6272.0796484855
 20
5544.7043260379
 10
6271.9231788423
 20
5544.3770369335
 10
6272.0796484855
 20
5544.0497776313
 10
6272.5252379086
 20
5543.7723180099
 10
6273.1921095756
 20
5543.5869177623
 10
6273.9787344244
 20
5543.5218294902
 10
6274.7653592732
 20
5543.5869177623
 10
6275.4322309401
 20
5543.7723180099
 10
6275.8778203633
 20
5544.0497776313
 10
6276.0342900064
 20
5544.3770369335
 10
6275.8778203633
 20
5544.7043260379
 10
6275.4322309401
 20
5544.9817856594
 10
6274.7653592732
 20
5545.1671561046
 10
6273.9787344244
 20
5545.232274179
  0
LINE
  5
B4
330
1F
100
AcDbEntity
  8
0
  6
Continuous
 62
     7
370
    25
100
AcDbLine
 10
6270.1981980708
 20
5543.2730695053
 30
0.0
 11
6270.1981980708
 21
5540.5450543209
 31
0.0
  0
LINE
  5
B5
330
1F
100
AcDbEntity
  8
0
  6
Continuous
 62
     7
370
    25
100
AcDbLine
 10
6274.3864376452
 20
5542.4628933712
 30
0.0
 11
6274.3864376452
 21
5539.7348483844
 31
0.0
  0
LINE
  5
B6
330
1F
100
AcDbEntity
  8
0
  6
Continuous
 62
     7
370
    25
100
AcDbLine
 10
6278.1669739988
 20
5543.5668607994
 30
0.0
 11
6278.1669739988
 21
5540.838845615
 31
0.0
  0
LINE
  5
B7
330
1F
100
AcDbEntity
  8
0
  6
Continuous
 62
     7
370
    25
100
AcDbLine
 10
6269.79049485
 20
5545.1872428699
 30
0.0
 11
6269.79049485
 21
5542.4591978832
 31
0.0
  0
ELLIPSE
  5
B8
330
1F
100
AcDbEntity
  8
0
  6
Continuous
 62
     7
370
    25
100
AcDbEllipse
 10
6264.2287340224
 20
5568.1201690067
 30
0.0
 11
0.9999999999990905
 21
0.0
 31
0.0
210
0.0
220
0.0
230
1.0
 40
0.0386181502
 41
1.570796326794897
 42
3.14159265358979
  0
ELLIPSE
  5
B9
330
1F
100
AcDbEntity
  8
0
  6
Continuous
 62
     7
370
    25
100
AcDbEllipse
 10
6264.2287340224
 20
5568.1201690067
 30
0.0
 11
0.9999999999990905
 21
0.0
 31
0.0
210
0.0
220
0.0
230
1.0
 40
0.7013146197
 41
1.570796326794897
 42
3.141592653589793
  0
LINE
  5
BA
330
1F
100
AcDbEntity
  8
0
  6
Continuous
 62
     7
370
    25
100
AcDbLine
 10
6264.2287332919
 20
5568.8214978023
 30
0.0
 11
6264.2287332919
 21
5568.1587835594
 31
0.0
  0
LINE
  5
BB
330
1F
100
AcDbEntity
  8
0
  6
Continuous
 62
     7
370
    25
100
AcDbLine
 10
6283.7287355569
 20
5568.1587835594
 30
0.0
 11
6283.7287355569
 21
5568.8214978023
 31
0.0
  0
LINE
  5
BC
330
1F
100
AcDbEntity
  8
0
  6
Continuous
 62
     7
370
    25
100
AcDbLine
 10
6264.2287332919
 20
5568.1587835594
 30
0.0
 11
6283.7287355569
 21
5568.1587835594
 31
0.0
  0
LINE
  5
BD
330
1F
100
AcDbEntity
  8
0
  6
Continuous
 62
     7
370
    25
100
AcDbLine
 10
6264.2287332919
 20
5568.8214978023
 30
0.0
 11
6283.7287355569
 21
5568.8214978023
 31
0.0
  0
ELLIPSE
  5
BE
330
1F
100
AcDbEntity
  8
0
  6
Continuous
 62
     7
370
    25
100
AcDbEllipse
 10
6283.7287340224
 20
5568.1201690067
 30
0.0
 11
0.9999999999990905
 21
0.0
 31
0.0
210
0.0
220
0.0
230
1.0
 40
0.0386181502
 41
0.0
 42
1.570796326794897
  0
ELLIPSE
  5
BF
330
1F
100
AcDbEntity
  8
0
  6
Continuous
 62
     7
370
    25
100
AcDbEllipse
 10
6283.7287340224
 20
5568.1201690067
 30
0.0
 11
0.9999999999990905
 21
0.0
 31
0.0
210
0.0
220
0.0
230
1.0
 40
0.7013146197
 41
0.0
 42
1.570796326794897
  0
LINE
  5
C0
330
1F
100
AcDbEntity
  8
0
  6
Continuous
 62
     7
370
    25
100
AcDbLine
 10
6264.2287332919
 20
5568.1587835594
 30
0.0
 11
6264.2287332919
 21
5546.7892667099
 31
0.0
  0
LWPOLYLINE
  5
C1
330
1F
100
AcDbEntity
  8
0
  6
Continuous
 62
     7
370
    25
100
AcDbPolyline
 90
        9
 70
   128
 43
0.0
 10
6264.2287332919
 20
5546.7892667099
 10
6264.0336472896
 20
5546.7972835346
 10
6263.8460491207
 20
5546.8209465786
 10
6263.6731658485
 20
5546.8593915744
 10
6263.5216284898
 20
5546.9111284061
 10
6263.3972633985
 20
5546.9741901203
 10
6263.3048538473
 20
5547.0461031242
 10
6263.2479463127
 20
5547.1241554065
 10
6263.2287312653
 20
5547.2053369327
  0
LINE
  5
C2
330
1F
100
AcDbEntity
  8
0
  6
Continuous
 62
     7
370
    25
100
AcDbLine
 10
6263.2287312653
 20
5547.2053369327
 30
0.0
 11
6263.2287312653
 21
5568.1201597496
 31
0.0
  0
LINE
  5
C3
330
1F
100
AcDbEntity
  8
0
  6
Continuous
 62
     7
370
    25
100
AcDbLine
 10
6283.7287355569
 20
5546.7892667099
 30
0.0
 11
6283.7287355569
 21
5568.1587835594
 31
0.0
  0
LINE
  5
C4
330
1F
100
AcDbEntity
  8
0
  6
Continuous
 62
     7
370
    25
100
AcDbLine
 10
6264.2287332919
 20
5546.7892667099
 30
0.0
 11
6283.7287355569
 21
5546.7892667099
 31
0.0
  0
LINE
  5
C5
330
1F
100
AcDbEntity
  8
0
  6
Continuous
 62
     7
370
    25
100
AcDbLine
 10
6284.7287375834
 20
5568.1201597496
 30
0.0
 11
6284.7287375834
 21
5547.2053369327
 31
0.0
  0
LWPOLYLINE
  5
C6
330
1F
100
AcDbEntity
  8
0
  6
Continuous
 62
     7
370
    25
100
AcDbPolyline
 90
        9
 70
   128
 43
0.0
 10
6284.7287375834
 20
5547.2053369327
 10
6284.7095225361
 20
5547.1241554065
 10
6284.6526150015
 20
5547.0461031242
 10
6284.5602054503
 20
5546.9741901203
 10
6284.435840359
 20
5546.9111284061
 10
6284.2843030003
 20
5546.8593915744
 10
6284.1114197281
 20
5546.8209465786
 10
6283.9238215592
 20
5546.7972835346
 10
6283.7287355569
 20
5546.7892667099
  0
LINE
  5
C7
330
1F
100
AcDbEntity
  8
0
  6
Continuous
 62
     7
370
    25
100
AcDbLine
 10
6264.2287332919
 20
5570.693709497
 30
0.0
 11
6264.2287332919
 21
5568.8214978023
 31
0.0
  0
LINE
  5
C8
330
1F
100
AcDbEntity
  8
0
  6
Continuous
 62
     7
370
    25
100
AcDbLine
 10
6263.2287312653
 20
5568.1201597496
 30
0.0
 11
6263.2287312653
 21
5569.7843810363
 31
0.0
  0
ARC
  5
C9
330
1F
100
AcDbEntity
  8
0
  6
Continuous
 62
     7
370
    25
100
AcDbCircle
 10
6264.1854474434
 20
5569.7367888104
 30
0.0
 40
0.9578991936736033
100
AcDbArc
 50
87.4100184235
 51
177.152146265
  0
LINE
  5
CA
330
1F
100
AcDbEntity
  8
0
  6
Continuous
 62
     7
370
    25
100
AcDbLine
 10
6283.7287355569
 20
5568.8214978023
 30
0.0
 11
6283.7287355569
 21
5570.693709497
 31
0.0
  0
LINE
  5
CB
330
1F
100
AcDbEntity
  8
0
  6
Continuous
 62
     7
370
    25
100
AcDbLine
 10
6264.2287332919
 20
5570.693709497
 30
0.0
 11
6283.7287355569
 21
5570.693709497
 31
0.0
  0
LINE
  5
CC
330
1F
100
AcDbEntity
  8
0
  6
Continuous
 62
     7
370
    25
100
AcDbLine
 10
6284.7287375834
 20
5569.7843810363
 30
0.0
 11
6284.7287375834
 21
5568.1201597496
 31
0.0
  0
ARC
  5
CD
330
1F
100
AcDbEntity
  8
0
  6
Continuous
 62
     7
370
    25
100
AcDbCircle
 10
6283.7720214054
 20
5569.7367888104
 30
0.0
 40
0.9578991936739477
100
AcDbArc
 50
2.847853735
 51
92.5899815763
  0
SPLINE
  5
CE
330
1F
100
AcDbEntity
  8
0
  6
Continuous
 62
     7
370
    25
100
AcDbSpline
210
0.0
220
0.0
230
1.0
 70
     8
 71
     3
 72
    11
 73
     7
 74
     0
 42
0.000000001
 43
0.00000001
 40
0.0
 40
0.0
 40
0.0
 40
0.0
 40
0.2500035952722472
 40
0.4999985126518936
 40
0.7500053115732951
 40
0.9999999999999999
 40
0.9999999999999999
 40
0.9999999999999999
 40
0.9999999999999999
 10
6263.807119837088
 20
5543.881483916813
 30
0.0
 10
6263.744183587341
 20
5543.872102786353
 30
0.0
 10
6263.618313272435
 20
5543.853340851062
 30
0.0
 10
6263.457645216679
 20
5543.747117895117
 30
0.0
 10
6263.341744568592
 20
5543.599860200613
 30
0.0
 10
6263.321273243721
 20
5543.484498926463
 30
0.0
 10
6263.311037829203
 20
5543.426819686466
 30
0.0
  0
SPLINE
  5
CF
330
1F
100
AcDbEntity
  8
0
  6
Continuous
 62
     7
370
    25
100
AcDbSpline
210
0.0
220
0.0
230
1.0
 70
     8
 71
     3
 72
    11
 73
     7
 74
     0
 42
0.000000001
 43
0.00000001
 40
0.0
 40
0.0
 40
0.0
 40
0.0
 40
0.0000102753359907
 40
0.1291769549070125
 40
0.6458680236389036
 40
0.9999999999999999
 40
0.9999999999999999
 40
0.9999999999999999
 40
0.9999999999999999
 10
6264.361681452078
 20
5540.243872050815
 30
0.0
 10
6264.361678968617
 20
5540.243891919409
 30
0.0
 10
6264.330457994407
 20
5540.493671043778
 30
0.0
 10
6264.019525131028
 20
5540.844768104925
 30
0.0
 10
6263.694892792202
 20
5542.177312541509
 30
0.0
 10
6263.422009509226
 20
5543.065568555184
 30
0.0
 10
6263.311037829203
 20
5543.426789884144
 30
0.0
  0
ARC
  5
D0
330
1F
100
AcDbEntity
  8
0
  6
Continuous
 62
     7
370
    25
100
AcDbCircle
 10
6284.2118761139
 20
5543.6313409645
 30
0.0
 40
0.5072246343677977
100
AcDbArc
 50
5.9403205255
 51
89.072525478
  0
SPLINE
  5
D1
330
1F
100
AcDbEntity
  8
0
  6
Continuous
 62
     7
370
    25
100
AcDbSpline
210
0.0
220
0.0
230
1.0
 70
     8
 71
     3
 72
    12
 73
     8
 74
     0
 42
0.000000001
 43
0.00000001
 40
0.0
 40
0.0
 40
0.0
 40
0.0
 40
0.1195448670745569
 40
0.5977581782739139
 40
0.9494889200229566
 40
0.9999904901873624
 40
1.0
 40
1.0
 40
1.0
 40
1.0
 10
6284.716377070231
 20
5543.683834914737
 30
0.0
 10
6284.679181918129
 20
5543.545438010266
 30
0.0
 10
6284.493195627751
 20
5542.853414308035
 30
0.0
 10
6284.132895004614
 20
5541.868396001112
 30
0.0
 10
6283.816924342656
 20
5540.599322131097
 30
0.0
 10
6283.608980246475
 20
5540.349425991623
 30
0.0
 10
6283.595789880086
 20
5540.243891919906
 30
0.0
 10
6283.595787396712
 20
5540.243872050815
 30
0.0
  0
SPLINE
  5
D2
330
1F
100
AcDbEntity
  8
0
  6
Continuous
 62
     7
370
    25
100
AcDbSpline
210
0.0
220
0.0
230
1.0
 70
     8
 71
     3
 72
    10
 73
     6
 74
     0
 42
0.000000001
 43
0.00000001
 40
0.0
 40
0.0
 40
0.0
 40
0.0
 40
0.248164581735775
 40
0.699014528642365
 40
1.0
 40
1.0
 40
1.0
 40
1.0
 10
6263.007255306525
 20
5544.689395074421
 30
0.0
 10
6262.982481250927
 20
5544.777012971943
 30
0.0
 10
6262.912699234997
 20
5545.023809605485
 30
0.0
 10
6262.820341722056
 20
5545.409040100071
 30
0.0
 10
6262.756474184579
 20
5545.712306799314
 30
0.0
 10
6262.730905821604
 20
5545.833714847141
 30
0.0
  0
LINE
  5
D3
330
1F
100
AcDbEntity
  8
0
  6
Continuous
 62
     7
370
    25
100
AcDbLine
 10
6263.1427515653
 20
5544.0572282119
 30
0.0
 11
6263.0072553065
 21
5544.6893950744
 31
0.0
  0
SPLINE
  5
D4
330
1F
100
AcDbEntity
  8
0
  6
Continuous
 62
     7
370
    25
100
AcDbSpline
210
0.0
220
0.0
230
1.0
 70
     8
 71
     3
 72
     9
 73
     5
 74
     0
 42
0.000000001
 43
0.00000001
 40
0.0
 40
0.0
 40
0.0
 40
0.0
 40
0.6543750443417485
 40
1.0
 40
1.0
 40
1.0
 40
1.0
 10
6263.311045279784
 20
5543.426789884144
 30
0.0
 10
6263.2735337859
 20
5543.564253013307
 30
0.0
 10
6263.216209634855
 20
5543.774320818235
 30
0.0
 10
6263.161619335169
 20
5543.984563198556
 30
0.0
 10
6263.14275156526
 20
5544.057228211933
 30
0.0
  0
SPLINE
  5
D5
330
1F
100
AcDbEntity
  8
0
  6
Continuous
 62
     7
370
    25
100
AcDbSpline
210
0.0
220
0.0
230
1.0
 70
     8
 71
     3
 72
    11
 73
     7
 74
     0
 42
0.000000001
 43
0.00000001
 40
0.0
 40
0.0
 40
0.0
 40
0.0
 40
0.2164215598049363
 40
0.5221132622536673
 40
0.8398046907981008
 40
1.0
 40
1.0
 40
1.0
 40
1.0
 10
6262.158053031249
 20
5546.514519099765
 30
0.0
 10
6262.212040378714
 20
5543.650737004443
 30
0.0
 10
6262.342283918826
 20
5536.741912331338
 30
0.0
 10
6262.796719832295
 20
5525.855172081132
 30
0.0
 10
6263.397120215547
 20
5515.748570768755
 30
0.0
 10
6263.915949471809
 20
5509.656665459722
 30
0.0
 10
6264.089869370741
 20
5507.614560966068
 30
0.0
  0
SPLINE
  5
D6
330
1F
100
AcDbEntity
  8
0
  6
Continuous
 62
     7
370
    25
100
AcDbSpline
210
0.0
220
0.0
230
1.0
 70
    24
 71
     3
 72
     9
 73
     5
 74
     0
 42
0.000000001
 43
0.00000001
 40
0.0
 40
0.0
 40
0.0
 40
0.0
 40
0.2966673730514375
 40
1.0
 40
1.0
 40
1.0
 40
1.0
 10
6262.598337641043
 20
5546.514519099765
 30
0.0
 10
6262.539287386207
 20
5546.514519099765
 30
0.0
 10
6262.340242057334
 20
5546.514519099765
 30
0.0
 10
6262.23328172369
 20
5546.514519099765
 30
0.0
 10
6262.158053031249
 20
5546.514519099765
 30
0.0
  0
LINE
  5
D7
330
1F
100
AcDbEntity
  8
0
  6
Continuous
 62
     7
370
    25
100
AcDbLine
 10
6262.7309058216
 20
5545.8337148471
 30
0.0
 11
6262.598337641
 21
5546.5145190998
 31
0.0
  0
SPLINE
  5
D8
330
1F
100
AcDbEntity
  8
0
  6
Continuous
 62
     7
370
    25
100
AcDbSpline
210
0.0
220
0.0
230
1.0
 70
     8
 71
     3
 72
     9
 73
     5
 74
     0
 42
0.000000001
 43
0.00000001
 40
0.0
 40
0.0
 40
0.0
 40
0.0
 40
0.1879719462949708
 40
1.0
 40
1.0
 40
1.0
 40
1.0
 10
6284.81622230081
 20
5544.29671967464
 30
0.0
 10
6284.81100264509
 20
5544.248937022315
 30
0.0
 10
6284.783234375293
 20
5543.994736045694
 30
0.0
 10
6284.746337979055
 20
5543.823159711475
 30
0.0
 10
6284.716377070231
 20
5543.683834914737
 30
0.0
  0
SPLINE
  5
D9
330
1F
100
AcDbEntity
  8
0
  6
Continuous
 62
     7
370
    25
100
AcDbSpline
210
0.0
220
0.0
230
1.0
 70
     8
 71
     3
 72
    12
 73
     8
 74
     0
 42
0.000000001
 43
0.00000001
 40
0.0
 40
0.0
 40
0.0
 40
0.0
 40
0.3866654756876781
 40
0.6464592574671155
 40
0.8212440320897123
 40
0.9390269598892409
 40
1.0
 40
1.0
 40
1.0
 40
1.0
 10
6285.226563027186
 20
5545.833714847141
 30
0.0
 10
6285.17931123289
 20
5545.613090977557
 30
0.0
 10
6285.100311783042
 20
5545.24423378218
 30
0.0
 10
6284.987547210593
 20
5544.812552055443
 30
0.0
 10
6284.90735224732
 20
5544.544772876196
 30
0.0
 10
6284.853816215732
 20
5544.388107497505
 30
0.0
 10
6284.825783994246
 20
5544.31996339235
 30
0.0
 10
6284.81622230081
 20
5544.29671967464
 30
0.0
  0
LINE
  5
DA
330
1F
100
AcDbEntity
  8
0
  6
Continuous
 62
     7
370
    25
100
AcDbLine
 10
6285.3591312077
 20
5546.5145190998
 30
0.0
 11
6285.2265630272
 21
5545.8337148471
 31
0.0
  0
SPLINE
  5
DB
330
1F
100
AcDbEntity
  8
0
  6
Continuous
 62
     7
370
    25
100
AcDbSpline
210
0.0
220
0.0
230
1.0
 70
    24
 71
     3
 72
     9
 73
     5
 74
     0
 42
0.000000001
 43
0.00000001
 40
0.0
 40
0.0
 40
0.0
 40
0.0
 40
0.2966681582712788
 40
0.9999999999999999
 40
0.9999999999999999
 40
0.9999999999999999
 40
0.9999999999999999
 10
6285.799415817542
 20
5546.514519099765
 30
0.0
 10
6285.771578422456
 20
5546.514519099765
 30
0.0
 10
6285.677744978218
 20
5546.514519099765
 30
0.0
 10
6285.490691720206
 20
5546.514519099765
 30
0.0
 10
6285.359131207747
 20
5546.514519099765
 30
0.0
  0
SPLINE
  5
DC
330
1F
100
AcDbEntity
  8
0
  6
Continuous
 62
     7
370
    25
100
AcDbSpline
210
0.0
220
0.0
230
1.0
 70
     8
 71
     3
 72
    11
 73
     7
 74
     0
 42
0.000000001
 43
0.00000001
 40
0.0
 40
0.0
 40
0.0
 40
0.0
 40
0.1726427236550314
 40
0.4778875991328877
 40
0.7518264416721995
 40
1.0
 40
1.0
 40
1.0
 40
1.0
 10
6283.867599478049
 20
5507.614560966068
 30
0.0
 10
6284.054173629025
 20
5509.816394617736
 30
0.0
 10
6284.570624430907
 20
5515.911230097674
 30
0.0
 10
6285.142900200999
 20
5525.606197789938
 30
0.0
 10
6285.601758315825
 20
5536.329867579973
 30
0.0
 10
6285.735733797967
 20
5543.233190681633
 30
0.0
 10
6285.799415817542
 20
5546.514519099765
 30
0.0
  0
SPLINE
  5
DD
330
1F
100
AcDbEntity
  8
0
  6
Continuous
 62
     7
370
    25
100
AcDbSpline
210
0.0
220
0.0
230
1.0
 70
     8
 71
     3
 72
    10
 73
     6
 74
     0
 42
0.000000001
 43
0.00000001
 40
0.0
 40
0.0
 40
0.0
 40
0.0
 40
0.0000019010723528
 40
0.2552092424526178
 40
0.9999999999999999
 40
0.9999999999999999
 40
0.9999999999999999
 40
0.9999999999999999
 10
6261.783005705161
 20
5507.614560966068
 30
0.0
 10
6261.783005705162
 20
5507.614560966036
 30
0.0
 10
6261.78300586765
 20
5507.614556814516
 30
0.0
 10
6261.526027395181
 20
5514.164580191899
 30
0.0
 10
6261.437984968998
 20
5517.451900161891
 30
0.0
 10
6261.372411659045
 20
5519.900270347171
 30
0.0
  0
SPLINE
  5
DE
330
1F
100
AcDbEntity
  8
0
  6
Continuous
 62
     7
370
    25
100
AcDbSpline
210
0.0
220
0.0
230
1.0
 70
     8
 71
     3
 72
    11
 73
     7
 74
     0
 42
0.000000001
 43
0.00000001
 40
0.0
 40
0.0
 40
0.0
 40
0.0
 40
0.4126279253738742
 40
0.705647868636764
 40
0.8528739515941248
 40
1.0
 40
1.0
 40
1.0
 40
1.0
 10
6261.372411659045
 20
5519.900270347171
 30
0.0
 10
6261.490055827689
 20
5523.508440584673
 30
0.0
 10
6261.69124278513
 20
5529.678884903156
 30
0.0
 10
6261.900674496628
 20
5537.258261533976
 30
0.0
 10
6262.028228713486
 20
5542.53251918047
 30
0.0
 10
6262.072250364428
 20
5545.22311429917
 30
0.0
 10
6262.094253709597
 20
5546.567954663807
 30
0.0
  0
LINE
  5
DF
330
1F
100
AcDbEntity
  8
0
  6
Continuous
 62
     7
370
    25
100
AcDbLine
 10
6262.1370721963
 20
5546.5276917263
 30
0.0
 11
6262.0942537096
 21
5546.5679546638
 31
0.0
  0
LINE
  5
E0
330
1F
100
AcDbEntity
  8
0
  6
Continuous
 62
     7
370
    25
100
AcDbLine
 10
6262.1580530312
 20
5546.5145190998
 30
0.0
 11
6262.1370721963
 21
5546.5276917263
 31
0.0
  0
SPLINE
  5
E1
330
1F
100
AcDbEntity
  8
0
  6
Continuous
 62
     7
370
    25
100
AcDbSpline
210
0.0
220
0.0
230
1.0
 70
     8
 71
     3
 72
    11
 73
     7
 74
     0
 42
0.000000001
 43
0.00000001
 40
0.0
 40
0.0
 40
0.0
 40
0.0
 40
0.1833273446747792
 40
0.8110998783023877
 40
0.9999987842369794
 40
1.0
 40
1.0
 40
1.0
 40
1.0
 10
6286.75510924129
 20
5526.842363719516
 30
0.0
 10
6286.727367917109
 20
5525.632871710634
 30
0.0
 10
6286.604631264232
 20
5520.281685159863
 30
0.0
 10
6286.500803375566
 20
5516.017045322447
 30
0.0
 10
6286.174462982853
 20
5507.614556802908
 30
0.0
 10
6286.174463143629
 20
5507.614560966041
 30
0.0
 10
6286.17446314363
 20
5507.614560966068
 30
0.0
  0
LINE
  5
E2
330
1F
100
AcDbEntity
  8
0
  6
Continuous
 62
     7
370
    25
100
AcDbLine
 10
6285.8203966525
 20
5546.5276917263
 30
0.0
 11
6285.7994158175
 21
5546.5145190998
 31
0.0
  0
LINE
  5
E3
330
1F
100
AcDbEntity
  8
0
  6
Continuous
 62
     7
370
    25
100
AcDbLine
 10
6285.8718801644
 20
5546.5785046859
 30
0.0
 11
6285.8203966525
 21
5546.5276917263
 31
0.0
  0
SPLINE
  5
E4
330
1F
100
AcDbEntity
  8
0
  6
Continuous
 62
     7
370
    25
100
AcDbSpline
210
0.0
220
0.0
230
1.0
 70
     8
 71
     3
 72
    10
 73
     6
 74
     0
 42
0.000000001
 43
0.00000001
 40
0.0
 40
0.0
 40
0.0
 40
0.0
 40
0.251516061681044
 40
0.5044137926340231
 40
1.0
 40
1.0
 40
1.0
 40
1.0
 10
6285.871880164427
 20
5546.578504685932
 30
0.0
 10
6285.916585557979
 20
5544.892016162003
 30
0.0
 10
6286.006241928081
 20
5541.509774618845
 30
0.0
 10
6286.297231168642
 20
5534.910584373933
 30
0.0
 10
6286.572709512266
 20
5530.056409879359
 30
0.0
 10
6286.75510924129
 20
5526.842363719516
 30
0.0
  0
SPLINE
  5
E5
330
1F
100
AcDbEntity
  8
0
  6
Continuous
 62
     7
370
    25
100
AcDbSpline
210
0.0
220
0.0
230
1.0
 70
     8
 71
     3
 72
    12
 73
     8
 74
     0
 42
0.000000001
 43
0.00000001
 40
0.0
 40
0.0
 40
0.0
 40
0.0
 40
0.0503966822717518
 40
0.3235524962391072
 40
0.6060552583821363
 40
0.8573947162918655
 40
1.0
 40
1.0
 40
1.0
 40
1.0
 10
6285.217108240408
 20
5547.957070712619
 30
0.0
 10
6285.302754711842
 20
5547.920048589025
 30
0.0
 10
6285.852614908534
 20
5547.682362297685
 30
0.0
 10
6286.740016878553
 20
5547.197498099009
 30
0.0
 10
6287.542413577262
 20
5546.49045981998
 30
0.0
 10
6287.946651517062
 20
5545.865631360185
 30
0.0
 10
6287.935108545127
 20
5545.495902569322
 30
0.0
 10
6287.930930068774
 20
5545.362063293033
 30
0.0
  0
SPLINE
  5
E6
330
1F
100
AcDbEntity
  8
0
  6
Continuous
 62
     7
370
    25
100
AcDbSpline
210
0.0
220
0.0
230
1.0
 70
     8
 71
     3
 72
    11
 73
     7
 74
     0
 42
0.000000001
 43
0.00000001
 40
0.0
 40
0.0
 40
0.0
 40
0.0
 40
0.2383382194873105
 40
0.4884585451530363
 40
0.7457213530314719
 40
1.0
 40
1.0
 40
1.0
 40
1.0
 10
6259.987356176657
 20
5545.36489451366
 30
0.0
 10
6260.018798694254
 20
5545.582149589159
 30
0.0
 10
6260.083238071345
 20
5546.027399613821
 30
0.0
 10
6260.607038613782
 20
5546.686590305835
 30
0.0
 10
6261.417170769035
 20
5547.326568498926
 30
0.0
 10
6262.207075234752
 20
5547.707251485976
 30
0.0
 10
6262.599723449034
 20
5547.896482591205
 30
0.0
  0
LINE
  5
E7
330
1F
100
AcDbEntity
  8
0
  6
Continuous
 62
     7
370
    25
100
AcDbLine
 10
6263.6393178609
 20
5544.5118924423
 30
0.0
 11
6263.8071272877
 21
5543.8814541145
 31
0.0
  0
SPLINE
  5
E8
330
1F
100
AcDbEntity
  8
0
  6
Continuous
 62
     7
370
    25
100
AcDbSpline
210
0.0
220
0.0
230
1.0
 70
     8
 71
     3
 72
    11
 73
     7
 74
     0
 42
0.000000001
 43
0.00000001
 40
0.0
 40
0.0
 40
0.0
 40
0.0
 40
0.250007453429348
 40
0.5000070595239283
 40
0.7499987082325592
 40
1.0
 40
1.0
 40
1.0
 40
1.0
 10
6263.639317860884
 20
5544.51189244228
 30
0.0
 10
6263.576193705362
 20
5544.502662041987
 30
0.0
 10
6263.449947375686
 20
5544.484201531132
 30
0.0
 10
6263.288927907934
 20
5544.378044652653
 30
0.0
 10
6263.172959619513
 20
5544.230623745853
 30
0.0
 10
6263.152821046145
 20
5544.115027466384
 30
0.0
 10
6263.14275156526
 20
5544.057228211933
 30
0.0
  0
SPLINE
  5
E9
330
1F
100
AcDbEntity
  8
0
  6
Continuous
 62
     7
370
    25
100
AcDbSpline
210
0.0
220
0.0
230
1.0
 70
     8
 71
     3
 72
    10
 73
     6
 74
     0
 42
0.000000001
 43
0.00000001
 40
0.0
 40
0.0
 40
0.0
 40
0.0
 40
0.2913195832613916
 40
0.6412051658285273
 40
1.0
 40
1.0
 40
1.0
 40
1.0
 10
6263.639325311465
 20
5544.511862639957
 30
0.0
 10
6263.575369496381
 20
5544.562358542747
 30
0.0
 10
6263.434600384473
 20
5544.673501890406
 30
0.0
 10
6263.270172768009
 20
5544.859427492156
 30
0.0
 10
6263.242660391164
 20
5544.998432286667
 30
0.0
 10
6263.228731265349
 20
5545.068808440738
 30
0.0
  0
LINE
  5
EA
330
1F
100
AcDbEntity
  8
0
  6
Continuous
 62
     7
370
    25
100
AcDbLine
 10
6264.2287332919
 20
5546.7892667099
 30
0.0
 11
6264.2287332919
 21
5544.1384991451
 31
0.0
  0
SPLINE
  5
EB
330
1F
100
AcDbEntity
  8
0
  6
Continuous
 62
     7
370
    25
100
AcDbSpline
210
0.0
220
0.0
230
1.0
 70
     8
 71
     3
 72
    17
 73
    13
 74
     0
 42
0.000000001
 43
0.00000001
 40
0.0
 40
0.0
 40
0.0
 40
0.0
 40
0.0895667788546312
 40
0.2343013930560691
 40
0.3080866761359119
 40
0.343357684687609
 40
0.377570192932468
 40
0.4103596219047513
 40
0.445917390972363
 40
0.5189065170249025
 40
0.6669887978191871
 40
0.9999999999999999
 40
0.9999999999999999
 40
0.9999999999999999
 40
0.9999999999999999
 10
6263.807127287669
 20
5543.88145411449
 30
0.0
 10
6263.83565695697
 20
5543.899843669472
 30
0.0
 10
6263.910288883519
 20
5543.947949657036
 30
0.0
 10
6264.010799411912
 20
5544.010627575248
 30
0.0
 10
6264.099413428347
 20
5544.060470751636
 30
0.0
 10
6264.142682695011
 20
5544.09069426577
 30
0.0
 10
6264.157977164488
 20
5544.115261015052
 30
0.0
 10
6264.159193447813
 20
5544.140469155871
 30
0.0
 10
6264.143390192288
 20
5544.174600059513
 30
0.0
 10
6264.07838756644
 20
5544.231949703855
 30
0.0
 10
6263.88222133995
 20
5544.340289757213
 30
0.0
 10
6263.738678030469
 20
5544.441698009679
 30
0.0
 10
6263.639317860884
 20
5544.51189244228
 30
0.0
  0
LINE
  5
EC
330
1F
100
AcDbEntity
  8
0
  6
Continuous
 62
     7
370
    25
100
AcDbLine
 10
6263.2287312653
 20
5545.0688084407
 30
0.0
 11
6263.2287312653
 21
5547.2053369327
 31
0.0
  0
LINE
  5
ED
330
1F
100
AcDbEntity
  8
0
  6
Continuous
 62
     7
370
    25
100
AcDbLine
 10
6284.2200864461
 20
5544.1384991451
 30
0.0
 11
6284.2871193197
 21
5544.4167634292
 31
0.0
  0
SPLINE
  5
EE
330
1F
100
AcDbEntity
  8
0
  6
Continuous
 62
     7
370
    25
100
AcDbSpline
210
0.0
220
0.0
230
1.0
 70
     8
 71
     3
 72
    11
 73
     7
 74
     0
 42
0.000000001
 43
0.00000001
 40
0.0
 40
0.0
 40
0.0
 40
0.0
 40
0.0120863248046265
 40
0.0961085635211681
 40
0.5894014509972417
 40
0.9999999999999999
 40
0.9999999999999999
 40
0.9999999999999999
 40
0.9999999999999999
 10
6284.28711931972
 20
5544.416763429218
 30
0.0
 10
6284.289163614489
 20
5544.417649734915
 30
0.0
 10
6284.305419526591
 20
5544.424697499132
 30
0.0
 10
6284.404701880981
 20
5544.465394463817
 30
0.0
 10
6284.572502434534
 20
5544.508178410182
 30
0.0
 10
6284.67993544257
 20
5544.519851774342
 30
0.0
 10
6284.728737583441
 20
5544.525154475742
 30
0.0
  0
SPLINE
  5
EF
330
1F
100
AcDbEntity
  8
0
  6
Continuous
 62
     7
370
    25
100
AcDbSpline
210
0.0
220
0.0
230
1.0
 70
     8
 71
     3
 72
    10
 73
     6
 74
     0
 42
0.000000001
 43
0.00000001
 40
0.0
 40
0.0
 40
0.0
 40
0.0
 40
0.0216847330789049
 40
0.3539892604014993
 40
1.0
 40
1.0
 40
1.0
 40
1.0
 10
6284.81622230081
 20
5544.29671967464
 30
0.0
 10
6284.816089019159
 20
5544.298448032632
 30
0.0
 10
6284.813913282307
 20
5544.326662360424
 30
0.0
 10
6284.800286347157
 20
5544.406765346277
 30
0.0
 10
6284.757193244176
 20
5544.478069931889
 30
0.0
 10
6284.728737583441
 20
5544.525154475742
 30
0.0
  0
LINE
  5
F0
330
1F
100
AcDbEntity
  8
0
  6
Continuous
 62
     7
370
    25
100
AcDbLine
 10
6283.7287355569
 20
5545.364924316
 30
0.0
 11
6283.7287355569
 21
5546.7892667099
 31
0.0
  0
SPLINE
  5
F1
330
1F
100
AcDbEntity
  8
0
  6
Continuous
 62
     7
370
    25
100
AcDbSpline
210
0.0
220
0.0
230
1.0
 70
     8
 71
     3
 72
    10
 73
     6
 74
     0
 42
0.000000001
 43
0.00000001
 40
0.0
 40
0.0
 40
0.0
 40
0.0
 40
0.2818009027400895
 40
0.7379242801087469
 40
1.0
 40
1.0
 40
1.0
 40
1.0
 10
6284.28711931972
 20
5544.416763429218
 30
0.0
 10
6284.213423309809
 20
5544.48188319907
 30
0.0
 10
6284.020442824184
 20
5544.652405929201
 30
0.0
 10
6283.784190461262
 20
5544.965969482167
 30
0.0
 10
6283.743561383001
 20
5545.258264047406
 30
0.0
 10
6283.728735556883
 20
5545.364924315983
 30
0.0
  0
LWPOLYLINE
  5
F2
330
1F
100
AcDbEntity
  8
0
  6
Continuous
 62
     7
370
    25
100
AcDbPolyline
 90
        9
 70
   128
 43
0.0
 10
6283.7287355569
 20
5545.364924316
 10
6283.9238215592
 20
5545.3592320724
 10
6284.1114197281
 20
5545.3423937603
 10
6284.2843030003
 20
5545.3150352283
 10
6284.435840359
 20
5545.2781995578
 10
6284.5602054503
 20
5545.2333172603
 10
6284.6526150015
 20
5545.1821466728
 10
6284.7095225361
 20
5545.1265951438
 10
6284.7287375834
 20
5545.0688084407
  0
LINE
  5
F3
330
1F
100
AcDbEntity
  8
0
  6
Continuous
 62
     7
370
    25
100
AcDbLine
 10
6284.7287375834
 20
5544.5251544757
 30
0.0
 11
6284.7287375834
 21
5545.0688084407
 31
0.0
  0
SPLINE
  5
F4
330
1F
100
AcDbEntity
  8
0
  6
Continuous
 62
     7
370
    25
100
AcDbSpline
210
0.0
220
0.0
230
1.0
 70
     8
 71
     3
 72
    11
 73
     7
 74
     0
 42
0.000000001
 43
0.00000001
 40
0.0
 40
0.0
 40
0.0
 40
0.0
 40
0.2499919854628032
 40
0.4999876330332832
 40
0.7500291584393777
 40
1.0
 40
1.0
 40
1.0
 40
1.0
 10
6263.228731265349
 20
5545.068808440738
 30
0.0
 10
6263.197585388943
 20
5545.045169157484
 30
0.0
 10
6263.135293179876
 20
5544.997890244686
 30
0.0
 10
6263.066928927045
 20
5544.904186146555
 30
0.0
 10
6263.019811392276
 20
5544.800043432216
 30
0.0
 10
6263.011440273983
 20
5544.726274384251
 30
0.0
 10
6263.007255306525
 20
5544.689395074421
 30
0.0
  0
ARC
  5
F5
330
1F
100
AcDbEntity
  8
0
  6
Continuous
 62
     7
370
    25
100
AcDbCircle
 10
6284.7280483997
 20
5545.7877503818
 30
0.0
 40
0.500629170088979
100
AcDbArc
 50
5.2679391673
 51
89.9211245821
  0
LINE
  5
F6
330
1F
100
AcDbEntity
  8
0
  6
Continuous
 62
     7
370
    25
100
AcDbLine
 10
6284.7287375834
 20
5547.2053369327
 30
0.0
 11
6284.7287375834
 21
5545.0688084407
 31
0.0
  0
ARC
  5
F7
330
1F
100
AcDbEntity
  8
0
  6
Continuous
 62
     7
370
    25
100
AcDbCircle
 10
6263.2294170142
 20
5545.7877541428
 30
0.0
 40
0.5006254043989151
100
AcDbArc
 50
90.0784828919
 51
174.7324533588
  0
ARC
  5
F8
330
1F
100
AcDbEntity
  8
0
  6
Continuous
 62
     7
370
    25
100
AcDbCircle
 10
6263.0949400108
 20
5546.4706824131
 30
0.0
 40
0.4985334178653865
100
AcDbArc
 50
89.8114814234
 51
174.9553931405
  0
LINE
  5
F9
330
1F
100
AcDbEntity
  8
0
  6
Continuous
 62
     7
370
    25
100
AcDbLine
 10
6284.7287375834
 20
5546.2883790775
 30
0.0
 11
6284.8608885315
 21
5546.9692131324
 31
0.0
  0
ARC
  5
FA
330
1F
100
AcDbEntity
  8
0
  6
Continuous
 62
     7
370
    25
100
AcDbCircle
 10
6284.862528838
 20
5546.4706824131
 30
0.0
 40
0.4985334178650768
100
AcDbArc
 50
5.0446068593
 51
90.1885185764
  0
SPLINE
  5
FB
330
1F
100
AcDbEntity
  8
0
  6
Continuous
 62
     7
370
    25
100
AcDbSpline
210
0.0
220
0.0
230
1.0
 70
     8
 71
     3
 72
    11
 73
     7
 74
     0
 42
0.000000001
 43
0.00000001
 40
0.0
 40
0.0
 40
0.0
 40
0.0
 40
0.1452081007387564
 40
0.5856647907525258
 40
0.907190027522692
 40
0.9999999999999999
 40
0.9999999999999999
 40
0.9999999999999999
 40
0.9999999999999999
 10
6262.598337641043
 20
5546.514519099765
 30
0.0
 10
6262.595392637301
 20
5546.567981591326
 30
0.0
 10
6262.583514615405
 20
5546.783610738557
 30
0.0
 10
6262.680165302835
 20
5547.115582987727
 30
0.0
 10
6262.92341155119
 20
5547.396494247374
 30
0.0
 10
6263.104254816899
 20
5547.493152957329
 30
0.0
 10
6263.144763222022
 20
5547.514804248386
 30
0.0
  0
SPLINE
  5
FC
330
1F
100
AcDbEntity
  8
0
  6
Continuous
 62
     7
370
    25
100
AcDbSpline
210
0.0
220
0.0
230
1.0
 70
     8
 71
     3
 72
    11
 73
     7
 74
     0
 42
0.000000001
 43
0.00000001
 40
0.0
 40
0.0
 40
0.0
 40
0.0
 40
0.1452081007387564
 40
0.5856647907525258
 40
0.907190027522692
 40
0.9999999999999999
 40
0.9999999999999999
 40
0.9999999999999999
 40
0.9999999999999999
 10
6285.359131207747
 20
5546.514519099765
 30
0.0
 10
6285.362076211489
 20
5546.567981591326
 30
0.0
 10
6285.373954233384
 20
5546.783610738557
 30
0.0
 10
6285.277303545954
 20
5547.115582987727
 30
0.0
 10
6285.034057297599
 20
5547.396494247374
 30
0.0
 10
6284.853214031892
 20
5547.493152957329
 30
0.0
 10
6284.812705626769
 20
5547.514804248386
 30
0.0
  0
LINE
  5
FD
330
1F
100
AcDbEntity
  8
0
  6
Continuous
 62
     7
370
    25
100
AcDbLine
 10
6263.144763222
 20
5547.5148042484
 30
0.0
 11
6263.2287312653
 21
5547.5435634895
 31
0.0
  0
LINE
  5
FE
330
1F
100
AcDbEntity
  8
0
  6
Continuous
 62
     7
370
    25
100
AcDbLine
 10
6284.8127056268
 20
5547.5148042484
 30
0.0
 11
6284.7287375834
 21
5547.5435634895
 31
0.0
  0
LINE
  5
FF
330
1F
100
AcDbEntity
  8
0
  6
Continuous
 62
     7
370
    25
100
AcDbLine
 10
6262.4781746772
 20
5547.7841576381
 30
0.0
 11
6263.2351238635
 21
5547.6145228191
 31
0.0
  0
LINE
  5
100
330
1F
100
AcDbEntity
  8
0
  6
Continuous
 62
     7
370
    25
100
AcDbLine
 10
6262.599723449
 20
5547.8964825912
 30
0.0
 11
6263.2287312653
 21
5548.1316825195
 31
0.0
  0
SPLINE
  5
101
330
1F
100
AcDbEntity
  8
0
  6
Continuous
 62
     7
370
    25
100
AcDbSpline
210
0.0
220
0.0
230
1.0
 70
     8
 71
     3
 72
     9
 73
     5
 74
     0
 42
0.000000001
 43
0.00000001
 40
0.0
 40
0.0
 40
0.0
 40
0.0
 40
0.418819651807352
 40
1.0
 40
1.0
 40
1.0
 40
1.0
 10
6262.478174677176
 20
5547.784157638126
 30
0.0
 10
6262.494398329442
 20
5547.798804728516
 30
0.0
 10
6262.53313493647
 20
5547.833777037783
 30
0.0
 10
6262.575248103788
 20
5547.873434470594
 30
0.0
 10
6262.599723449034
 20
5547.896482591205
 30
0.0
  0
LINE
  5
102
330
1F
100
AcDbEntity
  8
0
  6
Continuous
 62
     7
370
    25
100
AcDbLine
 10
6284.7223449853
 20
5547.6145228191
 30
0.0
 11
6285.4063678887
 21
5547.7710446163
 31
0.0
  0
LINE
  5
103
330
1F
100
AcDbEntity
  8
0
  6
Continuous
 62
     7
370
    25
100
AcDbLine
 10
6284.7287375834
 20
5548.1318315311
 30
0.0
 11
6285.2171082404
 21
5547.9570707126
 31
0.0
  0
LINE
  5
104
330
1F
100
AcDbEntity
  8
0
  6
Continuous
 62
     7
370
    25
100
AcDbLine
 10
6285.2171082404
 20
5547.9570707126
 30
0.0
 11
6285.4063678887
 21
5547.7710446163
 31
0.0
  0
ARC
  5
105
330
1F
100
AcDbEntity
  8
0
  6
Continuous
 62
     7
370
    25
100
AcDbCircle
 10
6263.2360307947
 20
5546.5154969361
 30
0.0
 40
1.099026257205729
100
AcDbArc
 50
90.0472812528
 51
179.3642332543
  0
ARC
  5
106
330
1F
100
AcDbEntity
  8
0
  6
Continuous
 62
     7
370
    25
100
AcDbCircle
 10
6284.721438054
 20
5546.5154969361
 30
0.0
 40
1.099026257205884
100
AcDbArc
 50
0.6357667457
 51
89.9527187471
  0
SPLINE
  5
107
330
1F
100
AcDbEntity
  8
0
  6
Continuous
 62
     7
370
    25
100
AcDbSpline
210
0.0
220
0.0
230
1.0
 70
     8
 71
     3
 72
    11
 73
     7
 74
     0
 42
0.000000001
 43
0.00000001
 40
0.0
 40
0.0
 40
0.0
 40
0.0
 40
0.0384171060441129
 40
0.100020622427045
 40
0.3463168259716319
 40
1.0
 40
1.0
 40
1.0
 40
1.0
 10
6262.094253709597
 20
5546.567954663807
 30
0.0
 10
6262.095101495271
 20
5546.598987480554
 30
0.0
 10
6262.097308742495
 20
5546.679782781562
 30
0.0
 10
6262.116079041533
 20
5546.894576866054
 30
0.0
 10
6262.17762122232
 20
5547.30977500472
 30
0.0
 10
6262.351720746667
 20
5547.584567356961
 30
0.0
 10
6262.478174677176
 20
5547.784157638126
 30
0.0
  0
SPLINE
  5
108
330
1F
100
AcDbEntity
  8
0
  6
Continuous
 62
     7
370
    25
100
AcDbSpline
210
0.0
220
0.0
230
1.0
 70
     8
 71
     3
 72
    11
 73
     7
 74
     0
 42
0.000000001
 43
0.00000001
 40
0.0
 40
0.0
 40
0.0
 40
0.0
 40
0.6462681709749452
 40
0.7918594544448171
 40
0.9389040876511341
 40
1.0
 40
1.0
 40
1.0
 40
1.0
 10
6285.406367888731
 20
5547.771044616276
 30
0.0
 10
6285.544808490016
 20
5547.596687898214
 30
0.0
 10
6285.714436987797
 20
5547.383052101429
 30
0.0
 10
6285.826020537618
 20
5546.964932620495
 30
0.0
 10
6285.862796798185
 20
5546.773337334937
 30
0.0
 10
6285.869818940802
 20
5546.622716671704
 30
0.0
 10
6285.871880164427
 20
5546.578504685932
 30
0.0
  0
LINE
  5
109
330
1F
100
AcDbEntity
  8
0
  6
Continuous
 62
     7
370
    25
100
AcDbLine
 10
6284.7287375834
 20
5552.9058357521
 30
0.0
 11
6284.8628927377
 21
5552.845277433
 31
0.0
  0
LINE
  5
10A
330
1F
100
AcDbEntity
  8
0
  6
Continuous
 62
     7
370
    25
100
AcDbLine
 10
6284.8628927377
 20
5552.845277433
 30
0.0
 11
6284.8628927377
 21
5548.0838199897
 31
0.0
  0
LINE
  5
10B
330
1F
100
AcDbEntity
  8
0
  6
Continuous
 62
     7
370
    25
100
AcDbLine
 10
6263.0945686605
 20
5551.9102891727
 30
0.0
 11
6263.0945686605
 21
5548.0815252109
 31
0.0
  0
LINE
  5
10C
330
1F
100
AcDbEntity
  8
0
  6
Continuous
 62
     7
370
    25
100
AcDbLine
 10
6263.0945686605
 20
5551.9102891727
 30
0.0
 11
6263.2287312653
 21
5552.019216661
 31
0.0
  0
LWPOLYLINE
  5
10D
330
1F
100
AcDbEntity
  8
0
  6
Continuous
 62
     7
370
    25
100
AcDbPolyline
 90
        7
 70
   128
 43
0.0
 10
6263.0945686605
 20
5551.1182626529
 10
6263.033876231
 20
5551.1739929958
 10
6262.5084091332
 20
5551.8447240634
 10
6262.3314578441
 20
5552.5364657684
 10
6262.5084091332
 20
5553.2282372757
 10
6263.033876231
 20
5553.898938541
 10
6263.2287312653
 20
5554.0697356506
  0
LWPOLYLINE
  5
10E
330
1F
100
AcDbEntity
  8
0
  6
Continuous
 62
     7
370
    25
100
AcDbPolyline
 90
        7
 70
   128
 43
0.0
 10
6284.7287375834
 20
5554.0697356506
 10
6284.9235926178
 20
5553.898938541
 10
6285.4490597156
 20
5553.2282372757
 10
6285.6260110047
 20
5552.5364657684
 10
6285.4490597156
 20
5551.8447240634
 10
6284.9235926178
 20
5551.1739929958
 10
6284.8628927377
 20
5551.1182626529
  0
LWPOLYLINE
  5
10F
330
1F
100
AcDbEntity
  8
0
  6
Continuous
 62
     7
370
    25
100
AcDbPolyline
 90
        9
 70
   128
 43
0.0
 10
6263.0945686605
 20
5550.1746913238
 10
6262.1744964626
 20
5550.7655521675
 10
6261.4832539466
 20
5551.4542242332
 10
6261.1328456905
 20
5552.1724304004
 10
6261.1328456905
 20
5552.9005309387
 10
6261.4832539466
 20
5553.6187371059
 10
6262.1744964626
 20
5554.3074091716
 10
6263.1877307203
 20
5554.9477716728
 10
6263.2287312653
 20
5554.9690803333
  0
LWPOLYLINE
  5
110
330
1F
100
AcDbEntity
  8
0
  6
Continuous
 62
     7
370
    25
100
AcDbPolyline
 90
        9
 70
   128
 43
0.0
 10
6284.7287375834
 20
5554.9690803333
 10
6284.7697381285
 20
5554.9477716728
 10
6285.7829723862
 20
5554.3074091716
 10
6286.4742149022
 20
5553.6187371059
 10
6286.8246157077
 20
5552.9005309387
 10
6286.8246157077
 20
5552.1724304004
 10
6286.4742149022
 20
5551.4542242332
 10
6285.7829723862
 20
5550.7655521675
 10
6284.8628927377
 20
5550.1746913238
  0
LWPOLYLINE
  5
111
330
1F
100
AcDbEntity
  8
0
  6
Continuous
 62
     7
370
    25
100
AcDbPolyline
 90
        3
 70
   128
 43
0.0
 10
6263.2287312653
 20
5553.2674869342
 10
6263.033876231
 20
5553.4382542415
 10
6262.8117222693
 20
5553.6685963913
  0
LWPOLYLINE
  5
112
330
1F
100
AcDbEntity
  8
0
  6
Continuous
 62
     7
370
    25
100
AcDbPolyline
 90
        3
 70
   128
 43
0.0
 10
6285.1457465795
 20
5553.6685963913
 10
6284.9235926178
 20
5553.4382542415
 10
6284.7287375834
 20
5553.2674869342
  0
LINE
  5
113
330
1F
100
AcDbEntity
  8
0
  6
Continuous
 62
     7
370
    25
100
AcDbLine
 10
6446.7187542823
 20
5494.514532928
 30
0.0
 11
6446.7187542823
 21
5490.7145580097
 31
0.0
  0
LINE
  5
114
330
1F
100
AcDbEntity
  8
0
  6
Continuous
 62
     7
370
    25
100
AcDbLine
 10
6444.8987562564
 20
5496.4145501895
 30
0.0
 11
6444.8987562564
 21
5488.8145407482
 31
0.0
  0
LINE
  5
115
330
1F
100
AcDbEntity
  8
0
  6
Continuous
 62
     7
370
    25
100
AcDbLine
 10
6444.5187542942
 20
5496.4145501895
 30
0.0
 11
6444.5187542942
 21
5488.8145407482
 31
0.0
  0
LINE
  5
116
330
1F
100
AcDbEntity
  8
0
  6
Continuous
 62
     7
370
    25
100
AcDbLine
 10
6103.1387541798
 20
5496.1266001506
 30
0.0
 11
6103.1387541798
 21
5496.4145501895
 31
0.0
  0
LINE
  5
117
330
1F
100
AcDbEntity
  8
0
  6
Continuous
 62
     7
370
    25
100
AcDbLine
 10
6103.1387541798
 20
5488.8145407482
 30
0.0
 11
6103.1387541798
 21
5496.1266001506
 31
0.0
  0
LINE
  5
118
330
1F
100
AcDbEntity
  8
0
  6
Continuous
 62
     7
370
    25
100
AcDbLine
 10
6103.5187635925
 20
5496.1266001506
 30
0.0
 11
6103.5187635925
 21
5496.4145501895
 31
0.0
  0
LINE
  5
119
330
1F
100
AcDbEntity
  8
0
  6
Continuous
 62
     7
370
    25
100
AcDbLine
 10
6103.5187635925
 20
5488.8145407482
 30
0.0
 11
6103.5187635925
 21
5496.1266001506
 31
0.0
  0
LINE
  5
11A
330
1F
100
AcDbEntity
  8
0
  6
Continuous
 62
     7
370
    25
100
AcDbLine
 10
6101.3187561539
 20
5494.3705877109
 30
0.0
 11
6101.3187561539
 21
5494.514532928
 31
0.0
  0
LINE
  5
11B
330
1F
100
AcDbEntity
  8
0
  6
Continuous
 62
     7
370
    25
100
AcDbLine
 10
6101.3187561539
 20
5494.3705877109
 30
0.0
 11
6101.3187561539
 21
5490.7145580097
 31
0.0
  0
LINE
  5
11C
330
1F
100
AcDbEntity
  8
0
  6
Continuous
 62
     7
370
    25
100
AcDbLine
 10
6064.0187654999
 20
4856.6145380779
 30
0.0
 11
6484.0187523869
 21
4856.6145380779
 31
0.0
  0
LINE
  5
11D
330
1F
100
AcDbEntity
  8
0
  6
Continuous
 62
     7
370
    25
100
AcDbLine
 10
6064.5187590626
 20
4862.1144970699
 30
0.0
 11
6483.5187588242
 21
4862.1144970699
 31
0.0
  0
SPLINE
  5
11E
330
1F
100
AcDbEntity
  8
0
  6
Continuous
 62
     7
370
    25
100
AcDbSpline
210
0.0
220
0.0
230
1.0
 70
     8
 71
     3
 72
    12
 73
     8
 74
     0
 42
0.000000001
 43
0.00000001
 40
0.0
 40
0.0
 40
0.0
 40
0.0
 40
0.2148235000229833
 40
0.429642451547748
 40
0.6444755132338339
 40
0.8593237925603218
 40
1.0
 40
1.0
 40
1.0
 40
1.0
 10
6103.538582136912
 20
5492.614515666538
 30
0.0
 10
6103.538133849361
 20
5492.906703929772
 30
0.0
 10
6103.537237283748
 20
5493.491074269685
 30
0.0
 10
6103.530908183353
 20
5494.271688576778
 30
0.0
 10
6103.524130061641
 20
5494.854022267888
 30
0.0
 10
6103.519227692545
 20
5495.184069123547
 30
0.0
 10
6103.519258171784
 20
5495.182021211012
 30
0.0
 10
6103.519270232005
 20
5495.181210879856
 30
0.0
  0
SPLINE
  5
11F
330
1F
100
AcDbEntity
  8
0
  6
Continuous
 62
     7
370
    25
100
AcDbSpline
210
0.0
220
0.0
230
1.0
 70
     8
 71
     3
 72
    13
 73
     9
 74
     0
 42
0.000000001
 43
0.00000001
 40
0.0
 40
0.0
 40
0.0
 40
0.0
 40
0.0068575207104071
 40
0.2215012209746484
 40
0.4361514904833417
 40
0.6508109851472743
 40
0.8654856883792043
 40
1.0
 40
1.0
 40
1.0
 40
1.0
 10
6103.518823197169
 20
5490.019091014438
 30
0.0
 10
6103.518802694768
 20
5490.017576526148
 30
0.0
 10
6103.518140457351
 20
5489.968657825133
 30
0.0
 10
6103.520745027407
 20
5490.144992176837
 30
0.0
 10
6103.526470923612
 20
5490.557258523073
 30
0.0
 10
6103.533518205097
 20
5491.234976583466
 30
0.0
 10
6103.537954206615
 20
5491.957716898867
 30
0.0
 10
6103.538407514148
 20
5492.431864795081
 30
0.0
 10
6103.538582136912
 20
5492.614515666538
 30
0.0
  0
LINE
  5
120
330
1F
100
AcDbEntity
  8
0
  6
Continuous
 62
     7
370
    25
100
AcDbLine
 10
6274.0187589434
 20
5471.1145242496
 30
0.0
 11
6444.5187542942
 21
5471.1145242496
 31
0.0
  0
LINE
  5
121
330
1F
100
AcDbEntity
  8
0
  6
Continuous
 62
     7
370
    25
100
AcDbLine
 10
6103.5187635925
 20
5471.1145242496
 30
0.0
 11
6274.0187589434
 21
5471.1145242496
 31
0.0
  0
LINE
  5
122
330
1F
100
AcDbEntity
  8
0
  6
Continuous
 62
     7
370
    25
100
AcDbLine
 10
6274.0187589434
 20
5507.6145609661
 30
0.0
 11
6444.5187542942
 21
5507.6145609661
 31
0.0
  0
LINE
  5
123
330
1F
100
AcDbEntity
  8
0
  6
Continuous
 62
     7
370
    25
100
AcDbLine
 10
6103.5187635925
 20
5507.6145609661
 30
0.0
 11
6274.0187589434
 21
5507.6145609661
 31
0.0
  0
SPLINE
  5
124
330
1F
100
AcDbEntity
  8
0
  6
Continuous
 62
     7
370
    25
100
AcDbSpline
210
0.0
220
0.0
230
1.0
 70
     8
 71
     3
 72
    17
 73
    13
 74
     0
 42
0.000000001
 43
0.00000001
 40
0.0
 40
0.0
 40
0.0
 40
0.0
 40
0.0370610588477279
 40
0.1444246912814664
 40
0.251794158989143
 40
0.3591758815640905
 40
0.4665614434495912
 40
0.5739291902346655
 40
0.6812937108847681
 40
0.7886706650690682
 40
0.8960541161083585
 40
1.0
 40
1.0
 40
1.0
 40
1.0
 10
6444.518255105299
 20
5490.047880057865
 30
0.0
 10
6444.518392711712
 20
5490.038774461665
 30
0.0
 10
6444.518928955533
 20
5490.003290507319
 30
0.0
 10
6444.515246436296
 20
5490.244892788703
 30
0.0
 10
6444.50878315004
 20
5490.747382976612
 30
0.0
 10
6444.502063294254
 20
5491.480113345431
 30
0.0
 10
6444.498392985723
 20
5492.335597218289
 30
0.0
 10
6444.499276149601
 20
5493.223458969404
 30
0.0
 10
6444.504375340719
 20
5494.043875851827
 30
0.0
 10
6444.511349796424
 20
5494.697239764588
 30
0.0
 10
6444.517490977771
 20
5495.133812364694
 30
0.0
 10
6444.518292833005
 20
5495.184880971185
 30
0.0
 10
6444.518687238974
 20
5495.209999923282
 30
0.0
  0
LINE
  5
125
330
1F
100
AcDbEntity
  8
0
  6
Continuous
 62
     8
370
    25
100
AcDbLine
 10
6284.2200864461
 20
5544.1384991451
 30
0.0
 11
6278.0452166107
 21
5544.1384991451
 31
0.0
  0
LINE
  5
126
330
1F
100
AcDbEntity
  8
0
  6
Continuous
 62
     8
370
    25
100
AcDbLine
 10
6269.79049485
 20
5544.1384991451
 30
0.0
 11
6264.2287332919
 21
5544.1384991451
 31
0.0
  0
LINE
  5
127
330
1F
100
AcDbEntity
  8
0
  6
Continuous
 62
     8
370
    25
100
AcDbLine
 10
6264.2287332919
 20
5570.7843681617
 30
0.0
 11
6264.2287332919
 21
5570.693709497
 31
0.0
  0
LINE
  5
128
330
1F
100
AcDbEntity
  8
0
  6
Continuous
 62
     8
370
    25
100
AcDbLine
 10
6283.7287355569
 20
5570.693709497
 30
0.0
 11
6283.7287355569
 21
5570.7843681617
 31
0.0
  0
SPLINE
  5
129
330
1F
100
AcDbEntity
  8
0
  6
Continuous
 62
     8
370
    25
100
AcDbSpline
210
0.0
220
0.0
230
1.0
 70
     8
 71
     3
 72
     9
 73
     5
 74
     0
 42
0.000000001
 43
0.00000001
 40
0.0
 40
0.0
 40
0.0
 40
0.0
 40
0.2236893631134124
 40
1.0
 40
1.0
 40
1.0
 40
1.0
 10
6263.228731265349
 20
5547.409333829456
 30
0.0
 10
6263.198271127656
 20
5547.378317831623
 30
0.0
 10
6263.062099531167
 20
5547.239661270572
 30
0.0
 10
6263.081510993002
 20
5547.087408543756
 30
0.0
 10
6263.096580317301
 20
5546.969213132435
 30
0.0
  0
SPLINE
  5
12A
330
1F
100
AcDbEntity
  8
0
  6
Continuous
 62
     8
370
    25
100
AcDbSpline
210
0.0
220
0.0
230
1.0
 70
     8
 71
     3
 72
     9
 73
     5
 74
     0
 42
0.000000001
 43
0.00000001
 40
0.0
 40
0.0
 40
0.0
 40
0.0
 40
0.7763106368865876
 40
1.0
 40
1.0
 40
1.0
 40
1.0
 10
6284.860888531489
 20
5546.969213132435
 30
0.0
 10
6284.875957855788
 20
5547.087408543756
 30
0.0
 10
6284.895369317623
 20
5547.239661270572
 30
0.0
 10
6284.759197721134
 20
5547.378317831623
 30
0.0
 10
6284.728737583441
 20
5547.409333829456
 30
0.0
  0
ARC
  5
12B
330
1F
100
AcDbEntity
  8
0
  6
Continuous
 62
     8
370
    25
100
AcDbCircle
 10
6263.2419629369
 20
5547.2792740203
 30
0.0
 40
0.2547984947605476
100
AcDbArc
 50
92.9767055279
 51
112.4251891927
  0
ARC
  5
12C
330
1F
100
AcDbEntity
  8
0
  6
Continuous
 62
     8
370
    25
100
AcDbCircle
 10
6284.7154984134
 20
5547.2792407491
 30
0.0
 40
0.2548321104469615
100
AcDbArc
 50
67.5761060189
 51
87.0219992593
  0
ARC
  5
12D
330
1F
100
AcDbEntity
  8
0
  6
Continuous
 62
     8
370
    25
100
AcDbCircle
 10
6263.2577534023
 20
5546.5148477986
 30
0.0
 40
1.099700420182817
100
AcDbArc
 50
91.5122655351
 51
180.0171256246
  0
ARC
  5
12E
330
1F
100
AcDbEntity
  8
0
  6
Continuous
 62
     8
370
    25
100
AcDbCircle
 10
6284.6997120841
 20
5546.5148445248
 30
0.0
 40
1.099703781548041
100
AcDbArc
 50
359.9830449945
 51
88.4875638457
  0
ARC
  5
12F
330
1F
100
AcDbEntity
  8
0
  6
Continuous
 62
     8
370
    25
100
AcDbCircle
 10
6264.3424246685
 20
5553.8210865376
 30
0.0
 40
3.32902326015167
100
AcDbArc
 50
109.5446038434
 51
167.780811489
  0
ARC
  5
130
330
1F
100
AcDbEntity
  8
0
  6
Continuous
 62
     8
370
    25
100
AcDbCircle
 10
6283.4400077074
 20
5553.6671217691
 30
0.0
 40
3.534494610892486
100
AcDbArc
 50
14.0582800294
 51
68.6161067779
  0
LINE
  5
131
330
1F
100
AcDbEntity
  8
0
  6
Continuous
 62
     8
370
    25
100
AcDbLine
 10
6484.0187523869
 20
4861.6145333095
 30
0.0
 11
6064.0187654999
 21
4861.6145333095
 31
0.0
  0
SPLINE
  5
132
330
1F
100
AcDbEntity
  8
0
  6
Continuous
 62
     7
370
    25
100
AcDbSpline
210
0.0
220
0.0
230
1.0
 70
     8
 71
     3
 72
    13
 73
     9
 74
     0
 42
0.000000001
 43
0.00000001
 40
0.0
 40
0.0
 40
0.0
 40
0.0
 40
0.1048305663803598
 40
0.2776403983959188
 40
0.445344732694142
 40
0.6242701923974002
 40
0.8812560086522382
 40
1.0
 40
1.0
 40
1.0
 40
1.0
 10
7086.438135223713
 20
5540.915139560276
 30
0.0
 10
7086.797390579689
 20
5540.090010543689
 30
0.0
 10
7087.748866886674
 20
5537.904682763793
 30
0.0
 10
7089.305796010365
 20
5534.412823792853
 30
0.0
 10
7091.145429007503
 20
5530.350722441639
 30
0.0
 10
7093.282526461847
 20
5525.630036698557
 30
0.0
 10
7095.212505057419
 20
5521.277052575771
 30
0.0
 10
7096.503437603024
 20
5518.321105703953
 30
0.0
 10
7096.911418231454
 20
5517.386921290928
 30
0.0
  0
SPLINE
  5
133
330
1F
100
AcDbEntity
  8
0
  6
Continuous
 62
     7
370
    25
100
AcDbSpline
210
0.0
220
0.0
230
1.0
 70
     8
 71
     3
 72
    11
 73
     7
 74
     0
 42
0.000000001
 43
0.00000001
 40
0.0
 40
0.0
 40
0.0
 40
0.0
 40
0.0588932633515932
 40
0.3879419045387565
 40
0.7194215501399343
 40
1.0
 40
1.0
 40
1.0
 40
1.0
 10
7096.963995116082
 20
5517.430611495548
 30
0.0
 10
7097.017380876757
 20
5517.322409065932
 30
0.0
 10
7097.369043740947
 20
5516.609657653772
 30
0.0
 10
7097.773951869309
 20
5515.177609483686
 30
0.0
 10
7098.154858577853
 20
5513.276194830233
 30
0.0
 10
7098.169386746134
 20
5512.014987957559
 30
0.0
 10
7098.176046720025
 20
5511.436828021579
 30
0.0
  0
LINE
  5
134
330
1F
100
AcDbEntity
  8
0
  6
Continuous
 62
     7
370
    25
100
AcDbLine
 10
7098.1594514831
 20
5511.4306887432
 30
0.0
 11
7098.1594514831
 21
5507.6145609661
 31
0.0
  0
ARC
  5
135
330
1F
100
AcDbEntity
  8
0
  6
Continuous
 62
     7
370
    25
100
AcDbCircle
 10
7137.1602069341
 20
5537.0584028329
 30
0.0
 40
0.5000000000000929
100
AcDbArc
 50
9.7012804608
 51
65.4144031684
  0
LINE
  5
136
330
1F
100
AcDbEntity
  8
0
  6
Continuous
 62
     7
370
    25
100
AcDbLine
 10
7137.6602076723
 20
5507.6145609661
 30
0.0
 11
7137.6602076723
 21
5537.0584210201
 31
0.0
  0
ARC
  5
137
330
1F
100
AcDbEntity
  8
0
  6
Continuous
 62
     7
370
    25
100
AcDbCircle
 10
7112.8945297944
 20
5549.6145055001
 30
0.0
 40
1.999982681108817
100
AcDbArc
 50
203.5027162675
 51
269.9993633247
  0
LINE
  5
138
330
1F
100
AcDbEntity
  8
0
  6
Continuous
 62
     7
370
    25
100
AcDbLine
 10
7111.0659730418
 20
5548.8043507381
 30
0.0
 11
7110.6562656148
 21
5549.7391601844
 31
0.0
  0
LINE
  5
139
330
1F
100
AcDbEntity
  8
0
  6
Continuous
 62
     7
370
    25
100
AcDbLine
 10
7136.2267308666
 20
5538.035341148
 30
0.0
 11
7136.642782463
 21
5538.9446696086
 31
0.0
  0
LINE
  5
13A
330
1F
100
AcDbEntity
  8
0
  6
Continuous
 62
     7
370
    25
100
AcDbLine
 10
7124.8213522865
 20
5544.3533738895
 30
0.0
 11
7124.4053006901
 21
5543.4440156265
 31
0.0
  0
LINE
  5
13B
330
1F
100
AcDbEntity
  8
0
  6
Continuous
 62
     7
370
    25
100
AcDbLine
 10
7083.0848142302
 20
5550.1170834346
 30
0.0
 11
7083.8088271937
 21
5548.1278678222
 31
0.0
  0
LINE
  5
13C
330
1F
100
AcDbEntity
  8
0
  6
Continuous
 62
     7
370
    25
100
AcDbLine
 10
7108.0339350535
 20
5556.9450935169
 30
0.0
 11
7107.3099211587
 21
5558.9343091293
 31
0.0
  0
ARC
  5
13D
330
1F
100
AcDbEntity
  8
0
  6
Continuous
 62
     7
370
    25
100
AcDbCircle
 10
7105.4305368136
 20
5558.2502566422
 30
0.0
 40
2.000000000000349
100
AcDbArc
 50
20.0
 51
85.1128680053
  0
ARC
  5
13E
330
1F
100
AcDbEntity
  8
0
  6
Continuous
 62
     7
370
    25
100
AcDbCircle
 10
7084.9641993204
 20
5550.8011189903
 30
0.0
 40
2.000000000000186
100
AcDbArc
 50
134.8871319947
 51
200.0
  0
ARC
  5
13F
330
1F
100
AcDbEntity
  8
0
  6
Continuous
 62
     7
370
    25
100
AcDbCircle
 10
7102.909391221
 20
5532.7850863232
 30
0.0
 40
27.42847509013234
100
AcDbArc
 50
110.0
 51
134.8871319947
  0
ARC
  5
140
330
1F
100
AcDbEntity
  8
0
  6
Continuous
 62
     7
370
    25
100
AcDbCircle
 10
7103.2642048515
 20
5532.9142279235
 30
0.0
 40
27.42847509013234
100
AcDbArc
 50
85.1128680053
 51
110.0
  0
LWPOLYLINE
  5
141
330
1F
100
AcDbEntity
  8
0
  6
Continuous
 62
     7
370
    25
100
AcDbPolyline
 90
        9
 70
   128
 43
0.0
 10
7093.8831139154
 20
5558.6885591789
 10
7093.8696095052
 20
5558.6836417957
 10
7093.8311526349
 20
5558.6696645065
 10
7093.7735975983
 20
5558.6487134738
 10
7093.7057069766
 20
5558.6240073486
 10
7093.6378163549
 20
5558.599271421
 10
7093.5802615511
 20
5558.5783203884
 10
7093.541804448
 20
5558.5643430992
 10
7093.5283002707
 20
5558.559425716
  0
LINE
  5
142
330
1F
100
AcDbEntity
  8
0
  6
Continuous
 62
     7
370
    25
100
AcDbLine
 10
7397.4727787806
 20
4862.1144970699
 30
0.0
 11
7397.4727787806
 21
5471.1145242496
 31
0.0
  0
LINE
  5
143
330
1F
100
AcDbEntity
  8
0
  6
Continuous
 62
     7
370
    25
100
AcDbLine
 10
7058.4727809562
 20
5471.1145242496
 30
0.0
 11
7058.4727809562
 21
4862.1144970699
 31
0.0
  0
LINE
  5
144
330
1F
100
AcDbEntity
  8
0
  6
Continuous
 62
     7
370
    25
100
AcDbLine
 10
7017.9727845623
 20
4861.6145333095
 30
0.0
 11
7017.9727845623
 21
4856.6145380779
 31
0.0
  0
LINE
  5
145
330
1F
100
AcDbEntity
  8
0
  6
Continuous
 62
     7
370
    25
100
AcDbLine
 10
7437.972793801
 20
4856.6145380779
 30
0.0
 11
7437.972793801
 21
4861.6145333095
 31
0.0
  0
ARC
  5
146
330
1F
100
AcDbEntity
  8
0
  6
Continuous
 62
     7
370
    25
100
AcDbCircle
 10
7018.4727826029
 20
4861.6145313272
 30
0.0
 40
0.5000000000009095
100
AcDbArc
 50
90.0
 51
180.0
  0
ARC
  5
147
330
1F
100
AcDbEntity
  8
0
  6
Continuous
 62
     7
370
    25
100
AcDbCircle
 10
7437.4727826029
 20
4861.6145313272
 30
0.0
 40
0.5000000000009095
100
AcDbArc
 50
0.0
 51
90.0
  0
LINE
  5
148
330
1F
100
AcDbEntity
  8
0
  6
Continuous
 62
     7
370
    25
100
AcDbLine
 10
7398.4727957084
 20
5471.1145242496
 30
0.0
 11
7398.4727957084
 21
5507.6145609661
 31
0.0
  0
LINE
  5
149
330
1F
100
AcDbEntity
  8
0
  6
Continuous
 62
     7
370
    25
100
AcDbLine
 10
7057.4727826549
 20
5507.6145609661
 30
0.0
 11
7057.4727826549
 21
5471.1145242496
 31
0.0
  0
SPLINE
  5
14A
330
1F
100
AcDbEntity
  8
0
  6
Continuous
 62
     7
370
    25
100
AcDbSpline
210
0.0
220
0.0
230
1.0
 70
     8
 71
     3
 72
    11
 73
     7
 74
     0
 42
0.000000001
 43
0.00000001
 40
0.0
 40
0.0
 40
0.0
 40
0.0
 40
0.3831012392985311
 40
0.7662741544666116
 40
0.9901120840255593
 40
1.0
 40
1.0
 40
1.0
 40
1.0
 10
7115.948474480089
 20
5519.900270347171
 30
0.0
 10
7114.641410542711
 20
5523.482892892281
 30
0.0
 10
7112.027038124384
 20
5530.648808268993
 30
0.0
 10
7108.283032249795
 20
5539.770460514026
 30
0.0
 10
7106.295404624847
 20
5545.580582877117
 30
0.0
 10
7105.639252255575
 20
5547.802483706921
 30
0.0
 10
7105.611493325111
 20
5547.896482591205
 30
0.0
  0
SPLINE
  5
14B
330
1F
100
AcDbEntity
  8
0
  6
Continuous
 62
     7
370
    25
100
AcDbSpline
210
0.0
220
0.0
230
1.0
 70
     8
 71
     3
 72
     9
 73
     5
 74
     0
 42
0.000000001
 43
0.00000001
 40
0.0
 40
0.0
 40
0.0
 40
0.0
 40
0.418819651807352
 40
1.0
 40
1.0
 40
1.0
 40
1.0
 10
7105.986296644684
 20
5547.784157638126
 30
0.0
 10
7105.933423763961
 20
5547.798804728516
 30
0.0
 10
7105.807181166472
 20
5547.833777037783
 30
0.0
 10
7105.683420558402
 20
5547.873434470594
 30
0.0
 10
7105.611493325111
 20
5547.896482591205
 30
0.0
  0
SPLINE
  5
14C
330
1F
100
AcDbEntity
  8
0
  6
Continuous
 62
     7
370
    25
100
AcDbSpline
210
0.0
220
0.0
230
1.0
 70
     8
 71
     3
 72
    11
 73
     7
 74
     0
 42
0.000000001
 43
0.00000001
 40
0.0
 40
0.0
 40
0.0
 40
0.0
 40
0.0384171060441129
 40
0.100020622427045
 40
0.3463168259716319
 40
1.0
 40
1.0
 40
1.0
 40
1.0
 10
7108.086342437443
 20
5546.567954663807
 30
0.0
 10
7108.077104103505
 20
5546.598987480554
 30
0.0
 10
7108.053051695455
 20
5546.679782781562
 30
0.0
 10
7107.849130722353
 20
5546.894576866054
 30
0.0
 10
7107.161466010381
 20
5547.30977500472
 30
0.0
 10
7106.480733766953
 20
5547.584567356961
 30
0.0
 10
7105.986296644684
 20
5547.784157638126
 30
0.0
  0
SPLINE
  5
14D
330
1F
100
AcDbEntity
  8
0
  6
Continuous
 62
     7
370
    25
100
AcDbSpline
210
0.0
220
0.0
230
1.0
 70
     8
 71
     3
 72
    11
 73
     7
 74
     0
 42
0.000000001
 43
0.00000001
 40
0.0
 40
0.0
 40
0.0
 40
0.0
 40
0.4126279253738742
 40
0.705647868636764
 40
0.8528739515941248
 40
1.0
 40
1.0
 40
1.0
 40
1.0
 10
7115.948474480089
 20
5519.900270347171
 30
0.0
 10
7114.667130284962
 20
5523.508440584673
 30
0.0
 10
7112.475863662708
 20
5529.678884903156
 30
0.0
 10
7110.1947252657
 20
5537.258261533976
 30
0.0
 10
7108.805445056518
 20
5542.53251918047
 30
0.0
 10
7108.325988996642
 20
5545.22311429917
 30
0.0
 10
7108.086342437443
 20
5546.567954663807
 30
0.0
  0
SPLINE
  5
14E
330
1F
100
AcDbEntity
  8
0
  6
Continuous
 62
     7
370
    25
100
AcDbSpline
210
0.0
220
0.0
230
1.0
 70
     8
 71
     3
 72
    10
 73
     6
 74
     0
 42
0.000000001
 43
0.00000001
 40
0.0
 40
0.0
 40
0.0
 40
0.0
 40
0.0000019010723528
 40
0.2552092424526178
 40
0.9999999999999999
 40
0.9999999999999999
 40
0.9999999999999999
 40
0.9999999999999999
 10
7122.035103364166
 20
5507.614560966068
 30
0.0
 10
7122.035094671804
 20
5507.614560966036
 30
0.0
 10
7120.868189363689
 20
5507.614556814516
 30
0.0
 10
7120.350625152424
 20
5514.164580191899
 30
0.0
 10
7117.82760221633
 20
5517.451900161891
 30
0.0
 10
7115.948474480089
 20
5519.900270347171
 30
0.0
  0
LINE
  5
14F
330
1F
100
AcDbEntity
  8
0
  6
Continuous
 62
     7
370
    25
100
AcDbLine
 10
7108.676689191
 20
5546.5276917263
 30
0.0
 11
7108.0863424374
 21
5546.5679546638
 31
0.0
  0
LINE
  5
150
330
1F
100
AcDbEntity
  8
0
  6
Continuous
 62
     7
370
    25
100
AcDbLine
 10
7109.1321040674
 20
5546.5145190998
 30
0.0
 11
7108.676689191
 21
5546.5276917263
 31
0.0
  0
SPLINE
  5
151
330
1F
100
AcDbEntity
  8
0
  6
Continuous
 62
     7
370
    25
100
AcDbSpline
210
0.0
220
0.0
230
1.0
 70
     8
 71
     3
 72
    11
 73
     7
 74
     0
 42
0.000000001
 43
0.00000001
 40
0.0
 40
0.0
 40
0.0
 40
0.0
 40
0.2164215598049363
 40
0.5221132622536673
 40
0.8398046907981008
 40
1.0
 40
1.0
 40
1.0
 40
1.0
 10
7109.132104067382
 20
5546.514519099765
 30
0.0
 10
7110.429464129121
 20
5543.650737004443
 30
0.0
 10
7113.559322793674
 20
5536.741912331338
 30
0.0
 10
7119.054898638554
 20
5525.855172081132
 30
0.0
 10
7124.261176814211
 20
5515.748570768755
 30
0.0
 10
7127.550789995222
 20
5509.656665459722
 30
0.0
 10
7128.653521163639
 20
5507.614560966068
 30
0.0
  0
SPLINE
  5
152
330
1F
100
AcDbEntity
  8
0
  6
Continuous
 62
     7
370
    25
100
AcDbSpline
210
0.0
220
0.0
230
1.0
 70
     8
 71
     3
 72
    20
 73
    16
 74
     0
 42
0.000000001
 43
0.00000001
 40
0.0
 40
0.0
 40
0.0
 40
0.0
 40
0.0559830862513976
 40
0.1433106449408041
 40
0.2306186037689913
 40
0.3165270440854976
 40
0.4023969740368503
 40
0.4828318121414919
 40
0.5632310054250541
 40
0.6416053600532606
 40
0.7230015764945183
 40
0.7916871184978329
 40
0.8610625999098551
 40
0.9304528535357832
 40
0.9999999999999999
 40
0.9999999999999999
 40
0.9999999999999999
 40
0.9999999999999999
 10
7086.476334816095
 20
5540.931828860813
 30
0.0
 10
7086.475476875561
 20
5540.93151557043
 30
0.0
 10
7086.473280640601
 20
5540.930713580939
 30
0.0
 10
7086.921625297798
 20
5541.09395731169
 30
0.0
 10
7087.757496208385
 20
5541.398123483224
 30
0.0
 10
7088.986225959989
 20
5541.845328828817
 30
0.0
 10
7090.509881221156
 20
5542.39995118033
 30
0.0
 10
7092.292468876361
 20
5543.048743915959
 30
0.0
 10
7094.237533214392
 20
5543.756683066745
 30
0.0
 10
7096.35149958327
 20
5544.52610806546
 30
0.0
 10
7098.444051459328
 20
5545.287730580114
 30
0.0
 10
7100.45388115393
 20
5546.019254512925
 30
0.0
 10
7102.295326297625
 20
5546.689497742541
 30
0.0
 10
7104.053138724136
 20
5547.329284305376
 30
0.0
 10
7105.091650883701
 20
5547.707274216241
 30
0.0
 10
7105.611493325111
 20
5547.896482591205
 30
0.0
  0
LINE
  5
153
330
1F
100
AcDbEntity
  8
0
  6
Continuous
 62
     7
370
    25
100
AcDbLine
 10
7105.9862966447
 20
5547.7841576381
 30
0.0
 11
7108.6125881209
 21
5547.6145228191
 31
0.0
  0
ARC
  5
154
330
1F
100
AcDbEntity
  8
0
  6
Continuous
 62
     7
370
    25
100
AcDbCircle
 10
7103.9857573813
 20
5546.7963274311
 30
0.0
 40
4.698617497257318
100
AcDbArc
 50
356.7224210406
 51
10.028344579
  0
SPLINE
  5
155
330
1F
100
AcDbEntity
  8
0
  6
Continuous
 62
     7
370
    25
100
AcDbSpline
210
0.0
220
0.0
230
1.0
 70
     8
 71
     3
 72
    10
 73
     6
 74
     0
 42
0.000000001
 43
0.00000001
 40
0.0
 40
0.0
 40
0.0
 40
0.0
 40
0.248164581735775
 40
0.699014528642365
 40
1.0
 40
1.0
 40
1.0
 40
1.0
 10
7120.735446436581
 20
5544.689395074421
 30
0.0
 10
7120.508706393512
 20
5544.777012971943
 30
0.0
 10
7119.870039170243
 20
5545.023809605485
 30
0.0
 10
7118.96838802434
 20
5545.409040100071
 30
0.0
 10
7118.296183191077
 20
5545.712306799314
 30
0.0
 10
7118.027076570567
 20
5545.833714847141
 30
0.0
  0
LINE
  5
156
330
1F
100
AcDbEntity
  8
0
  6
Continuous
 62
     7
370
    25
100
AcDbLine
 10
7121.921807973
 20
5544.0572282119
 30
0.0
 11
7120.7354464366
 21
5544.6893950744
 31
0.0
  0
SPLINE
  5
157
330
1F
100
AcDbEntity
  8
0
  6
Continuous
 62
     7
370
    25
100
AcDbSpline
210
0.0
220
0.0
230
1.0
 70
     8
 71
     3
 72
     9
 73
     5
 74
     0
 42
0.000000001
 43
0.00000001
 40
0.0
 40
0.0
 40
0.0
 40
0.0
 40
0.6543750443417485
 40
1.0
 40
1.0
 40
1.0
 40
1.0
 10
7123.303665293631
 20
5543.426789884144
 30
0.0
 10
7123.002321497441
 20
5543.564253013307
 30
0.0
 10
7122.541815249845
 20
5543.774320818235
 30
0.0
 10
7122.081057388396
 20
5543.984563198556
 30
0.0
 10
7121.921807972964
 20
5544.057228211933
 30
0.0
  0
SPLINE
  5
158
330
1F
100
AcDbEntity
  8
0
  6
Continuous
 62
     7
370
    25
100
AcDbSpline
210
0.0
220
0.0
230
1.0
 70
     8
 71
     3
 72
    11
 73
     7
 74
     0
 42
0.000000001
 43
0.00000001
 40
0.0
 40
0.0
 40
0.0
 40
0.0
 40
0.0000102753359907
 40
0.1291769549070125
 40
0.6458680236389036
 40
0.9999999999999999
 40
0.9999999999999999
 40
0.9999999999999999
 40
0.9999999999999999
 10
7130.281804574904
 20
5540.243872050815
 30
0.0
 10
7130.281787190488
 20
5540.243891919409
 30
0.0
 10
7130.063238044554
 20
5540.493671043778
 30
0.0
 10
7128.325263742926
 20
5540.844768104925
 30
0.0
 10
7126.197513100321
 20
5542.177312541509
 30
0.0
 10
7124.14024955393
 20
5543.065568555184
 30
0.0
 10
7123.303635491308
 20
5543.426789884144
 30
0.0
  0
LINE
  5
159
330
1F
100
AcDbEntity
  8
0
  6
Continuous
 62
     7
370
    25
100
AcDbLine
 10
7130.2818045749
 20
5540.2438720508
 30
0.0
 11
7130.2818045749
 21
5507.6145609661
 31
0.0
  0
SPLINE
  5
15A
330
1F
100
AcDbEntity
  8
0
  6
Continuous
 62
     7
370
    25
100
AcDbSpline
210
0.0
220
0.0
230
1.0
 70
    24
 71
     3
 72
     9
 73
     5
 74
     0
 42
0.000000001
 43
0.00000001
 40
0.0
 40
0.0
 40
0.0
 40
0.0
 40
0.2966673730514375
 40
1.0
 40
1.0
 40
1.0
 40
1.0
 10
7116.534436567005
 20
5546.514519099765
 30
0.0
 10
7115.803427758522
 20
5546.514519099765
 30
0.0
 10
7113.339358990311
 20
5546.514519099765
 30
0.0
 10
7110.869345291068
 20
5546.514519099765
 30
0.0
 10
7109.132104067382
 20
5546.514519099765
 30
0.0
  0
LINE
  5
15B
330
1F
100
AcDbEntity
  8
0
  6
Continuous
 62
     7
370
    25
100
AcDbLine
 10
7118.0270765706
 20
5545.8337148471
 30
0.0
 11
7116.534436567
 21
5546.5145190998
 31
0.0
  0
LINE
  5
15C
330
1F
100
AcDbEntity
  8
0
  6
Continuous
 62
     7
370
    25
100
AcDbLine
 10
7108.6125881209
 20
5547.6145228191
 30
0.0
 11
7109.0945773556
 21
5547.6145228191
 31
0.0
  0
ARC
  5
15D
330
1F
100
AcDbEntity
  8
0
  6
Continuous
 62
     7
370
    25
100
AcDbCircle
 10
7101.0432712643
 20
5546.7892099171
 30
0.0
 40
8.09349560826952
100
AcDbArc
 50
358.0550248748
 51
5.8527594699
  0
SPLINE
  5
15E
330
1F
100
AcDbEntity
  8
0
  6
Continuous
 62
     7
370
    25
100
AcDbSpline
210
0.0
220
0.0
230
1.0
 70
     8
 71
     3
 72
    11
 73
     7
 74
     0
 42
0.000000001
 43
0.00000001
 40
0.0
 40
0.0
 40
0.0
 40
0.0
 40
0.1452081007387564
 40
0.5856647907525258
 40
0.907190027522692
 40
0.9999999999999999
 40
0.9999999999999999
 40
0.9999999999999999
 40
0.9999999999999999
 10
7116.534436567005
 20
5546.514519099765
 30
0.0
 10
7116.47040713895
 20
5546.567981591326
 30
0.0
 10
7116.212158588121
 20
5546.783610738557
 30
0.0
 10
7115.81042581757
 20
5547.115582987727
 30
0.0
 10
7115.465218853559
 20
5547.396494247374
 30
0.0
 10
7115.343228855146
 20
5547.493152957329
 30
0.0
 10
7115.315903423604
 20
5547.514804248386
 30
0.0
  0
LINE
  5
15F
330
1F
100
AcDbEntity
  8
0
  6
Continuous
 62
     7
370
    25
100
AcDbLine
 10
7109.0945773556
 20
5547.6145228191
 30
0.0
 11
7115.0503796323
 21
5547.6145228191
 31
0.0
  0
SPLINE
  5
160
330
1F
100
AcDbEntity
  8
0
  6
Continuous
 62
     7
370
    25
100
AcDbSpline
210
0.0
220
0.0
230
1.0
 70
     8
 71
     3
 72
    15
 73
    11
 74
     0
 42
0.000000001
 43
0.00000001
 40
0.0
 40
0.0
 40
0.0
 40
0.0
 40
0.5190081139589278
 40
0.7576487557096987
 40
0.8766574557479763
 40
0.879692656540722
 40
0.938615697249034
 40
0.9686628525923339
 40
0.9872269515721678
 40
1.0
 40
1.0
 40
1.0
 40
1.0
 10
7115.315903423604
 20
5547.514804248386
 30
0.0
 10
7115.27119343572
 20
5547.544331015115
 30
0.0
 10
7115.205925734163
 20
5547.587434229633
 30
0.0
 10
7115.126977367623
 20
5547.607821161496
 30
0.0
 10
7115.094330675833
 20
5547.611856116452
 30
0.0
 10
7115.078007617133
 20
5547.613645730102
 30
0.0
 10
7115.069655909212
 20
5547.614098998286
 30
0.0
 10
7115.059932379186
 20
5547.614419162382
 30
0.0
 10
7115.054368652388
 20
5547.614536022338
 30
0.0
 10
7115.051534738179
 20
5547.614526642375
 30
0.0
 10
7115.050379632291
 20
5547.614522819095
 30
0.0
  0
ARC
  5
161
330
1F
100
AcDbEntity
  8
0
  6
Continuous
 62
     7
370
    25
100
AcDbCircle
 10
7115.1364222139
 20
5547.2828853324
 30
0.0
 40
1.595252581608183
100
AcDbArc
 50
331.2062526439
 51
348.6601253976
  0
ARC
  5
162
330
1F
100
AcDbEntity
  8
0
  6
Continuous
 62
     7
370
    25
100
AcDbCircle
 10
7115.4119702785
 20
5547.2856311326
 30
0.0
 40
0.2484937778216759
100
AcDbArc
 50
67.2571037166
 51
112.7428962834
  0
SPLINE
  5
163
330
1F
100
AcDbEntity
  8
0
  6
Continuous
 62
     7
370
    25
100
AcDbSpline
210
0.0
220
0.0
230
1.0
 70
     8
 71
     3
 72
    10
 73
     6
 74
     0
 42
0.000000001
 43
0.00000001
 40
0.0
 40
0.0
 40
0.0
 40
0.0
 40
0.079073051855996
 40
0.3860857340123514
 40
1.0
 40
1.0
 40
1.0
 40
1.0
 10
7115.508037133392
 20
5547.514804248386
 30
0.0
 10
7115.53424168717
 20
5547.502815627955
 30
0.0
 10
7115.662189251378
 20
5547.444279436294
 30
0.0
 10
7116.066691329874
 20
5547.259198243622
 30
0.0
 10
7116.447005124122
 20
5547.085202978838
 30
0.0
 10
7116.700532360253
 20
5546.969213132435
 30
0.0
  0
ARC
  5
164
330
1F
100
AcDbEntity
  8
0
  6
Continuous
 62
     7
370
    25
100
AcDbCircle
 10
7110.1329843155
 20
5549.3066958406
 30
0.0
 40
1.695970516894727
100
AcDbArc
 50
192.5040267459
 51
266.1650634694
  0
SPLINE
  5
165
330
1F
100
AcDbEntity
  8
0
  6
Continuous
 62
     7
370
    25
100
AcDbSpline
210
0.0
220
0.0
230
1.0
 70
     8
 71
     3
 72
     9
 73
     5
 74
     0
 42
0.000000001
 43
0.00000001
 40
0.0
 40
0.0
 40
0.0
 40
0.0
 40
0.4528719952045433
 40
1.0
 40
1.0
 40
1.0
 40
1.0
 10
7105.611493325111
 20
5547.896482591205
 30
0.0
 10
7106.106015211111
 20
5548.076468708983
 30
0.0
 10
7107.197983562512
 20
5548.473901360337
 30
0.0
 10
7108.02484294795
 20
5548.774847958388
 30
0.0
 10
7108.477240873751
 20
5548.93950427013
 30
0.0
  0
ARC
  5
166
330
1F
100
AcDbEntity
  8
0
  6
Continuous
 62
     7
370
    25
100
AcDbCircle
 10
7116.7734180625
 20
5546.5350288688
 30
0.0
 40
1.436489126990433
100
AcDbArc
 50
330.7767432725
 51
350.1131380498
  0
LINE
  5
167
330
1F
100
AcDbEntity
  8
0
  6
Continuous
 62
     7
370
    25
100
AcDbLine
 10
7116.7005323603
 20
5546.9692131324
 30
0.0
 11
7118.1885734929
 21
5546.2883790775
 31
0.0
  0
LINE
  5
168
330
1F
100
AcDbEntity
  8
0
  6
Continuous
 62
     7
370
    25
100
AcDbLine
 10
7120.8540950699
 20
5545.0688084407
 30
0.0
 11
7118.1885734929
 21
5546.2883790775
 31
0.0
  0
SPLINE
  5
169
330
1F
100
AcDbEntity
  8
0
  6
Continuous
 62
     7
370
    25
100
AcDbSpline
210
0.0
220
0.0
230
1.0
 70
     8
 71
     3
 72
    11
 73
     7
 74
     0
 42
0.000000001
 43
0.00000001
 40
0.0
 40
0.0
 40
0.0
 40
0.0
 40
0.2499919854628032
 40
0.4999876330332832
 40
0.7500291584393777
 40
1.0
 40
1.0
 40
1.0
 40
1.0
 10
7120.854095069942
 20
5545.068808440738
 30
0.0
 10
7120.848619708465
 20
5545.045169157484
 30
0.0
 10
7120.837668905303
 20
5544.997890244686
 30
0.0
 10
7120.809871406289
 20
5544.904186146555
 30
0.0
 10
7120.775809705605
 20
5544.800043432216
 30
0.0
 10
7120.748899591546
 20
5544.726274384251
 30
0.0
 10
7120.735446436581
 20
5544.689395074421
 30
0.0
  0
SPLINE
  5
16A
330
1F
100
AcDbEntity
  8
0
  6
Continuous
 62
     7
370
    25
100
AcDbSpline
210
0.0
220
0.0
230
1.0
 70
     8
 71
     3
 72
    10
 73
     6
 74
     0
 42
0.000000001
 43
0.00000001
 40
0.0
 40
0.0
 40
0.0
 40
0.0
 40
0.2913195832613916
 40
0.6412051658285273
 40
1.0
 40
1.0
 40
1.0
 40
1.0
 10
7122.071326224383
 20
5544.511862639957
 30
0.0
 10
7121.960962158216
 20
5544.562358542747
 30
0.0
 10
7121.718046771078
 20
5544.673501890406
 30
0.0
 10
7121.311787363449
 20
5544.859427492156
 30
0.0
 10
7121.007932482482
 20
5544.998432286667
 30
0.0
 10
7120.854095069942
 20
5545.068808440738
 30
0.0
  0
SPLINE
  5
16B
330
1F
100
AcDbEntity
  8
0
  6
Continuous
 62
     7
370
    25
100
AcDbSpline
210
0.0
220
0.0
230
1.0
 70
     8
 71
     3
 72
    11
 73
     7
 74
     0
 42
0.000000001
 43
0.00000001
 40
0.0
 40
0.0
 40
0.0
 40
0.0
 40
0.250007453429348
 40
0.5000070595239283
 40
0.7499987082325592
 40
1.0
 40
1.0
 40
1.0
 40
1.0
 10
7122.071344850835
 20
5544.51189244228
 30
0.0
 10
7122.074561293068
 20
5544.502662041987
 30
0.0
 10
7122.080994076572
 20
5544.484201531132
 30
0.0
 10
7122.051379170061
 20
5544.378044652653
 30
0.0
 10
7121.997582319098
 20
5544.230623745853
 30
0.0
 10
7121.947066413099
 20
5544.115027466384
 30
0.0
 10
7121.921807972964
 20
5544.057228211933
 30
0.0
  0
LINE
  5
16C
330
1F
100
AcDbEntity
  8
0
  6
Continuous
 62
     7
370
    25
100
AcDbLine
 10
7086.4955363593
 20
5548.9201625629
 30
0.0
 11
7089.0606874398
 21
5541.87244976
 31
0.0
  0
LINE
  5
16D
330
1F
100
AcDbEntity
  8
0
  6
Continuous
 62
     7
370
    25
100
AcDbLine
 10
7086.4955363593
 20
5548.9201625629
 30
0.0
 11
7094.7108196358
 21
5551.9102891727
 31
0.0
  0
LINE
  5
16E
330
1F
100
AcDbEntity
  8
0
  6
Continuous
 62
     7
370
    25
100
AcDbLine
 10
7094.7108196358
 20
5551.9102891727
 30
0.0
 11
7097.2759709491
 21
5544.8625763698
 31
0.0
  0
LINE
  5
16F
330
1F
100
AcDbEntity
  8
0
  6
Continuous
 62
     7
370
    25
100
AcDbLine
 10
7104.210547617
 20
5555.3678950115
 30
0.0
 11
7106.7756996288
 21
5548.3202120109
 31
0.0
  0
LINE
  5
170
330
1F
100
AcDbEntity
  8
0
  6
Continuous
 62
     7
370
    25
100
AcDbLine
 10
7094.7108196358
 20
5551.9102891727
 30
0.0
 11
7104.210547617
 21
5555.3678950115
 31
0.0
  0
LINE
  5
171
330
1F
100
AcDbEntity
  8
0
  6
Continuous
 62
     7
370
    25
100
AcDbLine
 10
7122.0713448508
 20
5544.5118924423
 30
0.0
 11
7123.4492272868
 21
5543.8814541145
 31
0.0
  0
SPLINE
  5
172
330
1F
100
AcDbEntity
  8
0
  6
Continuous
 62
     7
370
    25
100
AcDbSpline
210
0.0
220
0.0
230
1.0
 70
     8
 71
     3
 72
    11
 73
     7
 74
     0
 42
0.000000001
 43
0.00000001
 40
0.0
 40
0.0
 40
0.0
 40
0.0
 40
0.2500035952722472
 40
0.4999985126518936
 40
0.7500053115732951
 40
0.9999999999999999
 40
0.9999999999999999
 40
0.9999999999999999
 40
0.9999999999999999
 10
7123.449167682108
 20
5543.881483916813
 30
0.0
 10
7123.45280179634
 20
5543.872102786353
 30
0.0
 10
7123.46006989866
 20
5543.853340851062
 30
0.0
 10
7123.431688260304
 20
5543.747117895117
 30
0.0
 10
7123.378919710924
 20
5543.599860200613
 30
0.0
 10
7123.32870995759
 20
5543.484498926463
 30
0.0
 10
7123.303605688986
 20
5543.426819686466
 30
0.0
  0
SPLINE
  5
173
330
1F
100
AcDbEntity
  8
0
  6
Continuous
 62
     7
370
    25
100
AcDbSpline
210
0.0
220
0.0
230
1.0
 70
     8
 71
     3
 72
    15
 73
    11
 74
     0
 42
0.000000001
 43
0.00000001
 40
0.0
 40
0.0
 40
0.0
 40
0.0
 40
0.5217977739462739
 40
0.759345168136809
 40
0.8775778721635916
 40
0.8796778133057156
 40
0.9386184114023169
 40
0.9686702210877836
 40
0.9872317000675795
 40
1.0
 40
1.0
 40
1.0
 40
1.0
 10
7115.508037133392
 20
5547.514804248386
 30
0.0
 10
7115.430622784312
 20
5547.544495090012
 30
0.0
 10
7115.317965707463
 20
5547.587702627975
 30
0.0
 10
7115.181633829699
 20
5547.607821135465
 30
0.0
 10
7115.125821247303
 20
5547.611929571295
 30
0.0
 10
7115.097888906071
 20
5547.613632579128
 30
0.0
 10
7115.083644176078
 20
5547.614103041888
 30
0.0
 10
7115.066858949234
 20
5547.614418679313
 30
0.0
 10
7115.057263908398
 20
5547.614536078057
 30
0.0
 10
7115.052372927792
 20
5547.614526658138
 30
0.0
 10
7115.050379632291
 20
5547.614522819095
 30
0.0
  0
SPLINE
  5
174
330
1F
100
AcDbEntity
  8
0
  6
Continuous
 62
     7
370
    25
100
AcDbSpline
210
0.0
220
0.0
230
1.0
 70
     8
 71
     3
 72
    10
 73
     6
 74
     0
 42
0.000000001
 43
0.00000001
 40
0.0
 40
0.0
 40
0.0
 40
0.0
 40
0.3206560629348796
 40
0.7712445930106179
 40
1.0
 40
1.0
 40
1.0
 40
1.0
 10
7115.508037133392
 20
5547.514804248386
 30
0.0
 10
7115.468490307656
 20
5547.532895124827
 30
0.0
 10
7115.373371957979
 20
5547.576407449249
 30
0.0
 10
7115.300416952999
 20
5547.609781216729
 30
0.0
 10
7115.292678147705
 20
5547.6133283824
 30
0.0
 10
7115.290072260675
 20
5547.614522819095
 30
0.0
  0
ARC
  5
175
330
1F
100
AcDbEntity
  8
0
  6
Continuous
 62
     7
370
    25
100
AcDbCircle
 10
7114.2671922477
 20
5549.3331687604
 30
0.0
 40
1.999999999999972
100
AcDbArc
 50
300.7598257244
 51
335.4144031671
  0
LWPOLYLINE
  5
176
330
1F
100
AcDbEntity
  8
0
  6
Continuous
 62
     7
370
    25
100
AcDbPolyline
 90
        9
 70
   128
 43
0.0
 10
7116.0858743622
 20
5548.5010525032
 10
7116.1033459737
 20
5548.4930654808
 10
7116.1550939812
 20
5548.4694024368
 10
7116.2391253545
 20
5548.4309574409
 10
7116.3522139921
 20
5548.3791908069
 10
7116.4900124802
 20
5548.3161588951
 10
7116.6472253187
 20
5548.2442160888
 10
7116.8178100868
 20
5548.1661936088
 10
7116.9952139987
 20
5548.0850120826
  0
ARC
  5
177
330
1F
100
AcDbEntity
  8
0
  6
Continuous
 62
     7
370
    25
100
AcDbCircle
 10
7114.2671922477
 20
5549.3331687604
 30
0.0
 40
2.999999999999739
100
AcDbArc
 50
313.1373832762
 51
335.4144031671
  0
LINE
  5
178
330
1F
100
AcDbEntity
  8
0
  6
Continuous
 62
     7
370
    25
100
AcDbLine
 10
7126.9233622386
 20
5569.7843810363
 30
0.0
 11
7116.9952139987
 21
5548.0850120826
 31
0.0
  0
LINE
  5
179
330
1F
100
AcDbEntity
  8
0
  6
Continuous
 62
     7
370
    25
100
AcDbLine
 10
7130.5607245101
 20
5568.1201597496
 30
0.0
 11
7126.9233622386
 21
5569.7843810363
 31
0.0
  0
LINE
  5
17A
330
1F
100
AcDbEntity
  8
0
  6
Continuous
 62
     7
370
    25
100
AcDbLine
 10
7120.9915247543
 20
5547.2053369327
 30
0.0
 11
7130.5607245101
 21
5568.1201597496
 31
0.0
  0
ARC
  5
17B
330
1F
100
AcDbEntity
  8
0
  6
Continuous
 62
     7
370
    25
100
AcDbCircle
 10
7123.7195464162
 20
5545.9571756675
 30
0.0
 40
3.000000000000342
100
AcDbArc
 50
155.4144031672
 51
197.2247180642
  0
LWPOLYLINE
  5
17C
330
1F
100
AcDbEntity
  8
0
  6
Continuous
 62
     7
370
    25
100
AcDbPolyline
 90
        9
 70
   128
 43
0.0
 10
7121.9008643909
 20
5546.7892667099
 10
7121.8833927794
 20
5546.7972835346
 10
7121.8316447719
 20
5546.8209465786
 10
7121.7476133986
 20
5546.8593915744
 10
7121.634524761
 20
5546.9111284061
 10
7121.4967262729
 20
5546.9741901203
 10
7121.3395134343
 20
5547.0461031242
 10
7121.1689286663
 20
5547.1241554065
 10
7120.9915247543
 20
5547.2053369327
  0
ARC
  5
17D
330
1F
100
AcDbEntity
  8
0
  6
Continuous
 62
     7
370
    25
100
AcDbCircle
 10
7123.7195464162
 20
5545.9571756675
 30
0.0
 40
2.00000000000075
100
AcDbArc
 50
155.4144031671
 51
245.4144031684
  0
SPLINE
  5
17E
330
1F
100
AcDbEntity
  8
0
  6
Continuous
 62
     7
370
    25
100
AcDbSpline
210
0.0
220
0.0
230
1.0
 70
     8
 71
     3
 72
     9
 73
     5
 74
     0
 42
0.000000001
 43
0.00000001
 40
0.0
 40
0.0
 40
0.0
 40
0.0
 40
0.0119605913245414
 40
0.9999999999999999
 40
0.9999999999999999
 40
0.9999999999999999
 40
0.9999999999999999
 10
7122.887442333874
 20
5544.138499145084
 30
0.0
 10
7122.889656243984
 20
5544.137485935158
 30
0.0
 10
7123.074756633238
 20
5544.052773574518
 30
0.0
 10
7123.263088437546
 20
5543.966613482842
 30
0.0
 10
7123.449167682108
 20
5543.881483916813
 30
0.0
  0
LINE
  5
17F
330
1F
100
AcDbEntity
  8
0
  6
Continuous
 62
     7
370
    25
100
AcDbLine
 10
7116.0858743622
 20
5548.5010525032
 30
0.0
 11
7126.014022602
 21
5570.2004214569
 31
0.0
  0
LWPOLYLINE
  5
180
330
1F
100
AcDbEntity
  8
0
  6
Continuous
 62
     7
370
    25
100
AcDbPolyline
 90
        9
 70
   128
 43
0.0
 10
7126.014022602
 20
5570.2004214569
 10
7126.0314942135
 20
5570.1924344345
 10
7126.0832422211
 20
5570.1687713905
 10
7126.1672735943
 20
5570.1303263946
 10
7126.2803622319
 20
5570.0785597606
 10
7126.41816072
 20
5570.0155278488
 10
7126.5753716959
 20
5569.9435850425
 10
7126.7459601893
 20
5569.8655327602
 10
7126.9233622386
 20
5569.7843810363
  0
LINE
  5
181
330
1F
100
AcDbEntity
  8
0
  6
Continuous
 62
     7
370
    25
100
AcDbLine
 10
7131.6780918075
 20
5568.1587835594
 30
0.0
 11
7121.9008643909
 21
5546.7892667099
 31
0.0
  0
LWPOLYLINE
  5
182
330
1F
100
AcDbEntity
  8
0
  6
Continuous
 62
     7
370
    25
100
AcDbPolyline
 90
        9
 70
   128
 43
0.0
 10
7131.6780918075
 20
5568.1587835594
 10
7131.6566229596
 20
5568.1580385013
 10
7131.5930359794
 20
5568.1558331295
 10
7131.4897821082
 20
5568.1522866531
 10
7131.3508213295
 20
5568.1474884792
 10
7131.1814994349
 20
5568.1416174217
 10
7130.9883245065
 20
5568.1349417015
 10
7130.7787135972
 20
5568.1276997371
 10
7130.5607245101
 20
5568.1201597496
  0
LWPOLYLINE
  5
183
330
1F
100
AcDbEntity
  8
0
  6
Continuous
 62
     7
370
    25
100
AcDbPolyline
 90
        9
 70
   128
 43
0.0
 10
7127.339413835
 20
5570.693709497
 10
7127.331419362
 20
5570.6762453361
 10
7127.3077451422
 20
5570.6245085044
 10
7127.269296421
 20
5570.5404659553
 10
7127.217555864
 20
5570.4273661418
 10
7127.154509051
 20
5570.2895900055
 10
7127.0825774206
 20
5570.1323529525
 10
7127.0045288636
 20
5569.9617942615
 10
7126.9233622386
 20
5569.7843810363
  0
ARC
  5
184
330
1F
100
AcDbEntity
  8
0
  6
Continuous
 62
     7
370
    25
100
AcDbCircle
 10
7126.9233622301
 20
5569.7843778582
 30
0.0
 40
1.00000000000024
100
AcDbArc
 50
65.4144031671
 51
155.4144031671
  0
LINE
  5
185
330
1F
100
AcDbEntity
  8
0
  6
Continuous
 62
     7
370
    25
100
AcDbLine
 10
7127.339413835
 20
5570.693709497
 30
0.0
 11
7131.4314477875
 21
5568.8214978023
 31
0.0
  0
LWPOLYLINE
  5
186
330
1F
100
AcDbEntity
  8
0
  6
Continuous
 62
     7
370
    25
100
AcDbPolyline
 90
        9
 70
   128
 43
0.0
 10
7131.4314477875
 20
5568.8214978023
 10
7131.4147175087
 20
5568.8079973503
 10
7131.3651674225
 20
5568.7680920406
 10
7131.2847048773
 20
5568.7033017917
 10
7131.1764181389
 20
5568.6160703941
 10
7131.0444720818
 20
5568.5097953125
 10
7130.8939368262
 20
5568.388559465
 10
7130.7305940224
 20
5568.2569822116
 10
7130.5607245101
 20
5568.1201597496
  0
ARC
  5
187
330
1F
100
AcDbEntity
  8
0
  6
Continuous
 62
     7
370
    25
100
AcDbCircle
 10
7131.223421604
 20
5568.3668132633
 30
0.0
 40
0.4999999999992931
100
AcDbArc
 50
335.4144031671
 51
65.4144031671
  0
LINE
  5
188
330
1F
100
AcDbEntity
  8
0
  6
Continuous
 62
     7
370
    25
100
AcDbLine
 10
7123.4492086603
 20
5543.8814541145
 30
0.0
 11
7130.3825997545
 21
5540.7092055126
 31
0.0
  0
SPLINE
  5
189
330
1F
100
AcDbEntity
  8
0
  6
Continuous
 62
     7
370
    25
100
AcDbSpline
210
0.0
220
0.0
230
1.0
 70
     8
 71
     3
 72
    13
 73
     9
 74
     0
 42
0.000000001
 43
0.00000001
 40
0.0
 40
0.0
 40
0.0
 40
0.0
 40
0.0207252564613684
 40
0.0782442190809149
 40
0.3088927809548742
 40
0.5393439071722983
 40
0.7696731548920759
 40
1.0
 40
1.0
 40
1.0
 40
1.0
 10
7130.382599754509
 20
5540.709205512577
 30
0.0
 10
7130.383478719118
 20
5540.708754801513
 30
0.0
 10
7130.38679708092
 20
5540.707053228591
 30
0.0
 10
7130.397835599608
 20
5540.695925577292
 30
0.0
 10
7130.405085210021
 20
5540.653449147553
 30
0.0
 10
7130.388302939795
 20
5540.551706498438
 30
0.0
 10
7130.348405582257
 20
5540.416663732407
 30
0.0
 10
7130.306523134115
 20
5540.314264230398
 30
0.0
 10
7130.285582019266
 20
5540.263064746433
 30
0.0
  0
SPLINE
  5
18A
330
1F
100
AcDbEntity
  8
0
  6
Continuous
 62
     7
370
    25
100
AcDbSpline
210
0.0
220
0.0
230
1.0
 70
     8
 71
     3
 72
     9
 73
     5
 74
     0
 42
0.000000001
 43
0.00000001
 40
0.0
 40
0.0
 40
0.0
 40
0.0
 40
0.7997069396961869
 40
0.9999999999999999
 40
0.9999999999999999
 40
0.9999999999999999
 40
0.9999999999999999
 10
7130.285582019266
 20
5540.263064746433
 30
0.0
 10
7130.283957064079
 20
5540.258038202532
 30
0.0
 10
7130.281925125743
 20
5540.251752720123
 30
0.0
 10
7130.281824691238
 20
5540.245187099136
 30
0.0
 10
7130.281804574904
 20
5540.243872050815
 30
0.0
  0
SPLINE
  5
18B
330
1F
100
AcDbEntity
  8
0
  6
Continuous
 62
     7
370
    25
100
AcDbSpline
210
0.0
220
0.0
230
1.0
 70
    24
 71
     3
 72
    11
 73
     7
 74
     0
 42
0.000000001
 43
0.00000001
 40
0.0
 40
0.0
 40
0.0
 40
0.0
 40
0.19922986288375
 40
0.5928790025056101
 40
0.9900117694828552
 40
0.9999999999999999
 40
0.9999999999999999
 40
0.9999999999999999
 40
0.9999999999999999
 10
7115.050379632291
 20
5547.614522819095
 30
0.0
 10
7115.052069573849
 20
5547.614522819095
 30
0.0
 10
7115.057098593344
 20
5547.614522819095
 30
0.0
 10
7115.117503761196
 20
5547.614522819096
 30
0.0
 10
7115.221425679571
 20
5547.614522819094
 30
0.0
 10
7115.288428427765
 20
5547.614522819095
 30
0.0
 10
7115.290072260675
 20
5547.614522819095
 30
0.0
  0
LWPOLYLINE
  5
18C
330
1F
100
AcDbEntity
  8
0
  6
Continuous
 62
     7
370
    25
100
AcDbPolyline
 90
        9
 70
   128
 43
0.0
 10
7130.3825997545
 20
5540.7092055126
 10
7132.0334174468
 20
5539.953895454
 10
7133.5410834088
 20
5539.2640909
 10
7134.8532312347
 20
5538.6637529178
 10
7135.9242931737
 20
5538.1737431331
 10
7136.7170647516
 20
5537.810989265
 10
7137.2040160729
 20
5537.5881871028
 10
7137.3682343199
 20
5537.5130852504
 10
7137.3682343199
 20
5537.5130852504
  0
SPLINE
  5
18D
330
1F
100
AcDbEntity
  8
0
  6
Continuous
 62
     7
370
    25
100
AcDbSpline
210
0.0
220
0.0
230
1.0
 70
     8
 71
     3
 72
    11
 73
     7
 74
     0
 42
0.000000001
 43
0.00000001
 40
0.0
 40
0.0
 40
0.0
 40
0.0
 40
0.2201521342483916
 40
0.4945767797823051
 40
0.7760235630109046
 40
1.0
 40
1.0
 40
1.0
 40
1.0
 10
7108.477240873751
 20
5548.93950427013
 30
0.0
 10
7108.773874268959
 20
5549.047477589208
 30
0.0
 10
7109.440267942035
 20
5549.290042107759
 30
0.0
 10
7110.150106078001
 20
5549.548405318201
 30
0.0
 10
7110.588811525035
 20
5549.708048943632
 30
0.0
 10
7110.637261381627
 20
5549.725703842257
 30
0.0
 10
7110.658731756982
 20
5549.733527545505
 30
0.0
  0
LINE
  5
18E
330
1F
100
AcDbEntity
  8
0
  6
Continuous
 62
     7
370
    25
100
AcDbLine
 10
7105.4949923216
 20
5555.8354040428
 30
0.0
 11
7108.0601443334
 21
5548.7877210422
 31
0.0
  0
LINE
  5
18F
330
1F
100
AcDbEntity
  8
0
  6
Continuous
 62
     7
370
    25
100
AcDbLine
 10
7104.210547617
 20
5555.3678950115
 30
0.0
 11
7105.4949923216
 21
5555.8354040428
 31
0.0
  0
LWPOLYLINE
  5
190
330
1F
100
AcDbEntity
  8
0
  6
Continuous
 62
     7
370
    25
100
AcDbPolyline
 90
       15
 70
   128
 43
0.0
 10
7124.8213522865
 20
5544.3533738895
 10
7124.980675502
 20
5544.2804774089
 10
7125.4500583543
 20
5544.0657218738
 10
7126.2041986718
 20
5543.7206705852
 10
7127.2024349107
 20
5543.2639499946
 10
7128.3909515275
 20
5542.720147018
 10
7129.705684705
 20
5542.1186169429
 10
7131.0757458939
 20
5541.4917548938
 10
7132.4272812142
 20
5540.8734163089
 10
7133.6874239876
 20
5540.29686058
 10
7134.7882472708
 20
5539.7932013317
 10
7135.6703997387
 20
5539.3895586772
 10
7136.2863243355
 20
5539.1078075214
 10
7136.6028175487
 20
5538.9629682346
 10
7136.642782463
 20
5538.9446696086
  0
LINE
  5
191
330
1F
100
AcDbEntity
  8
0
  6
Continuous
 62
     7
370
    25
100
AcDbLine
 10
7127.7965553834
 20
5546.2912102981
 30
0.0
 11
7126.5483968689
 21
5543.5631951137
 31
0.0
  0
LINE
  5
192
330
1F
100
AcDbEntity
  8
0
  6
Continuous
 62
     7
370
    25
100
AcDbLine
 10
7127.7965553834
 20
5546.2912102981
 30
0.0
 11
7130.2094594373
 21
5545.1872428699
 31
0.0
  0
LINE
  5
193
330
1F
100
AcDbEntity
  8
0
  6
Continuous
 62
     7
370
    25
100
AcDbLine
 10
7130.2094594373
 20
5545.1872428699
 30
0.0
 11
7128.9613046481
 21
5542.4591978832
 31
0.0
  0
LINE
  5
194
330
1F
100
AcDbEntity
  8
0
  6
Continuous
 62
     7
370
    25
100
AcDbLine
 10
7134.3931318058
 20
5543.2730695053
 30
0.0
 11
7133.1449732913
 21
5540.5450543209
 31
0.0
  0
LINE
  5
195
330
1F
100
AcDbEntity
  8
0
  6
Continuous
 62
     7
370
    25
100
AcDbLine
 10
7130.2094594373
 20
5545.1872428699
 30
0.0
 11
7134.3931318058
 21
5543.2730695053
 31
0.0
  0
LINE
  5
196
330
1F
100
AcDbEntity
  8
0
  6
Continuous
 62
     7
370
    25
100
AcDbLine
 10
7136.1638963951
 20
5542.4628933712
 30
0.0
 11
7134.9157378806
 21
5539.7348483844
 31
0.0
  0
LINE
  5
197
330
1F
100
AcDbEntity
  8
0
  6
Continuous
 62
     7
370
    25
100
AcDbLine
 10
7134.3931318058
 20
5543.2730695053
 30
0.0
 11
7136.1638963951
 21
5542.4628933712
 31
0.0
  0
LWPOLYLINE
  5
198
330
1F
100
AcDbEntity
  8
0
  6
Continuous
 62
     7
370
    25
100
AcDbPolyline
 90
       20
 70
   128
 43
0.0
 10
7083.8088271937
 20
5548.1278678222
 10
7083.974026589
 20
5548.1880089088
 10
7084.4651190362
 20
5548.3667334362
 10
7085.2687079257
 20
5548.6592134281
 10
7086.3628741151
 20
5549.0574618621
 10
7087.7177717427
 20
5549.5506008907
 10
7089.2964422035
 20
5550.1251896663
 10
7091.0558237317
 20
5550.7655521675
 10
7092.9479249551
 20
5551.4542242332
 10
7094.921134392
 20
5552.1724304004
 10
7096.9216278552
 20
5552.9005309387
 10
7098.8948377578
 20
5553.6187371059
 10
7100.7869387774
 20
5554.3074091716
 10
7102.5463207422
 20
5554.9477716728
 10
7104.1249907373
 20
5555.5223604484
 10
7105.4798881321
 20
5556.015499477
 10
7106.5740552528
 20
5556.413747911
 10
7107.3776432111
 20
5556.7062279029
 10
7107.8687351926
 20
5556.8849524303
 10
7108.0339350535
 20
5556.9450935169
  0
CIRCLE
  5
199
330
1F
100
AcDbEntity
  8
0
  6
Continuous
 62
     7
370
    25
100
AcDbCircle
 10
7227.9727826029
 20
5492.6145313272
 30
0.0
 40
1.899999999999808
  0
CIRCLE
  5
19A
330
1F
100
AcDbEntity
  8
0
  6
Continuous
 62
     7
370
    25
100
AcDbCircle
 10
7227.9727826029
 20
5492.6145313272
 30
0.0
 40
3.799999999999616
  0
LINE
  5
19B
330
1F
100
AcDbEntity
  8
0
  6
Continuous
 62
     7
370
    25
100
AcDbLine
 10
7226.6387739016
 20
5493.1656798168
 30
0.0
 11
7227.7830936744
 21
5494.045384769
 31
0.0
  0
LINE
  5
19C
330
1F
100
AcDbEntity
  8
0
  6
Continuous
 62
     7
370
    25
100
AcDbLine
 10
7226.8284656836
 20
5491.7348107143
 30
0.0
 11
7226.6387739016
 21
5493.1656798168
 31
0.0
  0
LINE
  5
19D
330
1F
100
AcDbEntity
  8
0
  6
Continuous
 62
     7
370
    25
100
AcDbLine
 10
7228.1624772384
 20
5491.1836465641
 30
0.0
 11
7226.8284656836
 21
5491.7348107143
 31
0.0
  0
LINE
  5
19E
330
1F
100
AcDbEntity
  8
0
  6
Continuous
 62
     7
370
    25
100
AcDbLine
 10
7229.3067821099
 20
5492.0633515163
 30
0.0
 11
7228.1624772384
 21
5491.1836465641
 31
0.0
  0
LINE
  5
19F
330
1F
100
AcDbEntity
  8
0
  6
Continuous
 62
     7
370
    25
100
AcDbLine
 10
7229.1170903279
 20
5493.4942206188
 30
0.0
 11
7229.3067821099
 21
5492.0633515163
 31
0.0
  0
LINE
  5
1A0
330
1F
100
AcDbEntity
  8
0
  6
Continuous
 62
     7
370
    25
100
AcDbLine
 10
7227.7830936744
 20
5494.045384769
 30
0.0
 11
7229.1170903279
 21
5493.4942206188
 31
0.0
  0
ARC
  5
1A1
330
1F
100
AcDbEntity
  8
0
  6
Continuous
 62
     7
370
    25
100
AcDbCircle
 10
7227.9727826029
 20
5492.6145313272
 30
0.0
 40
1.250000000001033
100
AcDbArc
 50
187.5517191532
 51
247.5517191532
  0
ARC
  5
1A2
330
1F
100
AcDbEntity
  8
0
  6
Continuous
 62
     7
370
    25
100
AcDbCircle
 10
7227.9727826029
 20
5492.6145313272
 30
0.0
 40
1.250000000001033
100
AcDbArc
 50
127.5517191532
 51
187.5517191532
  0
ARC
  5
1A3
330
1F
100
AcDbEntity
  8
0
  6
Continuous
 62
     7
370
    25
100
AcDbCircle
 10
7227.9727826029
 20
5492.6145313272
 30
0.0
 40
1.249999999999253
100
AcDbArc
 50
67.5517191532
 51
127.5517191532
  0
ARC
  5
1A4
330
1F
100
AcDbEntity
  8
0
  6
Continuous
 62
     7
370
    25
100
AcDbCircle
 10
7227.9727826029
 20
5492.6145313272
 30
0.0
 40
1.250000000000012
100
AcDbArc
 50
307.5517191531
 51
7.5517191531
  0
ARC
  5
1A5
330
1F
100
AcDbEntity
  8
0
  6
Continuous
 62
     7
370
    25
100
AcDbCircle
 10
7227.9727826029
 20
5492.6145313272
 30
0.0
 40
1.250000000000376
100
AcDbArc
 50
247.5517191532
 51
307.5517191531
  0
ARC
  5
1A6
330
1F
100
AcDbEntity
  8
0
  6
Continuous
 62
     7
370
    25
100
AcDbCircle
 10
7227.9727826029
 20
5492.6145313272
 30
0.0
 40
1.250000000000012
100
AcDbArc
 50
7.5517191531
 51
67.5517191532
  0
LINE
  5
1A7
330
1F
100
AcDbEntity
  8
0
  6
Continuous
 62
     7
370
    25
100
AcDbLine
 10
7106.7276489719
 20
4856.6145380779
 30
0.0
 11
7437.972793801
 21
4856.6145380779
 31
0.0
  0
LINE
  5
1A8
330
1F
100
AcDbEntity
  8
0
  6
Continuous
 62
     7
370
    25
100
AcDbLine
 10
7017.9727845623
 20
4856.6145380779
 30
0.0
 11
7106.7276489719
 21
4856.6145380779
 31
0.0
  0
LINE
  5
1A9
330
1F
100
AcDbEntity
  8
0
  6
Continuous
 62
     7
370
    25
100
AcDbLine
 10
7107.016327305
 20
4862.1144970699
 30
0.0
 11
7437.472770436
 21
4862.1144970699
 31
0.0
  0
LINE
  5
1AA
330
1F
100
AcDbEntity
  8
0
  6
Continuous
 62
     7
370
    25
100
AcDbLine
 10
7018.4727855756
 20
4862.1144970699
 30
0.0
 11
7107.016327305
 21
4862.1144970699
 31
0.0
  0
LINE
  5
1AB
330
1F
100
AcDbEntity
  8
0
  6
Continuous
 62
     7
370
    25
100
AcDbLine
 10
7057.4727826549
 20
5507.6145609661
 30
0.0
 11
7398.4727957084
 21
5507.6145609661
 31
0.0
  0
LINE
  5
1AC
330
1F
100
AcDbEntity
  8
0
  6
Continuous
 62
     7
370
    25
100
AcDbLine
 10
7057.4727826549
 20
5471.1145242496
 30
0.0
 11
7398.4727957084
 21
5471.1145242496
 31
0.0
  0
LWPOLYLINE
  5
1AD
330
1F
100
AcDbEntity
  8
0
  6
Continuous
 62
     8
370
    25
100
AcDbPolyline
 90
       14
 70
   128
 43
0.0
 10
7096.9216665051
 20
5517.3913916393
 10
7096.8978865801
 20
5517.5073226734
 10
7096.973493675
 20
5517.5883849903
 10
7097.3193766347
 20
5517.6231941028
 10
7097.9640465027
 20
5517.4905737682
 10
7098.3415660246
 20
5517.3717221065
 10
7099.4408954664
 20
5516.9450720592
 10
7100.7889820992
 20
5516.3073023601
 10
7102.3723906635
 20
5515.4003580852
 10
7104.0517915769
 20
5514.2043312831
 10
7106.7504980399
 20
5511.5729650302
 10
7109.5475763811
 20
5507.6145609661
 10
7109.5476080461
 20
5507.6145609661
 10
7109.5476080461
 20
5507.6145609661
  0
SPLINE
  5
1AE
330
1F
100
AcDbEntity
  8
0
  6
Continuous
 62
     8
370
    25
100
AcDbSpline
210
0.0
220
0.0
230
1.0
 70
     8
 71
     3
 72
    17
 73
    13
 74
     0
 42
0.000000001
 43
0.00000001
 40
0.0
 40
0.0
 40
0.0
 40
0.0
 40
0.0691739650758251
 40
0.2094205485674696
 40
0.2488885154509247
 40
0.4007282603027315
 40
0.4633021141664392
 40
0.6745437647630574
 40
0.7921723477039155
 40
0.9099206322569644
 40
0.9684702025954588
 40
1.0
 40
1.0
 40
1.0
 40
1.0
 10
7105.736139675852
 20
5507.614560966068
 30
0.0
 10
7105.571182552308
 20
5507.925203760537
 30
0.0
 10
7105.071783518798
 20
5508.865658516238
 30
0.0
 10
7104.271011185067
 20
5509.84170883044
 30
0.0
 10
7103.070154760709
 20
5510.827222559225
 30
0.0
 10
7102.071994116265
 20
5511.316687049334
 30
0.0
 10
7100.566422910424
 20
5511.775915777529
 30
0.0
 10
7099.396421927926
 20
5511.930672315852
 30
0.0
 10
7098.557273282231
 20
5511.839389729557
 30
0.0
 10
7098.27052514486
 20
5511.669559020528
 30
0.0
 10
7098.151859706055
 20
5511.524791544364
 30
0.0
 10
7098.182575669263
 20
5511.46020842208
 30
0.0
 10
7098.193326944735
 20
5511.437602881962
 30
0.0
  0
LWPOLYLINE
  5
1AF
330
1F
100
AcDbEntity
  8
0
  6
Continuous
 62
     8
370
    25
100
AcDbPolyline
 90
        8
 70
   128
 43
0.0
 10
7137.6602076723
 20
5537.0584210201
 10
7137.4867656066
 20
5537.1337612911
 10
7136.9724855556
 20
5537.357278709
 10
7136.1352861657
 20
5537.7210458561
 10
7135.0043327345
 20
5538.2125457569
 10
7133.6190239324
 20
5538.8144930645
 10
7132.0276246204
 20
5539.5060857578
 10
7130.2855820193
 20
5540.2630647464
  0
SPLINE
  5
1B0
330
1F
100
AcDbEntity
  8
0
  6
Continuous
 62
     8
370
    25
100
AcDbSpline
210
0.0
220
0.0
230
1.0
 70
     8
 71
     3
 72
    11
 73
     7
 74
     0
 42
0.000000001
 43
0.00000001
 40
0.0
 40
0.0
 40
0.0
 40
0.0
 40
0.0875281776857135
 40
0.3627058651610719
 40
0.6463154412631145
 40
1.0
 40
1.0
 40
1.0
 40
1.0
 10
7108.477240873751
 20
5548.93950427013
 30
0.0
 10
7108.619278226677
 20
5548.932194753158
 30
0.0
 10
7109.207863323962
 20
5548.901905025358
 30
0.0
 10
7110.054395722371
 20
5548.859603487669
 30
0.0
 10
7110.890563106809
 20
5548.818847109738
 30
0.0
 10
7110.984804061377
 20
5548.814392654812
 30
0.0
 10
7111.037105767306
 20
5548.811920527988
 30
0.0
  0
LWPOLYLINE
  5
1B1
330
1F
100
AcDbEntity
  8
0
  6
Continuous
 62
     8
370
    25
100
AcDbPolyline
 90
       21
 70
   128
 43
0.0
 10
7107.3099211587
 20
5558.9343091293
 10
7107.1447231604
 20
5558.8741680427
 10
7106.6536311789
 20
5558.695413713
 10
7105.8500413581
 20
5558.4029337211
 10
7104.7558751686
 20
5558.0046852871
 10
7103.4009777738
 20
5557.5115462585
 10
7101.8223068474
 20
5556.9369574829
 10
7100.062925814
 20
5556.2965949817
 10
7098.1708243287
 20
5555.607922916
 10
7096.1976148917
 20
5554.8897465511
 10
7094.1971211957
 20
5554.1616162105
 10
7092.2239118752
 20
5553.4434398456
 10
7090.3318105645
 20
5552.7547677799
 10
7088.5724290072
 20
5552.1144052787
 10
7086.9937585464
 20
5551.5398165031
 10
7085.6388611517
 20
5551.0466774746
 10
7084.5446949622
 20
5550.6484290405
 10
7083.741105607
 20
5550.3559490486
 10
7083.2500136255
 20
5550.1771947189
 10
7083.0848142302
 20
5550.1170834346
 10
7083.0848142302
 20
5550.1170834346
  0
LWPOLYLINE
  5
1B2
330
1F
100
AcDbEntity
  8
0
  6
Continuous
 62
     8
370
    25
100
AcDbPolyline
 90
       19
 70
   128
 43
0.0
 10
7083.5527744873
 20
5552.2181173606
 10
7083.7202546916
 20
5552.2790631099
 10
7084.2176074891
 20
5552.4600824161
 10
7085.0297203085
 20
5552.7556916519
 10
7086.1319177582
 20
5553.1568607135
 10
7087.4907104096
 20
5553.6514004512
 10
7089.064811569
 20
5554.2243202968
 10
7090.8063932563
 20
5554.858215694
 10
7092.6625383815
 20
5555.5338045402
 10
7094.5768486506
 20
5556.2305530353
 10
7096.4911593853
 20
5556.9273015304
 10
7098.3473043686
 20
5557.6028903766
 10
7100.0888854994
 20
5558.2367559715
 10
7101.6629873573
 20
5558.8097056194
 10
7103.021779543
 20
5559.3042453571
 10
7104.1239774584
 20
5559.7054144188
 10
7104.9360898121
 20
5560.0009938522
 10
7105.4334430753
 20
5560.1820131584
 10
7105.6009228139
 20
5560.24298871
  0
LINE
  5
1B3
330
1F
100
AcDbEntity
  8
0
  6
Continuous
 62
     8
370
    25
100
AcDbLine
 10
7106.7276489719
 20
4861.6145333095
 30
0.0
 11
7017.9727845623
 21
4861.6145333095
 31
0.0
  0
LINE
  5
1B4
330
1F
100
AcDbEntity
  8
0
  6
Continuous
 62
     8
370
    25
100
AcDbLine
 10
7437.972793801
 20
4861.6145333095
 30
0.0
 11
7106.7276489719
 21
4861.6145333095
 31
0.0
  0
LINE
  5
1B5
330
1F
100
AcDbEntity
  8
0
  6
Continuous
 62
     7
370
    25
100
AcDbLine
 10
6264.2287332919
 20
4291.9134946092
 30
0.0
 11
6283.7287355569
 21
4291.9134946092
 31
0.0
  0
SPLINE
  5
1B6
330
1F
100
AcDbEntity
  8
0
  6
Continuous
 62
     7
370
    25
100
AcDbSpline
210
0.0
220
0.0
230
1.0
 70
    24
 71
     3
 72
    16
 73
    12
 74
     0
 42
0.000000001
 43
0.00000001
 40
0.0
 40
0.0
 40
0.0
 40
0.0
 40
0.051072811739303
 40
0.1604297283595784
 40
0.2569574223698123
 40
0.3475438258479833
 40
0.4390551166985365
 40
0.5356140351230917
 40
0.693519984689172
 40
0.8512459282856785
 40
0.9999999999999999
 40
0.9999999999999999
 40
0.9999999999999999
 40
0.9999999999999999
 10
6259.97877310781
 20
4325.102470956635
 30
0.0
 10
6259.97877310781
 20
4324.82231449536
 30
0.0
 10
6259.97877310781
 20
4323.94228804978
 30
0.0
 10
6259.97877310781
 20
4322.509997676501
 30
0.0
 10
6259.97877310781
 20
4320.845544201162
 30
0.0
 10
6259.97877310781
 20
4319.274076902181
 30
0.0
 10
6259.97877310781
 20
4317.710509715018
 30
0.0
 10
6259.97877310781
 20
4315.788503515295
 30
0.0
 10
6259.97877310781
 20
4313.518927391169
 30
0.0
 10
6259.97877310781
 20
4310.98078789414
 30
0.0
 10
6259.97877310781
 20
4309.317153667662
 30
0.0
 10
6259.97877310781
 20
4308.509687103224
 30
0.0
  0
SPLINE
  5
1B7
330
1F
100
AcDbEntity
  8
0
  6
Continuous
 62
     7
370
    25
100
AcDbSpline
210
0.0
220
0.0
230
1.0
 70
    24
 71
     3
 72
    15
 73
    11
 74
     0
 42
0.000000001
 43
0.00000001
 40
0.0
 40
0.0
 40
0.0
 40
0.0
 40
0.1912520238229866
 40
0.3931539266151033
 40
0.5875822219751312
 40
0.6730036243051174
 40
0.7589853554496624
 40
0.8512995161253818
 40
0.9557188475229553
 40
1.0
 40
1.0
 40
1.0
 40
1.0
 10
6287.9786882904
 20
4308.511883161855
 30
0.0
 10
6287.9786882904
 20
4309.55038086377
 30
0.0
 10
6287.9786882904
 20
4311.685205066552
 30
0.0
 10
6287.9786882904
 20
4314.905541053008
 30
0.0
 10
6287.9786882904
 20
4317.574869973877
 30
0.0
 10
6287.9786882904
 20
4319.631923650806
 30
0.0
 10
6287.9786882904
 20
4321.118823916892
 30
0.0
 10
6287.9786882904
 20
4322.704120515926
 30
0.0
 10
6287.9786882904
 20
4324.046165637418
 30
0.0
 10
6287.9786882904
 20
4324.86171523171
 30
0.0
 10
6287.9786882904
 20
4325.104575745654
 30
0.0
  0
SPLINE
  5
1B8
330
1F
100
AcDbEntity
  8
0
  6
Continuous
 62
     7
370
    25
100
AcDbSpline
210
0.0
220
0.0
230
1.0
 70
     8
 71
     3
 72
    28
 73
    24
 74
     0
 42
0.000000001
 43
0.00000001
 40
0.0
 40
0.0
 40
0.0
 40
0.0
 40
0.007994908321649
 40
0.0596909271052554
 40
0.111376484936392
 40
0.1630954502346774
 40
0.2148839861808309
 40
0.2667659261982938
 40
0.318751048778129
 40
0.3708377099984174
 40
0.4230151471928982
 40
0.4752681948747398
 40
0.5275788407439216
 40
0.5799273013583643
 40
0.6322859282737584
 40
0.6846312793519601
 40
0.7369372228142753
 40
0.7891766243424282
 40
0.841324481020542
 40
0.8933630874554523
 40
0.9452865611398409
 40
0.9971044357227912
 40
1.0
 40
1.0
 40
1.0
 40
1.0
 10
6286.819467356486
 20
4329.252229446438
 30
0.0
 10
6286.819156492893
 20
4329.350992200977
 30
0.0
 10
6286.816835548696
 20
4330.088366557843
 30
0.0
 10
6286.508862528856
 20
4331.447189204093
 30
0.0
 10
6285.885062826505
 20
4333.267811271805
 30
0.0
 10
6284.941038581906
 20
4334.96842264763
 30
0.0
 10
6283.737483512738
 20
4336.509614660489
 30
0.0
 10
6282.293016679705
 20
4337.85401501026
 30
0.0
 10
6280.644889453652
 20
4338.969024577984
 30
0.0
 10
6278.831967893271
 20
4339.827062601024
 30
0.0
 10
6276.898325291841
 20
4340.406565946044
 30
0.0
 10
6274.891038828717
 20
4340.692559459776
 30
0.0
 10
6272.859381041693
 20
4340.677191534441
 30
0.0
 10
6270.853576433527
 20
4340.360015175348
 30
0.0
 10
6268.923521848171
 20
4339.748142593407
 30
0.0
 10
6267.117395265504
 20
4338.856193929596
 30
0.0
 10
6265.480738443431
 20
4337.7059842485
 30
0.0
 10
6264.053801186858
 20
4336.326133970932
 30
0.0
 10
6262.875603186772
 20
4334.751290060687
 30
0.0
 10
6261.963209253444
 20
4333.02143657188
 30
0.0
 10
6261.383934545223
 20
4331.179634928531
 30
0.0
 10
6261.108927561332
 20
4329.872837764395
 30
0.0
 10
6261.119104665357
 20
4329.197198674008
 30
0.0
 10
6261.119643261713
 20
4329.161442259219
 30
0.0
  0
LINE
  5
1B9
330
1F
100
AcDbEntity
  8
0
  6
Continuous
 62
     7
370
    25
100
AcDbLine
 10
6261.0888202098
 20
4328.4395478218
 30
0.0
 11
6261.0888202098
 21
4327.7155343926
 31
0.0
  0
LINE
  5
1BA
330
1F
100
AcDbEntity
  8
0
  6
Continuous
 62
     7
370
    25
100
AcDbLine
 10
6286.8686411884
 20
4327.7155343926
 30
0.0
 11
6286.8686411884
 21
4328.4395478218
 31
0.0
  0
LINE
  5
1BB
330
1F
100
AcDbEntity
  8
0
  6
Continuous
 62
     7
370
    25
100
AcDbLine
 10
6444.8987562564
 20
4199.4641350134
 30
0.0
 11
6444.5187542942
 21
4199.4641350134
 31
0.0
  0
LINE
  5
1BC
330
1F
100
AcDbEntity
  8
0
  6
Continuous
 62
     7
370
    25
100
AcDbLine
 10
6444.5187542942
 20
4191.8641404732
 30
0.0
 11
6444.8987562564
 21
4191.8641404732
 31
0.0
  0
ARC
  5
1BD
330
1F
100
AcDbEntity
  8
0
  6
Continuous
 62
     7
370
    25
100
AcDbCircle
 10
6442.8334806108
 20
4195.6641331462
 30
0.0
 40
4.324969328314634
100
AcDbArc
 50
26.059831153
 51
61.4762140417
  0
ARC
  5
1BE
330
1F
100
AcDbEntity
  8
0
  6
Continuous
 62
     7
370
    25
100
AcDbCircle
 10
6442.8334806108
 20
4195.6641331462
 30
0.0
 40
4.324969328314602
100
AcDbArc
 50
298.5237859583
 51
333.940168847
  0
LWPOLYLINE
  5
1BF
330
1F
100
AcDbEntity
  8
0
  6
Continuous
 62
     7
370
    25
100
AcDbPolyline
 90
        3
 70
   128
 43
0.0
 10
6444.5187542942
 20
4197.8641377314
 10
6444.5149097946
 20
4197.8251115902
 10
6444.505469909
 20
4197.792463146
  0
LWPOLYLINE
  5
1C0
330
1F
100
AcDbEntity
  8
0
  6
Continuous
 62
     7
370
    25
100
AcDbPolyline
 90
        3
 70
   128
 43
0.0
 10
6444.505469909
 20
4193.5358123406
 10
6444.5149097946
 20
4193.5031489952
 10
6444.5187542942
 20
4193.4641377552
  0
LINE
  5
1C1
330
1F
100
AcDbEntity
  8
0
  6
Continuous
 62
     7
370
    25
100
AcDbLine
 10
6103.1387541798
 20
4191.8641404732
 30
0.0
 11
6103.5187635925
 21
4191.8641404732
 31
0.0
  0
LINE
  5
1C2
330
1F
100
AcDbEntity
  8
0
  6
Continuous
 62
     7
370
    25
100
AcDbLine
 10
6103.5187635925
 20
4199.4641350134
 30
0.0
 11
6103.1387541798
 21
4199.4641350134
 31
0.0
  0
ARC
  5
1C3
330
1F
100
AcDbEntity
  8
0
  6
Continuous
 62
     7
370
    25
100
AcDbCircle
 10
6105.2040300614
 20
4195.6641331462
 30
0.0
 40
4.324969328314602
100
AcDbArc
 50
206.059831153
 51
241.4762140417
  0
ARC
  5
1C4
330
1F
100
AcDbEntity
  8
0
  6
Continuous
 62
     7
370
    25
100
AcDbCircle
 10
6105.2040300614
 20
4195.6641331462
 30
0.0
 40
4.324969328314634
100
AcDbArc
 50
118.5237859583
 51
153.940168847
  0
LWPOLYLINE
  5
1C5
330
1F
100
AcDbEntity
  8
0
  6
Continuous
 62
     7
370
    25
100
AcDbPolyline
 90
        3
 70
   128
 43
0.0
 10
6103.5187635925
 20
4193.4641377552
 10
6103.5226080921
 20
4193.5031489952
 10
6103.532025626
 20
4193.5358123406
  0
LWPOLYLINE
  5
1C6
330
1F
100
AcDbEntity
  8
0
  6
Continuous
 62
     7
370
    25
100
AcDbPolyline
 90
        3
 70
   128
 43
0.0
 10
6103.532025626
 20
4197.792463146
 10
6103.5226080921
 20
4197.8251115902
 10
6103.5187635925
 20
4197.8641377314
  0
LWPOLYLINE
  5
1C7
330
1F
100
AcDbEntity
  8
0
  6
Continuous
 62
     7
370
    25
100
AcDbPolyline
 90
        9
 70
   128
 43
0.0
 10
6264.2287332919
 20
4296.2975019141
 10
6264.0336472896
 20
4296.3054963871
 10
6263.8460491207
 20
4296.3291706069
 10
6263.6731658485
 20
4296.3676193281
 10
6263.5216284898
 20
4296.419359885
 10
6263.3972633985
 20
4296.4824066981
 10
6263.3048538473
 20
4296.5543383284
 10
6263.2479463127
 20
4296.6323868855
 10
6263.2287312653
 20
4296.7135535105
  0
ARC
  5
1C8
330
1F
100
AcDbEntity
  8
0
  6
Continuous
 62
     7
370
    25
100
AcDbCircle
 10
6264.1854605191
 20
4296.6659586658
 30
0.0
 40
0.957912383409537
100
AcDbArc
 50
87.410837013
 51
177.1520286818
  0
LINE
  5
1C9
330
1F
100
AcDbEntity
  8
0
  6
Continuous
 62
     7
370
    25
100
AcDbLine
 10
6264.2287332919
 20
4297.6228931471
 30
0.0
 11
6264.2287332919
 21
4296.2975019141
 31
0.0
  0
LWPOLYLINE
  5
1CA
330
1F
100
AcDbEntity
  8
0
  6
Continuous
 62
     7
370
    25
100
AcDbPolyline
 90
        9
 70
   128
 43
0.0
 10
6284.7287375834
 20
4296.7135535105
 10
6284.7095225361
 20
4296.6323868855
 10
6284.6526150015
 20
4296.5543383284
 10
6284.5602054503
 20
4296.4824066981
 10
6284.435840359
 20
4296.419359885
 10
6284.2843030003
 20
4296.3676193281
 10
6284.1114197281
 20
4296.3291706069
 10
6283.9238215592
 20
4296.3054963871
 10
6283.7287355569
 20
4296.2975019141
  0
LINE
  5
1CB
330
1F
100
AcDbEntity
  8
0
  6
Continuous
 62
     7
370
    25
100
AcDbLine
 10
6283.7287355569
 20
4296.2975019141
 30
0.0
 11
6283.7287355569
 21
4297.6228931471
 31
0.0
  0
ARC
  5
1CC
330
1F
100
AcDbEntity
  8
0
  6
Continuous
 62
     7
370
    25
100
AcDbCircle
 10
6283.7720083297
 20
4296.6659586658
 30
0.0
 40
0.9579123834105695
100
AcDbArc
 50
2.8479713182
 51
92.5891629869
  0
LINE
  5
1CD
330
1F
100
AcDbEntity
  8
0
  6
Continuous
 62
     7
370
    25
100
AcDbLine
 10
6264.2287332919
 20
4296.2975019141
 30
0.0
 11
6283.7287355569
 21
4296.2975019141
 31
0.0
  0
LINE
  5
1CE
330
1F
100
AcDbEntity
  8
0
  6
Continuous
 62
     7
370
    25
100
AcDbLine
 10
6264.2287332919
 20
4297.6228931471
 30
0.0
 11
6283.7287355569
 21
4297.6228931471
 31
0.0
  0
LINE
  5
1CF
330
1F
100
AcDbEntity
  8
0
  6
Continuous
 62
     7
370
    25
100
AcDbLine
 10
6283.7287355569
 20
4292.2054679616
 30
0.0
 11
6283.7287355569
 21
4296.2975019141
 31
0.0
  0
LINE
  5
1D0
330
1F
100
AcDbEntity
  8
0
  6
Continuous
 62
     7
370
    25
100
AcDbLine
 10
6264.2287332919
 20
4292.2054679616
 30
0.0
 11
6283.7287355569
 21
4292.2054679616
 31
0.0
  0
LINE
  5
1D1
330
1F
100
AcDbEntity
  8
0
  6
Continuous
 62
     7
370
    25
100
AcDbLine
 10
6264.2287332919
 20
4296.2975019141
 30
0.0
 11
6264.2287332919
 21
4292.2054679616
 31
0.0
  0
LINE
  5
1D2
330
1F
100
AcDbEntity
  8
0
  6
Continuous
 62
     7
370
    25
100
AcDbLine
 10
6284.7287375834
 20
4296.7135535105
 30
0.0
 11
6284.7287375834
 21
4293.076191239
 31
0.0
  0
ELLIPSE
  5
1D3
330
1F
100
AcDbEntity
  8
0
  6
Continuous
 62
     7
370
    25
100
AcDbEllipse
 10
6283.7287340224
 20
4293.0761906146
 30
0.0
 11
0.9999999999990905
 21
0.0
 31
0.0
210
0.0
220
0.0
230
1.0
 40
0.8707225759
 41
4.712388980384702
 42
6.283185307179586
  0
ELLIPSE
  5
1D4
330
1F
100
AcDbEntity
  8
0
  6
Continuous
 62
     7
370
    25
100
AcDbEllipse
 10
6264.2287340224
 20
4293.0761906146
 30
0.0
 11
0.9999999999990905
 21
0.0
 31
0.0
210
0.0
220
0.0
230
1.0
 40
0.8707225759
 41
3.141592653589793
 42
4.712388980384702
  0
LINE
  5
1D5
330
1F
100
AcDbEntity
  8
0
  6
Continuous
 62
     7
370
    25
100
AcDbLine
 10
6263.2287312653
 20
4293.076191239
 30
0.0
 11
6263.2287312653
 21
4296.7135535105
 31
0.0
  0
LINE
  5
1D6
330
1F
100
AcDbEntity
  8
0
  6
Continuous
 62
     7
370
    25
100
AcDbLine
 10
6283.7287355569
 20
4297.6228931471
 30
0.0
 11
6283.7287355569
 21
4307.5510413869
 31
0.0
  0
LINE
  5
1D7
330
1F
100
AcDbEntity
  8
0
  6
Continuous
 62
     7
370
    25
100
AcDbLine
 10
6264.2287332919
 20
4307.5510413869
 30
0.0
 11
6264.2287332919
 21
4297.6228931471
 31
0.0
  0
LINE
  5
1D8
330
1F
100
AcDbEntity
  8
0
  6
Continuous
 62
     7
370
    25
100
AcDbLine
 10
6283.7287355569
 20
4307.5510413869
 30
0.0
 11
6264.2287332919
 21
4307.5510413869
 31
0.0
  0
LINE
  5
1D9
330
1F
100
AcDbEntity
  8
0
  6
Continuous
 62
     7
370
    25
100
AcDbLine
 10
6263.2287312653
 20
4296.7135535105
 30
0.0
 11
6263.2287312653
 21
4306.6417017503
 31
0.0
  0
ARC
  5
1DA
330
1F
100
AcDbEntity
  8
0
  6
Continuous
 62
     7
370
    25
100
AcDbCircle
 10
6264.1854612682
 20
4306.594106082
 30
0.0
 40
0.9579131724294135
100
AcDbArc
 50
87.410883994
 51
177.1519817008
  0
LINE
  5
1DB
330
1F
100
AcDbEntity
  8
0
  6
Continuous
 62
     7
370
    25
100
AcDbLine
 10
6284.7287375834
 20
4306.6417017503
 30
0.0
 11
6284.7287375834
 21
4296.7135535105
 31
0.0
  0
ARC
  5
1DC
330
1F
100
AcDbEntity
  8
0
  6
Continuous
 62
     7
370
    25
100
AcDbCircle
 10
6283.7720075806
 20
4306.594106082
 30
0.0
 40
0.9579131724299679
100
AcDbArc
 50
2.8480182992
 51
92.5891160059
  0
ELLIPSE
  5
1DD
330
1F
100
AcDbEntity
  8
0
  6
Continuous
 62
     7
370
    25
100
AcDbEllipse
 10
6283.7287340224
 20
4293.0761906146
 30
0.0
 11
0.0
 21
1.117366832548214
 31
0.0
210
0.0
220
0.0
230
1.0
 40
0.8949612346
 41
3.141592653589793
 42
4.712388980384702
  0
ELLIPSE
  5
1DE
330
1F
100
AcDbEntity
  8
0
  6
Continuous
 62
     7
370
    25
100
AcDbEllipse
 10
6264.2287340224
 20
4293.0761906146
 30
0.0
 11
-9.094947017729282E-13
 21
1.117366832547305
 31
0.0
210
0.0
220
0.0
230
1.0
 40
0.8949612346
 41
1.570796326794168
 42
3.141592653588884
  0
LINE
  5
1DF
330
1F
100
AcDbEntity
  8
0
  6
Continuous
 62
     7
370
    25
100
AcDbLine
 10
6278.2370616105
 20
4316.2830454781
 30
0.0
 11
6278.2370616105
 21
4315.5767714157
 31
0.0
  0
LINE
  5
1E0
330
1F
100
AcDbEntity
  8
0
  6
Continuous
 62
     7
370
    25
100
AcDbLine
 10
6278.2370616105
 20
4315.5767714157
 30
0.0
 11
6279.0441234019
 21
4316.5774365439
 31
0.0
  0
LINE
  5
1E1
330
1F
100
AcDbEntity
  8
0
  6
Continuous
 62
     7
370
    25
100
AcDbLine
 10
6267.3529032972
 20
4317.3257393314
 30
0.0
 11
6267.3529032972
 21
4316.8612161203
 31
0.0
  0
LINE
  5
1E2
330
1F
100
AcDbEntity
  8
0
  6
Continuous
 62
     7
370
    25
100
AcDbLine
 10
6267.3529032972
 20
4316.8612161203
 30
0.0
 11
6268.5805354622
 21
4316.7163433059
 31
0.0
  0
LINE
  5
1E3
330
1F
100
AcDbEntity
  8
0
  6
Continuous
 62
     7
370
    25
100
AcDbLine
 10
6276.3150055316
 20
4315.8035950287
 30
0.0
 11
6278.2370616105
 21
4315.5767714157
 31
0.0
  0
LINE
  5
1E4
330
1F
100
AcDbEntity
  8
0
  6
Continuous
 62
     7
370
    25
100
AcDbLine
 10
6267.071584275
 20
4317.4887999444
 30
0.0
 11
6267.3529032972
 21
4316.8612161203
 31
0.0
  0
SPLINE
  5
1E5
330
1F
100
AcDbEntity
  8
0
  6
Continuous
 62
     7
370
    25
100
AcDbSpline
210
0.0
220
0.0
230
1.0
 70
     8
 71
     3
 72
    11
 73
     7
 74
     0
 42
0.000000001
 43
0.00000001
 40
0.0
 40
0.0
 40
0.0
 40
0.0
 40
0.2201521342483916
 40
0.4945767797823051
 40
0.7760235630109046
 40
1.0
 40
1.0
 40
1.0
 40
1.0
 10
6265.956373920721
 20
4315.159674875331
 30
0.0
 10
6266.491906097899
 20
4314.863041480123
 30
0.0
 10
6267.6949913215
 20
4314.196647807046
 30
0.0
 10
6269.760671271119
 20
4313.486809671081
 30
0.0
 10
6271.920704148642
 20
4313.048104224047
 30
0.0
 10
6273.346775958519
 20
4312.999654367457
 30
0.0
 10
6273.978734424395
 20
4312.9781839921
 30
0.0
  0
SPLINE
  5
1E6
330
1F
100
AcDbEntity
  8
0
  6
Continuous
 62
     7
370
    25
100
AcDbSpline
210
0.0
220
0.0
230
1.0
 70
     8
 71
     3
 72
     9
 73
     5
 74
     0
 42
0.000000001
 43
0.00000001
 40
0.0
 40
0.0
 40
0.0
 40
0.0
 40
0.4528719952045433
 40
1.0
 40
1.0
 40
1.0
 40
1.0
 10
6262.599723449034
 20
4318.025422423971
 30
0.0
 10
6263.045604246176
 20
4317.530900537972
 30
0.0
 10
6264.030166775688
 20
4316.43893218657
 30
0.0
 10
6265.275187962728
 20
4315.612072801132
 30
0.0
 10
6265.956373920721
 20
4315.159674875331
 30
0.0
  0
SPLINE
  5
1E7
330
1F
100
AcDbEntity
  8
0
  6
Continuous
 62
     7
370
    25
100
AcDbSpline
210
0.0
220
0.0
230
1.0
 70
     8
 71
     3
 72
    14
 73
    10
 74
     0
 42
0.000000001
 43
0.00000001
 40
0.0
 40
0.0
 40
0.0
 40
0.0
 40
0.0303962426748212
 40
0.1979855960484901
 40
0.3655112159810274
 40
0.5195018052038421
 40
0.6734810455085858
 40
0.9670976716158799
 40
1.0
 40
1.0
 40
1.0
 40
1.0
 10
6285.217108240408
 20
4317.858914986145
 30
0.0
 10
6285.302782952282
 20
4317.960623931761
 30
0.0
 10
6285.860824256202
 20
4318.623104042757
 30
0.0
 10
6286.73979668721
 20
4319.958882237831
 30
0.0
 10
6287.560996235586
 20
4321.908215338429
 30
0.0
 10
6287.980050489558
 20
4323.916748283136
 30
0.0
 10
6287.985734032603
 20
4326.471518497126
 30
0.0
 10
6287.652245776628
 20
4328.612937962581
 30
0.0
 10
6286.83546202019
 20
4329.778317792774
 30
0.0
 10
6286.753157189173
 20
4329.895749596772
 30
0.0
  0
SPLINE
  5
1E8
330
1F
100
AcDbEntity
  8
0
  6
Continuous
 62
     7
370
    25
100
AcDbSpline
210
0.0
220
0.0
230
1.0
 70
     8
 71
     3
 72
    14
 73
    10
 74
     0
 42
0.000000001
 43
0.00000001
 40
0.0
 40
0.0
 40
0.0
 40
0.0
 40
0.0553275841503418
 40
0.2248407406401655
 40
0.4008897765874513
 40
0.5494473383744535
 40
0.6994971460308035
 40
0.8495789039930849
 40
1.0
 40
1.0
 40
1.0
 40
1.0
 10
6261.228362133784
 20
4329.976732052755
 30
0.0
 10
6261.107880742014
 20
4329.771680621642
 30
0.0
 10
6260.618267364258
 20
4328.938390747363
 30
0.0
 10
6260.153612112954
 20
4327.276971064902
 30
0.0
 10
6259.907711730033
 20
4325.194766968028
 30
0.0
 10
6260.092592491955
 20
4323.182556598603
 30
0.0
 10
6260.607433329094
 20
4321.34171747547
 30
0.0
 10
6261.423311973622
 20
4319.583744931656
 30
0.0
 10
6262.207291191897
 20
4318.545254159568
 30
0.0
 10
6262.599723449034
 20
4318.025422423971
 30
0.0
  0
SPLINE
  5
1E9
330
1F
100
AcDbEntity
  8
0
  6
Continuous
 62
     7
370
    25
100
AcDbSpline
210
0.0
220
0.0
230
1.0
 70
     8
 71
     3
 72
     9
 73
     5
 74
     0
 42
0.000000001
 43
0.00000001
 40
0.0
 40
0.0
 40
0.0
 40
0.0
 40
0.4936610626463619
 40
1.0
 40
1.0
 40
1.0
 40
1.0
 10
6282.001094928069
 20
4315.159674875331
 30
0.0
 10
6282.587307610614
 20
4315.543748747812
 30
0.0
 10
6283.774787699489
 20
4316.321760022233
 30
0.0
 10
6284.732288368928
 20
4317.342217587125
 30
0.0
 10
6285.217108240408
 20
4317.858914986145
 30
0.0
  0
SPLINE
  5
1EA
330
1F
100
AcDbEntity
  8
0
  6
Continuous
 62
     7
370
    25
100
AcDbSpline
210
0.0
220
0.0
230
1.0
 70
     8
 71
     3
 72
    11
 73
     7
 74
     0
 42
0.000000001
 43
0.00000001
 40
0.0
 40
0.0
 40
0.0
 40
0.0
 40
0.3685958154102021
 40
0.6671306005250118
 40
0.9749048065211335
 40
1.0
 40
1.0
 40
1.0
 40
1.0
 10
6273.978734424395
 20
4312.9781839921
 30
0.0
 10
6275.019497054089
 20
4313.035207874348
 30
0.0
 10
6276.903198846469
 20
4313.138416796473
 30
0.0
 10
6279.546917027382
 20
4313.906136056969
 30
0.0
 10
6281.14988035676
 20
4314.651134378199
 30
0.0
 10
6281.941420326782
 20
4315.124023522045
 30
0.0
 10
6282.001094928069
 20
4315.159674875331
 30
0.0
  0
SPLINE
  5
1EB
330
1F
100
AcDbEntity
  8
0
  6
Continuous
 62
     7
370
    25
100
AcDbSpline
210
0.0
220
0.0
230
1.0
 70
     8
 71
     3
 72
    14
 73
    10
 74
     0
 42
0.000000001
 43
0.00000001
 40
0.0
 40
0.0
 40
0.0
 40
0.0
 40
0.0437987585152749
 40
0.1836036688113152
 40
0.3233977683547269
 40
0.5141733128019325
 40
0.6430013709172537
 40
0.7718327333552529
 40
1.0
 40
1.0
 40
1.0
 40
1.0
 10
6265.956373920721
 20
4315.159674875331
 30
0.0
 10
6266.161683380243
 20
4315.017698676954
 30
0.0
 10
6267.022337227236
 20
4314.422536809597
 30
0.0
 10
6268.671462383401
 20
4313.573167354127
 30
0.0
 10
6271.233941590634
 20
4312.749610000164
 30
0.0
 10
6273.869767189978
 20
4312.479063613347
 30
0.0
 10
6276.419151346488
 20
4312.7396718963
 30
0.0
 10
6279.125943941284
 20
4313.42293596319
 30
0.0
 10
6280.880019098743
 20
4314.482487477104
 30
0.0
 10
6282.001094928069
 20
4315.159674875331
 30
0.0
  0
LWPOLYLINE
  5
1EC
330
1F
100
AcDbEntity
  8
0
  6
Continuous
 62
     7
370
    25
100
AcDbPolyline
 90
        9
 70
   128
 43
0.0
 10
6282.0010949281
 20
4315.1596748753
 10
6282.0728738215
 20
4315.0571343972
 10
6282.1683008578
 20
4314.9208148493
 10
6282.2851334122
 20
4314.7539181187
 10
6282.4206296709
 20
4314.5603576227
 10
6282.5716082361
 20
4314.3446744903
 10
6282.734530082
 20
4314.1119295283
 10
6282.9055805114
 20
4313.8675802871
 10
6283.0807362106
 20
4313.6173618509
  0
SPLINE
  5
1ED
330
1F
100
AcDbEntity
  8
0
  6
Continuous
 62
     7
370
    25
100
AcDbSpline
210
0.0
220
0.0
230
1.0
 70
     8
 71
     3
 72
    14
 73
    10
 74
     0
 42
0.000000001
 43
0.00000001
 40
0.0
 40
0.0
 40
0.0
 40
0.0
 40
0.2282846386836514
 40
0.3570618123560031
 40
0.4858367332901765
 40
0.6765203594110849
 40
0.8163383789573817
 40
0.9561619514203911
 40
1.0
 40
1.0
 40
1.0
 40
1.0
 10
6283.080736210627
 20
4313.617361850929
 30
0.0
 10
6281.80365643928
 20
4312.863155221533
 30
0.0
 10
6279.806165848981
 20
4311.68349465595
 30
0.0
 10
6276.739530192811
 20
4310.92612429425
 30
0.0
 10
6273.855317509705
 20
4310.637605914759
 30
0.0
 10
6270.873901597701
 20
4310.93711285555
 30
0.0
 10
6267.968454820344
 20
4311.850557629904
 30
0.0
 10
6266.0929345575
 20
4312.795296991075
 30
0.0
 10
6265.111088665629
 20
4313.458954063693
 30
0.0
 10
6264.876732638163
 20
4313.617361850929
 30
0.0
  0
LWPOLYLINE
  5
1EE
330
1F
100
AcDbEntity
  8
0
  6
Continuous
 62
     7
370
    25
100
AcDbPolyline
 90
        9
 70
   128
 43
0.0
 10
6265.9563739207
 20
4315.1596748753
 10
6265.8845950273
 20
4315.0571343972
 10
6265.789167991
 20
4314.9208148493
 10
6265.6723354366
 20
4314.7539181187
 10
6265.5368391779
 20
4314.5603576227
 10
6265.3858606127
 20
4314.3446744903
 10
6265.2229313162
 20
4314.1119295283
 10
6265.0518883374
 20
4313.8675802871
 10
6264.8767326382
 20
4313.6173618509
  0
LINE
  5
1EF
330
1F
100
AcDbEntity
  8
0
  6
Continuous
 62
     7
370
    25
100
AcDbLine
 10
6285.2171082404
 20
4317.8589149861
 30
0.0
 11
6285.4063678887
 21
4317.3771269171
 31
0.0
  0
LINE
  5
1F0
330
1F
100
AcDbEntity
  8
0
  6
Continuous
 62
     7
370
    25
100
AcDbLine
 10
6284.7223449853
 20
4315.0243276282
 30
0.0
 11
6285.4063678887
 21
4317.3771269171
 31
0.0
  0
SPLINE
  5
1F1
330
1F
100
AcDbEntity
  8
0
  6
Continuous
 62
     7
370
    25
100
AcDbSpline
210
0.0
220
0.0
230
1.0
 70
     8
 71
     3
 72
     9
 73
     5
 74
     0
 42
0.000000001
 43
0.00000001
 40
0.0
 40
0.0
 40
0.0
 40
0.0
 40
0.4822844856834073
 40
1.0
 40
1.0
 40
1.0
 40
1.0
 10
6284.722344985289
 20
4315.024327628207
 30
0.0
 10
6284.475955346254
 20
4314.777776849747
 30
0.0
 10
6283.965075053917
 20
4314.266562440454
 30
0.0
 10
6283.382397447378
 20
4313.838813904315
 30
0.0
 10
6283.080736210627
 20
4313.617361850929
 30
0.0
  0
LINE
  5
1F2
330
1F
100
AcDbEntity
  8
0
  6
Continuous
 62
     7
370
    25
100
AcDbLine
 10
6264.8767326382
 20
4313.6173618509
 30
0.0
 11
6263.2351238635
 21
4315.0243276282
 31
0.0
  0
LINE
  5
1F3
330
1F
100
AcDbEntity
  8
0
  6
Continuous
 62
     7
370
    25
100
AcDbLine
 10
6262.4781746772
 20
4317.6506191044
 30
0.0
 11
6263.2351238635
 21
4315.0243276282
 31
0.0
  0
SPLINE
  5
1F4
330
1F
100
AcDbEntity
  8
0
  6
Continuous
 62
     7
370
    25
100
AcDbSpline
210
0.0
220
0.0
230
1.0
 70
     8
 71
     3
 72
     9
 73
     5
 74
     0
 42
0.000000001
 43
0.00000001
 40
0.0
 40
0.0
 40
0.0
 40
0.0
 40
0.418819651807352
 40
1.0
 40
1.0
 40
1.0
 40
1.0
 10
6262.478174677176
 20
4317.650619104397
 30
0.0
 10
6262.494398329442
 20
4317.703491985121
 30
0.0
 10
6262.53313493647
 20
4317.82973458261
 30
0.0
 10
6262.575248103788
 20
4317.953495190681
 30
0.0
 10
6262.599723449034
 20
4318.025422423971
 30
0.0
  0
SPLINE
  5
1F5
330
1F
100
AcDbEntity
  8
0
  6
Continuous
 62
     7
370
    25
100
AcDbSpline
210
0.0
220
0.0
230
1.0
 70
     8
 71
     3
 72
    10
 73
     6
 74
     0
 42
0.000000001
 43
0.00000001
 40
0.0
 40
0.0
 40
0.0
 40
0.0
 40
0.3206560629348796
 40
0.7712445930106179
 40
1.0
 40
1.0
 40
1.0
 40
1.0
 10
6263.626882841868
 20
4308.128878615689
 30
0.0
 10
6263.682587282238
 20
4308.168425441427
 30
0.0
 10
6263.816568059176
 20
4308.263543791103
 30
0.0
 10
6264.028929543853
 20
4308.336498796083
 30
0.0
 10
6264.178401587558
 20
4308.344237601376
 30
0.0
 10
6264.228733291907
 20
4308.346843488407
 30
0.0
  0
LINE
  5
1F6
330
1F
100
AcDbEntity
  8
0
  6
Continuous
 62
     7
370
    25
100
AcDbLine
 10
6264.2287332919
 20
4308.3468434884
 30
0.0
 11
6264.2287332919
 21
4307.5510413869
 31
0.0
  0
SPLINE
  5
1F7
330
1F
100
AcDbEntity
  8
0
  6
Continuous
 62
     7
370
    25
100
AcDbSpline
210
0.0
220
0.0
230
1.0
 70
     8
 71
     3
 72
    10
 73
     6
 74
     0
 42
0.000000001
 43
0.00000001
 40
0.0
 40
0.0
 40
0.0
 40
0.0
 40
0.4028861425693838
 40
0.8055504761447921
 40
1.0
 40
1.0
 40
1.0
 40
1.0
 10
6263.228731265349
 20
4307.318473376226
 30
0.0
 10
6263.242521918202
 20
4307.440980193727
 30
0.0
 10
6263.270095631463
 20
4307.68592638259
 30
0.0
 10
6263.43866409884
 20
4307.960233493773
 30
0.0
 10
6263.580646437017
 20
4308.087450519807
 30
0.0
 10
6263.626882841868
 20
4308.128878615689
 30
0.0
  0
LINE
  5
1F8
330
1F
100
AcDbEntity
  8
0
  6
Continuous
 62
     7
370
    25
100
AcDbLine
 10
6263.2287312653
 20
4306.6417017503
 30
0.0
 11
6263.2287312653
 21
4307.3184733762
 31
0.0
  0
SPLINE
  5
1F9
330
1F
100
AcDbEntity
  8
0
  6
Continuous
 62
     7
370
    25
100
AcDbSpline
210
0.0
220
0.0
230
1.0
 70
     8
 71
     3
 72
    10
 73
     6
 74
     0
 42
0.000000001
 43
0.00000001
 40
0.0
 40
0.0
 40
0.0
 40
0.0
 40
0.2605800787317452
 40
0.6358466646249041
 40
1.0
 40
1.0
 40
1.0
 40
1.0
 10
6284.330586006922
 20
4308.128878615689
 30
0.0
 10
6284.391632969453
 20
4308.072272772021
 30
0.0
 10
6284.540594884345
 20
4307.934147720137
 30
0.0
 10
6284.694302639249
 20
4307.653935594645
 30
0.0
 10
6284.717374858125
 20
4307.429168053715
 30
0.0
 10
6284.728737583441
 20
4307.318473376226
 30
0.0
  0
LINE
  5
1FA
330
1F
100
AcDbEntity
  8
0
  6
Continuous
 62
     7
370
    25
100
AcDbLine
 10
6283.7287355569
 20
4307.5510413869
 30
0.0
 11
6283.7287355569
 21
4308.3468434884
 31
0.0
  0
SPLINE
  5
1FB
330
1F
100
AcDbEntity
  8
0
  6
Continuous
 62
     7
370
    25
100
AcDbSpline
210
0.0
220
0.0
230
1.0
 70
     8
 71
     3
 72
    10
 73
     6
 74
     0
 42
0.000000001
 43
0.00000001
 40
0.0
 40
0.0
 40
0.0
 40
0.0
 40
0.4525516239560819
 40
0.9034482439536521
 40
1.0
 40
1.0
 40
1.0
 40
1.0
 10
6283.728735556883
 20
4308.346843488407
 30
0.0
 10
6283.828571222649
 20
4308.337007278183
 30
0.0
 10
6284.027877450148
 20
4308.317370829246
 30
0.0
 10
6284.222612545632
 20
4308.211918600083
 30
0.0
 10
6284.314398079662
 20
4308.141328390023
 30
0.0
 10
6284.330586006922
 20
4308.128878615689
 30
0.0
  0
LINE
  5
1FC
330
1F
100
AcDbEntity
  8
0
  6
Continuous
 62
     7
370
    25
100
AcDbLine
 10
6284.7287375834
 20
4307.3184733762
 30
0.0
 11
6284.7287375834
 21
4306.6417017503
 31
0.0
  0
LINE
  5
1FD
330
1F
100
AcDbEntity
  8
0
  6
Continuous
 62
     7
370
    25
100
AcDbLine
 10
6283.7287355569
 20
4308.3468434884
 30
0.0
 11
6264.2287332919
 21
4308.3468434884
 31
0.0
  0
SPLINE
  5
1FE
330
1F
100
AcDbEntity
  8
0
  6
Continuous
 62
     7
370
    25
100
AcDbSpline
210
0.0
220
0.0
230
1.0
 70
     8
 71
     3
 72
    10
 73
     6
 74
     0
 42
0.000000001
 43
0.00000001
 40
0.0
 40
0.0
 40
0.0
 40
0.0
 40
0.0000019010723528
 40
0.2552092424526178
 40
0.9999999999999999
 40
0.9999999999999999
 40
0.9999999999999999
 40
0.9999999999999999
 10
6261.783005705161
 20
4301.601812384915
 30
0.0
 10
6261.783005705162
 20
4301.601821077279
 30
0.0
 10
6261.78300586765
 20
4302.768726385394
 30
0.0
 10
6261.526027395181
 20
4303.286290596659
 30
0.0
 10
6261.437984968998
 20
4305.809313532752
 30
0.0
 10
6261.372411659045
 20
4307.688441268992
 30
0.0
  0
ARC
  5
1FF
330
1F
100
AcDbEntity
  8
0
  6
Continuous
 62
     7
370
    25
100
AcDbCircle
 10
6273.9787340224
 20
4308.4767088149
 30
0.0
 40
14.0
100
AcDbArc
 50
180.0
 51
209.4105432816
  0
ARC
  5
200
330
1F
100
AcDbEntity
  8
0
  6
Continuous
 62
     7
370
    25
100
AcDbCircle
 10
6273.9787340224
 20
4308.4767088149
 30
0.0
 40
14.00000000000071
100
AcDbArc
 50
330.5894567185
 51
0.1579203989
  0
SPLINE
  5
201
330
1F
100
AcDbEntity
  8
0
  6
Continuous
 62
     7
370
    25
100
AcDbSpline
210
0.0
220
0.0
230
1.0
 70
     8
 71
     3
 72
    11
 73
     7
 74
     0
 42
0.000000001
 43
0.00000001
 40
0.0
 40
0.0
 40
0.0
 40
0.0
 40
0.1833273446747792
 40
0.8110998783023877
 40
0.9999987842369794
 40
1.0
 40
1.0
 40
1.0
 40
1.0
 10
6286.75510924129
 20
4311.089050166202
 30
0.0
 10
6286.727367917109
 20
4310.533566004246
 30
0.0
 10
6286.604631264232
 20
4308.075923163453
 30
0.0
 10
6286.500803375566
 20
4303.58874279497
 30
0.0
 10
6286.174462982853
 20
4302.952403350032
 30
0.0
 10
6286.174463143629
 20
4301.601821077276
 30
0.0
 10
6286.17446314363
 20
4301.601812384915
 30
0.0
  0
LWPOLYLINE
  5
202
330
1F
100
AcDbEntity
  8
0
  6
Continuous
 62
     7
370
    25
100
AcDbPolyline
 90
        9
 70
   128
 43
0.0
 10
6262.1370721963
 20
4314.960226558
 10
6262.1603925136
 20
4314.9615881516
 10
6262.2243930009
 20
4314.9653227552
 10
6262.326644769
 20
4314.9712925329
 10
6262.4632884171
 20
4314.9792683794
 10
6262.6291383412
 20
4314.9889504089
 10
6262.8179211524
 20
4314.9999716802
 10
6263.0224991944
 20
4315.0119149609
 10
6263.2351238635
 20
4315.0243276282
  0
LINE
  5
203
330
1F
100
AcDbEntity
  8
0
  6
Continuous
 62
     7
370
    25
100
AcDbLine
 10
6262.1370721963
 20
4314.960226558
 30
0.0
 11
6262.0942537096
 21
4315.5505733116
 31
0.0
  0
SPLINE
  5
204
330
1F
100
AcDbEntity
  8
0
  6
Continuous
 62
     7
370
    25
100
AcDbSpline
210
0.0
220
0.0
230
1.0
 70
     8
 71
     3
 72
    11
 73
     7
 74
     0
 42
0.000000001
 43
0.00000001
 40
0.0
 40
0.0
 40
0.0
 40
0.0
 40
0.0384171060441129
 40
0.100020622427045
 40
0.3463168259716319
 40
1.0
 40
1.0
 40
1.0
 40
1.0
 10
6262.094253709597
 20
4315.550573311639
 30
0.0
 10
6262.095101495271
 20
4315.559811645577
 30
0.0
 10
6262.097308742495
 20
4315.583864053627
 30
0.0
 10
6262.116079041533
 20
4315.78778502673
 30
0.0
 10
6262.17762122232
 20
4316.475449738702
 30
0.0
 10
6262.351720746667
 20
4317.15618198213
 30
0.0
 10
6262.478174677176
 20
4317.650619104397
 30
0.0
  0
LINE
  5
205
330
1F
100
AcDbEntity
  8
0
  6
Continuous
 62
     7
370
    25
100
AcDbLine
 10
6285.8718801644
 20
4315.6481368019
 30
0.0
 11
6285.8203966525
 21
4314.960226558
 31
0.0
  0
LWPOLYLINE
  5
206
330
1F
100
AcDbEntity
  8
0
  6
Continuous
 62
     7
370
    25
100
AcDbPolyline
 90
        9
 70
   128
 43
0.0
 10
6285.8203966525
 20
4314.960226558
 10
6285.7970763352
 20
4314.9615881516
 10
6285.7330758479
 20
4314.9653227552
 10
6285.6308240798
 20
4314.9712925329
 10
6285.4941804316
 20
4314.9792683794
 10
6285.3283305076
 20
4314.9889504089
 10
6285.1395476964
 20
4314.9999716802
 10
6284.9349696544
 20
4315.0119149609
 10
6284.7223449853
 20
4315.0243276282
  0
SPLINE
  5
207
330
1F
100
AcDbEntity
  8
0
  6
Continuous
 62
     7
370
    25
100
AcDbSpline
210
0.0
220
0.0
230
1.0
 70
     8
 71
     3
 72
    11
 73
     7
 74
     0
 42
0.000000001
 43
0.00000001
 40
0.0
 40
0.0
 40
0.0
 40
0.0
 40
0.6462681709749452
 40
0.7918594544448171
 40
0.9389040876511341
 40
1.0
 40
1.0
 40
1.0
 40
1.0
 10
6285.406367888731
 20
4317.377126917136
 30
0.0
 10
6285.544808490016
 20
4316.947821113427
 30
0.0
 10
6285.714436987797
 20
4316.421801304961
 30
0.0
 10
6285.826020537618
 20
4315.887413133954
 30
0.0
 10
6285.862796798185
 20
4315.694827687287
 30
0.0
 10
6285.869818940802
 20
4315.658732032076
 30
0.0
 10
6285.871880164427
 20
4315.64813680191
 30
0.0
  0
LINE
  5
208
330
1F
100
AcDbEntity
  8
0
  6
Continuous
 62
     7
370
    25
100
AcDbLine
 10
6284.3305860069
 20
4308.5865361168
 30
0.0
 11
6284.3305860069
 21
4308.1288786157
 31
0.0
  0
SPLINE
  5
209
330
1F
100
AcDbEntity
  8
0
  6
Continuous
 62
     7
370
    25
100
AcDbSpline
210
0.0
220
0.0
230
1.0
 70
     8
 71
     3
 72
    11
 73
     7
 74
     0
 42
0.000000001
 43
0.00000001
 40
0.0
 40
0.0
 40
0.0
 40
0.0
 40
0.0099806987107402
 40
0.4071219336398909
 40
0.8007704516966938
 40
1.0
 40
1.0
 40
1.0
 40
1.0
 10
6283.728735556883
 20
4308.346843488407
 30
0.0
 10
6283.730212514372
 20
4308.348487335023
 30
0.0
 10
6283.79045897671
 20
4308.415541359245
 30
0.0
 10
6283.94061709593
 20
4308.51938716439
 30
0.0
 10
6284.155140445449
 20
4308.579819880004
 30
0.0
 10
6284.286458240294
 20
4308.584846860436
 30
0.0
 10
6284.330586006922
 20
4308.586536116791
 30
0.0
  0
LINE
  5
20A
330
1F
100
AcDbEntity
  8
0
  6
Continuous
 62
     7
370
    25
100
AcDbLine
 10
6263.6268828419
 20
4308.1288786157
 30
0.0
 11
6263.6268828419
 21
4308.5865361168
 31
0.0
  0
SPLINE
  5
20B
330
1F
100
AcDbEntity
  8
0
  6
Continuous
 62
     7
370
    25
100
AcDbSpline
210
0.0
220
0.0
230
1.0
 70
     8
 71
     3
 72
    11
 73
     7
 74
     0
 42
0.000000001
 43
0.00000001
 40
0.0
 40
0.0
 40
0.0
 40
0.0
 40
0.19922986288375
 40
0.5928790025056101
 40
0.9900117694828552
 40
0.9999999999999999
 40
0.9999999999999999
 40
0.9999999999999999
 40
0.9999999999999999
 10
6263.626882841868
 20
4308.586536116791
 30
0.0
 10
6263.671009870151
 20
4308.584846175235
 30
0.0
 10
6263.802325467787
 20
4308.57981715574
 30
0.0
 10
6264.01687593262
 20
4308.519411987886
 30
0.0
 10
6264.166951106122
 20
4308.41549006951
 30
0.0
 10
6264.227253835994
 20
4308.348487321318
 30
0.0
 10
6264.228733291907
 20
4308.346843488407
 30
0.0
  0
SPLINE
  5
20C
330
1F
100
AcDbEntity
  8
0
  6
Continuous
 62
     7
370
    25
100
AcDbSpline
210
0.0
220
0.0
230
1.0
 70
     8
 71
     3
 72
    15
 73
    11
 74
     0
 42
0.000000001
 43
0.00000001
 40
0.0
 40
0.0
 40
0.0
 40
0.0
 40
0.5190081152438216
 40
0.7576487575853884
 40
0.8766574579182925
 40
0.8796926587185524
 40
0.9386156995727385
 40
0.9686628549904253
 40
0.9872390940136071
 40
1.0
 40
1.0
 40
1.0
 40
1.0
 10
6284.812705626769
 20
4308.321012325478
 30
0.0
 10
6284.738921050255
 20
4308.36572230184
 30
0.0
 10
6284.63121022439
 20
4308.430989986579
 30
0.0
 10
6284.500565716703
 20
4308.509938418883
 30
0.0
 10
6284.446672255848
 20
4308.542585032631
 30
0.0
 10
6284.419574016393
 20
4308.558908154645
 30
0.0
 10
6284.405800062567
 20
4308.56725794991
 30
0.0
 10
6284.389682188343
 20
4308.576987204916
 30
0.0
 10
6284.380482170352
 20
4308.582542894922
 30
0.0
 10
6284.375786159023
 20
4308.585380575271
 30
0.0
 10
6284.37387388019
 20
4308.586536116791
 30
0.0
  0
LINE
  5
20D
330
1F
100
AcDbEntity
  8
0
  6
Continuous
 62
     7
370
    25
100
AcDbLine
 10
6284.3738738802
 20
4308.5865361168
 30
0.0
 11
6284.7000528481
 21
4314.5423383935
 31
0.0
  0
LWPOLYLINE
  5
20E
330
1F
100
AcDbEntity
  8
0
  6
Continuous
 62
     7
370
    25
100
AcDbPolyline
 90
        9
 70
   128
 43
0.0
 10
6285.7994158175
 20
4314.5048116817
 10
6285.7782934215
 20
4314.5055325254
 10
6285.7157308963
 20
4314.5076689794
 10
6285.6141347793
 20
4314.5111372246
 10
6285.4774166253
 20
4314.5158031507
 10
6285.3108290937
 20
4314.5214898064
 10
6285.1207573321
 20
4314.5279773994
 10
6284.9145252612
 20
4314.5350163354
 10
6284.7000528481
 20
4314.5423383935
  0
SPLINE
  5
20F
330
1F
100
AcDbEntity
  8
0
  6
Continuous
 62
     7
370
    25
100
AcDbSpline
210
0.0
220
0.0
230
1.0
 70
     8
 71
     3
 72
     9
 73
     5
 74
     0
 42
0.000000001
 43
0.00000001
 40
0.0
 40
0.0
 40
0.0
 40
0.0
 40
0.2966681582712788
 40
0.9999999999999999
 40
0.9999999999999999
 40
0.9999999999999999
 40
0.9999999999999999
 10
6285.799415817542
 20
4314.5048116817
 30
0.0
 10
6285.771578422456
 20
4313.771946270048
 30
0.0
 10
6285.677744978218
 20
4311.301625842259
 30
0.0
 10
6285.490691720206
 20
4308.836371241065
 30
0.0
 10
6285.359131207747
 20
4307.102479182076
 30
0.0
  0
SPLINE
  5
210
330
1F
100
AcDbEntity
  8
0
  6
Continuous
 62
     7
370
    25
100
AcDbSpline
210
0.0
220
0.0
230
1.0
 70
     8
 71
     3
 72
    11
 73
     7
 74
     0
 42
0.000000001
 43
0.00000001
 40
0.0
 40
0.0
 40
0.0
 40
0.0
 40
0.1452081007387564
 40
0.5856647907525258
 40
0.907190027522692
 40
0.9999999999999999
 40
0.9999999999999999
 40
0.9999999999999999
 40
0.9999999999999999
 10
6285.359131207747
 20
4307.102479182076
 30
0.0
 10
6285.362076211489
 20
4307.166508610132
 30
0.0
 10
6285.373954233384
 20
4307.424757160961
 30
0.0
 10
6285.277303545954
 20
4307.826489931513
 30
0.0
 10
6285.034057297599
 20
4308.171696895522
 30
0.0
 10
6284.853214031892
 20
4308.293686893936
 30
0.0
 10
6284.812705626769
 20
4308.321012325478
 30
0.0
  0
SPLINE
  5
211
330
1F
100
AcDbEntity
  8
0
  6
Continuous
 62
     7
370
    25
100
AcDbSpline
210
0.0
220
0.0
230
1.0
 70
     8
 71
     3
 72
    11
 73
     7
 74
     0
 42
0.000000001
 43
0.00000001
 40
0.0
 40
0.0
 40
0.0
 40
0.0
 40
0.1452081007387564
 40
0.5856647907525258
 40
0.907190027522692
 40
0.9999999999999999
 40
0.9999999999999999
 40
0.9999999999999999
 40
0.9999999999999999
 10
6262.598337641043
 20
4307.102479182076
 30
0.0
 10
6262.595392637301
 20
4307.166508610132
 30
0.0
 10
6262.583514615405
 20
4307.424757160961
 30
0.0
 10
6262.680165302835
 20
4307.826489931513
 30
0.0
 10
6262.92341155119
 20
4308.171696895522
 30
0.0
 10
6263.104254816899
 20
4308.293686893936
 30
0.0
 10
6263.144763222022
 20
4308.321012325478
 30
0.0
  0
SPLINE
  5
212
330
1F
100
AcDbEntity
  8
0
  6
Continuous
 62
     7
370
    25
100
AcDbSpline
210
0.0
220
0.0
230
1.0
 70
     8
 71
     3
 72
     9
 73
     5
 74
     0
 42
0.000000001
 43
0.00000001
 40
0.0
 40
0.0
 40
0.0
 40
0.0
 40
0.2966673730514375
 40
1.0
 40
1.0
 40
1.0
 40
1.0
 10
6262.598337641043
 20
4307.102479182076
 30
0.0
 10
6262.539287386207
 20
4307.833487990561
 30
0.0
 10
6262.340242057334
 20
4310.297556758772
 30
0.0
 10
6262.23328172369
 20
4312.767570458013
 30
0.0
 10
6262.158053031249
 20
4314.5048116817
 30
0.0
  0
LWPOLYLINE
  5
213
330
1F
100
AcDbEntity
  8
0
  6
Continuous
 62
     7
370
    25
100
AcDbPolyline
 90
        9
 70
   128
 43
0.0
 10
6262.1580530312
 20
4314.5048116817
 10
6262.1791754272
 20
4314.5055325254
 10
6262.2417379525
 20
4314.5076689794
 10
6262.343326619
 20
4314.5111372246
 10
6262.4800522235
 20
4314.5158031507
 10
6262.6466397551
 20
4314.5214898064
 10
6262.8367040661
 20
4314.5279773994
 10
6263.042936137
 20
4314.5350163354
 10
6263.2574160006
 20
4314.5423383935
  0
LINE
  5
214
330
1F
100
AcDbEntity
  8
0
  6
Continuous
 62
     7
370
    25
100
AcDbLine
 10
6263.2574160006
 20
4314.5423383935
 30
0.0
 11
6263.5835949686
 21
4308.5865361168
 31
0.0
  0
SPLINE
  5
215
330
1F
100
AcDbEntity
  8
0
  6
Continuous
 62
     7
370
    25
100
AcDbSpline
210
0.0
220
0.0
230
1.0
 70
     8
 71
     3
 72
    15
 73
    11
 74
     0
 42
0.000000001
 43
0.00000001
 40
0.0
 40
0.0
 40
0.0
 40
0.0
 40
0.5190081139589278
 40
0.7576487557096987
 40
0.8766574557479763
 40
0.879692656540722
 40
0.938615697249034
 40
0.9686628525923339
 40
0.9872269515721678
 40
1.0
 40
1.0
 40
1.0
 40
1.0
 10
6263.144763222022
 20
4308.321012325478
 30
0.0
 10
6263.218547791573
 20
4308.365722313361
 30
0.0
 10
6263.326258607277
 20
4308.430990014918
 30
0.0
 10
6263.456903154697
 20
4308.509938381459
 30
0.0
 10
6263.510796568401
 20
4308.54258507325
 30
0.0
 10
6263.537894846109
 20
4308.558908131949
 30
0.0
 10
6263.551667644321
 20
4308.567259839871
 30
0.0
 10
6263.567786494575
 20
4308.576983369896
 30
0.0
 10
6263.576981656812
 20
4308.582547096695
 30
0.0
 10
6263.581679943056
 20
4308.585381010905
 30
0.0
 10
6263.5835949686
 20
4308.586536116791
 30
0.0
  0
LWPOLYLINE
  5
216
330
1F
100
AcDbEntity
  8
0
  6
Continuous
 62
     7
370
    25
100
AcDbPolyline
 90
        9
 70
   128
 43
0.0
 10
6263.0965803173
 20
4306.9363833888
 10
6263.0014513042
 20
4306.9335856958
 10
6262.9098166135
 20
4306.938534744
 10
6262.825051358
 20
4306.9510498567
 10
6262.75026243
 20
4306.9706690981
 10
6262.688191643
 20
4306.9966716244
 10
6262.641133776
 20
4307.0281056239
 10
6262.610809913
 20
4307.0638106688
 10
6262.598337641
 20
4307.1024791821
  0
ARC
  5
217
330
1F
100
AcDbEntity
  8
0
  6
Continuous
 62
     7
370
    25
100
AcDbCircle
 10
6264.2889902591
 20
4309.3482307337
 30
0.0
 40
1.537671346698338
100
AcDbArc
 50
221.9155922383
 51
232.4654563829
  0
SPLINE
  5
218
330
1F
100
AcDbEntity
  8
0
  6
Continuous
 62
     7
370
    25
100
AcDbSpline
210
0.0
220
0.0
230
1.0
 70
     8
 71
     3
 72
    10
 73
     6
 74
     0
 42
0.000000001
 43
0.00000001
 40
0.0
 40
0.0
 40
0.0
 40
0.0
 40
0.079073051855996
 40
0.3860857340123514
 40
1.0
 40
1.0
 40
1.0
 40
1.0
 10
6263.352179935259
 20
4308.128878615689
 30
0.0
 10
6263.330817523872
 20
4308.102674061913
 30
0.0
 10
6263.226512427671
 20
4307.974726497705
 30
0.0
 10
6263.087765602398
 20
4307.570224419209
 30
0.0
 10
6263.093054558949
 20
4307.189910624959
 30
0.0
 10
6263.096580317301
 20
4306.936383388829
 30
0.0
  0
SPLINE
  5
219
330
1F
100
AcDbEntity
  8
0
  6
Continuous
 62
     7
370
    25
100
AcDbSpline
210
0.0
220
0.0
230
1.0
 70
     8
 71
     3
 72
    10
 73
     6
 74
     0
 42
0.000000001
 43
0.00000001
 40
0.0
 40
0.0
 40
0.0
 40
0.0
 40
0.6139142659876488
 40
0.920926948144004
 40
1.0
 40
1.0
 40
1.0
 40
1.0
 10
6284.860888531489
 20
4306.936383388829
 30
0.0
 10
6284.86441428984
 20
4307.189910624959
 30
0.0
 10
6284.869703246392
 20
4307.570224419209
 30
0.0
 10
6284.730956421118
 20
4307.974726497705
 30
0.0
 10
6284.626651324917
 20
4308.102674061913
 30
0.0
 10
6284.605288913531
 20
4308.128878615689
 30
0.0
  0
ARC
  5
21A
330
1F
100
AcDbEntity
  8
0
  6
Continuous
 62
     7
370
    25
100
AcDbCircle
 10
6283.6680984053
 20
4309.3486411593
 30
0.0
 40
1.538228432799477
100
AcDbArc
 50
307.5364594038
 51
318.0824919751
  0
LWPOLYLINE
  5
21B
330
1F
100
AcDbEntity
  8
0
  6
Continuous
 62
     7
370
    25
100
AcDbPolyline
 90
        9
 70
   128
 43
0.0
 10
6285.3591312077
 20
4307.1024791821
 10
6285.3466589358
 20
4307.0638106688
 10
6285.3163350728
 20
4307.0281056239
 10
6285.2692772057
 20
4306.9966716244
 10
6285.2072064188
 20
4306.9706690981
 10
6285.1324174908
 20
4306.9510498567
 10
6285.0476522353
 20
4306.938534744
 10
6284.9560175446
 20
4306.9335856958
 10
6284.8608885315
 20
4306.9363833888
  0
LINE
  5
21C
330
1F
100
AcDbEntity
  8
0
  6
Continuous
 62
     7
370
    25
100
AcDbLine
 10
6263.0965803173
 20
4306.9363833888
 30
0.0
 11
6263.2287312653
 21
4305.4483422561
 31
0.0
  0
LINE
  5
21D
330
1F
100
AcDbEntity
  8
0
  6
Continuous
 62
     7
370
    25
100
AcDbLine
 10
6263.6268828419
 20
4308.1288786157
 30
0.0
 11
6263.3521799353
 21
4308.1288786157
 31
0.0
  0
LINE
  5
21E
330
1F
100
AcDbEntity
  8
0
  6
Continuous
 62
     7
370
    25
100
AcDbLine
 10
6284.7287375834
 20
4305.4483422561
 30
0.0
 11
6284.8608885315
 21
4306.9363833888
 31
0.0
  0
LINE
  5
21F
330
1F
100
AcDbEntity
  8
0
  6
Continuous
 62
     7
370
    25
100
AcDbLine
 10
6284.6052889135
 20
4308.1288786157
 30
0.0
 11
6284.3305860069
 21
4308.1288786157
 31
0.0
  0
SPLINE
  5
220
330
1F
100
AcDbEntity
  8
0
  6
Continuous
 62
     7
370
    25
100
AcDbSpline
210
0.0
220
0.0
230
1.0
 70
     8
 71
     3
 72
    15
 73
    11
 74
     0
 42
0.000000001
 43
0.00000001
 40
0.0
 40
0.0
 40
0.0
 40
0.0
 40
0.5217977771260702
 40
0.7593451727642012
 40
0.8775778775114851
 40
0.8796778186664058
 40
0.9386248173898508
 40
0.9686702208968623
 40
0.9872316999897706
 40
1.0
 40
1.0
 40
1.0
 40
1.0
 10
6284.605288913531
 20
4308.128878615689
 30
0.0
 10
6284.566179413327
 20
4308.206292937763
 30
0.0
 10
6284.509265391285
 20
4308.318949975311
 30
0.0
 10
6284.440235854346
 20
4308.455282005951
 30
0.0
 10
6284.412097178928
 20
4308.511094408459
 30
0.0
 10
6284.397889663816
 20
4308.539027890898
 30
0.0
 10
6284.39071541619
 20
4308.55326637834
 30
0.0
 10
6284.382205242256
 20
4308.570058489614
 30
0.0
 10
6284.37736721952
 20
4308.579651753035
 30
0.0
 10
6284.374885352923
 20
4308.584542795912
 30
0.0
 10
6284.37387388019
 20
4308.586536116791
 30
0.0
  0
SPLINE
  5
221
330
1F
100
AcDbEntity
  8
0
  6
Continuous
 62
     7
370
    25
100
AcDbSpline
210
0.0
220
0.0
230
1.0
 70
     8
 71
     3
 72
    15
 73
    11
 74
     0
 42
0.000000001
 43
0.00000001
 40
0.0
 40
0.0
 40
0.0
 40
0.0
 40
0.5217977739462739
 40
0.759345168136809
 40
0.8775778721635916
 40
0.8796778133057156
 40
0.9386184114023169
 40
0.9686702210877836
 40
0.9872317000675795
 40
1.0
 40
1.0
 40
1.0
 40
1.0
 10
6263.352179935259
 20
4308.128878615689
 30
0.0
 10
6263.391289382057
 20
4308.20629296477
 30
0.0
 10
6263.448203326382
 20
4308.318950041618
 30
0.0
 10
6263.517233165629
 20
4308.455281919383
 30
0.0
 10
6263.545371485325
 20
4308.511094501779
 30
0.0
 10
6263.559578777952
 20
4308.539026843011
 30
0.0
 10
6263.566740678707
 20
4308.553271573004
 30
0.0
 10
6263.575264462295
 20
4308.570056799848
 30
0.0
 10
6263.580101456019
 20
4308.579651840683
 30
0.0
 10
6263.582583445704
 20
4308.58454282129
 30
0.0
 10
6263.5835949686
 20
4308.586536116791
 30
0.0
  0
LINE
  5
222
330
1F
100
AcDbEntity
  8
0
  6
Continuous
 62
     7
370
    25
100
AcDbLine
 10
6262.1580530312
 20
4314.5048116817
 30
0.0
 11
6262.1370721963
 21
4314.960226558
 31
0.0
  0
LINE
  5
223
330
1F
100
AcDbEntity
  8
0
  6
Continuous
 62
     7
370
    25
100
AcDbLine
 10
6263.2351238635
 20
4315.0243276282
 30
0.0
 11
6263.2574160006
 21
4314.5423383935
 31
0.0
  0
LINE
  5
224
330
1F
100
AcDbEntity
  8
0
  6
Continuous
 62
     7
370
    25
100
AcDbLine
 10
6285.8203966525
 20
4314.960226558
 30
0.0
 11
6285.7994158175
 21
4314.5048116817
 31
0.0
  0
LINE
  5
225
330
1F
100
AcDbEntity
  8
0
  6
Continuous
 62
     7
370
    25
100
AcDbLine
 10
6284.7000528481
 20
4314.5423383935
 30
0.0
 11
6284.7223449853
 21
4315.0243276282
 31
0.0
  0
LINE
  5
226
330
1F
100
AcDbEntity
  8
0
  6
Continuous
 62
     7
370
    25
100
AcDbLine
 10
6263.5835949686
 20
4308.5865361168
 30
0.0
 11
6263.6268828419
 21
4308.5865361168
 31
0.0
  0
LINE
  5
227
330
1F
100
AcDbEntity
  8
0
  6
Continuous
 62
     7
370
    25
100
AcDbLine
 10
6284.3305860069
 20
4308.5865361168
 30
0.0
 11
6284.3738738802
 21
4308.5865361168
 31
0.0
  0
LWPOLYLINE
  5
228
330
1F
100
AcDbEntity
  8
0
  6
Continuous
 62
     7
370
    25
100
AcDbPolyline
 90
        9
 70
   128
 43
0.0
 10
6263.2287312653
 20
4305.4483422561
 10
6263.1339077261
 20
4305.4448162689
 10
6263.0425412562
 20
4305.4490258469
 10
6262.9579920676
 20
4305.4608163907
 10
6262.88333725
 20
4305.4797576292
 10
6262.8213111666
 20
4305.5051547958
 10
6262.7741862443
 20
4305.5360821559
 10
6262.7436761167
 20
4305.5714072212
 10
6262.7309058216
 20
4305.6098391785
  0
LINE
  5
229
330
1F
100
AcDbEntity
  8
0
  6
Continuous
 62
     7
370
    25
100
AcDbLine
 10
6262.7309058216
 20
4305.6098391785
 30
0.0
 11
6262.598337641
 21
4307.1024791821
 31
0.0
  0
LWPOLYLINE
  5
22A
330
1F
100
AcDbEntity
  8
0
  6
Continuous
 62
     7
370
    25
100
AcDbPolyline
 90
        9
 70
   128
 43
0.0
 10
6284.7287375834
 20
4305.4483422561
 10
6284.8235611227
 20
4305.4448162689
 10
6284.914920142
 20
4305.4490258469
 10
6284.9994767812
 20
4305.4608163907
 10
6285.0741315988
 20
4305.4797576292
 10
6285.1361576822
 20
4305.5051547958
 10
6285.1832826045
 20
4305.5360821559
 10
6285.213792732
 20
4305.5714072212
 10
6285.2265630272
 20
4305.6098391785
  0
LINE
  5
22B
330
1F
100
AcDbEntity
  8
0
  6
Continuous
 62
     7
370
    25
100
AcDbLine
 10
6285.3591312077
 20
4307.1024791821
 30
0.0
 11
6285.2265630272
 21
4305.6098391785
 31
0.0
  0
SPLINE
  5
22C
330
1F
100
AcDbEntity
  8
0
  6
Continuous
 62
     7
370
    25
100
AcDbSpline
210
0.0
220
0.0
230
1.0
 70
     8
 71
     3
 72
     9
 73
     5
 74
     0
 42
0.000000001
 43
0.00000001
 40
0.0
 40
0.0
 40
0.0
 40
0.0
 40
0.8535359435212405
 40
1.0
 40
1.0
 40
1.0
 40
1.0
 10
6286.17446314363
 20
4301.601812384915
 30
0.0
 10
6285.676383768848
 20
4300.689807907649
 30
0.0
 10
6285.092835555603
 20
4299.621306359251
 30
0.0
 10
6284.775252138919
 20
4298.454089162647
 30
0.0
 10
6284.728737583441
 20
4298.28313379724
 30
0.0
  0
SPLINE
  5
22D
330
1F
100
AcDbEntity
  8
0
  6
Continuous
 62
     7
370
    25
100
AcDbSpline
210
0.0
220
0.0
230
1.0
 70
     8
 71
     3
 72
    10
 73
     6
 74
     0
 42
0.000000001
 43
0.00000001
 40
0.0
 40
0.0
 40
0.0
 40
0.0
 40
0.251516061681044
 40
0.5044137926340231
 40
1.0
 40
1.0
 40
1.0
 40
1.0
 10
6285.871880164427
 20
4315.64813680191
 30
0.0
 10
6285.916585557979
 20
4315.417371578833
 30
0.0
 10
6286.006241928081
 20
4314.954573455314
 30
0.0
 10
6286.297231168642
 20
4313.452581151277
 30
0.0
 10
6286.572709512266
 20
4312.030583375521
 30
0.0
 10
6286.75510924129
 20
4311.089050166202
 30
0.0
  0
LINE
  5
22E
330
1F
100
AcDbEntity
  8
0
  6
Continuous
 62
     7
370
    25
100
AcDbLine
 10
6263.2287312653
 20
4298.3787172957
 30
0.0
 11
6261.7830057052
 21
4301.6018123849
 31
0.0
  0
SPLINE
  5
22F
330
1F
100
AcDbEntity
  8
0
  6
Continuous
 62
     7
370
    25
100
AcDbSpline
210
0.0
220
0.0
230
1.0
 70
     8
 71
     3
 72
    11
 73
     7
 74
     0
 42
0.000000001
 43
0.00000001
 40
0.0
 40
0.0
 40
0.0
 40
0.0
 40
0.4126279253738742
 40
0.705647868636764
 40
0.8528739515941248
 40
1.0
 40
1.0
 40
1.0
 40
1.0
 10
6261.372411659045
 20
4307.688441268992
 30
0.0
 10
6261.490055827689
 20
4308.96978546412
 30
0.0
 10
6261.69124278513
 20
4311.161052086374
 30
0.0
 10
6261.900674496628
 20
4313.442190483383
 30
0.0
 10
6262.028228713486
 20
4314.831470692564
 30
0.0
 10
6262.072250364428
 20
4315.310926752441
 30
0.0
 10
6262.094253709597
 20
4315.550573311639
 30
0.0
  0
LINE
  5
230
330
1F
100
AcDbEntity
  8
0
  6
Continuous
 62
     7
370
    25
100
AcDbLine
 10
6278.1669739988
 20
4289.8859271332
 30
0.0
 11
6277.9693846014
 21
4291.9134946092
 31
0.0
  0
LINE
  5
231
330
1F
100
AcDbEntity
  8
0
  6
Continuous
 62
     7
370
    25
100
AcDbLine
 10
6274.3864376452
 20
4287.4730193539
 30
0.0
 11
6278.1669739988
 21
4289.8859271332
 31
0.0
  0
LINE
  5
232
330
1F
100
AcDbEntity
  8
0
  6
Continuous
 62
     7
370
    25
100
AcDbLine
 10
6270.1981980708
 20
4289.2437839432
 30
0.0
 11
6274.3864376452
 21
4287.4730193539
 31
0.0
  0
LINE
  5
233
330
1F
100
AcDbEntity
  8
0
  6
Continuous
 62
     7
370
    25
100
AcDbLine
 10
6269.9380312469
 20
4291.9134946092
 30
0.0
 11
6270.1981980708
 21
4289.2437839432
 31
0.0
  0
LWPOLYLINE
  5
234
330
1F
100
AcDbEntity
  8
0
  6
Continuous
 62
     7
370
    25
100
AcDbPolyline
 90
       11
 70
   128
 43
0.0
 10
6271.9426695612
 20
4291.9134946092
 10
6271.9231788423
 20
4291.6566917225
 10
6272.0796484855
 20
4290.9413801058
 10
6272.5252379086
 20
4290.3349661752
 10
6273.1921095756
 20
4289.9297738
 10
6273.9787344244
 20
4289.7874900623
 10
6274.7653592732
 20
4289.9297738
 10
6275.4322309401
 20
4290.3349661752
 10
6275.8778203633
 20
4290.9413801058
 10
6276.0342900064
 20
4291.6566917225
 10
6276.0147992876
 20
4291.9134946092
  0
SPLINE
  5
235
330
1F
100
AcDbEntity
  8
0
  6
Continuous
 62
     7
370
    25
100
AcDbSpline
210
0.0
220
0.0
230
1.0
 70
     8
 71
     3
 72
    11
 73
     7
 74
     0
 42
0.000000001
 43
0.00000001
 40
0.0
 40
0.0
 40
0.0
 40
0.0
 40
0.2499919854628032
 40
0.4999876330332832
 40
0.7500291584393777
 40
1.0
 40
1.0
 40
1.0
 40
1.0
 10
6263.228731265349
 20
4302.78282067914
 30
0.0
 10
6263.197585388943
 20
4302.788296040618
 30
0.0
 10
6263.135293179876
 20
4302.79924684378
 30
0.0
 10
6263.066928927045
 20
4302.827044342793
 30
0.0
 10
6263.019811392276
 20
4302.861106043478
 30
0.0
 10
6263.011440273983
 20
4302.888016157535
 30
0.0
 10
6263.007255306525
 20
4302.901469312501
 30
0.0
  0
SPLINE
  5
236
330
1F
100
AcDbEntity
  8
0
  6
Continuous
 62
     7
370
    25
100
AcDbSpline
210
0.0
220
0.0
230
1.0
 70
     8
 71
     3
 72
    10
 73
     6
 74
     0
 42
0.000000001
 43
0.00000001
 40
0.0
 40
0.0
 40
0.0
 40
0.0
 40
0.248164581735775
 40
0.699014528642365
 40
1.0
 40
1.0
 40
1.0
 40
1.0
 10
6263.007255306525
 20
4302.901469312501
 30
0.0
 10
6262.982481250927
 20
4303.12820935557
 30
0.0
 10
6262.912699234997
 20
4303.766876578838
 30
0.0
 10
6262.820341722056
 20
4304.668527724742
 30
0.0
 10
6262.756474184579
 20
4305.340732558005
 30
0.0
 10
6262.730905821604
 20
4305.609839178514
 30
0.0
  0
SPLINE
  5
237
330
1F
100
AcDbEntity
  8
0
  6
Continuous
 62
     7
370
    25
100
AcDbSpline
210
0.0
220
0.0
230
1.0
 70
     8
 71
     3
 72
    10
 73
     6
 74
     0
 42
0.000000001
 43
0.00000001
 40
0.0
 40
0.0
 40
0.0
 40
0.0
 40
0.0216847330789049
 40
0.3539892604014993
 40
1.0
 40
1.0
 40
1.0
 40
1.0
 10
6284.81622230081
 20
4301.727853856873
 30
0.0
 10
6284.816089019159
 20
4301.726799549012
 30
0.0
 10
6284.813913282307
 20
4301.709588654204
 30
0.0
 10
6284.800286347157
 20
4301.661083348691
 30
0.0
 10
6284.757193244176
 20
4301.621022157146
 30
0.0
 10
6284.728737583441
 20
4301.59456855793
 30
0.0
  0
SPLINE
  5
238
330
1F
100
AcDbEntity
  8
0
  6
Continuous
 62
     7
370
    25
100
AcDbSpline
210
0.0
220
0.0
230
1.0
 70
     8
 71
     3
 72
    12
 73
     8
 74
     0
 42
0.000000001
 43
0.00000001
 40
0.0
 40
0.0
 40
0.0
 40
0.0
 40
0.3866654756876781
 40
0.6464592574671155
 40
0.8212440320897123
 40
0.9390269598892409
 40
1.0
 40
1.0
 40
1.0
 40
1.0
 10
6285.226563027186
 20
4305.609839178514
 30
0.0
 10
6285.17931123289
 20
4305.11790169134
 30
0.0
 10
6285.100311783042
 20
4304.295439995959
 30
0.0
 10
6284.987547210593
 20
4303.23586297895
 30
0.0
 10
6284.90735224732
 20
4302.515022487817
 30
0.0
 10
6284.853816215732
 20
4302.04851890636
 30
0.0
 10
6284.825783994246
 20
4301.809412292734
 30
0.0
 10
6284.81622230081
 20
4301.727853856873
 30
0.0
  0
LINE
  5
239
330
1F
100
AcDbEntity
  8
0
  6
Continuous
 62
     7
370
    25
100
AcDbLine
 10
6278.1669739988
 20
4289.8859271332
 30
0.0
 11
6278.1669739988
 21
4291.1340856477
 31
0.0
  0
LINE
  5
23A
330
1F
100
AcDbEntity
  8
0
  6
Continuous
 62
     7
370
    25
100
AcDbLine
 10
6278.1669739988
 20
4291.1340856477
 30
0.0
 11
6278.0910153296
 21
4291.9134946092
 31
0.0
  0
LINE
  5
23B
330
1F
100
AcDbEntity
  8
0
  6
Continuous
 62
     7
370
    25
100
AcDbLine
 10
6263.1427515653
 20
4301.7151077761
 30
0.0
 11
6263.0072553065
 21
4302.9014693125
 31
0.0
  0
LWPOLYLINE
  5
23C
330
1F
100
AcDbEntity
  8
0
  6
Continuous
 62
     7
370
    25
100
AcDbPolyline
 90
        3
 70
   128
 43
0.0
 10
6273.5267673042
 20
4291.9134946092
 10
6273.9787344244
 20
4291.8677517696
 10
6274.4307015446
 20
4291.9134946092
  0
SPLINE
  5
23D
330
1F
100
AcDbEntity
  8
0
  6
Continuous
 62
     7
370
    25
100
AcDbSpline
210
0.0
220
0.0
230
1.0
 70
     8
 71
     3
 72
     9
 73
     5
 74
     0
 42
0.000000001
 43
0.00000001
 40
0.0
 40
0.0
 40
0.0
 40
0.0
 40
0.3306014591085314
 40
0.9999999999999999
 40
0.9999999999999999
 40
0.9999999999999999
 40
0.9999999999999999
 10
6263.228731265349
 20
4301.001537732673
 30
0.0
 10
6263.218996564945
 20
4301.080150453648
 30
0.0
 10
6263.189551140141
 20
4301.317937428899
 30
0.0
 10
6263.161517346092
 20
4301.555849669439
 30
0.0
 10
6263.14275156526
 20
4301.715107776117
 30
0.0
  0
ARC
  5
23E
330
1F
100
AcDbEntity
  8
0
  6
Continuous
 62
     7
370
    25
100
AcDbCircle
 10
6273.9787344244
 20
4293.496467832
 30
0.0
 40
6.600552565372283
100
AcDbArc
 50
193.8761735408
 51
346.1238264592
  0
ARC
  5
23F
330
1F
100
AcDbEntity
  8
0
  6
Continuous
 62
     7
370
    25
100
AcDbCircle
 10
6273.9787340224
 20
4295.9333683352
 30
0.0
 40
9.956659520290632
100
AcDbArc
 50
203.8120200003
 51
336.1879799998
  0
LWPOLYLINE
  5
240
330
1F
100
AcDbEntity
  8
0
  6
Continuous
 62
     7
370
    25
100
AcDbPolyline
 90
       37
 70
   128
 43
0.0
 10
6273.9787344244
 20
4318.0359929352
 10
6276.0159019735
 20
4318.2034726738
 10
6277.9911700991
 20
4318.700825937
 10
6279.8445243743
 20
4319.5129382907
 10
6281.5196458605
 20
4320.615136206
 10
6282.9656396416
 20
4321.9739283918
 10
6284.1385770944
 20
4323.5480302497
 10
6285.0028071907
 20
4325.2896113804
 10
6285.5320815351
 20
4327.1457563638
 10
6285.7103068736
 20
4329.0600670985
 10
6285.5320815351
 20
4330.9743773675
 10
6285.0028071907
 20
4332.8305224927
 10
6284.1385770944
 20
4334.5721041801
 10
6282.9656396416
 20
4336.1462053395
 10
6281.5196458605
 20
4337.5049979909
 10
6279.8445243743
 20
4338.6071954406
 10
6277.9911700991
 20
4339.41930826
 10
6276.0159019735
 20
4339.9166610575
 10
6273.9787344244
 20
4340.0841412618
 10
6271.9415668753
 20
4339.9166610575
 10
6269.9662987497
 20
4339.41930826
 10
6268.1129444745
 20
4338.6071954406
 10
6266.4378229883
 20
4337.5049979909
 10
6264.9918292072
 20
4336.1462053395
 10
6263.8188917544
 20
4334.5721041801
 10
6262.9546616581
 20
4332.8305224927
 10
6262.4253873136
 20
4330.9743773675
 10
6262.2471619752
 20
4329.0600670985
 10
6262.4253873136
 20
4327.1457563638
 10
6262.9546616581
 20
4325.2896113804
 10
6263.8188917544
 20
4323.5480302497
 10
6264.9918292072
 20
4321.9739283918
 10
6266.4378229883
 20
4320.615136206
 10
6268.1129444745
 20
4319.5129382907
 10
6269.9662987497
 20
4318.700825937
 10
6271.9415668753
 20
4318.2034726738
 10
6273.9787344244
 20
4318.0359929352
  0
LINE
  5
241
330
1F
100
AcDbEntity
  8
0
  6
Continuous
 62
     7
370
    25
100
AcDbLine
 10
6261.0888202098
 20
4328.4395478218
 30
0.0
 11
6261.1108962801
 21
4329.1480391304
 31
0.0
  0
LINE
  5
242
330
1F
100
AcDbEntity
  8
0
  6
Continuous
 62
     7
370
    25
100
AcDbLine
 10
6286.8406940606
 20
4329.2367392237
 30
0.0
 11
6286.8686411884
 21
4328.4395478218
 31
0.0
  0
LWPOLYLINE
  5
243
330
1F
100
AcDbEntity
  8
0
  6
Continuous
 62
     7
370
    25
100
AcDbPolyline
 90
       21
 70
   128
 43
0.0
 10
6261.0888202098
 20
4327.7155343926
 10
6261.1328456905
 20
4326.7152878939
 10
6261.4832539466
 20
4324.7420779913
 10
6262.1744964626
 20
4322.8499769716
 10
6263.1877307203
 20
4321.0905950068
 10
6264.4953150657
 20
4319.5119250118
 10
6266.0615835693
 20
4318.157027617
 10
6267.8438146022
 20
4317.0628604962
 10
6269.7933856752
 20
4316.259272538
 10
6271.8571219948
 20
4315.7681805565
 10
6273.9787344244
 20
4315.6029806956
 10
6276.100346854
 20
4315.7681805565
 10
6278.1640831736
 20
4316.259272538
 10
6280.1136542466
 20
4317.0628604962
 10
6281.8958778289
 20
4318.157027617
 10
6283.4621463325
 20
4319.5119250118
 10
6284.7697381285
 20
4321.0905950068
 10
6285.7829723862
 20
4322.8499769716
 10
6286.4742149022
 20
4324.7420779913
 10
6286.8246157077
 20
4326.7152878939
 10
6286.8686411884
 20
4327.7155343926
  0
LINE
  5
244
330
1F
100
AcDbEntity
  8
0
  6
Continuous
 62
     7
370
    25
100
AcDbLine
 10
6444.8987562564
 20
4199.4641350134
 30
0.0
 11
6444.8987562564
 21
4191.8641404732
 31
0.0
  0
LINE
  5
245
330
1F
100
AcDbEntity
  8
0
  6
Continuous
 62
     7
370
    25
100
AcDbLine
 10
6444.5187542942
 20
4199.4641350134
 30
0.0
 11
6444.5187542942
 21
4191.8641404732
 31
0.0
  0
LINE
  5
246
330
1F
100
AcDbEntity
  8
0
  6
Continuous
 62
     7
370
    25
100
AcDbLine
 10
6446.7187542823
 20
4197.5641326531
 30
0.0
 11
6446.7187542823
 21
4193.7641279324
 31
0.0
  0
LINE
  5
247
330
1F
100
AcDbEntity
  8
0
  6
Continuous
 62
     7
370
    25
100
AcDbLine
 10
6103.1387541798
 20
4194.2130999192
 30
0.0
 11
6103.1387541798
 21
4199.4641350134
 31
0.0
  0
LINE
  5
248
330
1F
100
AcDbEntity
  8
0
  6
Continuous
 62
     7
370
    25
100
AcDbLine
 10
6103.1387541798
 20
4191.8641404732
 30
0.0
 11
6103.1387541798
 21
4194.2130999192
 31
0.0
  0
LINE
  5
249
330
1F
100
AcDbEntity
  8
0
  6
Continuous
 62
     7
370
    25
100
AcDbLine
 10
6103.5187635925
 20
4194.2130999192
 30
0.0
 11
6103.5187635925
 21
4199.4641350134
 31
0.0
  0
LINE
  5
24A
330
1F
100
AcDbEntity
  8
0
  6
Continuous
 62
     7
370
    25
100
AcDbLine
 10
6103.5187635925
 20
4191.8641404732
 30
0.0
 11
6103.5187635925
 21
4194.2130999192
 31
0.0
  0
LINE
  5
24B
330
1F
100
AcDbEntity
  8
0
  6
Continuous
 62
     7
370
    25
100
AcDbLine
 10
6101.3187561539
 20
4194.9386225565
 30
0.0
 11
6101.3187561539
 21
4197.5641326531
 31
0.0
  0
LINE
  5
24C
330
1F
100
AcDbEntity
  8
0
  6
Continuous
 62
     7
370
    25
100
AcDbLine
 10
6101.3187561539
 20
4194.9386225565
 30
0.0
 11
6101.3187561539
 21
4193.7641279324
 31
0.0
  0
ARC
  5
24D
330
1F
100
AcDbEntity
  8
0
  6
Continuous
 62
     7
370
    25
100
AcDbCircle
 10
6274.0187553361
 20
4195.6641331462
 30
0.0
 40
5.25000000000026
100
AcDbArc
 50
162.8473878307
 51
326.4209664272
  0
LWPOLYLINE
  5
24E
330
1F
100
AcDbEntity
  8
0
  6
Continuous
 62
     7
370
    25
100
AcDbPolyline
 90
        9
 70
   128
 43
0.0
 10
6269.0022606757
 20
4197.2124503477
 10
6270.0611893442
 20
4196.710415326
 10
6271.2176833656
 20
4196.1621121987
 10
6272.4407110718
 20
4195.5822633131
 10
6273.6974601057
 20
4194.9864403828
 10
6274.954201689
 20
4194.3906174525
 10
6276.1772293952
 20
4193.8107685669
 10
6277.3337234166
 20
4193.2624654396
 10
6278.3926520851
 20
4192.7604304178
  0
ARC
  5
24F
330
1F
100
AcDbEntity
  8
0
  6
Continuous
 62
     7
370
    25
100
AcDbCircle
 10
6274.0187553361
 20
4195.6641331462
 30
0.0
 40
5.250000000000292
100
AcDbArc
 50
342.8473878307
 51
146.4209664272
  0
LWPOLYLINE
  5
250
330
1F
100
AcDbEntity
  8
0
  6
Continuous
 62
     7
370
    25
100
AcDbPolyline
 90
        9
 70
   128
 43
0.0
 10
6279.0352497604
 20
4194.1158102377
 10
6277.9763210919
 20
4194.6178601607
 10
6276.8198270705
 20
4195.1661632879
 10
6275.5967993644
 20
4195.7459972723
 10
6274.3400503304
 20
4196.3418202027
 10
6273.0833087471
 20
4196.9376580342
 10
6271.8602810409
 20
4197.5174920185
 10
6270.7037870195
 20
4198.0657951458
 10
6269.644858351
 20
4198.5678450688
  0
ARC
  5
251
330
1F
100
AcDbEntity
  8
0
  6
Continuous
 62
     7
370
    25
100
AcDbCircle
 10
6274.0187553361
 20
4195.6641331462
 30
0.0
 40
5.249999999999992
100
AcDbArc
 50
326.4209664272
 51
342.8473878307
  0
ARC
  5
252
330
1F
100
AcDbEntity
  8
0
  6
Continuous
 62
     7
370
    25
100
AcDbCircle
 10
6274.0187553361
 20
4195.6641331462
 30
0.0
 40
5.250000000000292
100
AcDbArc
 50
146.4209664272
 51
162.8473878307
  0
CIRCLE
  5
253
330
1F
100
AcDbEntity
  8
0
  6
Continuous
 62
     7
370
    25
100
AcDbCircle
 10
6274.0187553361
 20
4195.6641331462
 30
0.0
 40
209.5000000000005
  0
CIRCLE
  5
254
330
1F
100
AcDbEntity
  8
0
  6
Continuous
 62
     7
370
    25
100
AcDbCircle
 10
6274.0187553361
 20
4195.6641331462
 30
0.0
 40
210.0
  0
CIRCLE
  5
255
330
1F
100
AcDbEntity
  8
0
  6
Continuous
 62
     7
370
    25
100
AcDbCircle
 10
6353.5191803365
 20
4023.0962264406
 30
0.0
 40
5.500000000008526
  0
CIRCLE
  5
256
330
1F
100
AcDbEntity
  8
0
  6
Continuous
 62
     7
370
    25
100
AcDbCircle
 10
6164.3207767513
 20
4040.5307921314
 30
0.0
 40
5.500000000000439
  0
CIRCLE
  5
257
330
1F
100
AcDbEntity
  8
0
  6
Continuous
 62
     7
370
    25
100
AcDbCircle
 10
6084.8203517509
 20
4213.0986988371
 30
0.0
 40
5.500000000003237
  0
CIRCLE
  5
258
330
1F
100
AcDbEntity
  8
0
  6
Continuous
 62
     7
370
    25
100
AcDbCircle
 10
6194.5183303357
 20
4368.2320398519
 30
0.0
 40
5.500000000010011
  0
CIRCLE
  5
259
330
1F
100
AcDbEntity
  8
0
  6
Continuous
 62
     7
370
    25
100
AcDbCircle
 10
6383.7167339209
 20
4350.797474161
 30
0.0
 40
5.500000000016349
  0
CIRCLE
  5
25A
330
1F
100
AcDbEntity
  8
0
  6
Continuous
 62
     7
370
    25
100
AcDbCircle
 10
6463.2171589213
 20
4178.2295674554
 30
0.0
 40
5.500000000015081
  0
CIRCLE
  5
25B
330
1F
100
AcDbEntity
  8
0
  6
Continuous
 62
     7
370
    25
100
AcDbCircle
 10
6194.5183303357
 20
4368.2320398519
 30
0.0
 40
4.000000000010403
  0
CIRCLE
  5
25C
330
1F
100
AcDbEntity
  8
0
  6
Continuous
 62
     7
370
    25
100
AcDbCircle
 10
6383.7167339209
 20
4350.797474161
 30
0.0
 40
4.000000000016216
  0
CIRCLE
  5
25D
330
1F
100
AcDbEntity
  8
0
  6
Continuous
 62
     7
370
    25
100
AcDbCircle
 10
6084.8203517509
 20
4213.0986988371
 30
0.0
 40
4.000000000002362
  0
CIRCLE
  5
25E
330
1F
100
AcDbEntity
  8
0
  6
Continuous
 62
     7
370
    25
100
AcDbCircle
 10
6463.2171589213
 20
4178.2295674554
 30
0.0
 40
4.000000000014731
  0
CIRCLE
  5
25F
330
1F
100
AcDbEntity
  8
0
  6
Continuous
 62
     7
370
    25
100
AcDbCircle
 10
6164.3207767513
 20
4040.5307921314
 30
0.0
 40
3.999999999999827
  0
CIRCLE
  5
260
330
1F
100
AcDbEntity
  8
0
  6
Continuous
 62
     7
370
    25
100
AcDbCircle
 10
6353.5191803365
 20
4023.0962264406
 30
0.0
 40
4.000000000008393
  0
LWPOLYLINE
  5
261
330
1F
100
AcDbEntity
  8
0
  6
Continuous
 62
     7
370
    25
100
AcDbPolyline
 90
        3
 70
   128
 43
0.0
 10
6274.0187589434
 20
4180.6641296967
 10
6271.729016712
 20
4180.8399335964
 10
6271.5332899597
 20
4180.8714793547
  0
ARC
  5
262
330
1F
100
AcDbEntity
  8
0
  6
Continuous
 62
     7
370
    25
100
AcDbCircle
 10
6274.0187553361
 20
4195.6641331462
 30
0.0
 40
14.99999999999986
100
AcDbArc
 50
215.2764276605
 51
234.9448864101
  0
ARC
  5
263
330
1F
100
AcDbEntity
  8
0
  6
Continuous
 62
     7
370
    25
100
AcDbCircle
 10
6274.0187553361
 20
4195.6641331462
 30
0.0
 40
15.00000000000025
100
AcDbArc
 50
170.5812580992
 51
189.4215366457
  0
ARC
  5
264
330
1F
100
AcDbEntity
  8
0
  6
Continuous
 62
     7
370
    25
100
AcDbCircle
 10
6274.0187553361
 20
4195.6641331462
 30
0.0
 40
15.0
100
AcDbArc
 50
125.4278182498
 51
144.6805802185
  0
ARC
  5
265
330
1F
100
AcDbEntity
  8
0
  6
Continuous
 62
     7
370
    25
100
AcDbCircle
 10
6274.0187553361
 20
4195.6641331462
 30
0.0
 40
15.00000000000019
100
AcDbArc
 50
80.1707734921
 51
99.7593400686
  0
ARC
  5
266
330
1F
100
AcDbEntity
  8
0
  6
Continuous
 62
     7
370
    25
100
AcDbCircle
 10
6274.0187553361
 20
4195.6641331462
 30
0.0
 40
15.00000000000023
100
AcDbArc
 50
35.5144657177
 51
54.4852466919
  0
ARC
  5
267
330
1F
100
AcDbEntity
  8
0
  6
Continuous
 62
     7
370
    25
100
AcDbCircle
 10
6274.0187553361
 20
4195.6641331462
 30
0.0
 40
15.00000000000009
100
AcDbArc
 50
350.1243101272
 51
9.7242277703
  0
ARC
  5
268
330
1F
100
AcDbEntity
  8
0
  6
Continuous
 62
     7
370
    25
100
AcDbCircle
 10
6274.0187553361
 20
4195.6641331462
 30
0.0
 40
15.00000000000013
100
AcDbArc
 50
305.3683673253
 51
324.3848316863
  0
LWPOLYLINE
  5
269
330
1F
100
AcDbEntity
  8
0
  6
Continuous
 62
     7
370
    25
100
AcDbPolyline
 90
        3
 70
   128
 43
0.0
 10
6276.6302395966
 20
4180.8932052477
 10
6276.3084937242
 20
4180.8399335964
 10
6274.0187589434
 20
4180.6641296967
  0
LINE
  5
26A
330
1F
100
AcDbEntity
  8
0
  6
Continuous
 62
     7
370
    25
100
AcDbLine
 10
6304.0187526849
 20
4317.1508481278
 30
0.0
 11
6303.214186838
 21
4315.0169534161
 31
0.0
  0
LWPOLYLINE
  5
26B
330
1F
100
AcDbEntity
  8
0
  6
Continuous
 62
     7
370
    25
100
AcDbPolyline
 90
        9
 70
   128
 43
0.0
 10
6294.9267421272
 20
4314.5715856477
 10
6295.2821199205
 20
4315.109783925
 10
6295.8948854711
 20
4315.5274802371
 10
6296.7429552582
 20
4315.8096076473
 10
6297.7957446483
 20
4315.945996113
 10
6299.0152854827
 20
4315.9317226632
 10
6300.3575895336
 20
4315.7673051133
 10
6301.7742503789
 20
4315.4586722626
 10
6303.214186838
 20
4315.0169534161
  0
SPLINE
  5
26C
330
1F
100
AcDbEntity
  8
0
  6
Continuous
 62
     7
370
    25
100
AcDbSpline
210
0.0
220
0.0
230
1.0
 70
     8
 71
     3
 72
    13
 73
     9
 74
     0
 42
0.000000001
 43
0.00000001
 40
0.0
 40
0.0
 40
0.0
 40
0.0
 40
0.2685611597885854
 40
0.5371797108121694
 40
0.8154723113132838
 40
0.9250829061540453
 40
0.9890224424542786
 40
1.0
 40
1.0
 40
1.0
 40
1.0
 10
6294.926742127222
 20
4314.571585647655
 30
0.0
 10
6295.581122024205
 20
4316.186833532651
 30
0.0
 10
6296.890021658461
 20
4319.417674479402
 30
0.0
 10
6299.383686730391
 20
4324.08654025683
 30
0.0
 10
6301.682128759442
 20
4327.675877856765
 30
0.0
 10
6303.239969623385
 20
4330.129824427694
 30
0.0
 10
6303.870043280162
 20
4331.159256079475
 30
0.0
 10
6303.999747240165
 20
4331.619696562178
 30
0.0
 10
6304.018752684874
 20
4331.687164634359
 30
0.0
  0
SPLINE
  5
26D
330
1F
100
AcDbEntity
  8
0
  6
Continuous
 62
     7
370
    25
100
AcDbSpline
210
0.0
220
0.0
230
1.0
 70
    24
 71
     3
 72
    11
 73
     7
 74
     0
 42
0.000000001
 43
0.00000001
 40
0.0
 40
0.0
 40
0.0
 40
0.0
 40
0.1214329956703102
 40
0.2457448521086965
 40
0.6222969551715181
 40
1.0
 40
1.0
 40
1.0
 40
1.0
 10
6304.018752684874
 20
4331.687164634359
 30
0.0
 10
6304.018752684874
 20
4331.063427658459
 30
0.0
 10
6304.018752684874
 20
4329.801166523823
 30
0.0
 10
6304.018752684874
 20
4326.876333223989
 30
0.0
 10
6304.018752684874
 20
4322.784760328177
 30
0.0
 10
6304.018752684874
 20
4319.03072832661
 30
0.0
 10
6304.018752684874
 20
4317.150848127794
 30
0.0
  0
SPLINE
  5
26E
330
1F
100
AcDbEntity
  8
0
  6
Continuous
 62
     7
370
    25
100
AcDbSpline
210
0.0
220
0.0
230
1.0
 70
     8
 71
     3
 72
    13
 73
     9
 74
     0
 42
0.000000001
 43
0.00000001
 40
0.0
 40
0.0
 40
0.0
 40
0.0
 40
0.0087644643141018
 40
0.1422058797211888
 40
0.3569174503872577
 40
0.5713620397458493
 40
0.7856700625845617
 40
1.0
 40
1.0
 40
1.0
 40
1.0
 10
6290.018448641581
 20
4302.262639768314
 30
0.0
 10
6290.027583011984
 20
4302.26220897547
 30
0.0
 10
6290.17579072124
 20
4302.25521924133
 30
0.0
 10
6290.547854031184
 20
4302.237479583852
 30
0.0
 10
6291.101804516888
 20
4302.210422250093
 30
0.0
 10
6291.608415491848
 20
4302.18506511149
 30
0.0
 10
6291.952559800595
 20
4302.167534613444
 30
0.0
 10
6291.996691293776
 20
4302.165267429517
 30
0.0
 10
6292.018758168501
 20
4302.164133779597
 30
0.0
  0
ARC
  5
26F
330
1F
100
AcDbEntity
  8
0
  6
Continuous
 62
     7
370
    25
100
AcDbCircle
 10
6341.7566622712
 20
4297.0513439157
 30
0.0
 40
52.00000000000095
100
AcDbArc
 50
136.5295241585
 51
174.2483200869
  0
LINE
  5
270
330
1F
100
AcDbEntity
  8
0
  6
Continuous
 62
     7
370
    25
100
AcDbLine
 10
6304.0187526849
 20
4332.8263404942
 30
0.0
 11
6304.0187526849
 21
4331.6871646344
 31
0.0
  0
ARC
  5
271
330
1F
100
AcDbEntity
  8
0
  6
Continuous
 62
     7
370
    25
100
AcDbCircle
 10
6341.7566622712
 20
4297.0513439157
 30
0.0
 40
50.00000000000088
100
AcDbArc
 50
159.4879220722
 51
174.130916549
  0
LINE
  5
272
330
1F
100
AcDbEntity
  8
0
  6
Continuous
 62
     7
370
    25
100
AcDbLine
 10
6252.7894620207
 20
4315.3262549563
 30
0.0
 11
6253.1107608583
 21
4314.5715856477
 31
0.0
  0
LWPOLYLINE
  5
273
330
1F
100
AcDbEntity
  8
0
  6
Continuous
 62
     7
370
    25
100
AcDbPolyline
 90
        9
 70
   128
 43
0.0
 10
6253.1107608583
 20
4314.5715856477
 10
6252.7553979662
 20
4315.109783925
 10
6252.1426175144
 20
4315.5274802371
 10
6251.2945477274
 20
4315.8096076473
 10
6250.2417657879
 20
4315.945996113
 10
6249.0222249535
 20
4315.9317226632
 10
6247.6799283531
 20
4315.7673051133
 10
6246.2632600573
 20
4315.4586722626
 10
6244.8233161476
 20
4315.0169534161
  0
LINE
  5
274
330
1F
100
AcDbEntity
  8
0
  6
Continuous
 62
     7
370
    25
100
AcDbLine
 10
6244.8233161476
 20
4315.0169534161
 30
0.0
 11
6244.0187577513
 21
4317.1508481278
 31
0.0
  0
SPLINE
  5
275
330
1F
100
AcDbEntity
  8
0
  6
Continuous
 62
     7
370
    25
100
AcDbSpline
210
0.0
220
0.0
230
1.0
 70
    24
 71
     3
 72
    11
 73
     7
 74
     0
 42
0.000000001
 43
0.00000001
 40
0.0
 40
0.0
 40
0.0
 40
0.0
 40
0.4989723144415463
 40
0.7488966325032491
 40
0.8749897596893325
 40
1.0
 40
1.0
 40
1.0
 40
1.0
 10
6244.018757751269
 20
4317.150848127794
 30
0.0
 10
6244.018757751269
 20
4319.618704100036
 30
0.0
 10
6244.018757751269
 20
4323.322655148268
 30
0.0
 10
6244.018757751269
 20
4327.417689612054
 30
0.0
 10
6244.018757751269
 20
4329.740474044423
 30
0.0
 10
6244.018757751269
 20
4331.040136041384
 30
0.0
 10
6244.018757751269
 20
4331.687164634359
 30
0.0
  0
ARC
  5
276
330
1F
100
AcDbEntity
  8
0
  6
Continuous
 62
     7
370
    25
100
AcDbCircle
 10
6206.280848401
 20
4297.0513439157
 30
0.0
 40
52.00000000000069
100
AcDbArc
 50
5.7516799131
 51
43.4704758415
  0
SPLINE
  5
277
330
1F
100
AcDbEntity
  8
0
  6
Continuous
 62
     7
370
    25
100
AcDbSpline
210
0.0
220
0.0
230
1.0
 70
     8
 71
     3
 72
    13
 73
     9
 74
     0
 42
0.000000001
 43
0.00000001
 40
0.0
 40
0.0
 40
0.0
 40
0.0
 40
0.0087644643141018
 40
0.1422058797211888
 40
0.3569174503872577
 40
0.5713620397458493
 40
0.7856700625845617
 40
1.0
 40
1.0
 40
1.0
 40
1.0
 10
6258.019061794562
 20
4302.262639768314
 30
0.0
 10
6258.009927424158
 20
4302.26220897547
 30
0.0
 10
6257.861719714903
 20
4302.25521924133
 30
0.0
 10
6257.489656404959
 20
4302.237479583852
 30
0.0
 10
6256.935705919255
 20
4302.210422250093
 30
0.0
 10
6256.429094944294
 20
4302.18506511149
 30
0.0
 10
6256.084950635548
 20
4302.167534613444
 30
0.0
 10
6256.040819142367
 20
4302.165267429517
 30
0.0
 10
6256.018752267642
 20
4302.164133779597
 30
0.0
  0
ARC
  5
278
330
1F
100
AcDbEntity
  8
0
  6
Continuous
 62
     7
370
    25
100
AcDbCircle
 10
6206.280848401
 20
4297.0513439157
 30
0.0
 40
50.00000000000088
100
AcDbArc
 50
5.869083451
 51
20.5120779278
  0
SPLINE
  5
279
330
1F
100
AcDbEntity
  8
0
  6
Continuous
 62
     7
370
    25
100
AcDbSpline
210
0.0
220
0.0
230
1.0
 70
    24
 71
     3
 72
     9
 73
     5
 74
     0
 42
0.000000001
 43
0.00000001
 40
0.0
 40
0.0
 40
0.0
 40
0.0
 40
0.1065791804765294
 40
1.0
 40
1.0
 40
1.0
 40
1.0
 10
6244.018757751269
 20
4331.687164634359
 30
0.0
 10
6244.018757751269
 20
4331.726598412344
 30
0.0
 10
6244.018757751269
 20
4332.096593544686
 30
0.0
 10
6244.018757751269
 20
4332.482005462633
 30
0.0
 10
6244.018757751269
 20
4332.826340494221
 30
0.0
  0
ARC
  5
27A
330
1F
100
AcDbEntity
  8
0
  6
Continuous
 62
     7
370
    25
100
AcDbCircle
 10
6274.0187553361
 20
4302.1641331462
 30
0.0
 40
18.0
100
AcDbArc
 50
180.0
 51
0.0
  0
CIRCLE
  5
27B
330
1F
100
AcDbEntity
  8
0
  6
Continuous
 62
     7
370
    25
100
AcDbCircle
 10
6274.0187553361
 20
4195.6641331462
 30
0.0
 40
170.5000000000005
  0
ARC
  5
27C
330
1F
100
AcDbEntity
  8
0
  6
Continuous
 62
     7
370
    25
100
AcDbCircle
 10
6274.0187553361
 20
4195.6641331462
 30
0.0
 40
140.9999999999998
100
AcDbArc
 50
102.2844938563
 51
77.7155061437
  0
ARC
  5
27D
330
1F
100
AcDbEntity
  8
0
  6
Continuous
 62
     7
370
    25
100
AcDbCircle
 10
6274.0187553361
 20
4302.1641331462
 30
0.0
 40
11.00000000000063
100
AcDbArc
 50
176.4730798578
 51
191.2130091935
  0
LINE
  5
27E
330
1F
100
AcDbEntity
  8
0
  6
Continuous
 62
     7
370
    25
100
AcDbLine
 10
6244.0187577513
 20
4333.435683187
 30
0.0
 11
6244.0187577513
 21
4332.8263404942
 31
0.0
  0
LINE
  5
27F
330
1F
100
AcDbEntity
  8
0
  6
Continuous
 62
     7
370
    25
100
AcDbLine
 10
6304.0187526849
 20
4332.8263404942
 30
0.0
 11
6304.0187526849
 21
4333.435683187
 31
0.0
  0
SPLINE
  5
280
330
1F
100
AcDbEntity
  8
0
  6
Continuous
 62
     7
370
    25
100
AcDbSpline
210
0.0
220
0.0
230
1.0
 70
     8
 71
     3
 72
     9
 73
     5
 74
     0
 42
0.000000001
 43
0.00000001
 40
0.0
 40
0.0
 40
0.0
 40
0.0
 40
0.4966538260094135
 40
1.0
 40
1.0
 40
1.0
 40
1.0
 10
6247.297355940623
 20
4304.658390723062
 30
0.0
 10
6247.044407926197
 20
4306.422766262832
 30
0.0
 10
6246.535103454591
 20
4309.975292081364
 30
0.0
 10
6245.396452000523
 20
4313.328918426329
 30
0.0
 10
6244.823316147608
 20
4315.016953416061
 30
0.0
  0
SPLINE
  5
281
330
1F
100
AcDbEntity
  8
0
  6
Continuous
 62
     7
370
    25
100
AcDbSpline
210
0.0
220
0.0
230
1.0
 70
     8
 71
     3
 72
    27
 73
    23
 74
     0
 42
0.000000001
 43
0.00000001
 40
0.0
 40
0.0
 40
0.0
 40
0.0
 40
0.0384405430104184
 40
0.0940861219037472
 40
0.1497213340963902
 40
0.2021526342010372
 40
0.2545699325406101
 40
0.3050988123954883
 40
0.3556137389772496
 40
0.4062099000900668
 40
0.456796453707475
 40
0.5113165112271217
 40
0.5631770449854635
 40
0.6150452828984643
 40
0.6708534944618558
 40
0.7266820349285084
 40
0.7861297407017169
 40
0.8456012709852966
 40
0.9035709845264549
 40
0.9615526074674209
 40
0.9671674797301614
 40
1.0
 40
1.0
 40
1.0
 40
1.0
 10
6300.74015449552
 20
4304.658390723062
 30
0.0
 10
6300.687072502136
 20
4303.635579402741
 30
0.0
 10
6300.557150328588
 20
4301.132171723458
 30
0.0
 10
6299.661348302154
 20
4297.207998146656
 30
0.0
 10
6298.021285440025
 20
4293.099847087678
 30
0.0
 10
6295.735084175017
 20
4289.36070290405
 30
0.0
 10
6292.950990872648
 20
4286.096678057739
 30
0.0
 10
6289.676333979809
 20
4283.329213786486
 30
0.0
 10
6286.015800355733
 20
4281.104943247436
 30
0.0
 10
6282.000307678194
 20
4279.491954542312
 30
0.0
 10
6277.640220753519
 20
4278.504423807647
 30
0.0
 10
6273.117471035551
 20
4278.270113468971
 30
0.0
 10
6268.594751629165
 20
4278.824172557333
 30
0.0
 10
6264.207376676382
 20
4280.111499811924
 30
0.0
 10
6260.046069337789
 20
4282.182706455095
 30
0.0
 10
6256.172837399751
 20
4285.030685185784
 30
0.0
 10
6252.85860010984
 20
4288.569314417033
 30
0.0
 10
6250.229719228289
 20
4292.63733357334
 30
0.0
 10
6248.415114853651
 20
4297.024180614048
 30
0.0
 10
6247.702658799741
 20
4300.211019482726
 30
0.0
 10
6247.380379337638
 20
4302.76150737737
 30
0.0
 10
6247.335597673226
 20
4303.784659843654
 30
0.0
 10
6247.297355940623
 20
4304.658390723062
 30
0.0
  0
SPLINE
  5
282
330
1F
100
AcDbEntity
  8
0
  6
Continuous
 62
     7
370
    25
100
AcDbSpline
210
0.0
220
0.0
230
1.0
 70
     8
 71
     3
 72
    10
 73
     6
 74
     0
 42
0.000000001
 43
0.00000001
 40
0.0
 40
0.0
 40
0.0
 40
0.0
 40
0.1439963099635412
 40
0.3323734750438609
 40
1.0
 40
1.0
 40
1.0
 40
1.0
 10
6303.214186837954
 20
4315.016953416061
 30
0.0
 10
6303.041441197301
 20
4314.538963997104
 30
0.0
 10
6302.642708279093
 20
4313.435664862194
 30
0.0
 10
6301.589665285846
 20
4310.053115289181
 30
0.0
 10
6301.112394381076
 20
4307.022259055241
 30
0.0
 10
6300.74015449552
 20
4304.658390723062
 30
0.0
  0
SPLINE
  5
283
330
1F
100
AcDbEntity
  8
0
  6
Continuous
 62
     7
370
    25
100
AcDbSpline
210
0.0
220
0.0
230
1.0
 70
    11
 71
     3
 72
    26
 73
    22
 74
     0
 42
0.000000001
 43
0.00000001
 40
0.0
 40
0.0
 40
0.0
 40
0.0
 40
0.0536369314360918
 40
0.1072757928574894
 40
0.160872813849058
 40
0.2144517774381923
 40
0.2680634859906421
 40
0.3217426159922769
 40
0.375492384859237
 40
0.429283789103354
 40
0.4830691967905497
 40
0.5368068066910833
 40
0.5904777042834523
 40
0.6440945698234158
 40
0.6976869611339848
 40
0.7512924224474118
 40
0.8049440825365268
 40
0.8586609822834813
 40
0.9124349039390586
 40
0.9662295718530065
 40
0.9999999999999999
 40
0.9999999999999999
 40
0.9999999999999999
 40
0.9999999999999999
 10
6253.426456859393
 20
4198.478616915536
 30
0.0
 10
6253.141605500948
 20
4198.128222888511
 30
0.0
 10
6252.571892534424
 20
4197.427422226444
 30
0.0
 10
6252.219106965872
 20
4196.092471663126
 30
0.0
 10
6252.299453838689
 20
4194.732439769712
 30
0.0
 10
6252.832305144861
 20
4193.47167639798
 30
0.0
 10
6253.749967511395
 20
4192.459000015006
 30
0.0
 10
6254.952150770866
 20
4191.805992135456
 30
0.0
 10
6256.303757551165
 20
4191.587557401004
 30
0.0
 10
6257.652456154226
 20
4191.829321629389
 30
0.0
 10
6258.845115511096
 20
4192.504600439781
 30
0.0
 10
6259.746309193616
 20
4193.536665559196
 30
0.0
 10
6260.254438849845
 20
4194.808091397254
 30
0.0
 10
6260.313073778079
 20
4196.174995614495
 30
0.0
 10
6259.916573099431
 20
4197.483653571199
 30
0.0
 10
6259.109687883912
 20
4198.587556475752
 30
0.0
 10
6257.983195526303
 20
4199.362515522273
 30
0.0
 10
6256.661373622671
 20
4199.722490605716
 30
0.0
 10
6255.299345815925
 20
4199.620420159722
 30
0.0
 10
6254.184602805897
 20
4199.153495507812
 30
0.0
 10
6253.637466070244
 20
4198.666450933291
 30
0.0
 10
6253.426456859393
 20
4198.478616915536
 30
0.0
  0
SPLINE
  5
284
330
1F
100
AcDbEntity
  8
0
  6
Continuous
 62
     7
370
    25
100
AcDbSpline
210
0.0
220
0.0
230
1.0
 70
    11
 71
     3
 72
    26
 73
    22
 74
     0
 42
0.000000001
 43
0.00000001
 40
0.0
 40
0.0
 40
0.0
 40
0.0
 40
0.0535969365871033
 40
0.1071925159213187
 40
0.1608228391200998
 40
0.2145262408259604
 40
0.2682934386183913
 40
0.3220880531277506
 40
0.3758621018711708
 40
0.429579137649408
 40
0.4832312232164855
 40
0.5368361363987579
 40
0.5904286275543854
 40
0.6440457942705655
 40
0.6977170277722481
 40
0.7514547127356115
 40
0.8052401581916113
 40
0.8590314640902095
 40
0.9127814006740518
 40
0.9664605067815215
 40
1.0
 40
1.0
 40
1.0
 40
1.0
 10
6258.639181068224
 20
4211.043708167863
 30
0.0
 10
6258.352675912197
 20
4210.694778279071
 30
0.0
 10
6257.779672855406
 20
4209.996927337555
 30
0.0
 10
6257.420365713846
 20
4208.664610973236
 30
0.0
 10
6257.49341250721
 20
4207.304351620828
 30
0.0
 10
6258.020189527935
 20
4206.039618540812
 30
0.0
 10
6258.934729785577
 20
4205.020846889468
 30
0.0
 10
6260.13644300852
 20
4204.361906635387
 30
0.0
 10
6261.488596317395
 20
4204.138569974524
 30
0.0
 10
6262.837805513248
 20
4204.375771541707
 30
0.0
 10
6264.031418935611
 20
4205.045898448902
 30
0.0
 10
6264.935425675488
 20
4206.072474107952
 30
0.0
 10
6265.448885550269
 20
4207.339710289072
 30
0.0
 10
6265.514483516207
 20
4208.705467671231
 30
0.0
 10
6265.124581174834
 20
4210.016665441518
 30
0.0
 10
6264.322047262999
 20
4211.125879858205
 30
0.0
 10
6263.197004592086
 20
4211.907006723817
 30
0.0
 10
6261.874705793903
 20
4212.272362930456
 30
0.0
 10
6260.511792612144
 20
4212.174842730324
 30
0.0
 10
6259.397322115282
 20
4211.71243436405
 30
0.0
 10
6258.849748045316
 20
4211.229440960171
 30
0.0
 10
6258.639181068224
 20
4211.043708167863
 30
0.0
  0
SPLINE
  5
285
330
1F
100
AcDbEntity
  8
0
  6
Continuous
 62
     7
370
    25
100
AcDbSpline
210
0.0
220
0.0
230
1.0
 70
    11
 71
     3
 72
    26
 73
    22
 74
     0
 42
0.000000001
 43
0.00000001
 40
0.0
 40
0.0
 40
0.0
 40
0.0
 40
0.0537437614736434
 40
0.1074857284006203
 40
0.161266872536148
 40
0.215060498372982
 40
0.2688192707139022
 40
0.3225150709818791
 40
0.3761489758666925
 40
0.4297463878433568
 40
0.4833425955322459
 40
0.5369744675697632
 40
0.590666987595097
 40
0.644423001918713
 40
0.6982158790799929
 40
0.7519987811171608
 40
0.8057280056936912
 40
0.8593835630775319
 40
0.9129801786221377
 40
0.966559410926829
 40
1.0
 40
1.0
 40
1.0
 40
1.0
 10
6271.204272320551
 20
4216.256432376695
 30
0.0
 10
6270.915566534918
 20
4215.908193785861
 30
0.0
 10
6270.338164603766
 20
4215.211728232155
 30
0.0
 10
6269.97291910036
 20
4213.878402438665
 30
0.0
 10
6270.041476040339
 20
4212.515325137222
 30
0.0
 10
6270.565664494021
 20
4211.247139842492
 30
0.0
 10
6271.478420599965
 20
4210.225643044478
 30
0.0
 10
6272.677909109502
 20
4209.564319378327
 30
0.0
 10
6274.027501073335
 20
4209.337641084637
 30
0.0
 10
6275.375256139203
 20
4209.570034212914
 30
0.0
 10
6276.570019055725
 20
4210.234788799167
 30
0.0
 10
6277.477947316583
 20
4211.257355151315
 30
0.0
 10
6277.996855244479
 20
4212.523399589727
 30
0.0
 10
6278.067516016135
 20
4213.890924030049
 30
0.0
 10
6277.680928626417
 20
4215.205491773784
 30
0.0
 10
6276.880236692521
 20
4216.317934879002
 30
0.0
 10
6275.756951207356
 20
4217.101597537139
 30
0.0
 10
6274.437124627423
 20
4217.46977559257
 30
0.0
 10
6273.076420599992
 20
4217.376631932519
 30
0.0
 10
6271.96317176133
 20
4216.919544315392
 30
0.0
 10
6271.414947713835
 20
4216.440516539852
 30
0.0
 10
6271.204272320551
 20
4216.256432376695
 30
0.0
  0
SPLINE
  5
286
330
1F
100
AcDbEntity
  8
0
  6
Continuous
 62
     7
370
    25
100
AcDbSpline
210
0.0
220
0.0
230
1.0
 70
    11
 71
     3
 72
    26
 73
    22
 74
     0
 42
0.000000001
 43
0.00000001
 40
0.0
 40
0.0
 40
0.0
 40
0.0
 40
0.0537900819234816
 40
0.1075801349268836
 40
0.1613520024857311
 40
0.2150658735628019
 40
0.2687146962444366
 40
0.3223185506509516
 40
0.3759113533078611
 40
0.4295303321541698
 40
0.4832051304644605
 40
0.5369455760905862
 40
0.5907325133935998
 40
0.6445229055772327
 40
0.6982695198554819
 40
0.7519450753174857
 40
0.805554139381984
 40
0.8591331735035638
 40
0.9127322844264552
 40
0.966392349963164
 40
0.9999999999999999
 40
0.9999999999999999
 40
0.9999999999999999
 40
0.9999999999999999
 10
6284.379223397059
 20
4211.562059961152
 30
0.0
 10
6284.026711063012
 20
4211.278332906888
 30
0.0
 10
6283.321686584444
 20
4210.710878950905
 30
0.0
 10
6282.697540454619
 20
4209.476308490899
 30
0.0
 10
6282.493321831576
 20
4208.126425344998
 30
0.0
 10
6282.754375785657
 20
4206.779921221227
 30
0.0
 10
6283.444308604358
 20
4205.598281995754
 30
0.0
 10
6284.48607599796
 20
4204.711686839633
 30
0.0
 10
6285.761783343063
 20
4204.219764710285
 30
0.0
 10
6287.128473809023
 20
4204.177282580869
 30
0.0
 10
6288.432948341067
 20
4204.589330745361
 30
0.0
 10
6289.528389128164
 20
4205.410491601434
 30
0.0
 10
6290.290608114309
 20
4206.548948126409
 30
0.0
 10
6290.632572489618
 20
4207.876138196597
 30
0.0
 10
6290.515398071118
 20
4209.24132607874
 30
0.0
 10
6289.952930662603
 20
4210.489818134619
 30
0.0
 10
6289.010119829411
 20
4211.480548977759
 30
0.0
 10
6287.792315796967
 20
4212.104719975468
 30
0.0
 10
6286.441296189536
 20
4212.286246619224
 30
0.0
 10
6285.25778096713
 20
4212.061556360262
 30
0.0
 10
6284.623493643548
 20
4211.700937722482
 30
0.0
 10
6284.379223397059
 20
4211.562059961152
 30
0.0
  0
SPLINE
  5
287
330
1F
100
AcDbEntity
  8
0
  6
Continuous
 62
     7
370
    25
100
AcDbSpline
210
0.0
220
0.0
230
1.0
 70
    11
 71
     3
 72
    26
 73
    22
 74
     0
 42
0.000000001
 43
0.00000001
 40
0.0
 40
0.0
 40
0.0
 40
0.0
 40
0.0536387079117696
 40
0.107278424299104
 40
0.1608847736086527
 40
0.2144770778768041
 40
0.26809219877729
 40
0.3217611889350759
 40
0.3754959448935973
 40
0.4292802580557183
 40
0.483072056617964
 40
0.536824556919292
 40
0.5905067666478098
 40
0.644120470370682
 40
0.6976998708215064
 40
0.751295185323837
 40
0.8049488971726798
 40
0.8586760018364229
 40
0.9124577296472483
 40
0.9662505120764913
 40
0.9999999999999999
 40
0.9999999999999999
 40
0.9999999999999999
 40
0.9999999999999999
 10
6288.961397519392
 20
4198.513470731568
 30
0.0
 10
6288.67222073845
 20
4198.166581193713
 30
0.0
 10
6288.093861739675
 20
4197.472795596037
 30
0.0
 10
6287.724670885335
 20
4196.142176433046
 30
0.0
 10
6287.788318070232
 20
4194.781065912234
 30
0.0
 10
6288.305859009512
 20
4193.513616396239
 30
0.0
 10
6289.211312798093
 20
4192.489731441668
 30
0.0
 10
6290.405494688522
 20
4191.822264093164
 30
0.0
 10
6291.754128841809
 20
4191.587486009945
 30
0.0
 10
6293.105473189729
 20
4191.812697289685
 30
0.0
 10
6294.306282768589
 20
4192.473309466831
 30
0.0
 10
6295.220124564343
 20
4193.494382074675
 30
0.0
 10
6295.743741979857
 20
4194.759668750588
 30
0.0
 10
6295.818971036421
 20
4196.125726878259
 30
0.0
 10
6295.43851978266
 20
4197.438887813883
 30
0.0
 10
6294.645394888097
 20
4198.552387686678
 30
0.0
 10
6293.528633655636
 20
4199.341126738164
 30
0.0
 10
6292.211245831192
 20
4199.717374165284
 30
0.0
 10
6290.847908546105
 20
4199.632024254354
 30
0.0
 10
6289.727563718669
 20
4199.178780611855
 30
0.0
 10
6289.174583619234
 20
4198.698593513935
 30
0.0
 10
6288.961397519392
 20
4198.513470731568
 30
0.0
  0
SPLINE
  5
288
330
1F
100
AcDbEntity
  8
0
  6
Continuous
 62
     7
370
    25
100
AcDbSpline
210
0.0
220
0.0
230
1.0
 70
    11
 71
     3
 72
    26
 73
    22
 74
     0
 42
0.000000001
 43
0.00000001
 40
0.0
 40
0.0
 40
0.0
 40
0.0
 40
0.0536055405719487
 40
0.1072105290795293
 40
0.1608417346370693
 40
0.2145339899079997
 40
0.2682894706486686
 40
0.3220819965332472
 40
0.3758653245287203
 40
0.4295948671113204
 40
0.4832510799775199
 40
0.5368475233358164
 40
0.5904272053547424
 40
0.6440389476982274
 40
0.697718634297065
 40
0.7514687573704908
 40
0.8052600766591352
 40
0.8590452350941967
 40
0.9127826463680185
 40
0.9664537192478145
 40
1.0
 40
1.0
 40
1.0
 40
1.0
 10
6283.741476049704
 20
4185.941420636964
 30
0.0
 10
6283.454927058684
 20
4185.5924323667
 30
0.0
 10
6282.881832027711
 20
4184.894459420279
 30
0.0
 10
6282.522575786847
 20
4183.561866921455
 30
0.0
 10
6282.595826738344
 20
4182.201490922618
 30
0.0
 10
6283.122780070937
 20
4180.93690901121
 30
0.0
 10
6284.037285916595
 20
4179.918379126516
 30
0.0
 10
6285.238904934649
 20
4179.259564174859
 30
0.0
 10
6286.591093471089
 20
4179.036242181062
 30
0.0
 10
6287.94041250861
 20
4179.273583291884
 30
0.0
 10
6289.13401452142
 20
4179.943845327937
 30
0.0
 10
6290.037825163508
 20
4180.97040992463
 30
0.0
 10
6290.551130287505
 20
4182.237397178567
 30
0.0
 10
6290.616781060269
 20
4183.602939796799
 30
0.0
 10
6290.226990971055
 20
4184.914166377865
 30
0.0
 10
6289.424402590827
 20
4186.023570201589
 30
0.0
 10
6288.299192601046
 20
4186.804763793807
 30
0.0
 10
6286.976853027402
 20
4187.170065620112
 30
0.0
 10
6285.614055813576
 20
4187.072527526294
 30
0.0
 10
6284.499665279322
 20
4186.610161858149
 30
0.0
 10
6283.95208935966
 20
4186.127186665544
 30
0.0
 10
6283.741476049704
 20
4185.941420636964
 30
0.0
  0
SPLINE
  5
289
330
1F
100
AcDbEntity
  8
0
  6
Continuous
 62
     7
370
    25
100
AcDbSpline
210
0.0
220
0.0
230
1.0
 70
    11
 71
     3
 72
    26
 73
    22
 74
     0
 42
0.000000001
 43
0.00000001
 40
0.0
 40
0.0
 40
0.0
 40
0.0
 40
0.0537337135650323
 40
0.1074659557610929
 40
0.1612391618176398
 40
0.2150338930901226
 40
0.2688025412598001
 40
0.3225068331307117
 40
0.3761384503625853
 40
0.4297230615009194
 40
0.4833087243945111
 40
0.5369423663056727
 40
0.5906485306159284
 40
0.6444176987565299
 40
0.6982129214578591
 40
0.7519852060523826
 40
0.8056995191153457
 40
0.8593489189311431
 40
0.9129528808198024
 40
0.9665458198461141
 40
1.0
 40
1.0
 40
1.0
 40
1.0
 10
6271.169411053938
 20
4180.721484266114
 30
0.0
 10
6270.885053265948
 20
4180.36975045398
 30
0.0
 10
6270.316345476424
 20
4179.666292461099
 30
0.0
 10
6269.96755308567
 20
4178.32873355348
 30
0.0
 10
6270.0527746012
 20
4176.966770376127
 30
0.0
 10
6270.592383199994
 20
4175.705147931115
 30
0.0
 10
6271.517567061361
 20
4174.694816388759
 30
0.0
 10
6272.7251464755
 20
4174.048176249239
 30
0.0
 10
6274.077370052815
 20
4173.838094839212
 30
0.0
 10
6275.421957681292
 20
4174.086857037209
 30
0.0
 10
6276.608307282965
 20
4174.765933791288
 30
0.0
 10
6277.503749994757
 20
4175.799283578044
 30
0.0
 10
6278.007373140333
 20
4177.071614368358
 30
0.0
 10
6278.061440546345
 20
4178.440138887618
 30
0.0
 10
6277.65880853458
 20
4179.7500419356
 30
0.0
 10
6276.844611877022
 20
4180.852600891388
 30
0.0
 10
6275.711994758675
 20
4181.622417043449
 30
0.0
 10
6274.387901129693
 20
4181.974570109316
 30
0.0
 10
6273.028310140778
 20
4181.864904942696
 30
0.0
 10
6271.920401269344
 20
4181.394153290418
 30
0.0
 10
6271.377904755656
 20
4180.908234042651
 30
0.0
 10
6271.169411053938
 20
4180.721484266114
 30
0.0
  0
SPLINE
  5
28A
330
1F
100
AcDbEntity
  8
0
  6
Continuous
 62
     7
370
    25
100
AcDbSpline
210
0.0
220
0.0
230
1.0
 70
    11
 71
     3
 72
    26
 73
    22
 74
     0
 42
0.000000001
 43
0.00000001
 40
0.0
 40
0.0
 40
0.0
 40
0.0
 40
0.0537917242712353
 40
0.1075831438282857
 40
0.1613626773758478
 40
0.2150855826911091
 40
0.2687341827955399
 40
0.322326756096303
 40
0.3759072778493565
 40
0.4295251946778111
 40
0.4832122761569593
 40
0.5369683751921661
 40
0.5907615100429588
 40
0.6445438536517956
 40
0.6982744110964368
 40
0.7519389627142535
 40
0.805551808511259
 40
0.8591435924325407
 40
0.9127526106741162
 40
0.9664108710693606
 40
1.0
 40
1.0
 40
1.0
 40
1.0
 10
6259.217919817252
 20
4186.420388661218
 30
0.0
 10
6258.870479134638
 20
4186.130438567767
 30
0.0
 10
6258.175599737562
 20
4185.550540023345
 30
0.0
 10
6257.573477909826
 20
4184.305069150617
 30
0.0
 10
6257.393232245005
 20
4182.951731053839
 30
0.0
 10
6257.678210784048
 20
4181.609994763871
 30
0.0
 10
6258.389056577254
 20
4180.440835450326
 30
0.0
 10
6259.44625683995
 20
4179.573026981507
 30
0.0
 10
6260.730185445675
 20
4179.10386156491
 30
0.0
 10
6262.097235400647
 20
4179.085458106863
 30
0.0
 10
6263.394323038467
 20
4179.520427932668
 30
0.0
 10
6264.475287645793
 20
4180.360961559017
 30
0.0
 10
6265.217312799959
 20
4181.512930204713
 30
0.0
 10
6265.535641718792
 20
4182.846003888156
 30
0.0
 10
6265.394288988838
 20
4184.208739945389
 30
0.0
 10
6264.809892094861
 20
4185.446947361946
 30
0.0
 10
6263.849727329628
 20
4186.420922818603
 30
0.0
 10
6262.620837425541
 20
4187.023527915014
 30
0.0
 10
6261.266544642286
 20
4187.18105220006
 30
0.0
 10
6260.087221194915
 20
4186.935272683879
 30
0.0
 10
6259.459560974041
 20
4186.563511833509
 30
0.0
 10
6259.217919817252
 20
4186.420388661218
 30
0.0
  0
LINE
  5
28B
330
1F
100
AcDbEntity
  8
0
  6
Continuous
 62
     7
370
    25
100
AcDbLine
 10
6244.0187577513
 20
4333.1763404963
 30
0.0
 11
6244.0187577513
 21
4333.435683187
 31
0.0
  0
LINE
  5
28C
330
1F
100
AcDbEntity
  8
0
  6
Continuous
 62
     7
370
    25
100
AcDbLine
 10
6304.0187526849
 20
4333.1763404963
 30
0.0
 11
6304.0187526849
 21
4333.435683187
 31
0.0
  0
SPLINE
  5
28D
330
1F
100
AcDbEntity
  8
0
  6
Continuous
 62
     7
370
    25
100
AcDbSpline
210
0.0
220
0.0
230
1.0
 70
     8
 71
     3
 72
    13
 73
     9
 74
     0
 42
0.000000001
 43
0.00000001
 40
0.0
 40
0.0
 40
0.0
 40
0.0
 40
0.1632688018706542
 40
0.371091625481168
 40
0.5790876369873823
 40
0.7871558817025203
 40
0.9952227036589683
 40
0.9999999999999999
 40
0.9999999999999999
 40
0.9999999999999999
 40
0.9999999999999999
 10
6292.024703731818
 20
4302.221695102644
 30
0.0
 10
6292.107073528984
 20
4302.482059039206
 30
0.0
 10
6292.294290814656
 20
4303.073836986546
 30
0.0
 10
6293.493611273695
 20
4303.869588455007
 30
0.0
 10
6295.465351362659
 20
4304.484598998569
 30
0.0
 10
6297.962880971309
 20
4304.780571570122
 30
0.0
 10
6299.807532955178
 20
4304.741133004088
 30
0.0
 10
6300.719681282993
 20
4304.660207108627
 30
0.0
 10
6300.74015449552
 20
4304.658390723062
 30
0.0
  0
SPLINE
  5
28E
330
1F
100
AcDbEntity
  8
0
  6
Continuous
 62
     7
370
    25
100
AcDbSpline
210
0.0
220
0.0
230
1.0
 70
     8
 71
     3
 72
    13
 73
     9
 74
     0
 42
0.000000001
 43
0.00000001
 40
0.0
 40
0.0
 40
0.0
 40
0.0
 40
0.1632687843073667
 40
0.3710915855617907
 40
0.5790871577763261
 40
0.7871559047553455
 40
0.9952221312199401
 40
1.0
 40
1.0
 40
1.0
 40
1.0
 10
6256.012806704325
 20
4302.221695102644
 30
0.0
 10
6255.930436982076
 20
4302.482059045999
 30
0.0
 10
6255.743219866682
 20
4303.073837008779
 30
0.0
 10
6254.543898724969
 20
4303.869587764137
 30
0.0
 10
6252.572165122551
 20
4304.484599214099
 30
0.0
 10
6250.074632520835
 20
4304.78057528097
 30
0.0
 10
6248.229981199712
 20
4304.741123285322
 30
0.0
 10
6247.317831636304
 20
4304.660207108315
 30
0.0
 10
6247.297355940623
 20
4304.658390723062
 30
0.0
  0
LINE
  5
28F
330
1F
100
AcDbEntity
  8
0
  6
Continuous
 62
     8
370
    25
100
AcDbLine
 10
6283.7287355569
 20
4291.9134946092
 30
0.0
 11
6283.7287355569
 21
4292.2054679616
 31
0.0
  0
LINE
  5
290
330
1F
100
AcDbEntity
  8
0
  6
Continuous
 62
     8
370
    25
100
AcDbLine
 10
6264.2287332919
 20
4292.2054679616
 30
0.0
 11
6264.2287332919
 21
4291.9134946092
 31
0.0
  0
ARC
  5
291
330
1F
100
AcDbEntity
  8
0
  6
Continuous
 62
     8
370
    25
100
AcDbCircle
 10
6273.9787340224
 20
4295.7253422288
 30
0.0
 40
9.456659520290103
100
AcDbArc
 50
203.7712483213
 51
336.2287516787
  0
ARC
  5
292
330
1F
100
AcDbEntity
  8
0
  6
Continuous
 62
     8
370
    25
100
AcDbCircle
 10
6273.5815188753
 20
4328.8191454919
 30
0.0
 40
12.49846447926335
100
AcDbArc
 50
181.740428958
 51
271.8212323214
  0
ARC
  5
293
330
1F
100
AcDbEntity
  8
0
  6
Continuous
 62
     8
370
    25
100
AcDbCircle
 10
6274.3759563885
 20
4328.8191309807
 30
0.0
 40
12.49845017927308
100
AcDbArc
 50
268.178736171
 51
358.2596356035
  0
SPLINE
  5
294
330
1F
100
AcDbEntity
  8
0
  6
Continuous
 62
     8
370
    25
100
AcDbSpline
210
0.0
220
0.0
230
1.0
 70
     8
 71
     3
 72
    13
 73
     9
 74
     0
 42
0.000000001
 43
0.00000001
 40
0.0
 40
0.0
 40
0.0
 40
0.0
 40
0.011460780403137
 40
0.0782147011988333
 40
0.1926504734743787
 40
0.4831932803671839
 40
0.7636361942547122
 40
1.0
 40
1.0
 40
1.0
 40
1.0
 10
6244.018757751269
 20
4331.687164634359
 30
0.0
 10
6244.037763293462
 20
4331.619696609366
 30
0.0
 10
6244.167467620003
 20
4331.15925750926
 30
0.0
 10
6244.797508751705
 20
4330.129810003897
 30
0.0
 10
6246.355611626267
 20
4327.675987309153
 30
0.0
 10
6248.651618379798
 20
4324.085513692045
 30
0.0
 10
6251.025720761872
 20
4319.662407598456
 30
0.0
 10
6252.235955766471
 20
4316.687048437016
 30
0.0
 10
6252.789462020678
 20
4315.326254956317
 30
0.0
  0
ARC
  5
295
330
1F
100
AcDbEntity
  8
0
  6
Continuous
 62
     8
370
    25
100
AcDbCircle
 10
6274.0187553361
 20
4302.1641331462
 30
0.0
 40
16.00000000000056
100
AcDbArc
 50
179.6472457747
 51
258.5774589786
  0
ARC
  5
296
330
1F
100
AcDbEntity
  8
0
  6
Continuous
 62
     8
370
    25
100
AcDbCircle
 10
6274.0187553361
 20
4302.1641331462
 30
0.0
 40
16.00000000000031
100
AcDbArc
 50
280.6865091207
 51
0.3527542253
  0
ENDSEC
  0
SECTION
  2
OBJECTS
  0
DICTIONARY
  5
C
330
0
100
AcDbDictionary
281
     1
  3
ACAD_GROUP
350
D
  3
ACAD_LAYOUT
350
1A
  3
ACAD_MLINESTYLE
350
17
  3
ACAD_PLOTSETTINGS
350
19
  3
ACAD_PLOTSTYLENAME
350
E
  3
ACAD_SCALELIST
350
47
  0
DICTIONARY
  5
D
102
{ACAD_REACTORS
330
C
102
}
330
C
100
AcDbDictionary
281
     1
  0
DICTIONARY
  5
1A
102
{ACAD_REACTORS
330
C
102
}
330
C
100
AcDbDictionary
281
     1
  3
Layout1
350
1E
  3
Layout2
350
26
  3
Model
350
22
  0
DICTIONARY
  5
17
102
{ACAD_REACTORS
330
C
102
}
330
C
100
AcDbDictionary
281
     1
  3
Standard
350
18
  0
DICTIONARY
  5
19
102
{ACAD_REACTORS
330
C
102
}
330
C
100
AcDbDictionary
281
     1
  0
ACDBDICTIONARYWDFLT
  5
E
102
{ACAD_REACTORS
330
C
102
}
330
C
100
AcDbDictionary
281
     1
  3
Normal
350
F
100
AcDbDictionaryWithDefault
340
F
  0
DICTIONARY
  5
47
102
{ACAD_REACTORS
330
C
102
}
330
C
100
AcDbDictionary
281
     1
  3
A0
350
48
  3
A1
350
49
  3
A2
350
4A
  3
A3
350
4B
  3
A4
350
4C
  3
A5
350
4D
  3
A6
350
4E
  3
A7
350
4F
  3
A8
350
50
  3
A9
350
51
  3
B0
350
52
  3
B1
350
53
  3
B2
350
54
  3
B3
350
55
  3
B4
350
56
  3
B5
350
57
  3
B6
350
58
  3
B7
350
59
  3
B8
350
5A
  3
B9
350
5B
  3
C0
350
5C
  3
C1
350
5D
  3
C2
350
5E
  3
C3
350
5F
  3
C4
350
60
  3
C5
350
61
  3
C6
350
62
  3
C7
350
63
  3
C8
350
64
  3
C9
350
65
  3
D0
350
66
  3
D1
350
67
  3
D2
350
68
  0
LAYOUT
  5
1E
102
{ACAD_REACTORS
330
1A
102
}
330
1A
100
AcDbPlotSettings
  1

  2
none_device
  4

  6

 40
0.0
 41
0.0
 42
0.0
 43
0.0
 44
0.0
 45
0.0
 46
0.0
 47
0.0
 48
0.0
 49
0.0
140
0.0
141
0.0
142
1.0
143
1.0
 70
   688
 72
     1
 73
     0
 74
     5
  7

 75
    16
147
1.0
148
0.0
149
0.0
100
AcDbLayout
  1
Layout1
 70
     1
 71
     1
 10
0.0
 20
0.0
 11
420.0
 21
297.0
 12
0.0
 22
0.0
 32
0.0
 14
1.0000000000E+20
 24
1.0000000000E+20
 34
1.0000000000E+20
 15
-1.0000000000E+20
 25
-1.0000000000E+20
 35
-1.0000000000E+20
146
0.0
 13
0.0
 23
0.0
 33
0.0
 16
1.0
 26
0.0
 36
0.0
 17
0.0
 27
1.0
 37
0.0
 76
     0
330
1B
  0
LAYOUT
  5
26
102
{ACAD_REACTORS
330
1A
102
}
330
1A
100
AcDbPlotSettings
  1

  2
none_device
  4

  6

 40
0.0
 41
0.0
 42
0.0
 43
0.0
 44
0.0
 45
0.0
 46
0.0
 47
0.0
 48
0.0
 49
0.0
140
0.0
141
0.0
142
1.0
143
1.0
 70
   688
 72
     1
 73
     0
 74
     5
  7

 75
    16
147
1.0
148
0.0
149
0.0
100
AcDbLayout
  1
Layout2
 70
     1
 71
     2
 10
0.0
 20
0.0
 11
0.0
 21
0.0
 12
0.0
 22
0.0
 32
0.0
 14
0.0
 24
0.0
 34
0.0
 15
0.0
 25
0.0
 35
0.0
146
0.0
 13
0.0
 23
0.0
 33
0.0
 16
1.0
 26
0.0
 36
0.0
 17
0.0
 27
1.0
 37
0.0
 76
     0
330
23
  0
LAYOUT
  5
22
102
{ACAD_REACTORS
330
1A
102
}
330
1A
100
AcDbPlotSettings
  1

  2
none_device
  4
Letter_(8.50_x_11.00_Inches)
  6

 40
6.35
 41
6.35
 42
6.35000508
 43
6.35000508
 44
215.9
 45
279.4
 46
0.0
 47
0.0
 48
0.0
 49
0.0
140
0.0
141
0.0
142
1.0
143
1.0
 70
  1712
 72
     1
 73
     0
 74
     0
  7

 75
     0
147
1.0
148
0.0
149
0.0
100
AcDbLayout
  1
Model
 70
     1
 71
     0
 10
0.0
 20
0.0
 11
20000.0
 21
10000.0
 12
0.0
 22
0.0
 32
0.0
 14
0.0
 24
0.0
 34
0.0
 15
20000.0
 25
10000.0
 35
0.0
146
0.0
 13
0.0
 23
0.0
 33
0.0
 16
1.0
 26
0.0
 36
0.0
 17
0.0
 27
1.0
 37
0.0
 76
     0
330
1F
331
29
  0
MLINESTYLE
  5
18
102
{ACAD_REACTORS
330
17
102
}
330
17
100
AcDbMlineStyle
  2
Standard
 70
     0
  3

 62
   256
 51
90.0
 52
90.0
 71
     2
 49
0.5
 62
   256
  6
BYLAYER
 49
-0.5
 62
   256
  6
BYLAYER
  0
ACDBPLACEHOLDER
  5
F
102
{ACAD_REACTORS
330
E
102
}
330
E
  0
SCALE
  5
48
102
{ACAD_REACTORS
330
47
102
}
330
47
100
AcDbScale
 70
     0
300
1:1
140
1.0
141
1.0
290
     1
  0
SCALE
  5
49
102
{ACAD_REACTORS
330
47
102
}
330
47
100
AcDbScale
 70
     0
300
1:2
140
1.0
141
2.0
290
     0
  0
SCALE
  5
4A
102
{ACAD_REACTORS
330
47
102
}
330
47
100
AcDbScale
 70
     0
300
1:4
140
1.0
141
4.0
290
     0
  0
SCALE
  5
4B
102
{ACAD_REACTORS
330
47
102
}
330
47
100
AcDbScale
 70
     0
300
1:5
140
1.0
141
5.0
290
     0
  0
SCALE
  5
4C
102
{ACAD_REACTORS
330
47
102
}
330
47
100
AcDbScale
 70
     0
300
1:8
140
1.0
141
8.0
290
     0
  0
SCALE
  5
4D
102
{ACAD_REACTORS
330
47
102
}
330
47
100
AcDbScale
 70
     0
300
1:10
140
1.0
141
10.0
290
     0
  0
SCALE
  5
4E
102
{ACAD_REACTORS
330
47
102
}
330
47
100
AcDbScale
 70
     0
300
1:16
140
1.0
141
16.0
290
     0
  0
SCALE
  5
4F
102
{ACAD_REACTORS
330
47
102
}
330
47
100
AcDbScale
 70
     0
300
1:20
140
1.0
141
20.0
290
     0
  0
SCALE
  5
50
102
{ACAD_REACTORS
330
47
102
}
330
47
100
AcDbScale
 70
     0
300
1:30
140
1.0
141
30.0
290
     0
  0
SCALE
  5
51
102
{ACAD_REACTORS
330
47
102
}
330
47
100
AcDbScale
 70
     0
300
1:40
140
1.0
141
40.0
290
     0
  0
SCALE
  5
52
102
{ACAD_REACTORS
330
47
102
}
330
47
100
AcDbScale
 70
     0
300
1:50
140
1.0
141
50.0
290
     0
  0
SCALE
  5
53
102
{ACAD_REACTORS
330
47
102
}
330
47
100
AcDbScale
 70
     0
300
1:100
140
1.0
141
100.0
290
     0
  0
SCALE
  5
54
102
{ACAD_REACTORS
330
47
102
}
330
47
100
AcDbScale
 70
     0
300
2:1
140
2.0
141
1.0
290
     0
  0
SCALE
  5
55
102
{ACAD_REACTORS
330
47
102
}
330
47
100
AcDbScale
 70
     0
300
4:1
140
4.0
141
1.0
290
     0
  0
SCALE
  5
56
102
{ACAD_REACTORS
330
47
102
}
330
47
100
AcDbScale
 70
     0
300
8:1
140
8.0
141
1.0
290
     0
  0
SCALE
  5
57
102
{ACAD_REACTORS
330
47
102
}
330
47
100
AcDbScale
 70
     0
300
10:1
140
10.0
141
1.0
290
     0
  0
SCALE
  5
58
102
{ACAD_REACTORS
330
47
102
}
330
47
100
AcDbScale
 70
     0
300
100:1
140
100.0
141
1.0
290
     0
  0
SCALE
  5
59
102
{ACAD_REACTORS
330
47
102
}
330
47
100
AcDbScale
 70
     0
300
1/128" = 1'-0"
140
0.0078125
141
12.0
290
     0
  0
SCALE
  5
5A
102
{ACAD_REACTORS
330
47
102
}
330
47
100
AcDbScale
 70
     0
300
1/64" = 1'-0"
140
0.015625
141
12.0
290
     0
  0
SCALE
  5
5B
102
{ACAD_REACTORS
330
47
102
}
330
47
100
AcDbScale
 70
     0
300
1/32" = 1'-0"
140
0.03125
141
12.0
290
     0
  0
SCALE
  5
5C
102
{ACAD_REACTORS
330
47
102
}
330
47
100
AcDbScale
 70
     0
300
1/16" = 1'-0"
140
0.0625
141
12.0
290
     0
  0
SCALE
  5
5D
102
{ACAD_REACTORS
330
47
102
}
330
47
100
AcDbScale
 70
     0
300
3/32" = 1'-0"
140
0.09375
141
12.0
290
     0
  0
SCALE
  5
5E
102
{ACAD_REACTORS
330
47
102
}
330
47
100
AcDbScale
 70
     0
300
1/8" = 1'-0"
140
0.125
141
12.0
290
     0
  0
SCALE
  5
5F
102
{ACAD_REACTORS
330
47
102
}
330
47
100
AcDbScale
 70
     0
300
3/16" = 1'-0"
140
0.1875
141
12.0
290
     0
  0
SCALE
  5
60
102
{ACAD_REACTORS
330
47
102
}
330
47
100
AcDbScale
 70
     0
300
1/4" = 1'-0"
140
0.25
141
12.0
290
     0
  0
SCALE
  5
61
102
{ACAD_REACTORS
330
47
102
}
330
47
100
AcDbScale
 70
     0
300
3/8" = 1'-0"
140
0.375
141
12.0
290
     0
  0
SCALE
  5
62
102
{ACAD_REACTORS
330
47
102
}
330
47
100
AcDbScale
 70
     0
300
1/2" = 1'-0"
140
0.5
141
12.0
290
     0
  0
SCALE
  5
63
102
{ACAD_REACTORS
330
47
102
}
330
47
100
AcDbScale
 70
     0
300
3/4" = 1'-0"
140
0.75
141
12.0
290
     0
  0
SCALE
  5
64
102
{ACAD_REACTORS
330
47
102
}
330
47
100
AcDbScale
 70
     0
300
1" = 1'-0"
140
1.0
141
12.0
290
     0
  0
SCALE
  5
65
102
{ACAD_REACTORS
330
47
102
}
330
47
100
AcDbScale
 70
     0
300
1-1/2" = 1'-0"
140
1.5
141
12.0
290
     0
  0
SCALE
  5
66
102
{ACAD_REACTORS
330
47
102
}
330
47
100
AcDbScale
 70
     0
300
3" = 1'-0"
140
3.0
141
12.0
290
     0
  0
SCALE
  5
67
102
{ACAD_REACTORS
330
47
102
}
330
47
100
AcDbScale
 70
     0
300
6" = 1'-0"
140
6.0
141
12.0
290
     0
  0
SCALE
  5
68
102
{ACAD_REACTORS
330
47
102
}
330
47
100
AcDbScale
 70
     0
300
1'-0" = 1'-0"
140
12.0
141
12.0
290
     0
  0
ENDSEC
  0
EOF
