  0
SECTION
  2
HEADER
  9
$ACADVER
  1
AC1015
  9
$ACADMAINTVER
 70
     6
  9
$DWGCODEPAGE
  3
ANSI_1250
  9
$INSBASE
 10
0.0
 20
0.0
 30
0.0
  9
$EXTMIN
 10
5839.0159606934
 20
4181.5027495521
 30
0.0
  9
$EXTMAX
 10
7542.1949996441
 20
5417.4596815613
 30
0.0
  9
$LIMMIN
 10
0.0
 20
0.0
  9
$LIMMAX
 10
420.0
 20
297.0
  9
$ORTHOMODE
 70
     0
  9
$REGENMODE
 70
     1
  9
$FILLMODE
 70
     1
  9
$QTEXTMODE
 70
     0
  9
$MIRRTEXT
 70
     1
  9
$LTSCALE
 40
1.0
  9
$ATTMODE
 70
     1
  9
$TEXTSIZE
 40
3.5
  9
$TRACEWID
 40
1.0
  9
$TEXTSTYLE
  7
Standard
  9
$CLAYER
  8
0
  9
$CELTYPE
  6
ByLayer
  9
$CECOLOR
 62
   256
  9
$CELTSCALE
 40
1.0
  9
$DISPSILH
 70
     0
  9
$DIMSCALE
 40
1.0
  9
$DIMASZ
 40
3.302
  9
$DIMEXO
 40
0.0
  9
$DIMDLI
 40
3.75
  9
$DIMRND
 40
0.0
  9
$DIMDLE
 40
0.0
  9
$DIMEXE
 40
1.0
  9
$DIMTP
 40
0.0
  9
$DIMTM
 40
0.0
  9
$DIMTXT
 40
3.5
  9
$DIMCEN
 40
2.5
  9
$DIMTSZ
 40
0.0
  9
$DIMTOL
 70
     0
  9
$DIMLIM
 70
     0
  9
$DIMTIH
 70
     1
  9
$DIMTOH
 70
     1
  9
$DIMSE1
 70
     0
  9
$DIMSE2
 70
     0
  9
$DIMTAD
 70
     1
  9
$DIMZIN
 70
     0
  9
$DIMBLK
  1

  9
$DIMASO
 70
     1
  9
$DIMSHO
 70
     1
  9
$DIMPOST
  1

  9
$DIMAPOST
  1

  9
$DIMALT
 70
     0
  9
$DIMALTD
 70
     3
  9
$DIMALTF
 40
0.0393700787
  9
$DIMLFAC
 40
1.0
  9
$DIMTOFL
 70
     1
  9
$DIMTVP
 40
0.0
  9
$DIMTIX
 70
     0
  9
$DIMSOXD
 70
     0
  9
$DIMSAH
 70
     0
  9
$DIMBLK1
  1

  9
$DIMBLK2
  1

  9
$DIMSTYLE
  2
ISO-25
  9
$DIMCLRD
 70
     0
  9
$DIMCLRE
 70
     0
  9
$DIMCLRT
 70
     0
  9
$DIMTFAC
 40
1.0
  9
$DIMGAP
 40
1.524
  9
$DIMJUST
 70
     0
  9
$DIMSD1
 70
     0
  9
$DIMSD2
 70
     0
  9
$DIMTOLJ
 70
     0
  9
$DIMTZIN
 70
     0
  9
$DIMALTZ
 70
     0
  9
$DIMALTTZ
 70
     0
  9
$DIMUPT
 70
     0
  9
$DIMDEC
 70
     2
  9
$DIMTDEC
 70
     2
  9
$DIMALTU
 70
     2
  9
$DIMALTTD
 70
     3
  9
$DIMTXSTY
  7
Standard
  9
$DIMAUNIT
 70
     0
  9
$DIMADEC
 70
     2
  9
$DIMALTRND
 40
0.0
  9
$DIMAZIN
 70
     0
  9
$DIMDSEP
 70
    44
  9
$DIMATFIT
 70
     3
  9
$DIMFRAC
 70
     0
  9
$DIMLDRBLK
  1

  9
$DIMLUNIT
 70
     2
  9
$DIMLWD
 70
    -2
  9
$DIMLWE
 70
    -2
  9
$DIMTMOVE
 70
     0
  9
$LUNITS
 70
     2
  9
$LUPREC
 70
     2
  9
$SKETCHINC
 40
1.0
  9
$FILLETRAD
 40
10.0
  9
$AUNITS
 70
     0
  9
$AUPREC
 70
     2
  9
$MENU
  1
.
  9
$ELEVATION
 40
0.0
  9
$PELEVATION
 40
0.0
  9
$THICKNESS
 40
0.0
  9
$LIMCHECK
 70
     0
  9
$CHAMFERA
 40
0.0
  9
$CHAMFERB
 40
0.0
  9
$CHAMFERC
 40
0.0
  9
$CHAMFERD
 40
0.0
  9
$SKPOLY
 70
     0
  9
$TDCREATE
 40
2459096.398779838
  9
$TDUCREATE
 40
2459096.315446505
  9
$TDUPDATE
 40
2459096.398808345
  9
$TDUUPDATE
 40
2459096.315475012
  9
$TDINDWG
 40
0.0000000116
  9
$TDUSRTIMER
 40
0.0000000116
  9
$USRTIMER
 70
     1
  9
$ANGBASE
 50
0.0
  9
$ANGDIR
 70
     0
  9
$PDMODE
 70
     0
  9
$PDSIZE
 40
-1.0
  9
$PLINEWID
 40
0.0
  9
$SPLFRAME
 70
     0
  9
$SPLINETYPE
 70
     6
  9
$SPLINESEGS
 70
     8
  9
$HANDSEED
  5
1D0
  9
$SURFTAB1
 70
     6
  9
$SURFTAB2
 70
     6
  9
$SURFTYPE
 70
     6
  9
$SURFU
 70
     6
  9
$SURFV
 70
     6
  9
$UCSBASE
  2

  9
$UCSNAME
  2

  9
$UCSORG
 10
0.0
 20
0.0
 30
0.0
  9
$UCSXDIR
 10
1.0
 20
0.0
 30
0.0
  9
$UCSYDIR
 10
0.0
 20
1.0
 30
0.0
  9
$UCSORTHOREF
  2

  9
$UCSORTHOVIEW
 70
     0
  9
$UCSORGTOP
 10
0.0
 20
0.0
 30
0.0
  9
$UCSORGBOTTOM
 10
0.0
 20
0.0
 30
0.0
  9
$UCSORGLEFT
 10
0.0
 20
0.0
 30
0.0
  9
$UCSORGRIGHT
 10
0.0
 20
0.0
 30
0.0
  9
$UCSORGFRONT
 10
0.0
 20
0.0
 30
0.0
  9
$UCSORGBACK
 10
0.0
 20
0.0
 30
0.0
  9
$PUCSBASE
  2

  9
$PUCSNAME
  2

  9
$PUCSORG
 10
0.0
 20
0.0
 30
0.0
  9
$PUCSXDIR
 10
1.0
 20
0.0
 30
0.0
  9
$PUCSYDIR
 10
0.0
 20
1.0
 30
0.0
  9
$PUCSORTHOREF
  2

  9
$PUCSORTHOVIEW
 70
     0
  9
$PUCSORGTOP
 10
0.0
 20
0.0
 30
0.0
  9
$PUCSORGBOTTOM
 10
0.0
 20
0.0
 30
0.0
  9
$PUCSORGLEFT
 10
0.0
 20
0.0
 30
0.0
  9
$PUCSORGRIGHT
 10
0.0
 20
0.0
 30
0.0
  9
$PUCSORGFRONT
 10
0.0
 20
0.0
 30
0.0
  9
$PUCSORGBACK
 10
0.0
 20
0.0
 30
0.0
  9
$USERI1
 70
     0
  9
$USERI2
 70
     0
  9
$USERI3
 70
     0
  9
$USERI4
 70
     0
  9
$USERI5
 70
     0
  9
$USERR1
 40
0.0
  9
$USERR2
 40
0.0
  9
$USERR3
 40
0.0
  9
$USERR4
 40
0.0
  9
$USERR5
 40
0.0
  9
$WORLDVIEW
 70
     1
  9
$SHADEDGE
 70
     3
  9
$SHADEDIF
 70
    70
  9
$TILEMODE
 70
     1
  9
$MAXACTVP
 70
    64
  9
$PINSBASE
 10
0.0
 20
0.0
 30
0.0
  9
$PLIMCHECK
 70
     0
  9
$PEXTMIN
 10
1.0000000000E+20
 20
1.0000000000E+20
 30
1.0000000000E+20
  9
$PEXTMAX
 10
-1.0000000000E+20
 20
-1.0000000000E+20
 30
-1.0000000000E+20
  9
$PLIMMIN
 10
0.0
 20
0.0
  9
$PLIMMAX
 10
420.0
 20
297.0
  9
$UNITMODE
 70
     0
  9
$VISRETAIN
 70
     1
  9
$PLINEGEN
 70
     0
  9
$PSLTSCALE
 70
     1
  9
$TREEDEPTH
 70
  3020
  9
$CMLSTYLE
  2
Standard
  9
$CMLJUST
 70
     0
  9
$CMLSCALE
 40
20.0
  9
$PROXYGRAPHICS
 70
     1
  9
$MEASUREMENT
 70
     1
  9
$CELWEIGHT
370
    -1
  9
$ENDCAPS
280
     0
  9
$JOINSTYLE
280
     0
  9
$LWDISPLAY
290
     1
  9
$INSUNITS
 70
     4
  9
$HYPERLINKBASE
  1

  9
$STYLESHEET
  1

  9
$XEDIT
290
     1
  9
$CEPSNTYPE
380
     0
  9
$PSTYLEMODE
290
     1
  9
$FINGERPRINTGUID
  2
{8c545de8-19a2-4d59-a236-e747a851290e}
  9
$VERSIONGUID
  2
{FAEB1C32-E019-11D5-929B-00C0DF256EC4}
  9
$EXTNAMES
290
     1
  9
$PSVPSCALE
 40
0.0
  9
$OLESTARTUP
290
     0
  0
ENDSEC
  0
SECTION
  2
CLASSES
  0
CLASS
  1
ACDBDICTIONARYWDFLT
  2
AcDbDictionaryWithDefault
  3
ObjectDBX Classes
 90
        0
280
     0
281
     0
  0
CLASS
  1
VISUALSTYLE
  2
AcDbVisualStyle
  3
ObjectDBX Classes
 90
     4095
280
     0
281
     0
  0
CLASS
  1
MATERIAL
  2
AcDbMaterial
  3
ObjectDBX Classes
 90
     1153
280
     0
281
     0
  0
CLASS
  1
SCALE
  2
AcDbScale
  3
ObjectDBX Classes
 90
     1153
280
     0
281
     0
  0
CLASS
  1
TABLESTYLE
  2
AcDbTableStyle
  3
ObjectDBX Classes
 90
     4095
280
     0
281
     0
  0
CLASS
  1
MLEADERSTYLE
  2
AcDbMLeaderStyle
  3
ACDB_MLEADERSTYLE_CLASS
 90
     4095
280
     0
281
     0
  0
CLASS
  1
SUN
  2
AcDbSun
  3
SCENEOE
 90
     1153
280
     0
281
     0
  0
CLASS
  1
ACDBPLACEHOLDER
  2
AcDbPlaceHolder
  3
ObjectDBX Classes
 90
        0
280
     0
281
     0
  0
CLASS
  1
LAYOUT
  2
AcDbLayout
  3
ObjectDBX Classes
 90
        0
280
     0
281
     0
  0
ENDSEC
  0
SECTION
  2
TABLES
  0
TABLE
  2
VPORT
  5
8
330
0
100
AcDbSymbolTable
 70
     1
  0
VPORT
  5
29
330
8
100
AcDbSymbolTableRecord
100
AcDbViewportTableRecord
  2
*Active
 70
     0
 10
0.0
 20
0.0
 11
1.0
 21
1.0
 12
6690.6054801687
 22
4799.4812155567
 13
0.0
 23
0.0
 14
10.0
 24
10.0
 15
10.0
 25
10.0
 16
0.0
 26
0.0
 36
1.0
 17
0.0
 27
0.0
 37
0.0
 40
1260.6760706494
 41
1.3780245855
 42
50.0
 43
0.0
 44
0.0
 50
0.0
 51
0.0
 71
     0
 72
   100
 73
     1
 74
     3
 75
     0
 76
     0
 77
     0
 78
     0
281
     0
 65
     1
110
0.0
120
0.0
130
0.0
111
1.0
121
0.0
131
0.0
112
0.0
122
1.0
132
0.0
 79
     0
146
0.0
  0
ENDTAB
  0
TABLE
  2
LTYPE
  5
5
330
0
100
AcDbSymbolTable
 70
     6
  0
LTYPE
  5
14
330
5
100
AcDbSymbolTableRecord
100
AcDbLinetypeTableRecord
  2
ByBlock
 70
     0
  3

 72
    65
 73
     0
 40
0.0
  0
LTYPE
  5
15
330
5
100
AcDbSymbolTableRecord
100
AcDbLinetypeTableRecord
  2
ByLayer
 70
     0
  3

 72
    65
 73
     0
 40
0.0
  0
LTYPE
  5
16
330
5
100
AcDbSymbolTableRecord
100
AcDbLinetypeTableRecord
  2
Continuous
 70
     0
  3
Solid line
 72
    65
 73
     0
 40
0.0
  0
LTYPE
  5
6E
330
5
100
AcDbSymbolTableRecord
100
AcDbLinetypeTableRecord
  2
HIDDEN
 70
     0
  3
Hidden __ __ __ __ __ __ __ __ __ __ __ __ __ __
 72
    65
 73
     2
 40
1.905
 49
1.27
 74
     0
 49
-0.635
 74
     0
  0
LTYPE
  5
6F
330
5
100
AcDbSymbolTableRecord
100
AcDbLinetypeTableRecord
  2
PHANTOM
 70
     0
  3
Phantom ______  __  __  ______  __  __  ______
 72
    65
 73
     6
 40
12.7
 49
6.35
 74
     0
 49
-1.27
 74
     0
 49
1.27
 74
     0
 49
-1.27
 74
     0
 49
1.27
 74
     0
 49
-1.27
 74
     0
  0
LTYPE
  5
70
330
5
100
AcDbSymbolTableRecord
100
AcDbLinetypeTableRecord
  2
CENTER
 70
     0
  3
Center ____ _ ____ _ ____ _ ____ _ ____ _ ____
 72
    65
 73
     4
 40
10.16
 49
6.35
 74
     0
 49
-1.27
 74
     0
 49
1.27
 74
     0
 49
-1.27
 74
     0
  0
LTYPE
  5
71
330
5
100
AcDbSymbolTableRecord
100
AcDbLinetypeTableRecord
  2
CENTERX2
 70
     0
  3
Center (2x) ________  __  ________  __  _____
 72
    65
 73
     4
 40
20.32
 49
12.7
 74
     0
 49
-2.54
 74
     0
 49
2.54
 74
     0
 49
-2.54
 74
     0
  0
LTYPE
  5
72
330
5
100
AcDbSymbolTableRecord
100
AcDbLinetypeTableRecord
  2
DOT2
 70
     0
  3
Dot (.5x) ........................................
 72
    65
 73
     2
 40
0.635
 49
0.0
 74
     0
 49
-0.635
 74
     0
  0
ENDTAB
  0
TABLE
  2
LAYER
  5
2
330
0
100
AcDbSymbolTable
 70
     1
  0
LAYER
  5
10
330
2
100
AcDbSymbolTableRecord
100
AcDbLayerTableRecord
  2
0
 70
     0
 62
     7
  6
Continuous
370
    -3
390
F
  0
ENDTAB
  0
TABLE
  2
STYLE
  5
3
330
0
100
AcDbSymbolTable
 70
     1
  0
STYLE
  5
11
330
3
100
AcDbSymbolTableRecord
100
AcDbTextStyleTableRecord
  2
Standard
 70
     0
 40
0.0
 41
1.0
 50
0.0
 71
     0
 42
3.5
  3
txt
  4

  0
ENDTAB
  0
TABLE
  2
VIEW
  5
6
330
0
100
AcDbSymbolTable
 70
     0
  0
ENDTAB
  0
TABLE
  2
UCS
  5
7
330
0
100
AcDbSymbolTable
 70
     0
  0
ENDTAB
  0
TABLE
  2
APPID
  5
9
330
0
100
AcDbSymbolTable
 70
     1
  0
APPID
  5
12
330
9
100
AcDbSymbolTableRecord
100
AcDbRegAppTableRecord
  2
ACAD
 70
     0
  0
ENDTAB
  0
TABLE
  2
DIMSTYLE
  5
A
330
0
100
AcDbSymbolTable
 70
     1
100
AcDbDimStyleTable
  0
DIMSTYLE
105
27
330
A
100
AcDbSymbolTableRecord
100
AcDbDimStyleTableRecord
  2
ISO-25
 70
     0
 41
2.5
 42
0.625
 43
3.75
 44
1.25
 73
     0
 74
     0
 77
     1
 78
     8
140
2.5
141
2.5
143
0.0393700787
147
0.625
171
     3
172
     1
178
     0
271
     2
272
     2
274
     3
278
    44
283
     0
284
     8
340
11
  0
ENDTAB
  0
TABLE
  2
BLOCK_RECORD
  5
1
330
0
100
AcDbSymbolTable
 70
     1
  0
BLOCK_RECORD
  5
1F
330
1
100
AcDbSymbolTableRecord
100
AcDbBlockTableRecord
  2
*Model_Space
340
22
  0
BLOCK_RECORD
  5
1B
330
1
100
AcDbSymbolTableRecord
100
AcDbBlockTableRecord
  2
*Paper_Space
340
1E
  0
BLOCK_RECORD
  5
23
330
1
100
AcDbSymbolTableRecord
100
AcDbBlockTableRecord
  2
*Paper_Space0
340
26
  0
ENDTAB
  0
ENDSEC
  0
SECTION
  2
BLOCKS
  0
BLOCK
  5
20
330
1F
100
AcDbEntity
  8
0
100
AcDbBlockBegin
  2
*Model_Space
 70
     0
 10
0.0
 20
0.0
 30
0.0
  3
*Model_Space
  1

  0
ENDBLK
  5
21
330
1F
100
AcDbEntity
  8
0
100
AcDbBlockEnd
  0
BLOCK
  5
1C
330
1B
100
AcDbEntity
 67
     1
  8
0
100
AcDbBlockBegin
  2
*Paper_Space
 70
     0
 10
0.0
 20
0.0
 30
0.0
  3
*Paper_Space
  1

  0
ENDBLK
  5
1D
330
1B
100
AcDbEntity
 67
     1
  8
0
100
AcDbBlockEnd
  0
BLOCK
  5
24
330
23
100
AcDbEntity
  8
0
100
AcDbBlockBegin
  2
*Paper_Space0
 70
     0
 10
0.0
 20
0.0
 30
0.0
  3
*Paper_Space0
  1

  0
ENDBLK
  5
25
330
23
100
AcDbEntity
  8
0
100
AcDbBlockEnd
  0
ENDSEC
  0
SECTION
  2
ENTITIES
  0
ARC
  5
73
330
1F
100
AcDbEntity
  8
0
  6
Continuous
 62
     7
100
AcDbCircle
 10
6249.8969273862
 20
5012.9392285255
 30
0.0
 40
3.00000000000094
100
AcDbArc
 50
185.8481372346
 51
269.9999918387
  0
ARC
  5
74
330
1F
100
AcDbEntity
  8
0
  6
Continuous
 62
     7
100
AcDbCircle
 10
6298.140583286
 20
5012.9392285255
 30
0.0
 40
2.999999999999121
100
AcDbArc
 50
270.0000081613
 51
354.1518627654
  0
ARC
  5
75
330
1F
100
AcDbEntity
  8
0
  6
Continuous
 62
     7
100
AcDbCircle
 10
6274.0187553361
 20
5117.9392276241
 30
0.0
 40
39.99999999999993
100
AcDbArc
 50
202.7672537944
 51
216.1070114058
  0
ARC
  5
76
330
1F
100
AcDbEntity
  8
0
  6
Continuous
 62
     7
100
AcDbCircle
 10
6274.0187553361
 20
5117.9392276241
 30
0.0
 40
39.99999999999993
100
AcDbArc
 50
323.8929885942
 51
337.2327462056
  0
ARC
  5
77
330
1F
100
AcDbEntity
  8
0
  6
Continuous
 62
     7
100
AcDbCircle
 10
6707.0187553361
 20
5375.4596875218
 30
0.0
 40
2.000000000000696
100
AcDbArc
 50
359.9998292443
 51
90.0000478107
  0
ARC
  5
78
330
1F
100
AcDbEntity
  8
0
  6
Continuous
 62
     7
100
AcDbCircle
 10
5841.0187553361
 20
5375.4596875218
 30
0.0
 40
1.999999999999787
100
AcDbArc
 50
89.9999521893
 51
180.0001707557
  0
ARC
  5
79
330
1F
100
AcDbEntity
  8
0
  6
Continuous
 62
     7
100
AcDbCircle
 10
5841.0187529519
 20
5339.4596809653
 30
0.0
 40
2.000000000000469
100
AcDbArc
 50
179.9998838871
 51
270.0001161129
  0
ARC
  5
7A
330
1F
100
AcDbEntity
  8
0
  6
Continuous
 62
     7
100
AcDbCircle
 10
6707.0187577203
 20
5339.4596809653
 30
0.0
 40
2.000000000000469
100
AcDbArc
 50
269.9998838871
 51
0.0001161129
  0
ARC
  5
7B
330
1F
100
AcDbEntity
  8
0
  6
Continuous
 62
     7
100
AcDbCircle
 10
5846.0187481835
 20
5104.4596815613
 30
0.0
 40
2.000000000000909
100
AcDbArc
 50
180.0
 51
270.0001161156
  0
ARC
  5
7C
330
1F
100
AcDbEntity
  8
0
  6
Continuous
 62
     7
100
AcDbCircle
 10
6702.0187624887
 20
5104.4596815613
 30
0.0
 40
2.000000000000909
100
AcDbArc
 50
269.9998838843
 51
0.0
  0
ARC
  5
7D
330
1F
100
AcDbEntity
  8
0
  6
Continuous
 62
     7
100
AcDbCircle
 10
5841.0187476059
 20
5375.4596746472
 30
0.0
 40
2.999999999999262
100
AcDbArc
 50
89.9998204902
 51
131.8101168214
  0
ARC
  5
7E
330
1F
100
AcDbEntity
  8
0
  6
Continuous
 62
     7
100
AcDbCircle
 10
6707.0187630663
 20
5375.4596746472
 30
0.0
 40
3.000000000001081
100
AcDbArc
 50
48.1898831786
 51
90.0001795098
  0
ARC
  5
7F
330
1F
100
AcDbEntity
  8
0
  6
Continuous
 62
     7
100
AcDbCircle
 10
7117.1458395212
 20
5097.9392284957
 30
0.0
 40
20.00000000000015
100
AcDbArc
 50
269.9999692643
 51
359.9999973853
  0
ARC
  5
80
330
1F
100
AcDbEntity
  8
0
  6
Continuous
 62
     7
100
AcDbCircle
 10
7223.0731736313
 20
5012.9392285255
 30
0.0
 40
3.000000000000903
100
AcDbArc
 50
185.8481372346
 51
270.0000629867
  0
ARC
  5
81
330
1F
100
AcDbEntity
  8
0
  6
Continuous
 62
     7
100
AcDbCircle
 10
7271.3168295311
 20
5012.9392285255
 30
0.0
 40
2.999999999998737
100
AcDbArc
 50
270.0000081632
 51
354.1518627654
  0
ARC
  5
82
330
1F
100
AcDbEntity
  8
0
  6
Continuous
 62
     7
100
AcDbCircle
 10
7190.1950103729
 20
5094.9392279965
 30
0.0
 40
3.000000000002056
100
AcDbArc
 50
180.0000083955
 51
269.9998315218
  0
ARC
  5
83
330
1F
100
AcDbEntity
  8
0
  6
Continuous
 62
     7
100
AcDbCircle
 10
7102.9449976175
 20
5416.7096815613
 30
0.0
 40
0.7499999999996971
100
AcDbArc
 50
359.9994171551
 51
89.9995719806
  0
ARC
  5
84
330
1F
100
AcDbEntity
  8
0
  6
Continuous
 62
     7
100
AcDbCircle
 10
7102.9449976175
 20
5416.7096815613
 30
0.0
 40
0.7499999999996976
100
AcDbArc
 50
89.9995719806
 51
180.0005828484
  0
ARC
  5
85
330
1F
100
AcDbEntity
  8
0
  6
Continuous
 62
     7
100
AcDbCircle
 10
7104.6950032203
 20
5378.4596875218
 30
0.0
 40
1.000000000001847
100
AcDbArc
 50
180.0003415112
 51
269.9997950998
  0
ARC
  5
86
330
1F
100
AcDbEntity
  8
0
  6
Continuous
 62
     7
100
AcDbCircle
 10
7540.1949996441
 20
5339.4596809653
 30
0.0
 40
2.000000000000316
100
AcDbArc
 50
270.0003107722
 51
0.0001161136
  0
ARC
  5
87
330
1F
100
AcDbEntity
  8
0
  6
Continuous
 62
     7
100
AcDbCircle
 10
7540.1949996441
 20
5375.4596875218
 30
0.0
 40
1.999999999999559
100
AcDbArc
 50
359.9998838864
 51
89.9996892278
  0
ARC
  5
88
330
1F
100
AcDbEntity
  8
0
  6
Continuous
 62
     7
100
AcDbCircle
 10
7535.1950000018
 20
5104.4596816563
 30
0.0
 40
2.000000095003998
100
AcDbArc
 50
269.9998838873
 51
0.0
  0
ARC
  5
89
330
1F
100
AcDbEntity
  8
0
  6
Continuous
 62
     7
100
AcDbCircle
 10
6389.0187553327
 20
4476.5027459758
 30
0.0
 40
5.250000000001333
100
AcDbArc
 50
278.2132107017
 51
81.7867892983
  0
ARC
  5
8A
330
1F
100
AcDbEntity
  8
0
  6
Continuous
 62
     7
100
AcDbCircle
 10
6389.0187553327
 20
4476.5027459758
 30
0.0
 40
5.250000000000553
100
AcDbArc
 50
98.2132107017
 51
261.7867892983
  0
ARC
  5
8B
330
1F
100
AcDbEntity
  8
0
  6
Continuous
 62
     7
100
AcDbCircle
 10
6389.0187553327
 20
4476.5027459758
 30
0.0
 40
5.250000000001333
100
AcDbArc
 50
81.7867892983
 51
98.2132107017
  0
ARC
  5
8C
330
1F
100
AcDbEntity
  8
0
  6
Continuous
 62
     7
100
AcDbCircle
 10
6389.0187553327
 20
4476.5027459758
 30
0.0
 40
5.250000000000433
100
AcDbArc
 50
261.7867892983
 51
278.2132107017
  0
ARC
  5
8D
330
1F
100
AcDbEntity
  8
0
  6
Continuous
 62
     7
100
AcDbCircle
 10
6159.0187553395
 20
4476.5027459758
 30
0.0
 40
5.250000000001333
100
AcDbArc
 50
98.2132107017
 51
261.7867892983
  0
ARC
  5
8E
330
1F
100
AcDbEntity
  8
0
  6
Continuous
 62
     7
100
AcDbCircle
 10
6159.0187553395
 20
4476.5027459758
 30
0.0
 40
5.250000000000553
100
AcDbArc
 50
278.2132107017
 51
81.7867892983
  0
ARC
  5
8F
330
1F
100
AcDbEntity
  8
0
  6
Continuous
 62
     7
100
AcDbCircle
 10
6159.0187553395
 20
4476.5027459758
 30
0.0
 40
5.250000000001333
100
AcDbArc
 50
81.7867892983
 51
98.2132107017
  0
ARC
  5
90
330
1F
100
AcDbEntity
  8
0
  6
Continuous
 62
     7
100
AcDbCircle
 10
6159.0187553395
 20
4476.5027459758
 30
0.0
 40
5.250000000000433
100
AcDbArc
 50
261.7867892983
 51
278.2132107017
  0
CIRCLE
  5
91
330
1F
100
AcDbEntity
  8
0
  6
Continuous
 62
     7
100
AcDbCircle
 10
6159.0187553395
 20
4476.5027459758
 30
0.0
 40
24.49999999999636
  0
CIRCLE
  5
92
330
1F
100
AcDbEntity
  8
0
  6
Continuous
 62
     7
100
AcDbCircle
 10
6159.0187553395
 20
4476.5027459758
 30
0.0
 40
34.99999999999727
  0
CIRCLE
  5
93
330
1F
100
AcDbEntity
  8
0
  6
Continuous
 62
     7
100
AcDbCircle
 10
6159.0187553395
 20
4476.5027459758
 30
0.0
 40
22.49999999999727
  0
CIRCLE
  5
94
330
1F
100
AcDbEntity
  8
0
  6
Continuous
 62
     7
100
AcDbCircle
 10
6159.0187553395
 20
4476.5027459758
 30
0.0
 40
21.49999999999727
  0
CIRCLE
  5
95
330
1F
100
AcDbEntity
  8
0
  6
Continuous
 62
     7
100
AcDbCircle
 10
6159.0187553395
 20
4476.5027459758
 30
0.0
 40
19.55298992456028
  0
CIRCLE
  5
96
330
1F
100
AcDbEntity
  8
0
  6
Continuous
 62
     7
100
AcDbCircle
 10
6159.0187553395
 20
4476.5027459758
 30
0.0
 40
6.182050807566156
  0
ARC
  5
97
330
1F
100
AcDbEntity
  8
0
  6
Continuous
 62
     7
100
AcDbCircle
 10
6159.0187553395
 20
4476.5027459758
 30
0.0
 40
19.49999999996366
100
AcDbArc
 50
166.9496950603
 51
193.0503049397
  0
ARC
  5
98
330
1F
100
AcDbEntity
  8
0
  6
Continuous
 62
     7
100
AcDbCircle
 10
6143.919086469
 20
4473.0027459758
 30
0.0
 40
3.999999999980481
100
AcDbArc
 50
193.0503049397
 51
13.0503049397
  0
ARC
  5
99
330
1F
100
AcDbEntity
  8
0
  6
Continuous
 62
     7
100
AcDbCircle
 10
6159.0187553395
 20
4476.5027459758
 30
0.0
 40
11.5000000000027
100
AcDbArc
 50
166.9496950603
 51
193.0503049397
  0
ARC
  5
9A
330
1F
100
AcDbEntity
  8
0
  6
Continuous
 62
     7
100
AcDbCircle
 10
6143.919086469
 20
4480.0027459758
 30
0.0
 40
4.000000000001475
100
AcDbArc
 50
346.9496950603
 51
166.9496950603
  0
ARC
  5
9B
330
1F
100
AcDbEntity
  8
0
  6
Continuous
 62
     7
100
AcDbCircle
 10
6159.0187553395
 20
4476.5027459758
 30
0.0
 40
19.49999999996162
100
AcDbArc
 50
256.9496950603
 51
283.0503049397
  0
ARC
  5
9C
330
1F
100
AcDbEntity
  8
0
  6
Continuous
 62
     7
100
AcDbCircle
 10
6162.5187553395
 20
4461.4030771053
 30
0.0
 40
3.999999999981367
100
AcDbArc
 50
283.0503049397
 51
103.0503049397
  0
ARC
  5
9D
330
1F
100
AcDbEntity
  8
0
  6
Continuous
 62
     7
100
AcDbCircle
 10
6159.0187553395
 20
4476.5027459758
 30
0.0
 40
11.49999999999874
100
AcDbArc
 50
256.9496950603
 51
283.0503049397
  0
ARC
  5
9E
330
1F
100
AcDbEntity
  8
0
  6
Continuous
 62
     7
100
AcDbCircle
 10
6155.5187553395
 20
4461.4030771053
 30
0.0
 40
4.000000000001475
100
AcDbArc
 50
76.9496950603
 51
256.9496950603
  0
ARC
  5
9F
330
1F
100
AcDbEntity
  8
0
  6
Continuous
 62
     7
100
AcDbCircle
 10
6159.0187553395
 20
4476.5027459758
 30
0.0
 40
19.50000000005472
100
AcDbArc
 50
346.9496950604
 51
13.0503049396
  0
ARC
  5
A0
330
1F
100
AcDbEntity
  8
0
  6
Continuous
 62
     7
100
AcDbCircle
 10
6174.1184242101
 20
4480.0027459758
 30
0.0
 40
4.000000000029211
100
AcDbArc
 50
13.0503049396
 51
193.0503049396
  0
ARC
  5
A1
330
1F
100
AcDbEntity
  8
0
  6
Continuous
 62
     7
100
AcDbCircle
 10
6159.0187553395
 20
4476.5027459758
 30
0.0
 40
11.50000000005395
100
AcDbArc
 50
346.9496950604
 51
13.0503049397
  0
ARC
  5
A2
330
1F
100
AcDbEntity
  8
0
  6
Continuous
 62
     7
100
AcDbCircle
 10
6174.1184242101
 20
4473.0027459758
 30
0.0
 40
4.000000000000384
100
AcDbArc
 50
166.9496950603
 51
346.9496950603
  0
ARC
  5
A3
330
1F
100
AcDbEntity
  8
0
  6
Continuous
 62
     7
100
AcDbCircle
 10
6159.0187553395
 20
4476.5027459758
 30
0.0
 40
19.49999999996162
100
AcDbArc
 50
76.9496950603
 51
103.0503049397
  0
ARC
  5
A4
330
1F
100
AcDbEntity
  8
0
  6
Continuous
 62
     7
100
AcDbCircle
 10
6155.5187553395
 20
4491.6024148463
 30
0.0
 40
3.999999999980687
100
AcDbArc
 50
103.0503049397
 51
283.0503049397
  0
ARC
  5
A5
330
1F
100
AcDbEntity
  8
0
  6
Continuous
 62
     7
100
AcDbCircle
 10
6159.0187553395
 20
4476.5027459758
 30
0.0
 40
11.50000000000045
100
AcDbArc
 50
76.9496950603
 51
103.0503049397
  0
ARC
  5
A6
330
1F
100
AcDbEntity
  8
0
  6
Continuous
 62
     7
100
AcDbCircle
 10
6162.5187553395
 20
4491.6024148463
 30
0.0
 40
4.000000000002362
100
AcDbArc
 50
256.9496950603
 51
76.9496950603
  0
CIRCLE
  5
A7
330
1F
100
AcDbEntity
  8
0
  6
Continuous
 62
     7
100
AcDbCircle
 10
6159.0187553395
 20
4476.5027459758
 30
0.0
 40
5.682050807566156
  0
CIRCLE
  5
A8
330
1F
100
AcDbEntity
  8
0
  6
Continuous
 62
     7
100
AcDbCircle
 10
6389.0187553327
 20
4476.5027459758
 30
0.0
 40
24.50000000000273
  0
CIRCLE
  5
A9
330
1F
100
AcDbEntity
  8
0
  6
Continuous
 62
     7
100
AcDbCircle
 10
6389.0187553327
 20
4476.5027459758
 30
0.0
 40
35.00000000000273
  0
CIRCLE
  5
AA
330
1F
100
AcDbEntity
  8
0
  6
Continuous
 62
     7
100
AcDbCircle
 10
6389.0187553327
 20
4476.5027459758
 30
0.0
 40
22.50000000000273
  0
CIRCLE
  5
AB
330
1F
100
AcDbEntity
  8
0
  6
Continuous
 62
     7
100
AcDbCircle
 10
6389.0187553327
 20
4476.5027459758
 30
0.0
 40
21.50000000000273
  0
CIRCLE
  5
AC
330
1F
100
AcDbEntity
  8
0
  6
Continuous
 62
     7
100
AcDbCircle
 10
6389.0187553327
 20
4476.5027459758
 30
0.0
 40
19.55298992456574
  0
CIRCLE
  5
AD
330
1F
100
AcDbEntity
  8
0
  6
Continuous
 62
     7
100
AcDbCircle
 10
6389.0187553327
 20
4476.5027459758
 30
0.0
 40
6.182050807571613
  0
ARC
  5
AE
330
1F
100
AcDbEntity
  8
0
  6
Continuous
 62
     7
100
AcDbCircle
 10
6389.0187553327
 20
4476.5027459758
 30
0.0
 40
19.50000000005383
100
AcDbArc
 50
166.9496950604
 51
193.0503049396
  0
ARC
  5
AF
330
1F
100
AcDbEntity
  8
0
  6
Continuous
 62
     7
100
AcDbCircle
 10
6373.9190864621
 20
4473.0027459758
 30
0.0
 40
4.000000000029211
100
AcDbArc
 50
193.0503049396
 51
13.0503049396
  0
ARC
  5
B0
330
1F
100
AcDbEntity
  8
0
  6
Continuous
 62
     7
100
AcDbCircle
 10
6389.0187553327
 20
4476.5027459758
 30
0.0
 40
11.50000000005415
100
AcDbArc
 50
166.9496950604
 51
193.0503049397
  0
ARC
  5
B1
330
1F
100
AcDbEntity
  8
0
  6
Continuous
 62
     7
100
AcDbCircle
 10
6373.9190864621
 20
4480.0027459758
 30
0.0
 40
4.000000000000179
100
AcDbArc
 50
346.9496950603
 51
166.9496950603
  0
ARC
  5
B2
330
1F
100
AcDbEntity
  8
0
  6
Continuous
 62
     7
100
AcDbCircle
 10
6389.0187553327
 20
4476.5027459758
 30
0.0
 40
19.49999999996162
100
AcDbArc
 50
256.9496950603
 51
283.0503049397
  0
ARC
  5
B3
330
1F
100
AcDbEntity
  8
0
  6
Continuous
 62
     7
100
AcDbCircle
 10
6392.5187553327
 20
4461.4030771053
 30
0.0
 40
3.999999999981162
100
AcDbArc
 50
283.0503049397
 51
103.0503049397
  0
ARC
  5
B4
330
1F
100
AcDbEntity
  8
0
  6
Continuous
 62
     7
100
AcDbCircle
 10
6389.0187553327
 20
4476.5027459758
 30
0.0
 40
11.49999999999998
100
AcDbArc
 50
256.9496950603
 51
283.0503049397
  0
ARC
  5
B5
330
1F
100
AcDbEntity
  8
0
  6
Continuous
 62
     7
100
AcDbCircle
 10
6385.5187553327
 20
4461.4030771053
 30
0.0
 40
4.000000000001475
100
AcDbArc
 50
76.9496950603
 51
256.9496950603
  0
ARC
  5
B6
330
1F
100
AcDbEntity
  8
0
  6
Continuous
 62
     7
100
AcDbCircle
 10
6389.0187553327
 20
4476.5027459758
 30
0.0
 40
19.49999999996455
100
AcDbArc
 50
346.9496950603
 51
13.0503049397
  0
ARC
  5
B7
330
1F
100
AcDbEntity
  8
0
  6
Continuous
 62
     7
100
AcDbCircle
 10
6404.1184242032
 20
4480.0027459758
 30
0.0
 40
3.999999999981367
100
AcDbArc
 50
13.0503049397
 51
193.0503049397
  0
ARC
  5
B8
330
1F
100
AcDbEntity
  8
0
  6
Continuous
 62
     7
100
AcDbCircle
 10
6389.0187553327
 20
4476.5027459758
 30
0.0
 40
11.5000000000027
100
AcDbArc
 50
346.9496950603
 51
13.0503049397
  0
ARC
  5
B9
330
1F
100
AcDbEntity
  8
0
  6
Continuous
 62
     7
100
AcDbCircle
 10
6404.1184242032
 20
4473.0027459758
 30
0.0
 40
4.000000000002362
100
AcDbArc
 50
166.9496950603
 51
346.9496950603
  0
ARC
  5
BA
330
1F
100
AcDbEntity
  8
0
  6
Continuous
 62
     7
100
AcDbCircle
 10
6389.0187553327
 20
4476.5027459758
 30
0.0
 40
19.49999999996162
100
AcDbArc
 50
76.9496950603
 51
103.0503049397
  0
ARC
  5
BB
330
1F
100
AcDbEntity
  8
0
  6
Continuous
 62
     7
100
AcDbCircle
 10
6385.5187553327
 20
4491.6024148463
 30
0.0
 40
3.999999999980481
100
AcDbArc
 50
103.0503049397
 51
283.0503049397
  0
ARC
  5
BC
330
1F
100
AcDbEntity
  8
0
  6
Continuous
 62
     7
100
AcDbCircle
 10
6389.0187553327
 20
4476.5027459758
 30
0.0
 40
11.49999999999942
100
AcDbArc
 50
76.9496950603
 51
103.0503049397
  0
ARC
  5
BD
330
1F
100
AcDbEntity
  8
0
  6
Continuous
 62
     7
100
AcDbCircle
 10
6392.5187553327
 20
4491.6024148463
 30
0.0
 40
4.000000000002362
100
AcDbArc
 50
256.9496950603
 51
76.9496950603
  0
CIRCLE
  5
BE
330
1F
100
AcDbEntity
  8
0
  6
Continuous
 62
     7
100
AcDbCircle
 10
6389.0187553327
 20
4476.5027459758
 30
0.0
 40
5.682050807571613
  0
ARC
  5
BF
330
1F
100
AcDbEntity
  8
0
  6
Continuous
 62
     7
100
AcDbCircle
 10
6159.0187553395
 20
4476.5027459758
 30
0.0
 40
15.00000000000273
100
AcDbArc
 50
180.0
 51
208.0052543395
  0
ARC
  5
C0
330
1F
100
AcDbEntity
  8
0
  6
Continuous
 62
     7
100
AcDbCircle
 10
6159.0187553395
 20
4476.5027459758
 30
0.0
 40
15.00000000000197
100
AcDbArc
 50
241.9947456606
 51
298.0052543395
  0
ARC
  5
C1
330
1F
100
AcDbEntity
  8
0
  6
Continuous
 62
     7
100
AcDbCircle
 10
6159.0187553395
 20
4476.5027459758
 30
0.0
 40
15.00000000000017
100
AcDbArc
 50
331.9947456605
 51
28.0052543395
  0
ARC
  5
C2
330
1F
100
AcDbEntity
  8
0
  6
Continuous
 62
     7
100
AcDbCircle
 10
6159.0187553395
 20
4476.5027459758
 30
0.0
 40
15.00000000000183
100
AcDbArc
 50
61.9947456605
 51
118.0052543395
  0
ARC
  5
C3
330
1F
100
AcDbEntity
  8
0
  6
Continuous
 62
     7
100
AcDbCircle
 10
6159.0187553395
 20
4476.5027459758
 30
0.0
 40
15.00000000000273
100
AcDbArc
 50
151.9947456605
 51
180.0
  0
ARC
  5
C4
330
1F
100
AcDbEntity
  8
0
  6
Continuous
 62
     7
100
AcDbCircle
 10
6389.0187553327
 20
4476.5027459758
 30
0.0
 40
15.00000000000364
100
AcDbArc
 50
0.0
 51
28.0052543395
  0
ARC
  5
C5
330
1F
100
AcDbEntity
  8
0
  6
Continuous
 62
     7
100
AcDbCircle
 10
6389.0187553327
 20
4476.5027459758
 30
0.0
 40
15.0000000000006
100
AcDbArc
 50
61.9947456605
 51
118.0052543395
  0
ARC
  5
C6
330
1F
100
AcDbEntity
  8
0
  6
Continuous
 62
     7
100
AcDbCircle
 10
6389.0187553327
 20
4476.5027459758
 30
0.0
 40
14.99999999999857
100
AcDbArc
 50
151.9947456605
 51
208.0052543395
  0
ARC
  5
C7
330
1F
100
AcDbEntity
  8
0
  6
Continuous
 62
     7
100
AcDbCircle
 10
6389.0187553327
 20
4476.5027459758
 30
0.0
 40
15.00000000000226
100
AcDbArc
 50
241.9947456605
 51
298.0052543395
  0
ARC
  5
C8
330
1F
100
AcDbEntity
  8
0
  6
Continuous
 62
     7
100
AcDbCircle
 10
6389.0187553327
 20
4476.5027459758
 30
0.0
 40
15.00000000000364
100
AcDbArc
 50
331.9947456605
 51
0.0
  0
ARC
  5
C9
330
1F
100
AcDbEntity
  8
0
  6
Continuous
 62
     7
100
AcDbCircle
 10
6364.0187557175
 20
4504.0027497295
 30
0.0
 40
71.89793006472978
100
AcDbArc
 50
89.9999967118
 51
180.0000018039
  0
ARC
  5
CA
330
1F
100
AcDbEntity
  8
0
  6
Continuous
 62
     7
100
AcDbCircle
 10
6364.0187557175
 20
4304.0027422221
 30
0.0
 40
71.89793006472978
100
AcDbArc
 50
179.9999981962
 51
270.0000032882
  0
ARC
  5
CB
330
1F
100
AcDbEntity
  8
0
  6
Continuous
 62
     7
100
AcDbCircle
 10
6589.0187486962
 20
4304.0027394281
 30
0.0
 40
71.89792727073133
100
AcDbArc
 50
270.0000041336
 51
0.0000047726
  0
ARC
  5
CC
330
1F
100
AcDbEntity
  8
0
  6
Continuous
 62
     7
100
AcDbCircle
 10
6589.0187486962
 20
4504.0027525235
 30
0.0
 40
71.89792727072945
100
AcDbArc
 50
359.9999967118
 51
89.9999958664
  0
ARC
  5
CD
330
1F
100
AcDbEntity
  8
0
  6
Continuous
 62
     7
100
AcDbCircle
 10
5959.0187629073
 20
4304.0027422221
 30
0.0
 40
71.89792913343176
100
AcDbArc
 50
179.9999981962
 51
269.9999958664
  0
ARC
  5
CE
330
1F
100
AcDbEntity
  8
0
  6
Continuous
 62
     7
100
AcDbCircle
 10
6184.018755886
 20
4304.0027412908
 30
0.0
 40
71.89792820208106
100
AcDbArc
 50
269.9999967118
 51
0.0000018038
  0
ARC
  5
CF
330
1F
100
AcDbEntity
  8
0
  6
Continuous
 62
     7
100
AcDbCircle
 10
6184.018755886
 20
4504.0027506608
 30
0.0
 40
71.89792820208106
100
AcDbArc
 50
359.9999967118
 51
90.0000032882
  0
ARC
  5
D0
330
1F
100
AcDbEntity
  8
0
  6
Continuous
 62
     7
100
AcDbCircle
 10
5959.0187629073
 20
4504.0027497295
 30
0.0
 40
71.89792913343176
100
AcDbArc
 50
90.0000041336
 51
180.0000018039
  0
ARC
  5
D1
330
1F
100
AcDbEntity
  8
0
  6
Continuous
 62
     7
100
AcDbCircle
 10
6589.0187486962
 20
4504.0027525235
 30
0.0
 40
69.90066689392935
100
AcDbArc
 50
359.9999966178
 51
89.9999957483
  0
ARC
  5
D2
330
1F
100
AcDbEntity
  8
0
  6
Continuous
 62
     7
100
AcDbCircle
 10
6364.0187557175
 20
4504.0027497295
 30
0.0
 40
69.90066968792884
100
AcDbArc
 50
89.9999966179
 51
180.0000018554
  0
ARC
  5
D3
330
1F
100
AcDbEntity
  8
0
  6
Continuous
 62
     7
100
AcDbCircle
 10
5959.0187629073
 20
4504.0027497295
 30
0.0
 40
69.90066689393193
100
AcDbArc
 50
90.0000042517
 51
180.0000018554
  0
ARC
  5
D4
330
1F
100
AcDbEntity
  8
0
  6
Continuous
 62
     7
100
AcDbCircle
 10
6184.018755886
 20
4504.0027506608
 30
0.0
 40
69.90066596258033
100
AcDbArc
 50
359.9999966178
 51
90.0000033821
  0
ARC
  5
D5
330
1F
100
AcDbEntity
  8
0
  6
Continuous
 62
     7
100
AcDbCircle
 10
6364.0187557175
 20
4304.0027422221
 30
0.0
 40
69.90066968792884
100
AcDbArc
 50
179.9999981446
 51
270.0000033821
  0
ARC
  5
D6
330
1F
100
AcDbEntity
  8
0
  6
Continuous
 62
     7
100
AcDbCircle
 10
6589.0187486962
 20
4304.0027394281
 30
0.0
 40
69.90066689393123
100
AcDbArc
 50
270.0000042517
 51
0.000004909
  0
ARC
  5
D7
330
1F
100
AcDbEntity
  8
0
  6
Continuous
 62
     7
100
AcDbCircle
 10
6184.018755886
 20
4304.0027412908
 30
0.0
 40
69.90066596258207
100
AcDbArc
 50
269.9999966179
 51
0.0000018554
  0
ARC
  5
D8
330
1F
100
AcDbEntity
  8
0
  6
Continuous
 62
     7
100
AcDbCircle
 10
5959.0187629073
 20
4304.0027422221
 30
0.0
 40
69.90066689393193
100
AcDbArc
 50
179.9999981446
 51
269.9999957483
  0
ARC
  5
D9
330
1F
100
AcDbEntity
  8
0
  6
Continuous
 62
     7
100
AcDbCircle
 10
5841.0187529519
 20
4183.5027495521
 30
0.0
 40
2.000000000000316
100
AcDbArc
 50
180.000310775
 51
270.0001161136
  0
ARC
  5
DA
330
1F
100
AcDbEntity
  8
0
  6
Continuous
 62
     7
100
AcDbCircle
 10
6707.0187577203
 20
4183.5027495521
 30
0.0
 40
1.999999999999559
100
AcDbArc
 50
269.9998838864
 51
359.999689225
  0
ARC
  5
DB
330
1F
100
AcDbEntity
  8
0
  6
Continuous
 62
     7
100
AcDbCircle
 10
5959.0187450378
 20
4504.0027526979
 30
0.0
 40
64.6495096219636
100
AcDbArc
 50
89.9999887601
 51
180.0000046369
  0
ARC
  5
DC
330
1F
100
AcDbEntity
  8
0
  6
Continuous
 62
     7
100
AcDbCircle
 10
6184.018755886
 20
4504.0027506608
 30
0.0
 40
64.64951165907964
100
AcDbArc
 50
359.9999963431
 51
90.0000036568
  0
ARC
  5
DD
330
1F
100
AcDbEntity
  8
0
  6
Continuous
 62
     7
100
AcDbCircle
 10
6589.0187665657
 20
4504.0027517666
 30
0.0
 40
64.64950775931027
100
AcDbArc
 50
359.9999970139
 51
90.0000112399
  0
ARC
  5
DE
330
1F
100
AcDbEntity
  8
0
  6
Continuous
 62
     7
100
AcDbCircle
 10
6364.0187557175
 20
4504.0027497295
 30
0.0
 40
64.64950979642985
100
AcDbArc
 50
89.9999963432
 51
180.0000020061
  0
ARC
  5
DF
330
1F
100
AcDbEntity
  8
0
  6
Continuous
 62
     7
100
AcDbCircle
 10
6184.018755886
 20
4304.0027412908
 30
0.0
 40
64.64951165908147
100
AcDbArc
 50
269.9999963432
 51
0.0000020061
  0
ARC
  5
E0
330
1F
100
AcDbEntity
  8
0
  6
Continuous
 62
     7
100
AcDbCircle
 10
6364.0187557175
 20
4304.0027422221
 30
0.0
 40
64.64950979642985
100
AcDbArc
 50
179.9999979939
 51
270.0000036568
  0
ARC
  5
E1
330
1F
100
AcDbEntity
  8
0
  6
Continuous
 62
     7
100
AcDbCircle
 10
6589.0187665657
 20
4304.002740185
 30
0.0
 40
64.64950775931298
100
AcDbArc
 50
269.9999887601
 51
0.0000046369
  0
ARC
  5
E2
330
1F
100
AcDbEntity
  8
0
  6
Continuous
 62
     7
100
AcDbCircle
 10
5959.0187450378
 20
4304.0027392537
 30
0.0
 40
64.6495096219636
100
AcDbArc
 50
179.9999953631
 51
270.0000112399
  0
ARC
  5
E3
330
1F
100
AcDbEntity
  8
0
  6
Continuous
 62
     7
100
AcDbCircle
 10
6589.0187665657
 20
4504.0027517666
 30
0.0
 40
24.70432443751293
100
AcDbArc
 50
359.9999921856
 51
90.0000294141
  0
ARC
  5
E4
330
1F
100
AcDbEntity
  8
0
  6
Continuous
 62
     7
100
AcDbCircle
 10
5959.0187450378
 20
4504.0027526979
 30
0.0
 40
24.70432443756418
100
AcDbArc
 50
89.9999705859
 51
180.0000121345
  0
ARC
  5
E5
330
1F
100
AcDbEntity
  8
0
  6
Continuous
 62
     7
100
AcDbCircle
 10
6184.018755886
 20
4504.0027506608
 30
0.0
 40
24.70432647462929
100
AcDbArc
 50
359.9999904301
 51
90.0000095697
  0
ARC
  5
E6
330
1F
100
AcDbEntity
  8
0
  6
Continuous
 62
     7
100
AcDbCircle
 10
6364.0187557175
 20
4504.0027497295
 30
0.0
 40
24.70432647462995
100
AcDbArc
 50
89.9999904303
 51
180.0000052498
  0
ARC
  5
E7
330
1F
100
AcDbEntity
  8
0
  6
Continuous
 62
     7
100
AcDbCircle
 10
6364.0187557175
 20
4304.0027422221
 30
0.0
 40
24.70432647462995
100
AcDbArc
 50
179.9999947502
 51
270.0000095697
  0
ARC
  5
E8
330
1F
100
AcDbEntity
  8
0
  6
Continuous
 62
     7
100
AcDbCircle
 10
5959.0187450378
 20
4304.0027392537
 30
0.0
 40
24.70432443756418
100
AcDbArc
 50
179.9999878655
 51
270.0000294141
  0
ARC
  5
E9
330
1F
100
AcDbEntity
  8
0
  6
Continuous
 62
     7
100
AcDbCircle
 10
6184.018755886
 20
4304.0027412908
 30
0.0
 40
24.70432647463086
100
AcDbArc
 50
269.9999904303
 51
0.0000052498
  0
ARC
  5
EA
330
1F
100
AcDbEntity
  8
0
  6
Continuous
 62
     7
100
AcDbCircle
 10
6589.0187665657
 20
4304.002740185
 30
0.0
 40
24.70432443751413
100
AcDbArc
 50
269.9999705859
 51
0.0000121345
  0
LINE
  5
EB
330
1F
100
AcDbEntity
  8
0
  6
Continuous
 62
     7
100
AcDbLine
 10
6240.0187534884
 20
5079.9392269609
 30
0.0
 11
6246.9125410214
 21
5012.6335521845
 31
0.0
  0
LINE
  5
EC
330
1F
100
AcDbEntity
  8
0
  6
Continuous
 62
     7
100
AcDbLine
 10
6301.1249696508
 20
5012.6335521845
 30
0.0
 11
6308.0187571838
 21
5079.9392269609
 31
0.0
  0
LINE
  5
ED
330
1F
100
AcDbEntity
  8
0
  6
Continuous
 62
     7
100
AcDbLine
 10
6308.0187571838
 20
5079.9392269609
 30
0.0
 11
6305.391369541
 21
5102.4596815613
 31
0.0
  0
LINE
  5
EE
330
1F
100
AcDbEntity
  8
0
  6
Continuous
 62
     7
100
AcDbLine
 10
6242.6461411312
 20
5102.4596815613
 30
0.0
 11
6240.0187534884
 21
5079.9392269609
 31
0.0
  0
LINE
  5
EF
330
1F
100
AcDbEntity
  8
0
  6
Continuous
 62
     7
100
AcDbLine
 10
6240.0187534884
 20
5079.9392269609
 30
0.0
 11
6308.0187571838
 21
5079.9392269609
 31
0.0
  0
LINE
  5
F0
330
1F
100
AcDbEntity
  8
0
  6
Continuous
 62
     7
100
AcDbLine
 10
6249.8969269589
 20
5009.9392285255
 30
0.0
 11
6298.1405837133
 21
5009.9392285255
 31
0.0
  0
LINE
  5
F1
330
1F
100
AcDbEntity
  8
0
  6
Continuous
 62
     7
100
AcDbLine
 10
6707.0187553361
 20
5375.4596875218
 30
0.0
 11
5841.0187553361
 21
5375.4596875218
 31
0.0
  0
LINE
  5
F2
330
1F
100
AcDbEntity
  8
0
  6
Continuous
 62
     7
100
AcDbLine
 10
6707.0187577203
 20
5339.4596809653
 30
0.0
 11
6707.0187553361
 21
5375.4596875218
 31
0.0
  0
LINE
  5
F3
330
1F
100
AcDbEntity
  8
0
  6
Continuous
 62
     7
100
AcDbLine
 10
5841.0187529519
 20
5339.4596809653
 30
0.0
 11
6707.0187577203
 21
5339.4596809653
 31
0.0
  0
LINE
  5
F4
330
1F
100
AcDbEntity
  8
0
  6
Continuous
 62
     7
100
AcDbLine
 10
5841.0187553361
 20
5375.4596875218
 30
0.0
 11
5841.0187529519
 21
5339.4596809653
 31
0.0
  0
LINE
  5
F5
330
1F
100
AcDbEntity
  8
0
  6
Continuous
 62
     7
100
AcDbLine
 10
6709.0187553361
 20
5375.4596815613
 30
0.0
 11
6707.0187553361
 21
5375.4596875218
 31
0.0
  0
LINE
  5
F6
330
1F
100
AcDbEntity
  8
0
  6
Continuous
 62
     7
100
AcDbLine
 10
6707.0187536672
 20
5377.4596875218
 30
0.0
 11
6707.0187553361
 21
5375.4596875218
 31
0.0
  0
LINE
  5
F7
330
1F
100
AcDbEntity
  8
0
  6
Continuous
 62
     7
100
AcDbLine
 10
5841.0187553361
 20
5375.4596875218
 30
0.0
 11
5839.0187553361
 21
5375.4596815613
 31
0.0
  0
LINE
  5
F8
330
1F
100
AcDbEntity
  8
0
  6
Continuous
 62
     7
100
AcDbLine
 10
5841.018757005
 20
5377.4596875218
 30
0.0
 11
5841.0187553361
 21
5375.4596875218
 31
0.0
  0
LINE
  5
F9
330
1F
100
AcDbEntity
  8
0
  6
Continuous
 62
     7
100
AcDbLine
 10
6709.0187553361
 20
5375.4596815613
 30
0.0
 11
6709.0187577203
 21
5339.4596850184
 31
0.0
  0
LINE
  5
FA
330
1F
100
AcDbEntity
  8
0
  6
Continuous
 62
     7
100
AcDbLine
 10
6709.0187577203
 20
5339.4596850184
 30
0.0
 11
6707.0187577203
 21
5339.4596809653
 31
0.0
  0
LINE
  5
FB
330
1F
100
AcDbEntity
  8
0
  6
Continuous
 62
     7
100
AcDbLine
 10
5841.0187529519
 20
5339.4596809653
 30
0.0
 11
5839.0187529519
 21
5339.4596850184
 31
0.0
  0
LINE
  5
FC
330
1F
100
AcDbEntity
  8
0
  6
Continuous
 62
     7
100
AcDbLine
 10
5839.0187529519
 20
5339.4596850184
 30
0.0
 11
5839.0187553361
 21
5375.4596815613
 31
0.0
  0
LINE
  5
FD
330
1F
100
AcDbEntity
  8
0
  6
Continuous
 62
     7
100
AcDbLine
 10
5841.018757005
 20
5377.4596875218
 30
0.0
 11
6707.0187536672
 21
5377.4596875218
 31
0.0
  0
LINE
  5
FE
330
1F
100
AcDbEntity
  8
0
  6
Continuous
 62
     7
100
AcDbLine
 10
6707.0187577203
 20
5339.4596809653
 30
0.0
 11
6707.0187536672
 21
5337.4596809653
 31
0.0
  0
LINE
  5
FF
330
1F
100
AcDbEntity
  8
0
  6
Continuous
 62
     7
100
AcDbLine
 10
6707.0187536672
 20
5337.4596809653
 30
0.0
 11
5841.018757005
 21
5337.4596809653
 31
0.0
  0
LINE
  5
100
330
1F
100
AcDbEntity
  8
0
  6
Continuous
 62
     7
100
AcDbLine
 10
5841.0187529519
 20
5339.4596809653
 30
0.0
 11
5841.018757005
 21
5337.4596809653
 31
0.0
  0
LINE
  5
101
330
1F
100
AcDbEntity
  8
0
  6
Continuous
 62
     7
100
AcDbLine
 10
5846.0187481835
 20
5104.4596815613
 30
0.0
 11
5846.0187522367
 21
5102.4596815613
 31
0.0
  0
LINE
  5
102
330
1F
100
AcDbEntity
  8
0
  6
Continuous
 62
     7
100
AcDbLine
 10
5846.0187481835
 20
5104.4596815613
 30
0.0
 11
5844.0187481835
 21
5104.4596815613
 31
0.0
  0
LINE
  5
103
330
1F
100
AcDbEntity
  8
0
  6
Continuous
 62
     7
100
AcDbLine
 10
5846.0187522367
 20
5337.4596809653
 30
0.0
 11
5846.0187481835
 21
5104.4596815613
 31
0.0
  0
LINE
  5
104
330
1F
100
AcDbEntity
  8
0
  6
Continuous
 62
     7
100
AcDbLine
 10
6702.0187624887
 20
5104.4596815613
 30
0.0
 11
6702.0187584355
 21
5337.4596809653
 31
0.0
  0
LINE
  5
105
330
1F
100
AcDbEntity
  8
0
  6
Continuous
 62
     7
100
AcDbLine
 10
5846.0187481835
 20
5104.4596815613
 30
0.0
 11
6702.0187624887
 21
5104.4596815613
 31
0.0
  0
LINE
  5
106
330
1F
100
AcDbEntity
  8
0
  6
Continuous
 62
     7
100
AcDbLine
 10
6702.0187624887
 20
5104.4596815613
 30
0.0
 11
6702.0187584355
 21
5102.4596815613
 31
0.0
  0
LINE
  5
107
330
1F
100
AcDbEntity
  8
0
  6
Continuous
 62
     7
100
AcDbLine
 10
6702.0187584355
 20
5102.4596815613
 30
0.0
 11
5846.0187522367
 21
5102.4596815613
 31
0.0
  0
LINE
  5
108
330
1F
100
AcDbEntity
  8
0
  6
Continuous
 62
     7
100
AcDbLine
 10
5844.0187481835
 20
5104.4596815613
 30
0.0
 11
5844.0187481835
 21
5337.4596808703
 31
0.0
  0
LINE
  5
109
330
1F
100
AcDbEntity
  8
0
  6
Continuous
 62
     7
100
AcDbLine
 10
6704.0187624887
 20
5337.4596808703
 30
0.0
 11
6704.0187624887
 21
5104.4596815613
 31
0.0
  0
LINE
  5
10A
330
1F
100
AcDbEntity
  8
0
  6
Continuous
 62
     7
100
AcDbLine
 10
6702.0187624887
 20
5104.4596815613
 30
0.0
 11
6704.0187624887
 21
5104.4596815613
 31
0.0
  0
LINE
  5
10B
330
1F
100
AcDbEntity
  8
0
  6
Continuous
 62
     7
100
AcDbLine
 10
5841.018757005
 20
5377.4596875218
 30
0.0
 11
5841.018757005
 21
5378.4596746472
 31
0.0
  0
LINE
  5
10C
330
1F
100
AcDbEntity
  8
0
  6
Continuous
 62
     7
100
AcDbLine
 10
6707.0187536672
 20
5377.4596875218
 30
0.0
 11
6707.0187536672
 21
5378.4596746472
 31
0.0
  0
LINE
  5
10D
330
1F
100
AcDbEntity
  8
0
  6
Continuous
 62
     7
100
AcDbLine
 10
5841.018757005
 20
5378.4596746472
 30
0.0
 11
6707.0187536672
 21
5378.4596746472
 31
0.0
  0
LINE
  5
10E
330
1F
100
AcDbEntity
  8
0
  6
Continuous
 62
     7
100
AcDbLine
 10
6709.0187577203
 20
5416.7096739319
 30
0.0
 11
5839.0187529519
 21
5416.7096739319
 31
0.0
  0
LINE
  5
10F
330
1F
100
AcDbEntity
  8
0
  6
Continuous
 62
     7
100
AcDbLine
 10
6709.0187577203
 20
5416.7096739319
 30
0.0
 11
6709.0187553361
 21
5377.6957495388
 31
0.0
  0
LINE
  5
110
330
1F
100
AcDbEntity
  8
0
  6
Continuous
 62
     7
100
AcDbLine
 10
5839.0187529519
 20
5416.7096739319
 30
0.0
 11
5839.0187553361
 21
5377.6957495388
 31
0.0
  0
LINE
  5
111
330
1F
100
AcDbEntity
  8
0
  6
Continuous
 62
     7
100
AcDbLine
 10
5839.0187529519
 20
5417.4596791772
 30
0.0
 11
6709.0187577203
 21
5417.4596791772
 31
0.0
  0
LINE
  5
112
330
1F
100
AcDbEntity
  8
0
  6
Continuous
 62
     7
100
AcDbLine
 10
6709.0187577203
 20
5417.4596791772
 30
0.0
 11
6709.0187577203
 21
5416.7096739319
 31
0.0
  0
LINE
  5
113
330
1F
100
AcDbEntity
  8
0
  6
Continuous
 62
     7
100
AcDbLine
 10
5839.0187529519
 20
5416.7096739319
 30
0.0
 11
5839.0187529519
 21
5417.4596791772
 31
0.0
  0
LINE
  5
114
330
1F
100
AcDbEntity
  8
0
  6
Continuous
 62
     7
100
AcDbLine
 10
6246.9125410214
 20
5012.6335521845
 30
0.0
 11
6301.1249696508
 21
5012.6335521845
 31
0.0
  0
LINE
  5
115
330
1F
100
AcDbEntity
  8
0
  6
Continuous
 62
     7
100
AcDbLine
 10
7102.1950020282
 20
5157.9392267076
 30
0.0
 11
7102.1458281963
 21
5157.9392267076
 31
0.0
  0
LINE
  5
116
330
1F
100
AcDbEntity
  8
0
  6
Continuous
 62
     7
100
AcDbLine
 10
7102.1458281963
 20
5077.9392284957
 30
0.0
 11
7117.1458287924
 21
5077.9392284957
 31
0.0
  0
LINE
  5
117
330
1F
100
AcDbEntity
  8
0
  6
Continuous
 62
     7
100
AcDbLine
 10
7102.1458281963
 20
5137.9392271546
 30
0.0
 11
7092.1458377331
 21
5137.9392271546
 31
0.0
  0
LINE
  5
118
330
1F
100
AcDbEntity
  8
0
  6
Continuous
 62
     7
100
AcDbLine
 10
7092.1458377331
 20
5097.939227583
 30
0.0
 11
7102.1458281963
 21
5097.939227583
 31
0.0
  0
LINE
  5
119
330
1F
100
AcDbEntity
  8
0
  6
Continuous
 62
     7
100
AcDbLine
 10
7137.1458395212
 20
5097.939227583
 30
0.0
 11
7187.1950103729
 21
5097.939227583
 31
0.0
  0
LINE
  5
11A
330
1F
100
AcDbEntity
  8
0
  6
Continuous
 62
     7
100
AcDbLine
 10
7213.1950034588
 20
5079.9392269609
 30
0.0
 11
7220.0887872665
 21
5012.6335521845
 31
0.0
  0
LINE
  5
11B
330
1F
100
AcDbEntity
  8
0
  6
Continuous
 62
     7
100
AcDbLine
 10
7274.3012158959
 20
5012.6335521845
 30
0.0
 11
7281.195003429
 21
5079.9392269609
 31
0.0
  0
LINE
  5
11C
330
1F
100
AcDbEntity
  8
0
  6
Continuous
 62
     7
100
AcDbLine
 10
7281.195003429
 20
5079.9392269609
 30
0.0
 11
7278.5676157861
 21
5102.4596815613
 31
0.0
  0
LINE
  5
11D
330
1F
100
AcDbEntity
  8
0
  6
Continuous
 62
     7
100
AcDbLine
 10
7215.066105017
 20
5095.9772415144
 30
0.0
 11
7213.1950034588
 21
5079.9392269609
 31
0.0
  0
LINE
  5
11E
330
1F
100
AcDbEntity
  8
0
  6
Continuous
 62
     7
100
AcDbLine
 10
7199.1950048893
 20
5091.9392279965
 30
0.0
 11
7203.1950055449
 21
5090.4392277506
 31
0.0
  0
LINE
  5
11F
330
1F
100
AcDbEntity
  8
0
  6
Continuous
 62
     7
100
AcDbLine
 10
7190.1950015514
 20
5091.9392279965
 30
0.0
 11
7199.1950048893
 21
5091.9392279965
 31
0.0
  0
LINE
  5
120
330
1F
100
AcDbEntity
  8
0
  6
Continuous
 62
     7
100
AcDbLine
 10
7203.1950055449
 20
5095.9392277208
 30
0.0
 11
7215.0898500173
 21
5095.9392277208
 31
0.0
  0
LINE
  5
121
330
1F
100
AcDbEntity
  8
0
  6
Continuous
 62
     7
100
AcDbLine
 10
7102.1458281963
 20
5157.9392267076
 30
0.0
 11
7102.1458281963
 21
5077.9392284957
 31
0.0
  0
LINE
  5
122
330
1F
100
AcDbEntity
  8
0
  6
Continuous
 62
     7
100
AcDbLine
 10
7137.1458395212
 20
5102.4596815613
 30
0.0
 11
7137.1458395212
 21
5097.939227583
 31
0.0
  0
LINE
  5
123
330
1F
100
AcDbEntity
  8
0
  6
Continuous
 62
     7
100
AcDbLine
 10
7092.1458377331
 20
5137.9392271546
 30
0.0
 11
7092.1458377331
 21
5097.939227583
 31
0.0
  0
LINE
  5
124
330
1F
100
AcDbEntity
  8
0
  6
Continuous
 62
     7
100
AcDbLine
 10
7213.1950034588
 20
5079.9392269609
 30
0.0
 11
7281.195003429
 21
5079.9392269609
 31
0.0
  0
LINE
  5
125
330
1F
100
AcDbEntity
  8
0
  6
Continuous
 62
     7
100
AcDbLine
 10
7203.1950055449
 20
5102.4596815613
 30
0.0
 11
7203.1950055449
 21
5090.4392277506
 31
0.0
  0
LINE
  5
126
330
1F
100
AcDbEntity
  8
0
  6
Continuous
 62
     7
100
AcDbLine
 10
7199.1950048893
 20
5102.4596815613
 30
0.0
 11
7199.1950048893
 21
5091.9392279965
 31
0.0
  0
LINE
  5
127
330
1F
100
AcDbEntity
  8
0
  6
Continuous
 62
     7
100
AcDbLine
 10
7223.0731769293
 20
5009.9392285255
 30
0.0
 11
7271.3168299585
 21
5009.9392285255
 31
0.0
  0
LINE
  5
128
330
1F
100
AcDbEntity
  8
0
  6
Continuous
 62
     7
100
AcDbLine
 10
7187.1950103729
 20
5102.4596815613
 30
0.0
 11
7187.1950103729
 21
5094.9392275569
 31
0.0
  0
LINE
  5
129
330
1F
100
AcDbEntity
  8
0
  6
Continuous
 62
     7
100
AcDbLine
 10
7540.1950104921
 20
5375.4596834687
 30
0.0
 11
7104.6949996441
 21
5375.4596834687
 31
0.0
  0
LINE
  5
12A
330
1F
100
AcDbEntity
  8
0
  6
Continuous
 62
     7
100
AcDbLine
 10
7540.1950104921
 20
5339.4596850184
 30
0.0
 11
7540.1950104921
 21
5375.4596834687
 31
0.0
  0
LINE
  5
12B
330
1F
100
AcDbEntity
  8
0
  6
Continuous
 62
     7
100
AcDbLine
 10
7102.1949976176
 20
5339.4596850184
 30
0.0
 11
7540.1950104921
 21
5339.4596850184
 31
0.0
  0
LINE
  5
12C
330
1F
100
AcDbEntity
  8
0
  6
Continuous
 62
     7
100
AcDbLine
 10
7102.1949976176
 20
5416.7096739319
 30
0.0
 11
7102.1949976176
 21
5339.4596850184
 31
0.0
  0
LINE
  5
12D
330
1F
100
AcDbEntity
  8
0
  6
Continuous
 62
     7
100
AcDbLine
 10
7103.6949976175
 20
5416.7096739319
 30
0.0
 11
7103.6949976175
 21
5377.6957517174
 31
0.0
  0
LINE
  5
12E
330
1F
100
AcDbEntity
  8
0
  6
Continuous
 62
     7
100
AcDbLine
 10
7104.6949996441
 20
5377.4596875218
 30
0.0
 11
7104.6949996441
 21
5375.4596834687
 31
0.0
  0
LINE
  5
12F
330
1F
100
AcDbEntity
  8
0
  6
Continuous
 62
     7
100
AcDbLine
 10
7540.1950104921
 20
5377.4596875218
 30
0.0
 11
7540.1950104921
 21
5375.4596834687
 31
0.0
  0
LINE
  5
130
330
1F
100
AcDbEntity
  8
0
  6
Continuous
 62
     7
100
AcDbLine
 10
7104.6949996441
 20
5377.4596875218
 30
0.0
 11
7540.1950104921
 21
5377.4596875218
 31
0.0
  0
LINE
  5
131
330
1F
100
AcDbEntity
  8
0
  6
Continuous
 62
     7
100
AcDbLine
 10
7540.1950104921
 20
5339.4596850184
 30
0.0
 11
7540.1950104921
 21
5337.4596809653
 31
0.0
  0
LINE
  5
132
330
1F
100
AcDbEntity
  8
0
  6
Continuous
 62
     7
100
AcDbLine
 10
7540.1950104921
 20
5337.4596809653
 30
0.0
 11
7102.1949976176
 21
5337.4596809653
 31
0.0
  0
LINE
  5
133
330
1F
100
AcDbEntity
  8
0
  6
Continuous
 62
     7
100
AcDbLine
 10
7102.1949976176
 20
5337.4596809653
 30
0.0
 11
7102.1949976176
 21
5339.4596850184
 31
0.0
  0
LINE
  5
134
330
1F
100
AcDbEntity
  8
0
  6
Continuous
 62
     7
100
AcDbLine
 10
7542.1949996441
 20
5375.4596834687
 30
0.0
 11
7542.1949996441
 21
5339.4596850184
 31
0.0
  0
LINE
  5
135
330
1F
100
AcDbEntity
  8
0
  6
Continuous
 62
     7
100
AcDbLine
 10
7542.1949996441
 20
5339.4596850184
 30
0.0
 11
7540.1950104921
 21
5339.4596850184
 31
0.0
  0
LINE
  5
136
330
1F
100
AcDbEntity
  8
0
  6
Continuous
 62
     7
100
AcDbLine
 10
7542.1949996441
 20
5375.4596834687
 30
0.0
 11
7540.1950104921
 21
5375.4596834687
 31
0.0
  0
LINE
  5
137
330
1F
100
AcDbEntity
  8
0
  6
Continuous
 62
     7
100
AcDbLine
 10
7535.1950000018
 20
5104.4596816563
 30
0.0
 11
7535.1949959487
 21
5337.4596810603
 31
0.0
  0
LINE
  5
138
330
1F
100
AcDbEntity
  8
0
  6
Continuous
 62
     7
100
AcDbLine
 10
7104.1950016708
 20
5104.4596816563
 30
0.0
 11
7535.1950000018
 21
5104.4596816563
 31
0.0
  0
LINE
  5
139
330
1F
100
AcDbEntity
  8
0
  6
Continuous
 62
     7
100
AcDbLine
 10
7104.1950016708
 20
5337.4596809653
 30
0.0
 11
7104.1950016708
 21
5104.4596816563
 31
0.0
  0
LINE
  5
13A
330
1F
100
AcDbEntity
  8
0
  6
Continuous
 62
     7
100
AcDbLine
 10
7104.1950016708
 20
5104.4596816563
 30
0.0
 11
7103.8477003068
 21
5104.1123851818
 31
0.0
  0
LINE
  5
13B
330
1F
100
AcDbEntity
  8
0
  6
Continuous
 62
     7
100
AcDbLine
 10
7103.8477003068
 20
5104.1123851818
 30
0.0
 11
7103.5109638662
 21
5103.7756412906
 31
0.0
  0
LINE
  5
13C
330
1F
100
AcDbEntity
  8
0
  6
Continuous
 62
     7
100
AcDbLine
 10
7103.5109638662
 20
5103.7756412906
 30
0.0
 11
7103.1949996442
 21
5103.4596816088
 31
0.0
  0
LINE
  5
13D
330
1F
100
AcDbEntity
  8
0
  6
Continuous
 62
     7
100
AcDbLine
 10
7103.1949996442
 20
5103.4596816088
 30
0.0
 11
7102.9094188899
 21
5103.1741063261
 31
0.0
  0
LINE
  5
13E
330
1F
100
AcDbEntity
  8
0
  6
Continuous
 62
     7
100
AcDbLine
 10
7102.9094188899
 20
5103.1741063261
 30
0.0
 11
7102.6629089803
 21
5102.9275926621
 31
0.0
  0
LINE
  5
13F
330
1F
100
AcDbEntity
  8
0
  6
Continuous
 62
     7
100
AcDbLine
 10
7102.6629089803
 20
5102.9275926621
 30
0.0
 11
7102.4629502982
 21
5102.7276307495
 31
0.0
  0
LINE
  5
140
330
1F
100
AcDbEntity
  8
0
  6
Continuous
 62
     7
100
AcDbLine
 10
7102.4629502982
 20
5102.7276307495
 30
0.0
 11
7102.3156076164
 21
5102.5802963185
 31
0.0
  0
LINE
  5
141
330
1F
100
AcDbEntity
  8
0
  6
Continuous
 62
     7
100
AcDbLine
 10
7102.3156076164
 20
5102.5802963185
 30
0.0
 11
7102.2253810853
 21
5102.4900660549
 31
0.0
  0
LINE
  5
142
330
1F
100
AcDbEntity
  8
0
  6
Continuous
 62
     7
100
AcDbLine
 10
7102.2253810853
 20
5102.4900660549
 30
0.0
 11
7102.1949976176
 21
5102.4596815613
 31
0.0
  0
LINE
  5
143
330
1F
100
AcDbEntity
  8
0
  6
Continuous
 62
     7
100
AcDbLine
 10
7102.1949976176
 20
5102.4596815613
 30
0.0
 11
7102.1949976176
 21
5337.4596809653
 31
0.0
  0
LINE
  5
144
330
1F
100
AcDbEntity
  8
0
  6
Continuous
 62
     7
100
AcDbLine
 10
7535.1950000018
 20
5104.4596816563
 30
0.0
 11
7535.1949959487
 21
5102.4596815613
 31
0.0
  0
LINE
  5
145
330
1F
100
AcDbEntity
  8
0
  6
Continuous
 62
     7
100
AcDbLine
 10
7535.1949959487
 20
5102.4596815613
 30
0.0
 11
7102.1949976176
 21
5102.4596815613
 31
0.0
  0
LINE
  5
146
330
1F
100
AcDbEntity
  8
0
  6
Continuous
 62
     7
100
AcDbLine
 10
7537.1950000968
 20
5337.4596809653
 30
0.0
 11
7537.1950000968
 21
5104.4596816563
 31
0.0
  0
LINE
  5
147
330
1F
100
AcDbEntity
  8
0
  6
Continuous
 62
     7
100
AcDbLine
 10
7537.1950000968
 20
5104.4596816563
 30
0.0
 11
7535.1950000018
 21
5104.4596816563
 31
0.0
  0
LINE
  5
148
330
1F
100
AcDbEntity
  8
0
  6
Continuous
 62
     7
100
AcDbLine
 10
7117.1458287924
 20
5102.4596815613
 30
0.0
 11
7117.1458287924
 21
5077.9392284957
 31
0.0
  0
LINE
  5
149
330
1F
100
AcDbEntity
  8
0
  6
Continuous
 62
     7
100
AcDbLine
 10
7220.0887872665
 20
5012.6335521845
 30
0.0
 11
7274.3012158959
 21
5012.6335521845
 31
0.0
  0
LINE
  5
14A
330
1F
100
AcDbEntity
  8
0
  6
Continuous
 62
     7
100
AcDbLine
 10
7190.1950015514
 20
5102.4596815613
 30
0.0
 11
7190.1950015514
 21
5091.9392279965
 31
0.0
  0
LINE
  5
14B
330
1F
100
AcDbEntity
  8
0
  6
Continuous
 62
     7
100
AcDbLine
 10
6314.018754442
 20
4621.5027471679
 30
0.0
 11
6314.018754442
 21
4621.5519209998
 31
0.0
  0
LINE
  5
14C
330
1F
100
AcDbEntity
  8
0
  6
Continuous
 62
     7
100
AcDbLine
 10
6234.0187562302
 20
4621.5519209998
 30
0.0
 11
6234.0187562302
 21
4621.5027471679
 31
0.0
  0
LINE
  5
14D
330
1F
100
AcDbEntity
  8
0
  6
Continuous
 62
     7
100
AcDbLine
 10
6294.0187548891
 20
4621.5519209998
 30
0.0
 11
6294.0187548891
 21
4631.5519114631
 31
0.0
  0
LINE
  5
14E
330
1F
100
AcDbEntity
  8
0
  6
Continuous
 62
     7
100
AcDbLine
 10
6254.0187557831
 20
4631.5519114631
 30
0.0
 11
6254.0187557831
 21
4621.5519209998
 31
0.0
  0
LINE
  5
14F
330
1F
100
AcDbEntity
  8
0
  6
Continuous
 62
     7
100
AcDbLine
 10
6145.3434882358
 20
4470.3393777507
 30
0.0
 11
6147.7012095645
 21
4471.7006062763
 31
0.0
  0
LINE
  5
150
330
1F
100
AcDbEntity
  8
0
  6
Continuous
 62
     7
100
AcDbLine
 10
6170.336304386
 20
4471.7006062763
 30
0.0
 11
6172.6940182641
 21
4470.3393777507
 31
0.0
  0
LINE
  5
151
330
1F
100
AcDbEntity
  8
0
  6
Continuous
 62
     7
100
AcDbLine
 10
6160.5187562898
 20
4491.4275606769
 30
0.0
 11
6160.5187562898
 21
4487.9045014876
 31
0.0
  0
LINE
  5
152
330
1F
100
AcDbEntity
  8
0
  6
Continuous
 62
     7
100
AcDbLine
 10
6157.5187576607
 20
4487.9045014876
 30
0.0
 11
6157.5187576607
 21
4491.4275606769
 31
0.0
  0
LINE
  5
153
330
1F
100
AcDbEntity
  8
0
  6
Continuous
 62
     7
100
AcDbLine
 10
6375.3434924081
 20
4470.3393777507
 30
0.0
 11
6377.7012062862
 21
4471.7006062763
 31
0.0
  0
LINE
  5
154
330
1F
100
AcDbEntity
  8
0
  6
Continuous
 62
     7
100
AcDbLine
 10
6400.3363011077
 20
4471.7006062763
 30
0.0
 11
6402.6940224364
 21
4470.3393777507
 31
0.0
  0
LINE
  5
155
330
1F
100
AcDbEntity
  8
0
  6
Continuous
 62
     7
100
AcDbLine
 10
6387.5187543824
 20
4487.9045014876
 30
0.0
 11
6387.5187543824
 21
4491.4275606769
 31
0.0
  0
LINE
  5
156
330
1F
100
AcDbEntity
  8
0
  6
Continuous
 62
     7
100
AcDbLine
 10
6390.5187530115
 20
4491.4275606769
 30
0.0
 11
6390.5187530115
 21
4487.9045014876
 31
0.0
  0
LINE
  5
157
330
1F
100
AcDbEntity
  8
0
  6
Continuous
 62
     7
100
AcDbLine
 10
6389.7687553327
 20
4471.3065935531
 30
0.0
 11
6389.7687553327
 21
4481.6988983985
 31
0.0
  0
LINE
  5
158
330
1F
100
AcDbEntity
  8
0
  6
Continuous
 62
     7
100
AcDbLine
 10
6388.2687553327
 20
4481.6988983985
 30
0.0
 11
6388.2687553327
 21
4471.3065935531
 31
0.0
  0
LINE
  5
159
330
1F
100
AcDbEntity
  8
0
  6
Continuous
 62
     7
100
AcDbLine
 10
6158.2687553395
 20
4481.6988983985
 30
0.0
 11
6158.2687553395
 21
4471.3065935531
 31
0.0
  0
LINE
  5
15A
330
1F
100
AcDbEntity
  8
0
  6
Continuous
 62
     7
100
AcDbLine
 10
6159.7687553395
 20
4471.3065935531
 30
0.0
 11
6159.7687553395
 21
4481.6988983985
 31
0.0
  0
LINE
  5
15B
330
1F
100
AcDbEntity
  8
0
  6
Continuous
 62
     7
100
AcDbLine
 10
6310.967875798
 20
4621.5519209998
 30
0.0
 11
6234.0187562302
 21
4621.5519209998
 31
0.0
  0
LINE
  5
15C
330
1F
100
AcDbEntity
  8
0
  6
Continuous
 62
     7
100
AcDbLine
 10
6314.018754442
 20
4621.5519209998
 30
0.0
 11
6310.967875798
 21
4621.5519209998
 31
0.0
  0
LINE
  5
15D
330
1F
100
AcDbEntity
  8
0
  6
Continuous
 62
     7
100
AcDbLine
 10
6292.4933155671
 20
4631.5519114631
 30
0.0
 11
6254.0187557831
 21
4631.5519114631
 31
0.0
  0
LINE
  5
15E
330
1F
100
AcDbEntity
  8
0
  6
Continuous
 62
     7
100
AcDbLine
 10
6294.0187548891
 20
4631.5519114631
 30
0.0
 11
6292.4933155671
 21
4631.5519114631
 31
0.0
  0
LINE
  5
15F
330
1F
100
AcDbEntity
  8
0
  6
Continuous
 62
     7
100
AcDbLine
 10
5839.0187529519
 20
4620.7527419227
 30
0.0
 11
6709.0187577203
 21
4620.7527419227
 31
0.0
  0
LINE
  5
160
330
1F
100
AcDbEntity
  8
0
  6
Continuous
 62
     7
100
AcDbLine
 10
6709.0187577203
 20
4620.0027515786
 30
0.0
 11
5839.0187529519
 21
4620.0027515786
 31
0.0
  0
LINE
  5
161
330
1F
100
AcDbEntity
  8
0
  6
Continuous
 62
     7
100
AcDbLine
 10
6709.0187577203
 20
4620.7527419227
 30
0.0
 11
6709.0187577203
 21
4620.0027515786
 31
0.0
  0
LINE
  5
162
330
1F
100
AcDbEntity
  8
0
  6
Continuous
 62
     7
100
AcDbLine
 10
5839.0187529519
 20
4620.0027515786
 30
0.0
 11
5839.0187529519
 21
4620.7527419227
 31
0.0
  0
LINE
  5
163
330
1F
100
AcDbEntity
  8
0
  6
Continuous
 62
     7
100
AcDbLine
 10
5839.0187529519
 20
4621.5027471679
 30
0.0
 11
6709.0187577203
 21
4621.5027471679
 31
0.0
  0
LINE
  5
164
330
1F
100
AcDbEntity
  8
0
  6
Continuous
 62
     7
100
AcDbLine
 10
6709.0187577203
 20
4621.5027471679
 30
0.0
 11
6709.0187577203
 21
4620.7527419227
 31
0.0
  0
LINE
  5
165
330
1F
100
AcDbEntity
  8
0
  6
Continuous
 62
     7
100
AcDbLine
 10
5839.0187529519
 20
4620.7527419227
 30
0.0
 11
5839.0187529519
 21
4621.5027471679
 31
0.0
  0
LINE
  5
166
330
1F
100
AcDbEntity
  8
0
  6
Continuous
 62
     7
100
AcDbLine
 10
6709.0187577203
 20
4619.0027495521
 30
0.0
 11
6707.0187536672
 21
4619.0027495521
 31
0.0
  0
LINE
  5
167
330
1F
100
AcDbEntity
  8
0
  6
Continuous
 62
     7
100
AcDbLine
 10
6707.0187536672
 20
4619.0027495521
 30
0.0
 11
6707.0187536672
 21
4620.0027515786
 31
0.0
  0
LINE
  5
168
330
1F
100
AcDbEntity
  8
0
  6
Continuous
 62
     7
100
AcDbLine
 10
5841.018757005
 20
4619.0027495521
 30
0.0
 11
5841.018757005
 21
4620.0027515786
 31
0.0
  0
LINE
  5
169
330
1F
100
AcDbEntity
  8
0
  6
Continuous
 62
     7
100
AcDbLine
 10
5841.018757005
 20
4619.0027495521
 30
0.0
 11
5839.0187529519
 21
4619.0027495521
 31
0.0
  0
LINE
  5
16A
330
1F
100
AcDbEntity
  8
0
  6
Continuous
 62
     7
100
AcDbLine
 10
6707.0187536672
 20
4619.0027495521
 30
0.0
 11
5841.018757005
 21
4619.0027495521
 31
0.0
  0
LINE
  5
16B
330
1F
100
AcDbEntity
  8
0
  6
Continuous
 62
     7
100
AcDbLine
 10
5841.018757005
 20
4183.502738704
 30
0.0
 11
5839.0187529519
 21
4183.502738704
 31
0.0
  0
LINE
  5
16C
330
1F
100
AcDbEntity
  8
0
  6
Continuous
 62
     7
100
AcDbLine
 10
5841.018757005
 20
4619.0027495521
 30
0.0
 11
5841.018757005
 21
4183.502738704
 31
0.0
  0
LINE
  5
16D
330
1F
100
AcDbEntity
  8
0
  6
Continuous
 62
     7
100
AcDbLine
 10
5839.0187529519
 20
4183.502738704
 30
0.0
 11
5839.0187529519
 21
4619.0027495521
 31
0.0
  0
LINE
  5
16E
330
1F
100
AcDbEntity
  8
0
  6
Continuous
 62
     7
100
AcDbLine
 10
6292.1208256528
 20
4304.0027444857
 30
0.0
 11
6292.1208256528
 21
4504.0027474659
 31
0.0
  0
LINE
  5
16F
330
1F
100
AcDbEntity
  8
0
  6
Continuous
 62
     7
100
AcDbLine
 10
6589.0187538832
 20
4232.1048121574
 30
0.0
 11
6364.0187598437
 21
4232.1048121574
 31
0.0
  0
LINE
  5
170
330
1F
100
AcDbEntity
  8
0
  6
Continuous
 62
     7
100
AcDbLine
 10
6660.9166759669
 20
4504.0027483972
 30
0.0
 11
6660.9166759669
 21
4304.002745417
 31
0.0
  0
LINE
  5
171
330
1F
100
AcDbEntity
  8
0
  6
Continuous
 62
     7
100
AcDbLine
 10
6364.0187598437
 20
4575.9006797942
 30
0.0
 11
6589.0187538832
 21
4575.9006797942
 31
0.0
  0
LINE
  5
172
330
1F
100
AcDbEntity
  8
0
  6
Continuous
 62
     7
100
AcDbLine
 10
5841.018757005
 20
4183.502738704
 30
0.0
 11
6707.0187536672
 21
4183.502738704
 31
0.0
  0
LINE
  5
173
330
1F
100
AcDbEntity
  8
0
  6
Continuous
 62
     7
100
AcDbLine
 10
6707.0187536672
 20
4183.502738704
 30
0.0
 11
6707.0187536672
 21
4619.0027495521
 31
0.0
  0
LINE
  5
174
330
1F
100
AcDbEntity
  8
0
  6
Continuous
 62
     7
100
AcDbLine
 10
6184.0187517598
 20
4232.1048130887
 30
0.0
 11
5959.0187577203
 21
4232.1048130887
 31
0.0
  0
LINE
  5
175
330
1F
100
AcDbEntity
  8
0
  6
Continuous
 62
     7
100
AcDbLine
 10
6255.916684088
 20
4504.0027465346
 30
0.0
 11
6255.916684088
 21
4304.0027435543
 31
0.0
  0
LINE
  5
176
330
1F
100
AcDbEntity
  8
0
  6
Continuous
 62
     7
100
AcDbLine
 10
5959.0187577203
 20
4575.9006788629
 30
0.0
 11
6184.0187517598
 21
4575.9006788629
 31
0.0
  0
LINE
  5
177
330
1F
100
AcDbEntity
  8
0
  6
Continuous
 62
     7
100
AcDbLine
 10
5887.1208337739
 20
4304.0027444857
 30
0.0
 11
5887.1208337739
 21
4504.0027474659
 31
0.0
  0
LINE
  5
178
330
1F
100
AcDbEntity
  8
0
  6
Continuous
 62
     7
100
AcDbLine
 10
6709.0187577203
 20
4183.502738704
 30
0.0
 11
6707.0187536672
 21
4183.502738704
 31
0.0
  0
LINE
  5
179
330
1F
100
AcDbEntity
  8
0
  6
Continuous
 62
     7
100
AcDbLine
 10
6709.0187577203
 20
4619.0027495521
 30
0.0
 11
6709.0187577203
 21
4183.502738704
 31
0.0
  0
LINE
  5
17A
330
1F
100
AcDbEntity
  8
0
  6
Continuous
 62
     7
100
AcDbLine
 10
6589.0187538832
 20
4575.9006797942
 30
0.0
 11
6589.0187538832
 21
4573.9034194174
 31
0.0
  0
LINE
  5
17B
330
1F
100
AcDbEntity
  8
0
  6
Continuous
 62
     7
100
AcDbLine
 10
6658.9194155901
 20
4504.0027483972
 30
0.0
 11
6660.9166759669
 21
4504.0027483972
 31
0.0
  0
LINE
  5
17C
330
1F
100
AcDbEntity
  8
0
  6
Continuous
 62
     7
100
AcDbLine
 10
6364.0187598437
 20
4575.9006797942
 30
0.0
 11
6364.0187598437
 21
4573.9034194174
 31
0.0
  0
LINE
  5
17D
330
1F
100
AcDbEntity
  8
0
  6
Continuous
 62
     7
100
AcDbLine
 10
6292.1208256528
 20
4504.0027474659
 30
0.0
 11
6294.1180860296
 21
4504.0027474659
 31
0.0
  0
LINE
  5
17E
330
1F
100
AcDbEntity
  8
0
  6
Continuous
 62
     7
100
AcDbLine
 10
5959.0187577203
 20
4573.9034166234
 30
0.0
 11
5959.0187577203
 21
4575.9006788629
 31
0.0
  0
LINE
  5
17F
330
1F
100
AcDbEntity
  8
0
  6
Continuous
 62
     7
100
AcDbLine
 10
5887.1208337739
 20
4504.0027474659
 30
0.0
 11
5889.1180960134
 21
4504.0027474659
 31
0.0
  0
LINE
  5
180
330
1F
100
AcDbEntity
  8
0
  6
Continuous
 62
     7
100
AcDbLine
 10
6184.0187517598
 20
4573.9034166234
 30
0.0
 11
6184.0187517598
 21
4575.9006788629
 31
0.0
  0
LINE
  5
181
330
1F
100
AcDbEntity
  8
0
  6
Continuous
 62
     7
100
AcDbLine
 10
6253.9194218486
 20
4504.0027465346
 30
0.0
 11
6255.916684088
 21
4504.0027465346
 31
0.0
  0
LINE
  5
182
330
1F
100
AcDbEntity
  8
0
  6
Continuous
 62
     7
100
AcDbLine
 10
6184.0187517598
 20
4573.9034166234
 30
0.0
 11
5959.0187577203
 21
4573.9034166234
 31
0.0
  0
LINE
  5
183
330
1F
100
AcDbEntity
  8
0
  6
Continuous
 62
     7
100
AcDbLine
 10
6589.0187538832
 20
4573.9034194174
 30
0.0
 11
6364.0187598437
 21
4573.9034194174
 31
0.0
  0
LINE
  5
184
330
1F
100
AcDbEntity
  8
0
  6
Continuous
 62
     7
100
AcDbLine
 10
6658.9194155901
 20
4304.002745417
 30
0.0
 11
6658.9194155901
 21
4504.0027483972
 31
0.0
  0
LINE
  5
185
330
1F
100
AcDbEntity
  8
0
  6
Continuous
 62
     7
100
AcDbLine
 10
6658.9194155901
 20
4304.002745417
 30
0.0
 11
6660.9166759669
 21
4304.002745417
 31
0.0
  0
LINE
  5
186
330
1F
100
AcDbEntity
  8
0
  6
Continuous
 62
     7
100
AcDbLine
 10
6253.9194218486
 20
4304.0027435543
 30
0.0
 11
6253.9194218486
 21
4504.0027465346
 31
0.0
  0
LINE
  5
187
330
1F
100
AcDbEntity
  8
0
  6
Continuous
 62
     7
100
AcDbLine
 10
6253.9194218486
 20
4304.0027435543
 30
0.0
 11
6255.916684088
 21
4304.0027435543
 31
0.0
  0
LINE
  5
188
330
1F
100
AcDbEntity
  8
0
  6
Continuous
 62
     7
100
AcDbLine
 10
6294.1180860296
 20
4504.0027474659
 30
0.0
 11
6294.1180860296
 21
4304.0027444857
 31
0.0
  0
LINE
  5
189
330
1F
100
AcDbEntity
  8
0
  6
Continuous
 62
     7
100
AcDbLine
 10
6292.1208256528
 20
4304.0027444857
 30
0.0
 11
6294.1180860296
 21
4304.0027444857
 31
0.0
  0
LINE
  5
18A
330
1F
100
AcDbEntity
  8
0
  6
Continuous
 62
     7
100
AcDbLine
 10
5889.1180960134
 20
4504.0027474659
 30
0.0
 11
5889.1180960134
 21
4304.0027444857
 31
0.0
  0
LINE
  5
18B
330
1F
100
AcDbEntity
  8
0
  6
Continuous
 62
     7
100
AcDbLine
 10
5887.1208337739
 20
4304.0027444857
 30
0.0
 11
5889.1180960134
 21
4304.0027444857
 31
0.0
  0
LINE
  5
18C
330
1F
100
AcDbEntity
  8
0
  6
Continuous
 62
     7
100
AcDbLine
 10
6364.0187598437
 20
4234.1020725342
 30
0.0
 11
6364.0187598437
 21
4232.1048121574
 31
0.0
  0
LINE
  5
18D
330
1F
100
AcDbEntity
  8
0
  6
Continuous
 62
     7
100
AcDbLine
 10
6589.0187538832
 20
4234.1020725342
 30
0.0
 11
6589.0187538832
 21
4232.1048121574
 31
0.0
  0
LINE
  5
18E
330
1F
100
AcDbEntity
  8
0
  6
Continuous
 62
     7
100
AcDbLine
 10
6184.0187517598
 20
4232.1048130887
 30
0.0
 11
6184.0187517598
 21
4234.1020753282
 31
0.0
  0
LINE
  5
18F
330
1F
100
AcDbEntity
  8
0
  6
Continuous
 62
     7
100
AcDbLine
 10
5959.0187577203
 20
4232.1048130887
 30
0.0
 11
5959.0187577203
 21
4234.1020753282
 31
0.0
  0
LINE
  5
190
330
1F
100
AcDbEntity
  8
0
  6
Continuous
 62
     7
100
AcDbLine
 10
6364.0187598437
 20
4234.1020725342
 30
0.0
 11
6589.0187538832
 21
4234.1020725342
 31
0.0
  0
LINE
  5
191
330
1F
100
AcDbEntity
  8
0
  6
Continuous
 62
     7
100
AcDbLine
 10
5959.0187577203
 20
4234.1020753282
 30
0.0
 11
6184.0187517598
 21
4234.1020753282
 31
0.0
  0
LINE
  5
192
330
1F
100
AcDbEntity
  8
0
  6
Continuous
 62
     7
100
AcDbLine
 10
6707.0187536672
 20
4183.502738704
 30
0.0
 11
6707.0187536672
 21
4181.5027495521
 31
0.0
  0
LINE
  5
193
330
1F
100
AcDbEntity
  8
0
  6
Continuous
 62
     7
100
AcDbLine
 10
6707.0187536672
 20
4181.5027495521
 30
0.0
 11
5841.018757005
 21
4181.5027495521
 31
0.0
  0
LINE
  5
194
330
1F
100
AcDbEntity
  8
0
  6
Continuous
 62
     7
100
AcDbLine
 10
5841.018757005
 20
4183.502738704
 30
0.0
 11
5841.018757005
 21
4181.5027495521
 31
0.0
  0
LINE
  5
195
330
1F
100
AcDbEntity
  8
0
  6
Continuous
 62
     7
100
AcDbLine
 10
5894.3692354158
 20
4504.0027474659
 30
0.0
 11
5889.1180960134
 21
4504.0027474659
 31
0.0
  0
LINE
  5
196
330
1F
100
AcDbEntity
  8
0
  6
Continuous
 62
     7
100
AcDbLine
 10
5959.0187577203
 20
4568.6522623199
 30
0.0
 11
5959.0187577203
 21
4573.9034166234
 31
0.0
  0
LINE
  5
197
330
1F
100
AcDbEntity
  8
0
  6
Continuous
 62
     7
100
AcDbLine
 10
6184.0187517598
 20
4568.6522623199
 30
0.0
 11
6184.0187517598
 21
4573.9034166234
 31
0.0
  0
LINE
  5
198
330
1F
100
AcDbEntity
  8
0
  6
Continuous
 62
     7
100
AcDbLine
 10
6248.668267545
 20
4504.0027465346
 30
0.0
 11
6253.9194218486
 21
4504.0027465346
 31
0.0
  0
LINE
  5
199
330
1F
100
AcDbEntity
  8
0
  6
Continuous
 62
     7
100
AcDbLine
 10
6589.0187538832
 20
4568.6522595259
 30
0.0
 11
6589.0187538832
 21
4573.9034194174
 31
0.0
  0
LINE
  5
19A
330
1F
100
AcDbEntity
  8
0
  6
Continuous
 62
     7
100
AcDbLine
 10
6653.668274325
 20
4504.0027483972
 30
0.0
 11
6658.9194155901
 21
4504.0027483972
 31
0.0
  0
LINE
  5
19B
330
1F
100
AcDbEntity
  8
0
  6
Continuous
 62
     7
100
AcDbLine
 10
6299.3692459211
 20
4504.0027474659
 30
0.0
 11
6294.1180860296
 21
4504.0027474659
 31
0.0
  0
LINE
  5
19C
330
1F
100
AcDbEntity
  8
0
  6
Continuous
 62
     7
100
AcDbLine
 10
6364.0187598437
 20
4568.6522595259
 30
0.0
 11
6364.0187598437
 21
4573.9034194174
 31
0.0
  0
LINE
  5
19D
330
1F
100
AcDbEntity
  8
0
  6
Continuous
 62
     7
100
AcDbLine
 10
5959.0187577203
 20
4568.6522623199
 30
0.0
 11
6184.0187517598
 21
4568.6522623199
 31
0.0
  0
LINE
  5
19E
330
1F
100
AcDbEntity
  8
0
  6
Continuous
 62
     7
100
AcDbLine
 10
6364.0187598437
 20
4568.6522595259
 30
0.0
 11
6589.0187538832
 21
4568.6522595259
 31
0.0
  0
LINE
  5
19F
330
1F
100
AcDbEntity
  8
0
  6
Continuous
 62
     7
100
AcDbLine
 10
5894.3692354158
 20
4304.0027444857
 30
0.0
 11
5894.3692354158
 21
4504.0027474659
 31
0.0
  0
LINE
  5
1A0
330
1F
100
AcDbEntity
  8
0
  6
Continuous
 62
     7
100
AcDbLine
 10
5894.3692354158
 20
4304.0027444857
 30
0.0
 11
5889.1180960134
 21
4304.0027444857
 31
0.0
  0
LINE
  5
1A1
330
1F
100
AcDbEntity
  8
0
  6
Continuous
 62
     7
100
AcDbLine
 10
6299.3692459211
 20
4304.0027444857
 30
0.0
 11
6299.3692459211
 21
4504.0027474659
 31
0.0
  0
LINE
  5
1A2
330
1F
100
AcDbEntity
  8
0
  6
Continuous
 62
     7
100
AcDbLine
 10
6299.3692459211
 20
4304.0027444857
 30
0.0
 11
6294.1180860296
 21
4304.0027444857
 31
0.0
  0
LINE
  5
1A3
330
1F
100
AcDbEntity
  8
0
  6
Continuous
 62
     7
100
AcDbLine
 10
6248.668267545
 20
4504.0027465346
 30
0.0
 11
6248.668267545
 21
4304.0027435543
 31
0.0
  0
LINE
  5
1A4
330
1F
100
AcDbEntity
  8
0
  6
Continuous
 62
     7
100
AcDbLine
 10
6248.668267545
 20
4304.0027435543
 30
0.0
 11
6253.9194218486
 21
4304.0027435543
 31
0.0
  0
LINE
  5
1A5
330
1F
100
AcDbEntity
  8
0
  6
Continuous
 62
     7
100
AcDbLine
 10
6653.668274325
 20
4504.0027483972
 30
0.0
 11
6653.668274325
 21
4304.002745417
 31
0.0
  0
LINE
  5
1A6
330
1F
100
AcDbEntity
  8
0
  6
Continuous
 62
     7
100
AcDbLine
 10
6653.668274325
 20
4304.002745417
 30
0.0
 11
6658.9194155901
 21
4304.002745417
 31
0.0
  0
LINE
  5
1A7
330
1F
100
AcDbEntity
  8
0
  6
Continuous
 62
     7
100
AcDbLine
 10
6184.0187517598
 20
4239.3532296317
 30
0.0
 11
6184.0187517598
 21
4234.1020753282
 31
0.0
  0
LINE
  5
1A8
330
1F
100
AcDbEntity
  8
0
  6
Continuous
 62
     7
100
AcDbLine
 10
6364.0187598437
 20
4239.3532324257
 30
0.0
 11
6364.0187598437
 21
4234.1020725342
 31
0.0
  0
LINE
  5
1A9
330
1F
100
AcDbEntity
  8
0
  6
Continuous
 62
     7
100
AcDbLine
 10
6589.0187538832
 20
4239.3532324257
 30
0.0
 11
6589.0187538832
 21
4234.1020725342
 31
0.0
  0
LINE
  5
1AA
330
1F
100
AcDbEntity
  8
0
  6
Continuous
 62
     7
100
AcDbLine
 10
5959.0187577203
 20
4239.3532296317
 30
0.0
 11
5959.0187577203
 21
4234.1020753282
 31
0.0
  0
LINE
  5
1AB
330
1F
100
AcDbEntity
  8
0
  6
Continuous
 62
     7
100
AcDbLine
 10
6184.0187517598
 20
4239.3532296317
 30
0.0
 11
5959.0187577203
 21
4239.3532296317
 31
0.0
  0
LINE
  5
1AC
330
1F
100
AcDbEntity
  8
0
  6
Continuous
 62
     7
100
AcDbLine
 10
6589.0187538832
 20
4239.3532324257
 30
0.0
 11
6364.0187598437
 21
4239.3532324257
 31
0.0
  0
LINE
  5
1AD
330
1F
100
AcDbEntity
  8
0
  6
Continuous
 62
     7
100
AcDbLine
 10
6589.0187538832
 20
4528.7070762041
 30
0.0
 11
6364.0187598437
 21
4528.7070762041
 31
0.0
  0
LINE
  5
1AE
330
1F
100
AcDbEntity
  8
0
  6
Continuous
 62
     7
100
AcDbLine
 10
6364.0187598437
 20
4568.6522595259
 30
0.0
 11
6364.0187598437
 21
4528.7070762041
 31
0.0
  0
LINE
  5
1AF
330
1F
100
AcDbEntity
  8
0
  6
Continuous
 62
     7
100
AcDbLine
 10
6589.0187538832
 20
4528.7070762041
 30
0.0
 11
6589.0187538832
 21
4568.6522595259
 31
0.0
  0
LINE
  5
1B0
330
1F
100
AcDbEntity
  8
0
  6
Continuous
 62
     7
100
AcDbLine
 10
6613.7230910033
 20
4504.0027483972
 30
0.0
 11
6653.668274325
 21
4504.0027483972
 31
0.0
  0
LINE
  5
1B1
330
1F
100
AcDbEntity
  8
0
  6
Continuous
 62
     7
100
AcDbLine
 10
6184.0187517598
 20
4528.7070771354
 30
0.0
 11
6184.0187517598
 21
4568.6522623199
 31
0.0
  0
LINE
  5
1B2
330
1F
100
AcDbEntity
  8
0
  6
Continuous
 62
     7
100
AcDbLine
 10
6184.0187517598
 20
4528.7070771354
 30
0.0
 11
5959.0187577203
 21
4528.7070771354
 31
0.0
  0
LINE
  5
1B3
330
1F
100
AcDbEntity
  8
0
  6
Continuous
 62
     7
100
AcDbLine
 10
5959.0187577203
 20
4568.6522623199
 30
0.0
 11
5959.0187577203
 21
4528.7070771354
 31
0.0
  0
LINE
  5
1B4
330
1F
100
AcDbEntity
  8
0
  6
Continuous
 62
     7
100
AcDbLine
 10
5894.3692354158
 20
4504.0027474659
 30
0.0
 11
5934.3144206002
 21
4504.0027474659
 31
0.0
  0
LINE
  5
1B5
330
1F
100
AcDbEntity
  8
0
  6
Continuous
 62
     7
100
AcDbLine
 10
6208.7230823606
 20
4504.0027465346
 30
0.0
 11
6248.668267545
 21
4504.0027465346
 31
0.0
  0
LINE
  5
1B6
330
1F
100
AcDbEntity
  8
0
  6
Continuous
 62
     7
100
AcDbLine
 10
6299.3692459211
 20
4504.0027474659
 30
0.0
 11
6339.3144292429
 21
4504.0027474659
 31
0.0
  0
LINE
  5
1B7
330
1F
100
AcDbEntity
  8
0
  6
Continuous
 62
     7
100
AcDbLine
 10
6208.7230823606
 20
4304.0027435543
 30
0.0
 11
6208.7230823606
 21
4504.0027465346
 31
0.0
  0
LINE
  5
1B8
330
1F
100
AcDbEntity
  8
0
  6
Continuous
 62
     7
100
AcDbLine
 10
6208.7230823606
 20
4304.0027435543
 30
0.0
 11
6248.668267545
 21
4304.0027435543
 31
0.0
  0
LINE
  5
1B9
330
1F
100
AcDbEntity
  8
0
  6
Continuous
 62
     7
100
AcDbLine
 10
5934.3144206002
 20
4504.0027474659
 30
0.0
 11
5934.3144206002
 21
4304.0027444857
 31
0.0
  0
LINE
  5
1BA
330
1F
100
AcDbEntity
  8
0
  6
Continuous
 62
     7
100
AcDbLine
 10
5894.3692354158
 20
4304.0027444857
 30
0.0
 11
5934.3144206002
 21
4304.0027444857
 31
0.0
  0
LINE
  5
1BB
330
1F
100
AcDbEntity
  8
0
  6
Continuous
 62
     7
100
AcDbLine
 10
6339.3144292429
 20
4504.0027474659
 30
0.0
 11
6339.3144292429
 21
4304.0027444857
 31
0.0
  0
LINE
  5
1BC
330
1F
100
AcDbEntity
  8
0
  6
Continuous
 62
     7
100
AcDbLine
 10
6299.3692459211
 20
4304.0027444857
 30
0.0
 11
6339.3144292429
 21
4304.0027444857
 31
0.0
  0
LINE
  5
1BD
330
1F
100
AcDbEntity
  8
0
  6
Continuous
 62
     7
100
AcDbLine
 10
6613.7230910033
 20
4304.002745417
 30
0.0
 11
6613.7230910033
 21
4504.0027483972
 31
0.0
  0
LINE
  5
1BE
330
1F
100
AcDbEntity
  8
0
  6
Continuous
 62
     7
100
AcDbLine
 10
6613.7230910033
 20
4304.002745417
 30
0.0
 11
6653.668274325
 21
4304.002745417
 31
0.0
  0
LINE
  5
1BF
330
1F
100
AcDbEntity
  8
0
  6
Continuous
 62
     7
100
AcDbLine
 10
6364.0187598437
 20
4239.3532324257
 30
0.0
 11
6364.0187598437
 21
4279.2984157475
 31
0.0
  0
LINE
  5
1C0
330
1F
100
AcDbEntity
  8
0
  6
Continuous
 62
     7
100
AcDbLine
 10
5959.0187577203
 20
4239.3532296317
 30
0.0
 11
5959.0187577203
 21
4279.2984148162
 31
0.0
  0
LINE
  5
1C1
330
1F
100
AcDbEntity
  8
0
  6
Continuous
 62
     7
100
AcDbLine
 10
6184.0187517598
 20
4279.2984148162
 30
0.0
 11
6184.0187517598
 21
4239.3532296317
 31
0.0
  0
LINE
  5
1C2
330
1F
100
AcDbEntity
  8
0
  6
Continuous
 62
     7
100
AcDbLine
 10
6589.0187538832
 20
4279.2984157475
 30
0.0
 11
6589.0187538832
 21
4239.3532324257
 31
0.0
  0
LINE
  5
1C3
330
1F
100
AcDbEntity
  8
0
  6
Continuous
 62
     7
100
AcDbLine
 10
6364.0187598437
 20
4279.2984157475
 30
0.0
 11
6589.0187538832
 21
4279.2984157475
 31
0.0
  0
LINE
  5
1C4
330
1F
100
AcDbEntity
  8
0
  6
Continuous
 62
     7
100
AcDbLine
 10
5959.0187577203
 20
4279.2984148162
 30
0.0
 11
6184.0187517598
 21
4279.2984148162
 31
0.0
  0
LINE
  5
1C5
330
1F
100
AcDbEntity
  8
0
  6
Continuous
 62
     7
100
AcDbLine
 10
6159.0187532499
 20
4496.0027461546
 30
0.0
 11
6159.0187532499
 21
4488.0027448433
 31
0.0
  0
LINE
  5
1C6
330
1F
100
AcDbEntity
  8
0
  6
Continuous
 62
     7
100
AcDbLine
 10
6389.0187574223
 20
4496.0027461546
 30
0.0
 11
6389.0187574223
 21
4488.0027448433
 31
0.0
  0
LWPOLYLINE
  5
1C7
330
1F
100
AcDbEntity
  8
0
  6
Continuous
 62
     7
100
AcDbPolyline
 90
        3
 70
   128
 43
0.0
 10
5839.0159606934
 20
5377.6957495388
 10
5839.0187553361
 20
5376.3733228586
 10
5839.0187553361
 20
5375.4596815613
  0
LWPOLYLINE
  5
1C8
330
1F
100
AcDbEntity
  8
0
  6
Continuous
 62
     7
100
AcDbPolyline
 90
        3
 70
   128
 43
0.0
 10
6709.0187072754
 20
5377.6957495388
 10
6709.0187553361
 20
5376.3733228586
 10
6709.0187553361
 20
5375.4596815613
  0
LWPOLYLINE
  5
1C9
330
1F
100
AcDbEntity
  8
0
  6
Continuous
 62
     7
100
AcDbPolyline
 90
       12
 70
   128
 43
0.0
 10
7219.9859619141
 20
5102.4596815613
 10
7215.4392116312
 20
5096.4120927059
 10
7215.0685291221
 20
5095.9477470149
 10
7215.0655157171
 20
5095.9440014822
 10
7215.0652796698
 20
5095.9437122969
 10
7215.0652782663
 20
5095.9437107999
 10
7215.0652777336
 20
5095.9437103897
 10
7215.0652780724
 20
5095.9437110673
 10
7215.0652792836
 20
5095.9437128336
 10
7215.0653621227
 20
5095.9438192731
 10
7215.0669758263
 20
5095.9458451452
 10
7215.0898798197
 20
5095.9744675701
  0
LWPOLYLINE
  5
1CA
330
1F
100
AcDbEntity
  8
0
  6
Continuous
 62
     7
100
AcDbPolyline
 90
        3
 70
   128
 43
0.0
 10
7103.6949157715
 20
5377.6957517174
 10
7104.0965685246
 20
5376.3733228619
 10
7104.6949996441
 20
5375.4596834687
  0
LWPOLYLINE
  5
1CB
330
1F
100
AcDbEntity
  8
0
  6
Continuous
 62
     7
100
AcDbPolyline
 90
        3
 70
   128
 43
0.0
 10
6709.0187072754
 20
4620.0027515786
 10
6709.0187557977
 20
4619.8285797806
 10
6709.0187553361
 20
4619.6713083991
  0
LWPOLYLINE
  5
1CC
330
1F
100
AcDbEntity
  8
0
  6
Continuous
 62
     7
100
AcDbPolyline
 90
        3
 70
   128
 43
0.0
 10
6709.0187072754
 20
4619.6713083991
 10
6709.0187557548
 20
4619.3149372398
 10
6709.0187577203
 20
4619.0027495521
  0
LWPOLYLINE
  5
1CD
330
1F
100
AcDbEntity
  8
0
  6
Continuous
 62
     7
100
AcDbPolyline
 90
        3
 70
   128
 43
0.0
 10
5839.0159606934
 20
4620.0027515786
 10
5839.0187548745
 20
4619.8285797806
 10
5839.0187553361
 20
4619.6713083991
  0
LWPOLYLINE
  5
1CE
330
1F
100
AcDbEntity
  8
0
  6
Continuous
 62
     7
100
AcDbPolyline
 90
        3
 70
   128
 43
0.0
 10
5839.0159606934
 20
4619.6713083991
 10
5839.0187549174
 20
4619.3149372398
 10
5839.0187529519
 20
4619.0027495521
  0
ENDSEC
  0
SECTION
  2
OBJECTS
  0
DICTIONARY
  5
C
330
0
100
AcDbDictionary
281
     1
  3
ACAD_GROUP
350
D
  3
ACAD_LAYOUT
350
1A
  3
ACAD_MLINESTYLE
350
17
  3
ACAD_PLOTSETTINGS
350
19
  3
ACAD_PLOTSTYLENAME
350
E
  3
ACAD_SCALELIST
350
47
  3
DWGPROPS
350
1CF
  0
DICTIONARY
  5
D
102
{ACAD_REACTORS
330
C
102
}
330
C
100
AcDbDictionary
281
     1
  0
DICTIONARY
  5
1A
102
{ACAD_REACTORS
330
C
102
}
330
C
100
AcDbDictionary
281
     1
  3
Layout1
350
1E
  3
Layout2
350
26
  3
Model
350
22
  0
DICTIONARY
  5
17
102
{ACAD_REACTORS
330
C
102
}
330
C
100
AcDbDictionary
281
     1
  3
Standard
350
18
  0
DICTIONARY
  5
19
102
{ACAD_REACTORS
330
C
102
}
330
C
100
AcDbDictionary
281
     1
  0
ACDBDICTIONARYWDFLT
  5
E
102
{ACAD_REACTORS
330
C
102
}
330
C
100
AcDbDictionary
281
     1
  3
Normal
350
F
100
AcDbDictionaryWithDefault
340
F
  0
DICTIONARY
  5
47
102
{ACAD_REACTORS
330
C
102
}
330
C
100
AcDbDictionary
281
     1
  3
A0
350
48
  3
A1
350
49
  3
A2
350
4A
  3
A3
350
4B
  3
A4
350
4C
  3
A5
350
4D
  3
A6
350
4E
  3
A7
350
4F
  3
A8
350
50
  3
A9
350
51
  3
B0
350
52
  3
B1
350
53
  3
B2
350
54
  3
B3
350
55
  3
B4
350
56
  3
B5
350
57
  3
B6
350
58
  3
B7
350
59
  3
B8
350
5A
  3
B9
350
5B
  3
C0
350
5C
  3
C1
350
5D
  3
C2
350
5E
  3
C3
350
5F
  3
C4
350
60
  3
C5
350
61
  3
C6
350
62
  3
C7
350
63
  3
C8
350
64
  3
C9
350
65
  3
D0
350
66
  3
D1
350
67
  3
D2
350
68
  0
XRECORD
  5
1CF
102
{ACAD_REACTORS
330
C
102
}
330
C
100
AcDbXrecord
280
     1
  1
DWGPROPS COOKIE
  2

  3

  4

  6

  7

  8
radek.stransky
  9

300
=
301
=
302
=
303
=
304
=
305
=
306
=
307
=
308
=
309
=
 40
0.0
 41
2459096.315446505
 42
2459096.315475012
  1

 90
        0
  0
LAYOUT
  5
1E
102
{ACAD_REACTORS
330
1A
102
}
330
1A
100
AcDbPlotSettings
  1

  2
none_device
  4

  6

 40
0.0
 41
0.0
 42
0.0
 43
0.0
 44
0.0
 45
0.0
 46
0.0
 47
0.0
 48
0.0
 49
0.0
140
0.0
141
0.0
142
1.0
143
1.0
 70
   688
 72
     1
 73
     0
 74
     5
  7

 75
    16
147
1.0
148
0.0
149
0.0
100
AcDbLayout
  1
Layout1
 70
     1
 71
     1
 10
0.0
 20
0.0
 11
420.0
 21
297.0
 12
0.0
 22
0.0
 32
0.0
 14
1.0000000000E+20
 24
1.0000000000E+20
 34
1.0000000000E+20
 15
-1.0000000000E+20
 25
-1.0000000000E+20
 35
-1.0000000000E+20
146
0.0
 13
0.0
 23
0.0
 33
0.0
 16
1.0
 26
0.0
 36
0.0
 17
0.0
 27
1.0
 37
0.0
 76
     0
330
1B
  0
LAYOUT
  5
26
102
{ACAD_REACTORS
330
1A
102
}
330
1A
100
AcDbPlotSettings
  1

  2
none_device
  4

  6

 40
0.0
 41
0.0
 42
0.0
 43
0.0
 44
0.0
 45
0.0
 46
0.0
 47
0.0
 48
0.0
 49
0.0
140
0.0
141
0.0
142
1.0
143
1.0
 70
   688
 72
     1
 73
     0
 74
     5
  7

 75
    16
147
1.0
148
0.0
149
0.0
100
AcDbLayout
  1
Layout2
 70
     1
 71
     2
 10
0.0
 20
0.0
 11
0.0
 21
0.0
 12
0.0
 22
0.0
 32
0.0
 14
0.0
 24
0.0
 34
0.0
 15
0.0
 25
0.0
 35
0.0
146
0.0
 13
0.0
 23
0.0
 33
0.0
 16
1.0
 26
0.0
 36
0.0
 17
0.0
 27
1.0
 37
0.0
 76
     0
330
23
  0
LAYOUT
  5
22
102
{ACAD_REACTORS
330
1A
102
}
330
1A
100
AcDbPlotSettings
  1

  2
none_device
  4
ANSI_A_(11.00_x_8.50_Inches)
  6

 40
6.35
 41
19.05
 42
6.35000508
 43
19.05000254
 44
279.4
 45
215.9
 46
-953.2425316423
 47
-690.5631526766
 48
0.0
 49
0.0
140
0.0
141
0.0
142
0.0063939256
143
1.0
 70
  1696
 72
     0
 73
     0
 74
     0
  7

 75
     0
147
0.0179189148
148
-1300.4909072572
149
0.0
100
AcDbLayout
  1
Model
 70
     1
 71
     0
 10
0.0
 20
0.0
 11
420.0
 21
297.0
 12
0.0
 22
0.0
 32
0.0
 14
5839.0159606934
 24
4181.5027495521
 34
0.0
 15
7542.1949996441
 25
5417.4596815613
 35
0.0
146
0.0
 13
0.0
 23
0.0
 33
0.0
 16
1.0
 26
0.0
 36
0.0
 17
0.0
 27
1.0
 37
0.0
 76
     0
330
1F
331
29
  0
MLINESTYLE
  5
18
102
{ACAD_REACTORS
330
17
102
}
330
17
100
AcDbMlineStyle
  2
Standard
 70
     0
  3

 62
   256
 51
90.0
 52
90.0
 71
     2
 49
0.5
 62
   256
  6
BYLAYER
 49
-0.5
 62
   256
  6
BYLAYER
  0
ACDBPLACEHOLDER
  5
F
102
{ACAD_REACTORS
330
E
102
}
330
E
  0
SCALE
  5
48
102
{ACAD_REACTORS
330
47
102
}
330
47
100
AcDbScale
 70
     0
300
1:1
140
1.0
141
1.0
290
     1
  0
SCALE
  5
49
102
{ACAD_REACTORS
330
47
102
}
330
47
100
AcDbScale
 70
     0
300
1:2
140
1.0
141
2.0
290
     0
  0
SCALE
  5
4A
102
{ACAD_REACTORS
330
47
102
}
330
47
100
AcDbScale
 70
     0
300
1:4
140
1.0
141
4.0
290
     0
  0
SCALE
  5
4B
102
{ACAD_REACTORS
330
47
102
}
330
47
100
AcDbScale
 70
     0
300
1:5
140
1.0
141
5.0
290
     0
  0
SCALE
  5
4C
102
{ACAD_REACTORS
330
47
102
}
330
47
100
AcDbScale
 70
     0
300
1:8
140
1.0
141
8.0
290
     0
  0
SCALE
  5
4D
102
{ACAD_REACTORS
330
47
102
}
330
47
100
AcDbScale
 70
     0
300
1:10
140
1.0
141
10.0
290
     0
  0
SCALE
  5
4E
102
{ACAD_REACTORS
330
47
102
}
330
47
100
AcDbScale
 70
     0
300
1:16
140
1.0
141
16.0
290
     0
  0
SCALE
  5
4F
102
{ACAD_REACTORS
330
47
102
}
330
47
100
AcDbScale
 70
     0
300
1:20
140
1.0
141
20.0
290
     0
  0
SCALE
  5
50
102
{ACAD_REACTORS
330
47
102
}
330
47
100
AcDbScale
 70
     0
300
1:30
140
1.0
141
30.0
290
     0
  0
SCALE
  5
51
102
{ACAD_REACTORS
330
47
102
}
330
47
100
AcDbScale
 70
     0
300
1:40
140
1.0
141
40.0
290
     0
  0
SCALE
  5
52
102
{ACAD_REACTORS
330
47
102
}
330
47
100
AcDbScale
 70
     0
300
1:50
140
1.0
141
50.0
290
     0
  0
SCALE
  5
53
102
{ACAD_REACTORS
330
47
102
}
330
47
100
AcDbScale
 70
     0
300
1:100
140
1.0
141
100.0
290
     0
  0
SCALE
  5
54
102
{ACAD_REACTORS
330
47
102
}
330
47
100
AcDbScale
 70
     0
300
2:1
140
2.0
141
1.0
290
     0
  0
SCALE
  5
55
102
{ACAD_REACTORS
330
47
102
}
330
47
100
AcDbScale
 70
     0
300
4:1
140
4.0
141
1.0
290
     0
  0
SCALE
  5
56
102
{ACAD_REACTORS
330
47
102
}
330
47
100
AcDbScale
 70
     0
300
8:1
140
8.0
141
1.0
290
     0
  0
SCALE
  5
57
102
{ACAD_REACTORS
330
47
102
}
330
47
100
AcDbScale
 70
     0
300
10:1
140
10.0
141
1.0
290
     0
  0
SCALE
  5
58
102
{ACAD_REACTORS
330
47
102
}
330
47
100
AcDbScale
 70
     0
300
100:1
140
100.0
141
1.0
290
     0
  0
SCALE
  5
59
102
{ACAD_REACTORS
330
47
102
}
330
47
100
AcDbScale
 70
     0
300
1/128" = 1'-0"
140
0.0078125
141
12.0
290
     0
  0
SCALE
  5
5A
102
{ACAD_REACTORS
330
47
102
}
330
47
100
AcDbScale
 70
     0
300
1/64" = 1'-0"
140
0.015625
141
12.0
290
     0
  0
SCALE
  5
5B
102
{ACAD_REACTORS
330
47
102
}
330
47
100
AcDbScale
 70
     0
300
1/32" = 1'-0"
140
0.03125
141
12.0
290
     0
  0
SCALE
  5
5C
102
{ACAD_REACTORS
330
47
102
}
330
47
100
AcDbScale
 70
     0
300
1/16" = 1'-0"
140
0.0625
141
12.0
290
     0
  0
SCALE
  5
5D
102
{ACAD_REACTORS
330
47
102
}
330
47
100
AcDbScale
 70
     0
300
3/32" = 1'-0"
140
0.09375
141
12.0
290
     0
  0
SCALE
  5
5E
102
{ACAD_REACTORS
330
47
102
}
330
47
100
AcDbScale
 70
     0
300
1/8" = 1'-0"
140
0.125
141
12.0
290
     0
  0
SCALE
  5
5F
102
{ACAD_REACTORS
330
47
102
}
330
47
100
AcDbScale
 70
     0
300
3/16" = 1'-0"
140
0.1875
141
12.0
290
     0
  0
SCALE
  5
60
102
{ACAD_REACTORS
330
47
102
}
330
47
100
AcDbScale
 70
     0
300
1/4" = 1'-0"
140
0.25
141
12.0
290
     0
  0
SCALE
  5
61
102
{ACAD_REACTORS
330
47
102
}
330
47
100
AcDbScale
 70
     0
300
3/8" = 1'-0"
140
0.375
141
12.0
290
     0
  0
SCALE
  5
62
102
{ACAD_REACTORS
330
47
102
}
330
47
100
AcDbScale
 70
     0
300
1/2" = 1'-0"
140
0.5
141
12.0
290
     0
  0
SCALE
  5
63
102
{ACAD_REACTORS
330
47
102
}
330
47
100
AcDbScale
 70
     0
300
3/4" = 1'-0"
140
0.75
141
12.0
290
     0
  0
SCALE
  5
64
102
{ACAD_REACTORS
330
47
102
}
330
47
100
AcDbScale
 70
     0
300
1" = 1'-0"
140
1.0
141
12.0
290
     0
  0
SCALE
  5
65
102
{ACAD_REACTORS
330
47
102
}
330
47
100
AcDbScale
 70
     0
300
1-1/2" = 1'-0"
140
1.5
141
12.0
290
     0
  0
SCALE
  5
66
102
{ACAD_REACTORS
330
47
102
}
330
47
100
AcDbScale
 70
     0
300
3" = 1'-0"
140
3.0
141
12.0
290
     0
  0
SCALE
  5
67
102
{ACAD_REACTORS
330
47
102
}
330
47
100
AcDbScale
 70
     0
300
6" = 1'-0"
140
6.0
141
12.0
290
     0
  0
SCALE
  5
68
102
{ACAD_REACTORS
330
47
102
}
330
47
100
AcDbScale
 70
     0
300
1'-0" = 1'-0"
140
12.0
141
12.0
290
     0
  0
ENDSEC
  0
EOF
