  0
SECTION
  2
HEADER
  9
$ACADVER
  1
AC1015
  9
$ACADMAINTVER
 70
     6
  9
$DWGCODEPAGE
  3
ANSI_1250
  9
$INSBASE
 10
0.0
 20
0.0
 30
0.0
  9
$EXTMIN
 10
0.0
 20
0.0
 30
0.0
  9
$EXTMAX
 10
20000.0
 20
10000.0
 30
0.0
  9
$LIMMIN
 10
0.0
 20
0.0
  9
$LIMMAX
 10
20000.0
 20
10000.0
  9
$ORTHOMODE
 70
     0
  9
$REGENMODE
 70
     1
  9
$FILLMODE
 70
     1
  9
$QTEXTMODE
 70
     0
  9
$MIRRTEXT
 70
     1
  9
$LTSCALE
 40
1.0
  9
$ATTMODE
 70
     1
  9
$TEXTSIZE
 40
2.0
  9
$TRACEWID
 40
1.0
  9
$TEXTSTYLE
  7
Standard
  9
$CLAYER
  8
0
  9
$CELTYPE
  6
ByLayer
  9
$CECOLOR
 62
   256
  9
$CELTSCALE
 40
1.0
  9
$DISPSILH
 70
     0
  9
$DIMSCALE
 40
1.0
  9
$DIMASZ
 40
2.0
  9
$DIMEXO
 40
1.0
  9
$DIMDLI
 40
3.75
  9
$DIMRND
 40
0.0
  9
$DIMDLE
 40
0.0
  9
$DIMEXE
 40
1.0
  9
$DIMTP
 40
0.0
  9
$DIMTM
 40
0.0
  9
$DIMTXT
 40
2.0
  9
$DIMCEN
 40
2.5
  9
$DIMTSZ
 40
0.0
  9
$DIMTOL
 70
     0
  9
$DIMLIM
 70
     0
  9
$DIMTIH
 70
     1
  9
$DIMTOH
 70
     1
  9
$DIMSE1
 70
     0
  9
$DIMSE2
 70
     0
  9
$DIMTAD
 70
     1
  9
$DIMZIN
 70
     0
  9
$DIMBLK
  1

  9
$DIMASO
 70
     1
  9
$DIMSHO
 70
     1
  9
$DIMPOST
  1

  9
$DIMAPOST
  1

  9
$DIMALT
 70
     0
  9
$DIMALTD
 70
     3
  9
$DIMALTF
 40
0.0393700787
  9
$DIMLFAC
 40
1.0
  9
$DIMTOFL
 70
     1
  9
$DIMTVP
 40
0.0
  9
$DIMTIX
 70
     0
  9
$DIMSOXD
 70
     0
  9
$DIMSAH
 70
     0
  9
$DIMBLK1
  1

  9
$DIMBLK2
  1

  9
$DIMSTYLE
  2
ISO-25
  9
$DIMCLRD
 70
     0
  9
$DIMCLRE
 70
     0
  9
$DIMCLRT
 70
     0
  9
$DIMTFAC
 40
1.0
  9
$DIMGAP
 40
1.524
  9
$DIMJUST
 70
     0
  9
$DIMSD1
 70
     0
  9
$DIMSD2
 70
     0
  9
$DIMTOLJ
 70
     0
  9
$DIMTZIN
 70
     0
  9
$DIMALTZ
 70
     0
  9
$DIMALTTZ
 70
     0
  9
$DIMUPT
 70
     0
  9
$DIMDEC
 70
     2
  9
$DIMTDEC
 70
     0
  9
$DIMALTU
 70
     2
  9
$DIMALTTD
 70
     3
  9
$DIMTXSTY
  7
Standard
  9
$DIMAUNIT
 70
     0
  9
$DIMADEC
 70
     2
  9
$DIMALTRND
 40
0.0
  9
$DIMAZIN
 70
     0
  9
$DIMDSEP
 70
    44
  9
$DIMATFIT
 70
     3
  9
$DIMFRAC
 70
     0
  9
$DIMLDRBLK
  1

  9
$DIMLUNIT
 70
     2
  9
$DIMLWD
 70
    -2
  9
$DIMLWE
 70
    -2
  9
$DIMTMOVE
 70
     0
  9
$LUNITS
 70
     2
  9
$LUPREC
 70
     3
  9
$SKETCHINC
 40
1.0
  9
$FILLETRAD
 40
10.0
  9
$AUNITS
 70
     0
  9
$AUPREC
 70
     2
  9
$MENU
  1
.
  9
$ELEVATION
 40
0.0
  9
$PELEVATION
 40
0.0
  9
$THICKNESS
 40
0.0
  9
$LIMCHECK
 70
     0
  9
$CHAMFERA
 40
0.0
  9
$CHAMFERB
 40
0.0
  9
$CHAMFERC
 40
0.0
  9
$CHAMFERD
 40
0.0
  9
$SKPOLY
 70
     0
  9
$TDCREATE
 40
2458674.335829525
  9
$TDUCREATE
 40
2458674.252496192
  9
$TDUPDATE
 40
2458674.335829699
  9
$TDUUPDATE
 40
2458674.252496366
  9
$TDINDWG
 40
0.0000000116
  9
$TDUSRTIMER
 40
0.0000000116
  9
$USRTIMER
 70
     1
  9
$ANGBASE
 50
0.0
  9
$ANGDIR
 70
     0
  9
$PDMODE
 70
     0
  9
$PDSIZE
 40
-1.0
  9
$PLINEWID
 40
0.0
  9
$SPLFRAME
 70
     0
  9
$SPLINETYPE
 70
     6
  9
$SPLINESEGS
 70
     8
  9
$HANDSEED
  5
240
  9
$SURFTAB1
 70
     6
  9
$SURFTAB2
 70
     6
  9
$SURFTYPE
 70
     6
  9
$SURFU
 70
     6
  9
$SURFV
 70
     6
  9
$UCSBASE
  2

  9
$UCSNAME
  2

  9
$UCSORG
 10
0.0
 20
0.0
 30
0.0
  9
$UCSXDIR
 10
1.0
 20
0.0
 30
0.0
  9
$UCSYDIR
 10
0.0
 20
1.0
 30
0.0
  9
$UCSORTHOREF
  2

  9
$UCSORTHOVIEW
 70
     0
  9
$UCSORGTOP
 10
0.0
 20
0.0
 30
0.0
  9
$UCSORGBOTTOM
 10
0.0
 20
0.0
 30
0.0
  9
$UCSORGLEFT
 10
0.0
 20
0.0
 30
0.0
  9
$UCSORGRIGHT
 10
0.0
 20
0.0
 30
0.0
  9
$UCSORGFRONT
 10
0.0
 20
0.0
 30
0.0
  9
$UCSORGBACK
 10
0.0
 20
0.0
 30
0.0
  9
$PUCSBASE
  2

  9
$PUCSNAME
  2

  9
$PUCSORG
 10
0.0
 20
0.0
 30
0.0
  9
$PUCSXDIR
 10
1.0
 20
0.0
 30
0.0
  9
$PUCSYDIR
 10
0.0
 20
1.0
 30
0.0
  9
$PUCSORTHOREF
  2

  9
$PUCSORTHOVIEW
 70
     0
  9
$PUCSORGTOP
 10
0.0
 20
0.0
 30
0.0
  9
$PUCSORGBOTTOM
 10
0.0
 20
0.0
 30
0.0
  9
$PUCSORGLEFT
 10
0.0
 20
0.0
 30
0.0
  9
$PUCSORGRIGHT
 10
0.0
 20
0.0
 30
0.0
  9
$PUCSORGFRONT
 10
0.0
 20
0.0
 30
0.0
  9
$PUCSORGBACK
 10
0.0
 20
0.0
 30
0.0
  9
$USERI1
 70
     0
  9
$USERI2
 70
     0
  9
$USERI3
 70
     0
  9
$USERI4
 70
     0
  9
$USERI5
 70
     0
  9
$USERR1
 40
0.0
  9
$USERR2
 40
0.0
  9
$USERR3
 40
0.0
  9
$USERR4
 40
0.0
  9
$USERR5
 40
0.0
  9
$WORLDVIEW
 70
     1
  9
$SHADEDGE
 70
     3
  9
$SHADEDIF
 70
    70
  9
$TILEMODE
 70
     1
  9
$MAXACTVP
 70
    64
  9
$PINSBASE
 10
0.0
 20
0.0
 30
0.0
  9
$PLIMCHECK
 70
     0
  9
$PEXTMIN
 10
1.0000000000E+20
 20
1.0000000000E+20
 30
1.0000000000E+20
  9
$PEXTMAX
 10
-1.0000000000E+20
 20
-1.0000000000E+20
 30
-1.0000000000E+20
  9
$PLIMMIN
 10
0.0
 20
0.0
  9
$PLIMMAX
 10
420.0
 20
297.0
  9
$UNITMODE
 70
     0
  9
$VISRETAIN
 70
     1
  9
$PLINEGEN
 70
     0
  9
$PSLTSCALE
 70
     1
  9
$TREEDEPTH
 70
  3020
  9
$CMLSTYLE
  2
Standard
  9
$CMLJUST
 70
     0
  9
$CMLSCALE
 40
20.0
  9
$PROXYGRAPHICS
 70
     1
  9
$MEASUREMENT
 70
     1
  9
$CELWEIGHT
370
    -1
  9
$ENDCAPS
280
     0
  9
$JOINSTYLE
280
     0
  9
$LWDISPLAY
290
     1
  9
$INSUNITS
 70
     4
  9
$HYPERLINKBASE
  1

  9
$STYLESHEET
  1

  9
$XEDIT
290
     1
  9
$CEPSNTYPE
380
     0
  9
$PSTYLEMODE
290
     1
  9
$FINGERPRINTGUID
  2
{B4AC97F8-28F5-4320-BDD8-C829D1ED0AA1}
  9
$VERSIONGUID
  2
{FAEB1C32-E019-11D5-929B-00C0DF256EC4}
  9
$EXTNAMES
290
     1
  9
$PSVPSCALE
 40
0.0
  9
$OLESTARTUP
290
     0
  0
ENDSEC
  0
SECTION
  2
CLASSES
  0
CLASS
  1
ACDBDICTIONARYWDFLT
  2
AcDbDictionaryWithDefault
  3
ObjectDBX Classes
 90
        0
280
     0
281
     0
  0
CLASS
  1
VISUALSTYLE
  2
AcDbVisualStyle
  3
ObjectDBX Classes
 90
     4095
280
     0
281
     0
  0
CLASS
  1
MATERIAL
  2
AcDbMaterial
  3
ObjectDBX Classes
 90
     1153
280
     0
281
     0
  0
CLASS
  1
SCALE
  2
AcDbScale
  3
ObjectDBX Classes
 90
     1153
280
     0
281
     0
  0
CLASS
  1
TABLESTYLE
  2
AcDbTableStyle
  3
ObjectDBX Classes
 90
     4095
280
     0
281
     0
  0
CLASS
  1
MLEADERSTYLE
  2
AcDbMLeaderStyle
  3
ACDB_MLEADERSTYLE_CLASS
 90
     4095
280
     0
281
     0
  0
CLASS
  1
SUN
  2
AcDbSun
  3
SCENEOE
 90
     1153
280
     0
281
     0
  0
CLASS
  1
ACDBPLACEHOLDER
  2
AcDbPlaceHolder
  3
ObjectDBX Classes
 90
        0
280
     0
281
     0
  0
CLASS
  1
LAYOUT
  2
AcDbLayout
  3
ObjectDBX Classes
 90
        0
280
     0
281
     0
  0
ENDSEC
  0
SECTION
  2
TABLES
  0
TABLE
  2
VPORT
  5
8
330
0
100
AcDbSymbolTable
 70
     1
  0
VPORT
  5
29
330
8
100
AcDbSymbolTableRecord
100
AcDbViewportTableRecord
  2
*Active
 70
     0
 10
0.0
 20
0.0
 11
1.0
 21
1.0
 12
10000.0
 22
5000.0
 13
0.0
 23
0.0
 14
10.0
 24
10.0
 15
10.0
 25
10.0
 16
0.0
 26
0.0
 36
1.0
 17
0.0
 27
0.0
 37
0.0
 40
10000.0
 41
2.0
 42
50.0
 43
0.0
 44
0.0
 50
0.0
 51
0.0
 71
     0
 72
  2000
 73
     1
 74
     3
 75
     0
 76
     0
 77
     0
 78
     0
281
     0
 65
     1
110
0.0
120
0.0
130
0.0
111
1.0
121
0.0
131
0.0
112
0.0
122
1.0
132
0.0
 79
     0
146
0.0
  0
ENDTAB
  0
TABLE
  2
LTYPE
  5
5
330
0
100
AcDbSymbolTable
 70
     6
  0
LTYPE
  5
14
330
5
100
AcDbSymbolTableRecord
100
AcDbLinetypeTableRecord
  2
ByBlock
 70
     0
  3

 72
    65
 73
     0
 40
0.0
  0
LTYPE
  5
15
330
5
100
AcDbSymbolTableRecord
100
AcDbLinetypeTableRecord
  2
ByLayer
 70
     0
  3

 72
    65
 73
     0
 40
0.0
  0
LTYPE
  5
16
330
5
100
AcDbSymbolTableRecord
100
AcDbLinetypeTableRecord
  2
Continuous
 70
     0
  3
Solid line
 72
    65
 73
     0
 40
0.0
  0
LTYPE
  5
6E
330
5
100
AcDbSymbolTableRecord
100
AcDbLinetypeTableRecord
  2
HIDDEN
 70
     0
  3
Hidden __ __ __ __ __ __ __ __ __ __ __ __ __ __
 72
    65
 73
     2
 40
1.905
 49
1.27
 74
     0
 49
-0.635
 74
     0
  0
LTYPE
  5
6F
330
5
100
AcDbSymbolTableRecord
100
AcDbLinetypeTableRecord
  2
PHANTOM
 70
     0
  3
Phantom ______  __  __  ______  __  __  ______
 72
    65
 73
     6
 40
12.7
 49
6.35
 74
     0
 49
-1.27
 74
     0
 49
1.27
 74
     0
 49
-1.27
 74
     0
 49
1.27
 74
     0
 49
-1.27
 74
     0
  0
LTYPE
  5
70
330
5
100
AcDbSymbolTableRecord
100
AcDbLinetypeTableRecord
  2
CENTER
 70
     0
  3
Center ____ _ ____ _ ____ _ ____ _ ____ _ ____
 72
    65
 73
     4
 40
10.16
 49
6.35
 74
     0
 49
-1.27
 74
     0
 49
1.27
 74
     0
 49
-1.27
 74
     0
  0
LTYPE
  5
71
330
5
100
AcDbSymbolTableRecord
100
AcDbLinetypeTableRecord
  2
CENTERX2
 70
     0
  3
Center (2x) ________  __  ________  __  _____
 72
    65
 73
     4
 40
20.32
 49
12.7
 74
     0
 49
-2.54
 74
     0
 49
2.54
 74
     0
 49
-2.54
 74
     0
  0
LTYPE
  5
72
330
5
100
AcDbSymbolTableRecord
100
AcDbLinetypeTableRecord
  2
DOT2
 70
     0
  3
Dot (.5x) ........................................
 72
    65
 73
     2
 40
0.635
 49
0.0
 74
     0
 49
-0.635
 74
     0
  0
ENDTAB
  0
TABLE
  2
LAYER
  5
2
330
0
100
AcDbSymbolTable
 70
    13
  0
LAYER
  5
10
330
2
100
AcDbSymbolTableRecord
100
AcDbLayerTableRecord
  2
0
 70
     0
 62
     7
  6
Continuous
370
    -3
390
F
  0
LAYER
  5
73
330
2
100
AcDbSymbolTableRecord
100
AcDbLayerTableRecord
  2
FORMAT
 70
     0
 62
     7
  6
Continuous
370
    -3
390
F
  0
LAYER
  5
74
330
2
100
AcDbSymbolTableRecord
100
AcDbLayerTableRecord
  2
OSA
 70
     0
 62
     7
  6
CENTER
370
    -3
390
F
  0
LAYER
  5
75
330
2
100
AcDbSymbolTableRecord
100
AcDbLayerTableRecord
  2
0_35
 70
     0
 62
     7
  6
Continuous
370
    35
390
F
  0
LAYER
  5
76
330
2
100
AcDbSymbolTableRecord
100
AcDbLayerTableRecord
  2
0_5
 70
     0
 62
     7
  6
Continuous
370
    50
390
F
  0
LAYER
  5
77
330
2
100
AcDbSymbolTableRecord
100
AcDbLayerTableRecord
  2
0_25
 70
     0
 62
     7
  6
Continuous
370
    25
390
F
  0
LAYER
  5
78
330
2
100
AcDbSymbolTableRecord
100
AcDbLayerTableRecord
  2
0_18
 70
     0
 62
     7
  6
Continuous
370
    -3
390
F
  0
LAYER
  5
79
330
2
100
AcDbSymbolTableRecord
100
AcDbLayerTableRecord
  2
SLD-0
 70
     0
 62
   179
  6
Continuous
370
    -3
390
F
  0
LAYER
  5
7A
330
2
100
AcDbSymbolTableRecord
100
AcDbLayerTableRecord
  2
KOTY
 70
     0
 62
     7
  6
Continuous
370
    -3
390
F
  0
LAYER
  5
7B
330
2
100
AcDbSymbolTableRecord
100
AcDbLayerTableRecord
  2
SILNA
 70
     0
 62
   179
  6
Continuous
370
    -3
390
F
  0
LAYER
  5
7C
330
2
100
AcDbSymbolTableRecord
100
AcDbLayerTableRecord
  2
0_18_1
 70
     0
 62
   179
  6
Continuous
370
    -3
390
F
  0
LAYER
  5
7D
330
2
100
AcDbSymbolTableRecord
100
AcDbLayerTableRecord
  2
0_35_1
 70
     0
 62
   179
  6
Continuous
370
    35
390
F
  0
LAYER
  5
7E
330
2
100
AcDbSymbolTableRecord
100
AcDbLayerTableRecord
  2
0_5_1
 70
     0
 62
   179
  6
Continuous
370
    50
390
F
  0
ENDTAB
  0
TABLE
  2
STYLE
  5
3
330
0
100
AcDbSymbolTable
 70
     1
  0
STYLE
  5
11
330
3
100
AcDbSymbolTableRecord
100
AcDbTextStyleTableRecord
  2
Standard
 70
     0
 40
0.0
 41
1.0
 50
0.0
 71
     0
 42
2.0
  3
txt
  4

  0
ENDTAB
  0
TABLE
  2
VIEW
  5
6
330
0
100
AcDbSymbolTable
 70
     0
  0
ENDTAB
  0
TABLE
  2
UCS
  5
7
330
0
100
AcDbSymbolTable
 70
     0
  0
ENDTAB
  0
TABLE
  2
APPID
  5
9
330
0
100
AcDbSymbolTable
 70
     1
  0
APPID
  5
12
330
9
100
AcDbSymbolTableRecord
100
AcDbRegAppTableRecord
  2
ACAD
 70
     0
  0
ENDTAB
  0
TABLE
  2
DIMSTYLE
  5
A
330
0
100
AcDbSymbolTable
 70
     1
100
AcDbDimStyleTable
  0
DIMSTYLE
105
27
330
A
100
AcDbSymbolTableRecord
100
AcDbDimStyleTableRecord
  2
ISO-25
 70
     0
 41
2.5
 42
0.625
 43
3.75
 44
1.25
 73
     0
 74
     0
 77
     1
 78
     8
140
2.5
141
2.5
143
0.0393700787
147
0.625
171
     3
172
     1
178
     0
271
     2
272
     2
274
     3
278
    44
283
     0
284
     8
340
11
  0
ENDTAB
  0
TABLE
  2
BLOCK_RECORD
  5
1
330
0
100
AcDbSymbolTable
 70
     1
  0
BLOCK_RECORD
  5
1F
330
1
100
AcDbSymbolTableRecord
100
AcDbBlockTableRecord
  2
*Model_Space
340
22
  0
BLOCK_RECORD
  5
1B
330
1
100
AcDbSymbolTableRecord
100
AcDbBlockTableRecord
  2
*Paper_Space
340
1E
  0
BLOCK_RECORD
  5
23
330
1
100
AcDbSymbolTableRecord
100
AcDbBlockTableRecord
  2
*Paper_Space0
340
26
  0
ENDTAB
  0
ENDSEC
  0
SECTION
  2
BLOCKS
  0
BLOCK
  5
20
330
1F
100
AcDbEntity
  8
0
100
AcDbBlockBegin
  2
*Model_Space
 70
     0
 10
0.0
 20
0.0
 30
0.0
  3
*Model_Space
  1

  0
ENDBLK
  5
21
330
1F
100
AcDbEntity
  8
0
100
AcDbBlockEnd
  0
BLOCK
  5
1C
330
1B
100
AcDbEntity
 67
     1
  8
0
100
AcDbBlockBegin
  2
*Paper_Space
 70
     0
 10
0.0
 20
0.0
 30
0.0
  3
*Paper_Space
  1

  0
ENDBLK
  5
1D
330
1B
100
AcDbEntity
 67
     1
  8
0
100
AcDbBlockEnd
  0
BLOCK
  5
24
330
23
100
AcDbEntity
  8
0
100
AcDbBlockBegin
  2
*Paper_Space0
 70
     0
 10
0.0
 20
0.0
 30
0.0
  3
*Paper_Space0
  1

  0
ENDBLK
  5
25
330
23
100
AcDbEntity
  8
0
100
AcDbBlockEnd
  0
ENDSEC
  0
SECTION
  2
ENTITIES
  0
LINE
  5
7F
330
1F
100
AcDbEntity
  8
0
  6
Continuous
 62
     7
370
    25
100
AcDbLine
 10
6364.7367940143
 20
5048.9300273324
 30
0.0
 11
6364.7367940143
 21
5108.452931788
 31
0.0
  0
LINE
  5
80
330
1F
100
AcDbEntity
  8
0
  6
Continuous
 62
     7
370
    25
100
AcDbLine
 10
6314.7367969945
 20
5108.452931788
 30
0.0
 11
6314.7367969945
 21
5048.9300273324
 31
0.0
  0
ARC
  5
81
330
1F
100
AcDbEntity
  8
0
  6
Continuous
 62
     7
370
    25
100
AcDbCircle
 10
6339.7367927676
 20
5048.9300284325
 30
0.0
 40
25.0
100
AcDbArc
 50
285.8623945939
 51
0.0
  0
ARC
  5
82
330
1F
100
AcDbEntity
  8
0
  6
Continuous
 62
     7
370
    25
100
AcDbCircle
 10
6339.7367927676
 20
5048.9300284325
 30
0.0
 40
25.0
100
AcDbArc
 50
180.0
 51
254.4944543565
  0
LINE
  5
83
330
1F
100
AcDbEntity
  8
0
  6
Continuous
 62
     7
370
    25
100
AcDbLine
 10
6372.2367943123
 20
5005.8450184727
 30
0.0
 11
6372.2367943123
 21
5020.8450190688
 31
0.0
  0
LINE
  5
84
330
1F
100
AcDbEntity
  8
0
  6
Continuous
 62
     7
370
    25
100
AcDbLine
 10
6307.2367892459
 20
5020.8450190688
 30
0.0
 11
6307.2367892459
 21
5005.8450184727
 31
0.0
  0
ARC
  5
85
330
1F
100
AcDbEntity
  8
0
  6
Continuous
 62
     7
370
    25
100
AcDbCircle
 10
6339.7367927676
 20
5078.9459773974
 30
0.0
 40
80.00000000000027
100
AcDbArc
 50
246.0305176822
 51
293.9694823178
  0
LINE
  5
86
330
1F
100
AcDbEntity
  8
0
  6
Continuous
 62
     7
370
    25
100
AcDbLine
 10
6367.7367926434
 20
5020.8450190688
 30
0.0
 11
6367.7367926434
 21
5108.452931788
 31
0.0
  0
LINE
  5
87
330
1F
100
AcDbEntity
  8
0
  6
Continuous
 62
     7
370
    25
100
AcDbLine
 10
6311.7367909148
 20
5108.452931788
 30
0.0
 11
6311.7367909148
 21
5020.8450190688
 31
0.0
  0
SPLINE
  5
88
330
1F
100
AcDbEntity
  8
0
  6
Continuous
 62
     7
370
    25
100
AcDbSpline
210
0.0
220
0.0
230
1.0
 70
     8
 71
     3
 72
    12
 73
     8
 74
     0
 42
0.000000001
 43
0.00000001
 40
0.0
 40
0.0
 40
0.0
 40
0.0
 40
0.1734273290765447
 40
0.4413560822877314
 40
0.6736851300495532
 40
0.9129990467634244
 40
1.0
 40
1.0
 40
1.0
 40
1.0
 10
6333.069405038649
 20
5024.894081797671
 30
0.0
 10
6333.819114254356
 20
5024.686522436663
 30
0.0
 10
6335.72705300923
 20
5024.158303574593
 30
0.0
 10
6338.845427981741
 20
5023.889448989192
 30
0.0
 10
6342.247017954272
 20
5024.012178524098
 30
0.0
 10
6344.801338427287
 20
5024.369054652184
 30
0.0
 10
6346.185045697628
 20
5024.809201091453
 30
0.0
 10
6346.553964991862
 20
5024.926551427912
 30
0.0
  0
LINE
  5
89
330
1F
100
AcDbEntity
  8
0
  6
Continuous
 62
     7
370
    25
100
AcDbLine
 10
6339.7367955044
 20
5005.8450184727
 30
0.0
 11
6307.2367892459
 21
5005.8450184727
 31
0.0
  0
LINE
  5
8A
330
1F
100
AcDbEntity
  8
0
  6
Continuous
 62
     7
370
    25
100
AcDbLine
 10
6372.2367943123
 20
5005.8450184727
 30
0.0
 11
6339.7367955044
 21
5005.8450184727
 31
0.0
  0
LINE
  5
8B
330
1F
100
AcDbEntity
  8
0
  6
Continuous
 62
     7
370
    25
100
AcDbLine
 10
6339.7367955044
 20
5020.8450190688
 30
0.0
 11
6307.2367892459
 21
5020.8450190688
 31
0.0
  0
LINE
  5
8C
330
1F
100
AcDbEntity
  8
0
  6
Continuous
 62
     7
370
    25
100
AcDbLine
 10
6372.2367943123
 20
5020.8450190688
 30
0.0
 11
6339.7367955044
 21
5020.8450190688
 31
0.0
  0
LINE
  5
8D
330
1F
100
AcDbEntity
  8
0
  6
Continuous
 62
     7
370
    25
100
AcDbLine
 10
6454.0187553361
 20
5408.452943709
 30
0.0
 11
6452.5187553231
 21
5408.452943709
 31
0.0
  0
LINE
  5
8E
330
1F
100
AcDbEntity
  8
0
  6
Continuous
 62
     7
370
    25
100
AcDbLine
 10
6454.0187553361
 20
5358.452931788
 30
0.0
 11
6454.0187553361
 21
5408.452943709
 31
0.0
  0
LINE
  5
8F
330
1F
100
AcDbEntity
  8
0
  6
Continuous
 62
     7
370
    25
100
AcDbLine
 10
6305.5446282819
 20
5358.452931788
 30
0.0
 11
6454.0187553361
 21
5358.452931788
 31
0.0
  0
LINE
  5
90
330
1F
100
AcDbEntity
  8
0
  6
Continuous
 62
     7
370
    25
100
AcDbLine
 10
6305.5446282819
 20
5358.452931788
 30
0.0
 11
6305.5446282819
 21
5383.4529377485
 31
0.0
  0
LINE
  5
91
330
1F
100
AcDbEntity
  8
0
  6
Continuous
 62
     7
370
    25
100
AcDbLine
 10
6452.5187553231
 20
5383.4529377485
 30
0.0
 11
6305.5446282819
 21
5383.4529377485
 31
0.0
  0
LINE
  5
92
330
1F
100
AcDbEntity
  8
0
  6
Continuous
 62
     7
370
    25
100
AcDbLine
 10
6452.5187553231
 20
5408.452943709
 30
0.0
 11
6452.5187553231
 21
5383.4529377485
 31
0.0
  0
LINE
  5
93
330
1F
100
AcDbEntity
  8
0
  6
Continuous
 62
     7
370
    25
100
AcDbLine
 10
6094.018741031
 20
5358.452931788
 30
0.0
 11
6305.5446282819
 21
5358.452931788
 31
0.0
  0
LINE
  5
94
330
1F
100
AcDbEntity
  8
0
  6
Continuous
 62
     7
370
    25
100
AcDbLine
 10
6094.018741031
 20
5358.452931788
 30
0.0
 11
6094.018741031
 21
5383.4529377485
 31
0.0
  0
LINE
  5
95
330
1F
100
AcDbEntity
  8
0
  6
Continuous
 62
     7
370
    25
100
AcDbLine
 10
6305.5446282819
 20
5383.4529377485
 30
0.0
 11
6094.018741031
 21
5383.4529377485
 31
0.0
  0
LINE
  5
96
330
1F
100
AcDbEntity
  8
0
  6
Continuous
 62
     7
370
    25
100
AcDbLine
 10
6305.5446282819
 20
5383.4529377485
 30
0.0
 11
6305.5446282819
 21
5388.4529329801
 31
0.0
  0
LINE
  5
97
330
1F
100
AcDbEntity
  8
0
  6
Continuous
 62
     7
370
    25
100
AcDbLine
 10
6305.5446282819
 20
5388.4529329801
 30
0.0
 11
6452.5187553231
 21
5388.4529329801
 31
0.0
  0
ARC
  5
98
330
1F
100
AcDbEntity
  8
0
  6
Continuous
 62
     7
370
    25
100
AcDbCircle
 10
6099.0187553361
 20
5383.452931788
 30
0.0
 40
5.0
100
AcDbArc
 50
90.0
 51
180.0
  0
LINE
  5
99
330
1F
100
AcDbEntity
  8
0
  6
Continuous
 62
     7
370
    25
100
AcDbLine
 10
6099.0187660649
 20
5388.4529329801
 30
0.0
 11
6305.5446282819
 21
5388.4529329801
 31
0.0
  0
LINE
  5
9A
330
1F
100
AcDbEntity
  8
0
  6
Continuous
 62
     7
370
    25
100
AcDbLine
 10
6452.5187553231
 20
5428.4529246355
 30
0.0
 11
6454.0187553361
 21
5428.4529246355
 31
0.0
  0
LINE
  5
9B
330
1F
100
AcDbEntity
  8
0
  6
Continuous
 62
     7
370
    25
100
AcDbLine
 10
6454.0187553361
 20
5428.4529246355
 30
0.0
 11
6454.0187553361
 21
5408.452943709
 31
0.0
  0
LINE
  5
9C
330
1F
100
AcDbEntity
  8
0
  6
Continuous
 62
     7
370
    25
100
AcDbLine
 10
6452.5187553231
 20
5408.452943709
 30
0.0
 11
6452.5187553231
 21
5428.4529246355
 31
0.0
  0
LINE
  5
9D
330
1F
100
AcDbEntity
  8
0
  6
Continuous
 62
     7
370
    25
100
AcDbLine
 10
6305.5446282819
 20
5358.452931788
 30
0.0
 11
6305.5446282819
 21
5108.452931788
 31
0.0
  0
LINE
  5
9E
330
1F
100
AcDbEntity
  8
0
  6
Continuous
 62
     7
370
    25
100
AcDbLine
 10
6305.5446282819
 20
5108.452931788
 30
0.0
 11
6454.0187553361
 21
5108.452931788
 31
0.0
  0
LINE
  5
9F
330
1F
100
AcDbEntity
  8
0
  6
Continuous
 62
     7
370
    25
100
AcDbLine
 10
6454.0187553361
 20
5358.452931788
 30
0.0
 11
6454.0187553361
 21
5108.452931788
 31
0.0
  0
LINE
  5
A0
330
1F
100
AcDbEntity
  8
0
  6
Continuous
 62
     7
370
    25
100
AcDbLine
 10
6095.5187515214
 20
5358.452931788
 30
0.0
 11
6095.5187515214
 21
5108.452931788
 31
0.0
  0
LINE
  5
A1
330
1F
100
AcDbEntity
  8
0
  6
Continuous
 62
     7
370
    25
100
AcDbLine
 10
6095.5187515214
 20
5108.452931788
 30
0.0
 11
6305.5446282819
 21
5108.452931788
 31
0.0
  0
ARC
  5
A2
330
1F
100
AcDbEntity
  8
0
  6
Continuous
 62
     7
370
    25
100
AcDbCircle
 10
6114.0187553361
 20
5408.452931788
 30
0.0
 40
20.0
100
AcDbArc
 50
90.0
 51
180.0
  0
LINE
  5
A3
330
1F
100
AcDbEntity
  8
0
  6
Continuous
 62
     7
370
    25
100
AcDbLine
 10
6094.018741031
 20
5408.452943709
 30
0.0
 11
6094.018741031
 21
5383.4529377485
 31
0.0
  0
LINE
  5
A4
330
1F
100
AcDbEntity
  8
0
  6
Continuous
 62
     7
370
    25
100
AcDbLine
 10
6114.0187517598
 20
5428.4529246355
 30
0.0
 11
6452.5187553231
 21
5428.4529246355
 31
0.0
  0
LINE
  5
A5
330
1F
100
AcDbEntity
  8
0
  6
Continuous
 62
     8
370
    25
100
AcDbLine
 10
6364.7367940143
 20
5048.9300273324
 30
0.0
 11
6314.7367969945
 21
5048.9300273324
 31
0.0
  0
SPLINE
  5
A6
330
1F
100
AcDbEntity
  8
0
  6
Continuous
 62
     8
370
    25
100
AcDbSpline
210
0.0
220
0.0
230
1.0
 70
     8
 71
     3
 72
    22
 73
    18
 74
     0
 42
0.000000001
 43
0.00000001
 40
0.0
 40
0.0
 40
0.0
 40
0.0
 40
0.0619544654456031
 40
0.1393724352206736
 40
0.2052886583297389
 40
0.2727102018996833
 40
0.3330714444827578
 40
0.3950451442485192
 40
0.4554943898058365
 40
0.5179498323950561
 40
0.5853138054719981
 40
0.6554546484664546
 40
0.7333334659858447
 40
0.8144636171065418
 40
0.8950288705919373
 40
0.9779569537917285
 40
1.0
 40
1.0
 40
1.0
 40
1.0
 10
6359.779043574626
 20
5034.136430170607
 30
0.0
 10
6359.35492250416
 20
5033.203827105182
 30
0.0
 10
6358.400822004799
 20
5031.105848220403
 30
0.0
 10
6356.443641659013
 20
5028.404370072212
 30
0.0
 10
6354.040519805678
 20
5025.963389762353
 30
0.0
 10
6351.445201479985
 20
5024.081921217771
 30
0.0
 10
6348.57964467388
 20
5022.620118619212
 30
0.0
 10
6345.562062657061
 20
5021.605040576579
 30
0.0
 10
6342.326238102826
 20
5021.012691432054
 30
0.0
 10
6338.905050767926
 20
5020.87595470724
 30
0.0
 10
6335.337511271371
 20
5021.264647355063
 30
0.0
 10
6331.680666793647
 20
5022.268769917253
 30
0.0
 10
6328.150083612997
 20
5023.955237769094
 30
0.0
 10
6324.963709872461
 20
5026.316025062314
 30
0.0
 10
6322.32856518719
 20
5029.283008203006
 30
0.0
 10
6320.658683823714
 20
5031.8047110525
 30
0.0
 10
6320.010674601403
 20
5033.430445561098
 30
0.0
 10
6319.874598164851
 20
5033.771836009097
 30
0.0
  0
LINE
  5
A7
330
1F
100
AcDbEntity
  8
0
  6
Continuous
 62
     7
370
    25
100
AcDbLine
 10
6857.2609881693
 20
5101.9300285692
 30
0.0
 11
6877.2609877223
 21
5101.9300285692
 31
0.0
  0
ARC
  5
A8
330
1F
100
AcDbEntity
  8
0
  6
Continuous
 62
     7
370
    25
100
AcDbCircle
 10
6907.260989118
 20
5078.9459773974
 30
0.0
 40
80.00000000000027
100
AcDbArc
 50
246.0305176822
 51
293.9694823178
  0
LINE
  5
A9
330
1F
100
AcDbEntity
  8
0
  6
Continuous
 62
     7
370
    25
100
AcDbLine
 10
6939.7609914476
 20
5005.8450184727
 30
0.0
 11
6939.7609914476
 21
5020.8450190688
 31
0.0
  0
LINE
  5
AA
330
1F
100
AcDbEntity
  8
0
  6
Continuous
 62
     7
370
    25
100
AcDbLine
 10
6874.7609901065
 20
5020.8450190688
 30
0.0
 11
6874.7609901065
 21
5005.8450184727
 31
0.0
  0
ARC
  5
AB
330
1F
100
AcDbEntity
  8
0
  6
Continuous
 62
     7
370
    25
100
AcDbCircle
 10
6876.260989118
 20
5103.9300284325
 30
0.0
 40
3.000000000001071
100
AcDbArc
 50
1.9214190688
 51
70.7560218485
  0
LINE
  5
AC
330
1F
100
AcDbEntity
  8
0
  6
Continuous
 62
     7
370
    25
100
AcDbLine
 10
6935.2609897787
 20
5020.8450190688
 30
0.0
 11
6935.2609897787
 21
5020.9889046813
 31
0.0
  0
LINE
  5
AD
330
1F
100
AcDbEntity
  8
0
  6
Continuous
 62
     7
370
    25
100
AcDbLine
 10
6879.2609880501
 20
5103.9300284313
 30
0.0
 11
6879.2609880501
 21
5020.8450190688
 31
0.0
  0
LINE
  5
AE
330
1F
100
AcDbEntity
  8
0
  6
Continuous
 62
     7
370
    25
100
AcDbLine
 10
6962.2609848911
 20
5048.9300273324
 30
0.0
 11
6962.2609848911
 21
5108.452931788
 31
0.0
  0
ARC
  5
AF
330
1F
100
AcDbEntity
  8
0
  6
Continuous
 62
     7
370
    25
100
AcDbCircle
 10
6937.260989118
 20
5048.9300284325
 30
0.0
 40
25.00000000000091
100
AcDbArc
 50
271.980862399
 51
0.0
  0
SPLINE
  5
B0
330
1F
100
AcDbEntity
  8
0
  6
Continuous
 62
     7
370
    25
100
AcDbSpline
210
0.0
220
0.0
230
1.0
 70
     8
 71
     3
 72
    13
 73
     9
 74
     0
 42
0.000000001
 43
0.00000001
 40
0.0
 40
0.0
 40
0.0
 40
0.0
 40
0.1834129359402425
 40
0.3798290133656827
 40
0.58441058036636
 40
0.7862168224675471
 40
0.9559612252932256
 40
0.9999999999999999
 40
0.9999999999999999
 40
0.9999999999999999
 40
0.9999999999999999
 10
6935.262785368593
 20
5020.983279492926
 30
0.0
 10
6935.287845488273
 20
5021.260408927811
 30
0.0
 10
6935.339742375941
 20
5021.834315011851
 30
0.0
 10
6935.733518788235
 20
5022.64275310877
 30
0.0
 10
6936.352265907409
 20
5023.327498733051
 30
0.0
 10
6937.118190629402
 20
5023.754757079444
 30
0.0
 10
6937.732207817277
 20
5023.936663836199
 30
0.0
 10
6938.054849111623
 20
5023.930334310426
 30
0.0
 10
6938.121312373311
 20
5023.929030444693
 30
0.0
  0
LINE
  5
B1
330
1F
100
AcDbEntity
  8
0
  6
Continuous
 62
     7
370
    25
100
AcDbLine
 10
6877.2609877223
 20
5101.9300285692
 30
0.0
 11
6877.2609877223
 21
5108.452931788
 31
0.0
  0
LINE
  5
B2
330
1F
100
AcDbEntity
  8
0
  6
Continuous
 62
     7
370
    25
100
AcDbLine
 10
6857.2609881693
 20
5101.9300285692
 30
0.0
 11
6857.2609881693
 21
5108.452931788
 31
0.0
  0
LINE
  5
B3
330
1F
100
AcDbEntity
  8
0
  6
Continuous
 62
     7
370
    25
100
AcDbLine
 10
6939.7609914476
 20
5005.8450184727
 30
0.0
 11
6874.7609901065
 21
5005.8450184727
 31
0.0
  0
LINE
  5
B4
330
1F
100
AcDbEntity
  8
0
  6
Continuous
 62
     7
370
    25
100
AcDbLine
 10
6939.7609914476
 20
5020.8450190688
 30
0.0
 11
6874.7609901065
 21
5020.8450190688
 31
0.0
  0
LINE
  5
B5
330
1F
100
AcDbEntity
  8
0
  6
Continuous
 62
     7
370
    25
100
AcDbLine
 10
6926.5020574266
 20
5048.9300273324
 30
0.0
 11
6923.4738956029
 21
5048.9300273324
 31
0.0
  0
LINE
  5
B6
330
1F
100
AcDbEntity
  8
0
  6
Continuous
 62
     7
370
    25
100
AcDbLine
 10
6822.9790265495
 20
5428.4529246355
 30
0.0
 11
6824.4790265625
 21
5428.4529246355
 31
0.0
  0
LINE
  5
B7
330
1F
100
AcDbEntity
  8
0
  6
Continuous
 62
     7
370
    25
100
AcDbLine
 10
6824.4790265625
 20
5428.4529246355
 30
0.0
 11
6824.4790265625
 21
5408.452943709
 31
0.0
  0
LINE
  5
B8
330
1F
100
AcDbEntity
  8
0
  6
Continuous
 62
     7
370
    25
100
AcDbLine
 10
6824.4790265625
 20
5408.452943709
 30
0.0
 11
6822.9790265495
 21
5408.452943709
 31
0.0
  0
LINE
  5
B9
330
1F
100
AcDbEntity
  8
0
  6
Continuous
 62
     7
370
    25
100
AcDbLine
 10
6822.9790265495
 20
5408.452943709
 30
0.0
 11
6822.9790265495
 21
5428.4529246355
 31
0.0
  0
LINE
  5
BA
330
1F
100
AcDbEntity
  8
0
  6
Continuous
 62
     7
370
    25
100
AcDbLine
 10
6824.4790265625
 20
5388.4529329801
 30
0.0
 11
6971.4531536037
 21
5388.4529329801
 31
0.0
  0
LINE
  5
BB
330
1F
100
AcDbEntity
  8
0
  6
Continuous
 62
     7
370
    25
100
AcDbLine
 10
6971.4531536037
 20
5383.4529377485
 30
0.0
 11
6971.4531536037
 21
5388.4529329801
 31
0.0
  0
LINE
  5
BC
330
1F
100
AcDbEntity
  8
0
  6
Continuous
 62
     7
370
    25
100
AcDbLine
 10
6971.4531536037
 20
5383.4529377485
 30
0.0
 11
6824.4790265625
 21
5383.4529377485
 31
0.0
  0
LINE
  5
BD
330
1F
100
AcDbEntity
  8
0
  6
Continuous
 62
     7
370
    25
100
AcDbLine
 10
6824.4790265625
 20
5408.452943709
 30
0.0
 11
6824.4790265625
 21
5383.4529377485
 31
0.0
  0
LINE
  5
BE
330
1F
100
AcDbEntity
  8
0
  6
Continuous
 62
     7
370
    25
100
AcDbLine
 10
6971.4531536037
 20
5358.452931788
 30
0.0
 11
6971.4531536037
 21
5383.4529377485
 31
0.0
  0
LINE
  5
BF
330
1F
100
AcDbEntity
  8
0
  6
Continuous
 62
     7
370
    25
100
AcDbLine
 10
6822.9790265495
 20
5358.452931788
 30
0.0
 11
6822.9790265495
 21
5408.452943709
 31
0.0
  0
LINE
  5
C0
330
1F
100
AcDbEntity
  8
0
  6
Continuous
 62
     7
370
    25
100
AcDbLine
 10
6822.9790265495
 20
5358.452931788
 30
0.0
 11
6971.4531536037
 21
5358.452931788
 31
0.0
  0
LINE
  5
C1
330
1F
100
AcDbEntity
  8
0
  6
Continuous
 62
     7
370
    25
100
AcDbLine
 10
7182.9790408546
 20
5383.4529377485
 30
0.0
 11
6971.4531536037
 21
5383.4529377485
 31
0.0
  0
LINE
  5
C2
330
1F
100
AcDbEntity
  8
0
  6
Continuous
 62
     7
370
    25
100
AcDbLine
 10
6971.4531536037
 20
5388.4529329801
 30
0.0
 11
7177.9790158207
 21
5388.4529329801
 31
0.0
  0
ARC
  5
C3
330
1F
100
AcDbEntity
  8
0
  6
Continuous
 62
     7
370
    25
100
AcDbCircle
 10
7177.9790265495
 20
5383.452931788
 30
0.0
 40
5.000000000000909
100
AcDbArc
 50
0.0
 51
90.0
  0
LINE
  5
C4
330
1F
100
AcDbEntity
  8
0
  6
Continuous
 62
     7
370
    25
100
AcDbLine
 10
7182.9790408546
 20
5358.452931788
 30
0.0
 11
7182.9790408546
 21
5383.4529377485
 31
0.0
  0
LINE
  5
C5
330
1F
100
AcDbEntity
  8
0
  6
Continuous
 62
     7
370
    25
100
AcDbLine
 10
6971.4531536037
 20
5358.452931788
 30
0.0
 11
7182.9790408546
 21
5358.452931788
 31
0.0
  0
LINE
  5
C6
330
1F
100
AcDbEntity
  8
0
  6
Continuous
 62
     7
370
    25
100
AcDbLine
 10
6971.4531536037
 20
5358.452931788
 30
0.0
 11
6971.4531536037
 21
5108.452931788
 31
0.0
  0
LINE
  5
C7
330
1F
100
AcDbEntity
  8
0
  6
Continuous
 62
     7
370
    25
100
AcDbLine
 10
6822.9790265495
 20
5108.452931788
 30
0.0
 11
6971.4531536037
 21
5108.452931788
 31
0.0
  0
LINE
  5
C8
330
1F
100
AcDbEntity
  8
0
  6
Continuous
 62
     7
370
    25
100
AcDbLine
 10
6822.9790265495
 20
5358.452931788
 30
0.0
 11
6822.9790265495
 21
5108.452931788
 31
0.0
  0
LINE
  5
C9
330
1F
100
AcDbEntity
  8
0
  6
Continuous
 62
     7
370
    25
100
AcDbLine
 10
7181.4790303642
 20
5358.452931788
 30
0.0
 11
7181.4790303642
 21
5108.452931788
 31
0.0
  0
LINE
  5
CA
330
1F
100
AcDbEntity
  8
0
  6
Continuous
 62
     7
370
    25
100
AcDbLine
 10
6971.4531536037
 20
5108.452931788
 30
0.0
 11
7181.4790303642
 21
5108.452931788
 31
0.0
  0
ARC
  5
CB
330
1F
100
AcDbEntity
  8
0
  6
Continuous
 62
     7
370
    25
100
AcDbCircle
 10
7162.9790265495
 20
5408.452931788
 30
0.0
 40
20.00000000000091
100
AcDbArc
 50
0.0
 51
90.0
  0
LINE
  5
CC
330
1F
100
AcDbEntity
  8
0
  6
Continuous
 62
     7
370
    25
100
AcDbLine
 10
7182.9790408546
 20
5408.452943709
 30
0.0
 11
7182.9790408546
 21
5383.4529377485
 31
0.0
  0
LINE
  5
CD
330
1F
100
AcDbEntity
  8
0
  6
Continuous
 62
     7
370
    25
100
AcDbLine
 10
6824.4790265625
 20
5428.4529246355
 30
0.0
 11
7162.9790301258
 21
5428.4529246355
 31
0.0
  0
LINE
  5
CE
330
1F
100
AcDbEntity
  8
0
  6
Continuous
 62
     8
370
    25
100
AcDbLine
 10
6877.2609877223
 20
5107.8332542523
 30
0.0
 11
6877.9470595354
 21
5108.452931788
 31
0.0
  0
LWPOLYLINE
  5
CF
330
1F
100
AcDbEntity
  8
0
  6
Continuous
 62
     8
370
    25
100
AcDbPolyline
 90
        8
 70
   128
 43
0.0
 10
6883.3461935455
 20
5108.452931788
 10
6882.1964162225
 20
5107.179966449
 10
6881.1517665917
 20
5106.0233894235
 10
6880.3298706943
 20
5105.1134334842
 10
6879.737743252
 20
5104.4578624854
 10
6879.380432033
 20
5104.0622687864
 10
6879.2609880501
 20
5103.9300284313
 10
6879.2609880501
 20
5103.9300284313
  0
LINE
  5
D0
330
1F
100
AcDbEntity
  8
0
  6
Continuous
 62
     8
370
    25
100
AcDbLine
 10
6923.4738956029
 20
5048.9300273324
 30
0.0
 11
6923.4738956029
 21
5108.452931788
 31
0.0
  0
SPLINE
  5
D1
330
1F
100
AcDbEntity
  8
0
  6
Continuous
 62
     8
370
    25
100
AcDbSpline
210
0.0
220
0.0
230
1.0
 70
     8
 71
     3
 72
    18
 73
    14
 74
     0
 42
0.000000001
 43
0.00000001
 40
0.0
 40
0.0
 40
0.0
 40
0.0
 40
0.017316420604433
 40
0.1020733209444854
 40
0.1903240604407771
 40
0.2883106677264368
 40
0.3903880812016824
 40
0.4917547442506888
 40
0.5960943038418102
 40
0.6948133321009087
 40
0.7957828885962789
 40
0.8966058038887978
 40
1.0
 40
1.0
 40
1.0
 40
1.0
 10
6935.226508491666
 20
5020.988904681277
 30
0.0
 10
6935.237039533026
 20
5020.97637923136
 30
0.0
 10
6935.299115777838
 20
5020.902546751857
 30
0.0
 10
6934.969637562488
 20
5021.293155911577
 30
0.0
 10
6934.173152032505
 20
5022.260287309921
 30
0.0
 10
6932.841184646184
 20
5023.956719864229
 30
0.0
 10
6931.134394158459
 20
5026.319504288972
 30
0.0
 10
6929.242779291038
 20
5029.267590282108
 30
0.0
 10
6927.410184150917
 20
5032.630253475611
 30
0.0
 10
6925.780604773428
 20
5036.352042673307
 30
0.0
 10
6924.513256216571
 20
5040.315097869414
 30
0.0
 10
6923.643377912383
 20
5044.548491620451
 30
0.0
 10
6923.530861932506
 20
5047.457307209287
 30
0.0
 10
6923.473895602853
 20
5048.930027332377
 30
0.0
  0
LINE
  5
D2
330
1F
100
AcDbEntity
  8
0
  6
Continuous
 62
     8
370
    25
100
AcDbLine
 10
6962.2609848911
 20
5048.9300273324
 30
0.0
 11
6926.5020574266
 21
5048.9300273324
 31
0.0
  0
LINE
  5
D3
330
1F
100
AcDbEntity
  8
0
  6
Continuous
 62
     8
370
    25
100
AcDbLine
 10
6926.5020574266
 20
5108.452931788
 30
0.0
 11
6926.5020574266
 21
5048.9300273324
 31
0.0
  0
SPLINE
  5
D4
330
1F
100
AcDbEntity
  8
0
  6
Continuous
 62
     8
370
    25
100
AcDbSpline
210
0.0
220
0.0
230
1.0
 70
     8
 71
     3
 72
    18
 73
    14
 74
     0
 42
0.000000001
 43
0.00000001
 40
0.0
 40
0.0
 40
0.0
 40
0.0
 40
0.0958593795938977
 40
0.1947451286792288
 40
0.290547672112626
 40
0.3888375355959851
 40
0.4902311321096872
 40
0.5945329862697448
 40
0.6956023504550466
 40
0.8004136152938214
 40
0.8894809745804517
 40
0.9817626355234529
 40
1.0
 40
1.0
 40
1.0
 40
1.0
 10
6926.502057426603
 20
5048.930027332377
 30
0.0
 10
6926.555945227006
 20
5047.646945887991
 30
0.0
 10
6926.665422115638
 20
5045.04027492839
 30
0.0
 10
6927.519077449043
 20
5041.2718429288
 30
0.0
 10
6928.782452957716
 20
5037.698466256138
 30
0.0
 10
6930.38380002434
 20
5034.394597758584
 30
0.0
 10
6932.205348285581
 20
5031.372848946873
 30
0.0
 10
6934.056231080131
 20
5028.767298622164
 30
0.0
 10
6935.754544226421
 20
5026.640706967471
 30
0.0
 10
6937.059457515287
 20
5025.139317458967
 30
0.0
 10
6937.861833191231
 20
5024.258428786253
 30
0.0
 10
6938.190928006907
 20
5023.906128467179
 30
0.0
 10
6938.131013017384
 20
5023.970502228661
 30
0.0
 10
6938.121126108796
 20
5023.981124904227
 30
0.0
  0
ARC
  5
D5
330
1F
100
AcDbEntity
  8
0
  6
Continuous
 62
     7
370
    25
100
AcDbCircle
 10
7652.937741857
 20
5078.9459773974
 30
0.0
 40
79.9999999999999
100
AcDbArc
 50
246.0305176822
 51
293.9694823178
  0
LINE
  5
D6
330
1F
100
AcDbEntity
  8
0
  6
Continuous
 62
     7
370
    25
100
AcDbLine
 10
7685.4377453787
 20
5005.8450184727
 30
0.0
 11
7685.4377453787
 21
5020.8450190688
 31
0.0
  0
LINE
  5
D7
330
1F
100
AcDbEntity
  8
0
  6
Continuous
 62
     7
370
    25
100
AcDbLine
 10
7620.4377403123
 20
5020.8450190688
 30
0.0
 11
7620.4377403123
 21
5005.8450184727
 31
0.0
  0
LINE
  5
D8
330
1F
100
AcDbEntity
  8
0
  6
Continuous
 62
     7
370
    25
100
AcDbLine
 10
7680.9377437098
 20
5020.8450190688
 30
0.0
 11
7680.9377437098
 21
5117.4657789955
 31
0.0
  0
LINE
  5
D9
330
1F
100
AcDbEntity
  8
0
  6
Continuous
 62
     7
370
    25
100
AcDbLine
 10
7624.9377419813
 20
5117.4657789955
 30
0.0
 11
7624.9377419813
 21
5020.8450190688
 31
0.0
  0
LINE
  5
DA
330
1F
100
AcDbEntity
  8
0
  6
Continuous
 62
     7
370
    25
100
AcDbLine
 10
7617.4377416833
 20
5226.9300304318
 30
0.0
 11
7620.4377403123
 21
5223.9300318027
 31
0.0
  0
LINE
  5
DB
330
1F
100
AcDbEntity
  8
0
  6
Continuous
 62
     7
370
    25
100
AcDbLine
 10
7685.4377453787
 20
5223.9300318027
 30
0.0
 11
7688.4377365573
 21
5226.9300304318
 31
0.0
  0
LINE
  5
DC
330
1F
100
AcDbEntity
  8
0
  6
Continuous
 62
     7
370
    25
100
AcDbLine
 10
7688.4377365573
 20
5226.9300304318
 30
0.0
 11
7688.4377365573
 21
5228.9300270344
 31
0.0
  0
LINE
  5
DD
330
1F
100
AcDbEntity
  8
0
  6
Continuous
 62
     7
370
    25
100
AcDbLine
 10
7617.4377416833
 20
5228.9300270344
 30
0.0
 11
7617.4377416833
 21
5226.9300304318
 31
0.0
  0
LINE
  5
DE
330
1F
100
AcDbEntity
  8
0
  6
Continuous
 62
     7
370
    25
100
AcDbLine
 10
7685.4377453787
 20
5218.3300264145
 30
0.0
 11
7685.4377453787
 21
5223.9300318027
 31
0.0
  0
LINE
  5
DF
330
1F
100
AcDbEntity
  8
0
  6
Continuous
 62
     7
370
    25
100
AcDbLine
 10
7620.4377403123
 20
5223.9300318027
 30
0.0
 11
7620.4377403123
 21
5218.3300264145
 31
0.0
  0
SPLINE
  5
E0
330
1F
100
AcDbEntity
  8
0
  6
Continuous
 62
     7
370
    25
100
AcDbSpline
210
0.0
220
0.0
230
1.0
 70
     8
 71
     3
 72
    30
 73
    26
 74
     0
 42
0.000000001
 43
0.00000001
 40
0.0
 40
0.0
 40
0.0
 40
0.0
 40
0.0160656094161897
 40
0.0771352197190681
 40
0.1349031052154475
 40
0.1891817645367853
 40
0.2399721580397779
 40
0.2874295454069288
 40
0.3318466514902185
 40
0.3736332733132565
 40
0.4132918624919364
 40
0.4513939785226249
 40
0.4885561191604956
 40
0.5254181880851846
 40
0.5625794888626632
 40
0.6004920972002812
 40
0.6397460116372514
 40
0.6808821493711966
 40
0.7243774644340402
 40
0.7706309483471694
 40
0.8199482266778386
 40
0.8725263721905411
 40
0.928439408692584
 40
0.9876261184672452
 40
1.0
 40
1.0
 40
1.0
 40
1.0
 10
7631.955257581008
 20
5128.805019702982
 30
0.0
 10
7632.063508466083
 20
5129.002975305765
 30
0.0
 10
7632.583249459945
 20
5129.953412262105
 30
0.0
 10
7633.68220435801
 20
5131.569853722308
 30
0.0
 10
7635.341393617849
 20
5133.562594964758
 30
0.0
 10
7637.176702385504
 20
5135.330195275007
 30
0.0
 10
7639.144103395249
 20
5136.864477072479
 30
0.0
 10
7641.214413396036
 20
5138.160888106812
 30
0.0
 10
7643.358828725786
 20
5139.220501138198
 30
0.0
 10
7645.553543774229
 20
5140.047675244299
 30
0.0
 10
7647.779164775243
 20
5140.648707820676
 30
0.0
 10
7650.02071073287
 20
5141.030267109411
 30
0.0
 10
7652.266836757179
 20
5141.198061855761
 30
0.0
 10
7654.507845588641
 20
5141.155922730693
 30
0.0
 10
7656.731740077894
 20
5140.90592299014
 30
0.0
 10
7658.926851041052
 20
5140.449354780871
 30
0.0
 10
7661.082039895467
 20
5139.786230010206
 30
0.0
 10
7663.187421349801
 20
5138.914158840847
 30
0.0
 10
7665.229751087447
 20
5137.829729004431
 30
0.0
 10
7667.191898972003
 20
5136.529861481665
 30
0.0
 10
7669.051932477728
 20
5135.013076457636
 30
0.0
 10
7670.786930943542
 20
5133.281652651664
 30
0.0
 10
7672.359608196182
 20
5131.339783956464
 30
0.0
 10
7673.378512174773
 20
5129.807106630684
 30
0.0
 10
7673.858222672801
 20
5128.924810360467
 30
0.0
 10
7673.941171692145
 20
5128.772248324227
 30
0.0
  0
LINE
  5
E1
330
1F
100
AcDbEntity
  8
0
  6
Continuous
 62
     7
370
    25
100
AcDbLine
 10
7622.9377453787
 20
5167.9300300742
 30
0.0
 11
7622.9377453787
 21
5149.9300271238
 31
0.0
  0
LINE
  5
E2
330
1F
100
AcDbEntity
  8
0
  6
Continuous
 62
     7
370
    25
100
AcDbLine
 10
7682.9377477629
 20
5149.9300271238
 30
0.0
 11
7682.9377477629
 21
5167.9300300742
 31
0.0
  0
LINE
  5
E3
330
1F
100
AcDbEntity
  8
0
  6
Continuous
 62
     7
370
    25
100
AcDbLine
 10
7626.9377385838
 20
5189.3300272489
 30
0.0
 11
7630.9377392395
 21
5178.3300273085
 31
0.0
  0
LINE
  5
E4
330
1F
100
AcDbEntity
  8
0
  6
Continuous
 62
     7
370
    25
100
AcDbLine
 10
7674.9377464516
 20
5178.3300273085
 30
0.0
 11
7678.9377396567
 21
5189.3300272489
 31
0.0
  0
LINE
  5
E5
330
1F
100
AcDbEntity
  8
0
  6
Continuous
 62
     7
370
    25
100
AcDbLine
 10
7678.9377396567
 20
5189.3300272489
 30
0.0
 11
7678.9377396567
 21
5218.3300264145
 31
0.0
  0
LINE
  5
E6
330
1F
100
AcDbEntity
  8
0
  6
Continuous
 62
     7
370
    25
100
AcDbLine
 10
7626.9377385838
 20
5218.3300264145
 30
0.0
 11
7626.9377385838
 21
5189.3300272489
 31
0.0
  0
LINE
  5
E7
330
1F
100
AcDbEntity
  8
0
  6
Continuous
 62
     7
370
    25
100
AcDbLine
 10
7674.9377464516
 20
5167.9300300742
 30
0.0
 11
7674.9377464516
 21
5178.3300273085
 31
0.0
  0
LINE
  5
E8
330
1F
100
AcDbEntity
  8
0
  6
Continuous
 62
     7
370
    25
100
AcDbLine
 10
7630.9377392395
 20
5178.3300273085
 30
0.0
 11
7630.9377392395
 21
5167.9300300742
 31
0.0
  0
LINE
  5
E9
330
1F
100
AcDbEntity
  8
0
  6
Continuous
 62
     7
370
    25
100
AcDbLine
 10
7614.5106916888
 20
5231.9529287482
 30
0.0
 11
7615.2671565874
 21
5230.439998951
 31
0.0
  0
LINE
  5
EA
330
1F
100
AcDbEntity
  8
0
  6
Continuous
 62
     7
370
    25
100
AcDbLine
 10
7690.6083291037
 20
5230.439998951
 30
0.0
 11
7691.3647865517
 21
5231.9529287482
 31
0.0
  0
LINE
  5
EB
330
1F
100
AcDbEntity
  8
0
  6
Continuous
 62
     7
370
    25
100
AcDbLine
 10
7615.2671565874
 20
5230.439998951
 30
0.0
 11
7617.4377416833
 21
5228.9300270344
 31
0.0
  0
LINE
  5
EC
330
1F
100
AcDbEntity
  8
0
  6
Continuous
 62
     7
370
    25
100
AcDbLine
 10
7688.4377365573
 20
5228.9300270344
 30
0.0
 11
7690.6083291037
 21
5230.439998951
 31
0.0
  0
CIRCLE
  5
ED
330
1F
100
AcDbEntity
  8
0
  6
Continuous
 62
     7
370
    25
100
AcDbCircle
 10
7652.937741857
 20
5134.9300284325
 30
0.0
 40
33.0
  0
CIRCLE
  5
EE
330
1F
100
AcDbEntity
  8
0
  6
Continuous
 62
     7
370
    25
100
AcDbCircle
 10
7652.937741857
 20
5134.9300284325
 30
0.0
 40
27.0
  0
LINE
  5
EF
330
1F
100
AcDbEntity
  8
0
  6
Continuous
 62
     7
370
    25
100
AcDbLine
 10
7685.4377453787
 20
5005.8450184727
 30
0.0
 11
7620.4377403123
 21
5005.8450184727
 31
0.0
  0
LINE
  5
F0
330
1F
100
AcDbEntity
  8
0
  6
Continuous
 62
     7
370
    25
100
AcDbLine
 10
7685.4377453787
 20
5020.8450190688
 30
0.0
 11
7620.4377403123
 21
5020.8450190688
 31
0.0
  0
SPLINE
  5
F1
330
1F
100
AcDbEntity
  8
0
  6
Continuous
 62
     7
370
    25
100
AcDbSpline
210
0.0
220
0.0
230
1.0
 70
     8
 71
     3
 72
    10
 73
     6
 74
     0
 42
0.000000001
 43
0.00000001
 40
0.0
 40
0.0
 40
0.0
 40
0.0
 40
0.5056878750950863
 40
0.7728904529973125
 40
1.0
 40
1.0
 40
1.0
 40
1.0
 10
7628.095081971419
 20
5128.895205255818
 30
0.0
 10
7628.454766126062
 20
5128.258521925721
 30
0.0
 10
7629.004505328659
 20
5127.285418769309
 30
0.0
 10
7630.059260466623
 20
5126.686776031216
 30
0.0
 10
7630.652125300275
 20
5126.782042376615
 30
0.0
 10
7630.924514458907
 20
5126.825812082958
 30
0.0
  0
SPLINE
  5
F2
330
1F
100
AcDbEntity
  8
0
  6
Continuous
 62
     7
370
    25
100
AcDbSpline
210
0.0
220
0.0
230
1.0
 70
     8
 71
     3
 72
    10
 73
     6
 74
     0
 42
0.000000001
 43
0.00000001
 40
0.0
 40
0.0
 40
0.0
 40
0.0
 40
0.2751904533077855
 40
0.6069176377829544
 40
0.9999999999999999
 40
0.9999999999999999
 40
0.9999999999999999
 40
0.9999999999999999
 10
7674.950963781607
 20
5126.825812082958
 30
0.0
 10
7675.280830486631
 20
5126.78583797235
 30
0.0
 10
7676.008333635777
 20
5126.697677236793
 30
0.0
 10
7677.00544220812
 20
5127.473245274667
 30
0.0
 10
7677.507900538095
 20
5128.395203973122
 30
0.0
 10
7677.780396269095
 20
5128.895205255818
 30
0.0
  0
ELLIPSE
  5
F3
330
1F
100
AcDbEntity
  8
0
  6
Continuous
 62
     7
370
    25
100
AcDbEllipse
 10
7652.937741857
 20
5138.6873877453
 30
0.0
 11
27.0
 21
0.0
 31
0.0
210
0.0
220
0.0
230
1.0
 40
0.9259259259
 41
5.88072057561465
 42
6.20796721330947
  0
ELLIPSE
  5
F4
330
1F
100
AcDbEntity
  8
0
  6
Continuous
 62
     7
370
    25
100
AcDbEllipse
 10
7652.937741857
 20
5134.9300284325
 30
0.0
 11
27.0
 21
0.0
 31
0.0
210
0.0
220
0.0
230
1.0
 40
0.9259259259
 41
0.0
 42
0.0752180938701291
  0
ELLIPSE
  5
F5
330
1F
100
AcDbEntity
  8
0
  6
Continuous
 62
     7
370
    25
100
AcDbEllipse
 10
7652.937741857
 20
5134.9300284325
 30
0.0
 11
27.0
 21
0.0
 31
0.0
210
0.0
220
0.0
230
1.0
 40
0.9259259259
 41
3.066374559719664
 42
3.141592653589793
  0
ELLIPSE
  5
F6
330
1F
100
AcDbEntity
  8
0
  6
Continuous
 62
     7
370
    25
100
AcDbEllipse
 10
7652.937741857
 20
5138.6873877453
 30
0.0
 11
27.0
 21
0.0
 31
0.0
210
0.0
220
0.0
230
1.0
 40
0.9259259259
 41
3.21681074745994
 42
3.544057385154759
  0
ARC
  5
F7
330
1F
100
AcDbEntity
  8
0
  6
Continuous
 62
     7
370
    25
100
AcDbCircle
 10
7627.7020017703
 20
5136.5010312855
 30
0.0
 40
1.748944898860004
100
AcDbArc
 50
79.9092103689
 51
164.8198092638
  0
ARC
  5
F8
330
1F
100
AcDbEntity
  8
0
  6
Continuous
 62
     7
370
    25
100
AcDbCircle
 10
7678.1734796747
 20
5136.5010263918
 30
0.0
 40
1.74895027828379
100
AcDbArc
 50
15.1803090344
 51
100.0908648959
  0
ARC
  5
F9
330
1F
100
AcDbEntity
  8
0
  6
Continuous
 62
     7
370
    25
100
AcDbCircle
 10
7652.937741857
 20
5136.3442419948
 30
0.0
 40
25.00000000000067
100
AcDbArc
 50
4.3096793218
 51
175.6903206782
  0
ARC
  5
FA
330
1F
100
AcDbEntity
  8
0
  6
Continuous
 62
     7
370
    25
100
AcDbCircle
 10
7652.937741857
 20
5140.1016013077
 30
0.0
 40
25.00000000000053
100
AcDbArc
 50
184.3096793218
 51
203.0595305215
  0
ARC
  5
FB
330
1F
100
AcDbEntity
  8
0
  6
Continuous
 62
     7
370
    25
100
AcDbCircle
 10
7652.937741857
 20
5140.1016013077
 30
0.0
 40
25.00000000000056
100
AcDbArc
 50
336.9404694785
 51
355.6903206782
  0
ARC
  5
FC
330
1F
100
AcDbEntity
  8
0
  6
Continuous
 62
     7
370
    25
100
AcDbCircle
 10
7652.937741857
 20
5114.3442419948
 30
0.0
 40
28.00000000000032
100
AcDbArc
 50
34.7631178606
 51
145.2368821394
  0
LINE
  5
FD
330
1F
100
AcDbEntity
  8
0
  6
Continuous
 62
     7
370
    25
100
AcDbLine
 10
7688.4377365573
 20
5226.9300304318
 30
0.0
 11
7617.4377416833
 21
5226.9300304318
 31
0.0
  0
LINE
  5
FE
330
1F
100
AcDbEntity
  8
0
  6
Continuous
 62
     7
370
    25
100
AcDbLine
 10
7685.4377453787
 20
5223.9300318027
 30
0.0
 11
7620.4377403123
 21
5223.9300318027
 31
0.0
  0
LINE
  5
FF
330
1F
100
AcDbEntity
  8
0
  6
Continuous
 62
     7
370
    25
100
AcDbLine
 10
7688.4377365573
 20
5228.9300270344
 30
0.0
 11
7617.4377416833
 21
5228.9300270344
 31
0.0
  0
LINE
  5
100
330
1F
100
AcDbEntity
  8
0
  6
Continuous
 62
     7
370
    25
100
AcDbLine
 10
7685.4377453787
 20
5218.3300264145
 30
0.0
 11
7620.4377403123
 21
5218.3300264145
 31
0.0
  0
SPLINE
  5
101
330
1F
100
AcDbEntity
  8
0
  6
Continuous
 62
     7
370
    25
100
AcDbSpline
210
0.0
220
0.0
230
1.0
 70
     8
 71
     3
 72
     9
 73
     5
 74
     0
 42
0.000000001
 43
0.00000001
 40
0.0
 40
0.0
 40
0.0
 40
0.0
 40
0.1683368626066359
 40
1.0
 40
1.0
 40
1.0
 40
1.0
 10
7631.77392535044
 20
5128.491931405139
 30
0.0
 10
7631.759863124714
 20
5128.471770451964
 30
0.0
 10
7631.676326901522
 20
5128.352004924312
 30
0.0
 10
7631.423519640433
 20
5128.258892612863
 30
0.0
 10
7631.213269160521
 20
5128.181454535794
 30
0.0
  0
SPLINE
  5
102
330
1F
100
AcDbEntity
  8
0
  6
Continuous
 62
     7
370
    25
100
AcDbSpline
210
0.0
220
0.0
230
1.0
 70
     8
 71
     3
 72
    11
 73
     7
 74
     0
 42
0.000000001
 43
0.00000001
 40
0.0
 40
0.0
 40
0.0
 40
0.0
 40
0.1701082882921528
 40
0.2000364202930444
 40
0.4596875000672738
 40
1.0
 40
1.0
 40
1.0
 40
1.0
 10
7631.213269160521
 20
5128.181454535794
 30
0.0
 10
7631.079132195729
 20
5128.17337634294
 30
0.0
 10
7630.921395741291
 20
5128.163876907041
 30
0.0
 10
7630.627543831488
 20
5128.330815957692
 30
0.0
 10
7630.205028458116
 20
5128.87308320716
 30
0.0
 10
7630.044024222981
 20
5129.730381198423
 30
0.0
 10
7629.935278521311
 20
5130.309418585372
 30
0.0
  0
SPLINE
  5
103
330
1F
100
AcDbEntity
  8
0
  6
Continuous
 62
     7
370
    25
100
AcDbSpline
210
0.0
220
0.0
230
1.0
 70
     8
 71
     3
 72
    11
 73
     7
 74
     0
 42
0.000000001
 43
0.00000001
 40
0.0
 40
0.0
 40
0.0
 40
0.0
 40
0.4237180981804511
 40
0.7545014302560401
 40
0.9296136365715755
 40
1.0
 40
1.0
 40
1.0
 40
1.0
 10
7675.940207169783
 20
5130.309418585372
 30
0.0
 10
7675.85755527627
 20
5129.854767544616
 30
0.0
 10
7675.710379660839
 20
5129.04518480083
 30
0.0
 10
7675.30078974002
 20
5128.335602389933
 30
0.0
 10
7674.916750845968
 20
5128.137903996861
 30
0.0
 10
7674.718926787506
 20
5128.171750483023
 30
0.0
 10
7674.662209079993
 20
5128.181454535794
 30
0.0
  0
SPLINE
  5
104
330
1F
100
AcDbEntity
  8
0
  6
Continuous
 62
     7
370
    25
100
AcDbSpline
210
0.0
220
0.0
230
1.0
 70
     8
 71
     3
 72
     9
 73
     5
 74
     0
 42
0.000000001
 43
0.00000001
 40
0.0
 40
0.0
 40
0.0
 40
0.0
 40
0.8316631373933641
 40
1.0
 40
1.0
 40
1.0
 40
1.0
 10
7674.662209079993
 20
5128.181454535794
 30
0.0
 10
7674.451958600081
 20
5128.258892612863
 30
0.0
 10
7674.199151338993
 20
5128.352004924312
 30
0.0
 10
7674.1156151158
 20
5128.471770451964
 30
0.0
 10
7674.101552890074
 20
5128.491931405139
 30
0.0
  0
LINE
  5
105
330
1F
100
AcDbEntity
  8
0
  6
Continuous
 62
     7
370
    25
100
AcDbLine
 10
7674.1015528901
 20
5128.4919314051
 30
0.0
 11
7673.9283417924
 21
5128.760722276
 31
0.0
  0
LINE
  5
106
330
1F
100
AcDbEntity
  8
0
  6
Continuous
 62
     7
370
    25
100
AcDbLine
 10
7631.9604580863
 20
5128.8012105937
 30
0.0
 11
7631.7739253504
 21
5128.4919314051
 31
0.0
  0
LINE
  5
107
330
1F
100
AcDbEntity
  8
0
  6
Continuous
 62
     7
370
    25
100
AcDbLine
 10
7652.9377391203
 20
5167.9300300742
 30
0.0
 11
7682.9377477629
 21
5167.9300300742
 31
0.0
  0
LINE
  5
108
330
1F
100
AcDbEntity
  8
0
  6
Continuous
 62
     7
370
    25
100
AcDbLine
 10
7622.9377453787
 20
5167.9300300742
 30
0.0
 11
7652.9377391203
 21
5167.9300300742
 31
0.0
  0
LINE
  5
109
330
1F
100
AcDbEntity
  8
0
  6
Continuous
 62
     7
370
    25
100
AcDbLine
 10
7682.331613229
 20
5149.9300271238
 30
0.0
 11
7682.9377477629
 21
5149.9300271238
 31
0.0
  0
LINE
  5
10A
330
1F
100
AcDbEntity
  8
0
  6
Continuous
 62
     7
370
    25
100
AcDbLine
 10
7622.9377453787
 20
5149.9300271238
 30
0.0
 11
7623.5438650115
 21
5149.9300271238
 31
0.0
  0
ARC
  5
10B
330
1F
100
AcDbEntity
  8
0
  6
Continuous
 62
     7
370
    25
100
AcDbCircle
 10
7627.014144964
 20
5136.8838546763
 30
0.0
 40
1.002881729533059
100
AcDbArc
 50
175.7027103855
 51
184.2972896145
  0
ARC
  5
10C
330
1F
100
AcDbEntity
  8
0
  6
Continuous
 62
     7
370
    25
100
AcDbCircle
 10
7678.8613407271
 20
5136.8838546763
 30
0.0
 40
1.002881729531245
100
AcDbArc
 50
355.7027103855
 51
4.2972896145
  0
ARC
  5
10D
330
1F
100
AcDbEntity
  8
0
  6
Continuous
 62
     7
370
    25
100
AcDbCircle
 10
7627.8578086348
 20
5136.3219942875
 30
0.0
 40
1.90688618719725
100
AcDbArc
 50
85.4695426548
 51
165.2122159132
  0
ARC
  5
10E
330
1F
100
AcDbEntity
  8
0
  6
Continuous
 62
     7
370
    25
100
AcDbCircle
 10
7678.0176729686
 20
5136.3219893165
 30
0.0
 40
1.906891408358259
100
AcDbArc
 50
14.7878971542
 51
94.5305462737
  0
ARC
  5
10F
330
1F
100
AcDbEntity
  8
0
  6
Continuous
 62
     7
370
    25
100
AcDbCircle
 10
7630.3660010768
 20
5127.8446026841
 30
0.0
 40
2.502166930316331
100
AcDbArc
 50
99.9122558575
 51
155.1731720284
  0
ARC
  5
110
330
1F
100
AcDbEntity
  8
0
  6
Continuous
 62
     7
370
    25
100
AcDbCircle
 10
7675.5095021153
 20
5127.8446374206
 30
0.0
 40
2.502129699716677
100
AcDbArc
 50
24.826345961
 51
80.0880019889
  0
LINE
  5
111
330
1F
100
AcDbEntity
  8
0
  6
Continuous
 62
     7
370
    25
100
AcDbLine
 10
7678.9377396567
 20
5189.3300272489
 30
0.0
 11
7626.9377385838
 21
5189.3300272489
 31
0.0
  0
LINE
  5
112
330
1F
100
AcDbEntity
  8
0
  6
Continuous
 62
     7
370
    25
100
AcDbLine
 10
7674.9377464516
 20
5178.3300273085
 30
0.0
 11
7630.9377392395
 21
5178.3300273085
 31
0.0
  0
LINE
  5
113
330
1F
100
AcDbEntity
  8
0
  6
Continuous
 62
     7
370
    25
100
AcDbLine
 10
7631.5586557253
 20
5127.4955522234
 30
0.0
 11
7631.5586557253
 21
5118.439588506
 31
0.0
  0
SPLINE
  5
114
330
1F
100
AcDbEntity
  8
0
  6
Continuous
 62
     7
370
    25
100
AcDbSpline
210
0.0
220
0.0
230
1.0
 70
     8
 71
     3
 72
    10
 73
     6
 74
     0
 42
0.000000001
 43
0.00000001
 40
0.0
 40
0.0
 40
0.0
 40
0.0
 40
0.4251726924557295
 40
0.852132772016404
 40
1.0
 40
1.0
 40
1.0
 40
1.0
 10
7631.558655725253
 20
5127.495552223396
 30
0.0
 10
7631.565452689271
 20
5127.652650388989
 30
0.0
 10
7631.579075191122
 20
5127.967507146494
 30
0.0
 10
7631.676934912114
 20
5128.299250785662
 30
0.0
 10
7631.754080579861
 20
5128.452507903661
 30
0.0
 10
7631.77392535044
 20
5128.491931405139
 30
0.0
  0
SPLINE
  5
115
330
1F
100
AcDbEntity
  8
0
  6
Continuous
 62
     7
370
    25
100
AcDbSpline
210
0.0
220
0.0
230
1.0
 70
     8
 71
     3
 72
    10
 73
     6
 74
     0
 42
0.000000001
 43
0.00000001
 40
0.0
 40
0.0
 40
0.0
 40
0.0
 40
0.4237837464535751
 40
0.8483844567306619
 40
1.0
 40
1.0
 40
1.0
 40
1.0
 10
7674.101552890074
 20
5128.491931405139
 30
0.0
 10
7674.155161845062
 20
5128.371687133105
 30
0.0
 10
7674.262483101563
 20
5128.130966783972
 30
0.0
 10
7674.312403638879
 20
5127.762694527086
 30
0.0
 10
7674.315907912189
 20
5127.551200967626
 30
0.0
 10
7674.316829965842
 20
5127.495552223396
 30
0.0
  0
LINE
  5
116
330
1F
100
AcDbEntity
  8
0
  6
Continuous
 62
     7
370
    25
100
AcDbLine
 10
7674.3168299658
 20
5118.439588506
 30
0.0
 11
7674.3168299658
 21
5127.4955522234
 31
0.0
  0
ARC
  5
117
330
1F
100
AcDbEntity
  8
0
  6
Continuous
 62
     7
370
    25
100
AcDbCircle
 10
7632.8925770371
 20
5127.1151845096
 30
0.0
 40
1.98922264041356
100
AcDbArc
 50
147.5866525883
 51
188.3645028784
  0
ARC
  5
118
330
1F
100
AcDbEntity
  8
0
  6
Continuous
 62
     7
370
    25
100
AcDbCircle
 10
7672.9830388801
 20
5127.1152138351
 30
0.0
 40
1.989090694805441
100
AcDbArc
 50
351.6340844857
 51
32.4147600477
  0
SPLINE
  5
119
330
1F
100
AcDbEntity
  8
0
  6
Continuous
 62
     7
370
    25
100
AcDbSpline
210
0.0
220
0.0
230
1.0
 70
     8
 71
     3
 72
     9
 73
     5
 74
     0
 42
0.000000001
 43
0.00000001
 40
0.0
 40
0.0
 40
0.0
 40
0.0
 40
0.8621771393991282
 40
1.0
 40
1.0
 40
1.0
 40
1.0
 10
7630.924514458907
 20
5126.825812082958
 30
0.0
 10
7631.155503302854
 20
5126.997313286184
 30
0.0
 10
7631.423416743598
 20
5127.196229721554
 30
0.0
 10
7631.542274420252
 20
5127.459295715573
 30
0.0
 10
7631.558655725253
 20
5127.495552223396
 30
0.0
  0
SPLINE
  5
11A
330
1F
100
AcDbEntity
  8
0
  6
Continuous
 62
     7
370
    25
100
AcDbSpline
210
0.0
220
0.0
230
1.0
 70
     8
 71
     3
 72
     9
 73
     5
 74
     0
 42
0.000000001
 43
0.00000001
 40
0.0
 40
0.0
 40
0.0
 40
0.0
 40
0.1378231044355699
 40
1.0
 40
1.0
 40
1.0
 40
1.0
 10
7674.316829965842
 20
5127.495552223396
 30
0.0
 10
7674.333211292144
 20
5127.45929571909
 30
0.0
 10
7674.452068913078
 20
5127.196230216005
 30
0.0
 10
7674.71997840638
 20
5126.997313489066
 30
0.0
 10
7674.950963781607
 20
5126.825812082958
 30
0.0
  0
ARC
  5
11B
330
1F
100
AcDbEntity
  8
0
  6
Continuous
 62
     7
370
    25
100
AcDbCircle
 10
7887.1557792885
 20
5134.452931788
 30
0.0
 40
2.500000000000909
100
AcDbArc
 50
0.0
 51
180.0
  0
LINE
  5
11C
330
1F
100
AcDbEntity
  8
0
  6
Continuous
 62
     7
370
    25
100
AcDbLine
 10
7884.6557652218
 20
5130.9529326821
 30
0.0
 11
7884.6557652218
 21
5134.4529323245
 31
0.0
  0
LINE
  5
11D
330
1F
100
AcDbEntity
  8
0
  6
Continuous
 62
     7
370
    25
100
AcDbLine
 10
7878.6557828648
 20
5130.9529326821
 30
0.0
 11
7884.6557652218
 21
5130.9529326821
 31
0.0
  0
ARC
  5
11E
330
1F
100
AcDbEntity
  8
0
  6
Continuous
 62
     7
370
    25
100
AcDbCircle
 10
7878.6557792885
 20
5123.452931788
 30
0.0
 40
7.500000000000909
100
AcDbArc
 50
90.0
 51
270.0
  0
LINE
  5
11F
330
1F
100
AcDbEntity
  8
0
  6
Continuous
 62
     7
370
    25
100
AcDbLine
 10
7885.6557821496
 20
5115.9529316204
 30
0.0
 11
7878.6557828648
 21
5115.9529316204
 31
0.0
  0
ARC
  5
120
330
1F
100
AcDbEntity
  8
0
  6
Continuous
 62
     7
370
    25
100
AcDbCircle
 10
7885.6557792885
 20
5123.452931788
 30
0.0
 40
7.5
100
AcDbArc
 50
270.0
 51
57.7690473645
  0
LINE
  5
121
330
1F
100
AcDbEntity
  8
0
  6
Continuous
 62
     7
370
    25
100
AcDbLine
 10
7889.6557902558
 20
5134.4529323245
 30
0.0
 11
7889.6557902558
 21
5129.7972209717
 31
0.0
  0
LINE
  5
122
330
1F
100
AcDbEntity
  8
0
  6
Continuous
 62
     7
370
    25
100
AcDbLine
 10
7867.1557819111
 20
5383.4529377485
 30
0.0
 11
7897.1557831032
 21
5383.4529377485
 31
0.0
  0
ARC
  5
123
330
1F
100
AcDbEntity
  8
0
  6
Continuous
 62
     7
370
    25
100
AcDbCircle
 10
7893.6557792885
 20
5383.452931788
 30
0.0
 40
3.5
100
AcDbArc
 50
0.0
 51
90.0
  0
LINE
  5
124
330
1F
100
AcDbEntity
  8
0
  6
Continuous
 62
     7
370
    25
100
AcDbLine
 10
7893.6557685597
 20
5386.9529224897
 30
0.0
 11
7538.6557792885
 21
5386.9529224897
 31
0.0
  0
LINE
  5
125
330
1F
100
AcDbEntity
  8
0
  6
Continuous
 62
     7
370
    25
100
AcDbLine
 10
7538.6557792885
 20
5428.4529246355
 30
0.0
 11
7878.6557828648
 21
5428.4529246355
 31
0.0
  0
ARC
  5
126
330
1F
100
AcDbEntity
  8
0
  6
Continuous
 62
     7
370
    25
100
AcDbCircle
 10
7878.6557792885
 20
5408.452931788
 30
0.0
 40
20.0
100
AcDbArc
 50
0.0
 51
90.0
  0
LINE
  5
127
330
1F
100
AcDbEntity
  8
0
  6
Continuous
 62
     7
370
    25
100
AcDbLine
 10
7898.6557935937
 20
5358.452931788
 30
0.0
 11
7898.6557935937
 21
5408.452943709
 31
0.0
  0
LINE
  5
128
330
1F
100
AcDbEntity
  8
0
  6
Continuous
 62
     7
370
    25
100
AcDbLine
 10
7897.1557831032
 20
5358.452931788
 30
0.0
 11
7898.6557935937
 21
5358.452931788
 31
0.0
  0
LINE
  5
129
330
1F
100
AcDbEntity
  8
0
  6
Continuous
 62
     7
370
    25
100
AcDbLine
 10
7897.1557831032
 20
5358.452931788
 30
0.0
 11
7897.1557831032
 21
5108.452931788
 31
0.0
  0
LINE
  5
12A
330
1F
100
AcDbEntity
  8
0
  6
Continuous
 62
     7
370
    25
100
AcDbLine
 10
7867.1557819111
 20
5108.452931788
 30
0.0
 11
7897.1557831032
 21
5108.452931788
 31
0.0
  0
LINE
  5
12B
330
1F
100
AcDbEntity
  8
0
  6
Continuous
 62
     7
370
    25
100
AcDbLine
 10
7867.1557819111
 20
5108.452931788
 30
0.0
 11
7867.1557819111
 21
5383.4529377485
 31
0.0
  0
ARC
  5
12C
330
1F
100
AcDbEntity
  8
0
  6
Continuous
 62
     7
370
    25
100
AcDbCircle
 10
7887.1557792885
 20
5364.452931788
 30
0.0
 40
2.500000000000909
100
AcDbArc
 50
0.0
 51
180.0
  0
LINE
  5
12D
330
1F
100
AcDbEntity
  8
0
  6
Continuous
 62
     7
370
    25
100
AcDbLine
 10
7884.6557652218
 20
5360.9529294039
 30
0.0
 11
7884.6557652218
 21
5364.4529439474
 31
0.0
  0
LINE
  5
12E
330
1F
100
AcDbEntity
  8
0
  6
Continuous
 62
     7
370
    25
100
AcDbLine
 10
7878.6557828648
 20
5360.9529294039
 30
0.0
 11
7884.6557652218
 21
5360.9529294039
 31
0.0
  0
ARC
  5
12F
330
1F
100
AcDbEntity
  8
0
  6
Continuous
 62
     7
370
    25
100
AcDbCircle
 10
7878.6557792885
 20
5353.452931788
 30
0.0
 40
7.5
100
AcDbArc
 50
90.0
 51
270.0
  0
LINE
  5
130
330
1F
100
AcDbEntity
  8
0
  6
Continuous
 62
     7
370
    25
100
AcDbLine
 10
7885.6557821496
 20
5345.9529288078
 30
0.0
 11
7878.6557828648
 21
5345.9529288078
 31
0.0
  0
ARC
  5
131
330
1F
100
AcDbEntity
  8
0
  6
Continuous
 62
     7
370
    25
100
AcDbCircle
 10
7885.6557792885
 20
5353.452931788
 30
0.0
 40
7.499999999999651
100
AcDbArc
 50
270.0
 51
57.7690473645
  0
LINE
  5
132
330
1F
100
AcDbEntity
  8
0
  6
Continuous
 62
     7
370
    25
100
AcDbLine
 10
7889.6557902558
 20
5364.4529439474
 30
0.0
 11
7889.6557902558
 21
5359.797225144
 31
0.0
  0
LINE
  5
133
330
1F
100
AcDbEntity
  8
0
  6
Continuous
 62
     7
370
    25
100
AcDbLine
 10
7538.6557792885
 20
5428.4529246355
 30
0.0
 11
7538.6557792885
 21
5386.9529224897
 31
0.0
  0
LINE
  5
134
330
1F
100
AcDbEntity
  8
0
  6
Continuous
 62
     7
370
    25
100
AcDbLine
 10
7867.1557819111
 20
5173.4529294039
 30
0.0
 11
7674.9377464516
 21
5173.4529294039
 31
0.0
  0
LINE
  5
135
330
1F
100
AcDbEntity
  8
0
  6
Continuous
 62
     7
370
    25
100
AcDbLine
 10
7630.9377392395
 20
5173.4529294039
 30
0.0
 11
7539.8557793455
 21
5173.4529294039
 31
0.0
  0
LINE
  5
136
330
1F
100
AcDbEntity
  8
0
  6
Continuous
 62
     7
370
    25
100
AcDbLine
 10
7867.1557819111
 20
5172.1529297496
 30
0.0
 11
7674.9377464516
 21
5172.1529297496
 31
0.0
  0
LINE
  5
137
330
1F
100
AcDbEntity
  8
0
  6
Continuous
 62
     7
370
    25
100
AcDbLine
 10
7630.9377392395
 20
5172.1529297496
 30
0.0
 11
7539.8557793455
 21
5172.1529297496
 31
0.0
  0
LINE
  5
138
330
1F
100
AcDbEntity
  8
0
  6
Continuous
 62
     7
370
    25
100
AcDbLine
 10
7867.1557819111
 20
5148.452930894
 30
0.0
 11
7683.0397462113
 21
5148.452930894
 31
0.0
  0
LINE
  5
139
330
1F
100
AcDbEntity
  8
0
  6
Continuous
 62
     7
370
    25
100
AcDbLine
 10
7622.8357320292
 20
5148.452930894
 30
0.0
 11
7539.8557793455
 21
5148.452930894
 31
0.0
  0
LINE
  5
13A
330
1F
100
AcDbEntity
  8
0
  6
Continuous
 62
     7
370
    25
100
AcDbLine
 10
7867.1557819111
 20
5149.7529305483
 30
0.0
 11
7682.4213182194
 21
5149.7529305483
 31
0.0
  0
LINE
  5
13B
330
1F
100
AcDbEntity
  8
0
  6
Continuous
 62
     7
370
    25
100
AcDbLine
 10
7623.4541600211
 20
5149.7529305483
 30
0.0
 11
7539.8557793455
 21
5149.7529305483
 31
0.0
  0
LINE
  5
13C
330
1F
100
AcDbEntity
  8
0
  6
Continuous
 62
     7
370
    25
100
AcDbLine
 10
7557.155779527
 20
5383.4529377485
 30
0.0
 11
7671.4375232918
 21
5383.4529377485
 31
0.0
  0
ARC
  5
13D
330
1F
100
AcDbEntity
  8
0
  6
Continuous
 62
     7
370
    25
100
AcDbCircle
 10
7553.6557792885
 20
5383.452931788
 30
0.0
 40
3.5
100
AcDbArc
 50
0.0
 51
90.0
  0
LINE
  5
13E
330
1F
100
AcDbEntity
  8
0
  6
Continuous
 62
     7
370
    25
100
AcDbLine
 10
7671.4375232918
 20
5386.9529224897
 30
0.0
 11
7671.4375232918
 21
5383.4529377485
 31
0.0
  0
LINE
  5
13F
330
1F
100
AcDbEntity
  8
0
  6
Continuous
 62
     7
370
    25
100
AcDbLine
 10
7671.4375232918
 20
5383.4529377485
 30
0.0
 11
7816.6557764275
 21
5383.4529377485
 31
0.0
  0
LINE
  5
140
330
1F
100
AcDbEntity
  8
0
  6
Continuous
 62
     7
370
    25
100
AcDbLine
 10
7816.6557764275
 20
5386.9529224897
 30
0.0
 11
7816.6557764275
 21
5383.4529377485
 31
0.0
  0
LINE
  5
141
330
1F
100
AcDbEntity
  8
0
  6
Continuous
 62
     7
370
    25
100
AcDbLine
 10
7863.1557738049
 20
5383.4529377485
 30
0.0
 11
7816.6557764275
 21
5383.4529377485
 31
0.0
  0
ARC
  5
142
330
1F
100
AcDbEntity
  8
0
  6
Continuous
 62
     7
370
    25
100
AcDbCircle
 10
7866.6557792885
 20
5383.452931788
 30
0.0
 40
3.5
100
AcDbArc
 50
90.0
 51
180.0
  0
LINE
  5
143
330
1F
100
AcDbEntity
  8
0
  6
Continuous
 62
     7
370
    25
100
AcDbLine
 10
7671.4375232918
 20
5278.4529335762
 30
0.0
 11
7671.4375232918
 21
5383.4529377485
 31
0.0
  0
LINE
  5
144
330
1F
100
AcDbEntity
  8
0
  6
Continuous
 62
     7
370
    25
100
AcDbLine
 10
7671.4375232918
 20
5278.4529335762
 30
0.0
 11
7557.155779527
 21
5278.4529335762
 31
0.0
  0
LINE
  5
145
330
1F
100
AcDbEntity
  8
0
  6
Continuous
 62
     7
370
    25
100
AcDbLine
 10
7557.155779527
 20
5278.4529335762
 30
0.0
 11
7557.155779527
 21
5383.4529377485
 31
0.0
  0
LINE
  5
146
330
1F
100
AcDbEntity
  8
0
  6
Continuous
 62
     7
370
    25
100
AcDbLine
 10
7671.4375232918
 20
5231.9529287482
 30
0.0
 11
7671.4375232918
 21
5278.4529335762
 31
0.0
  0
LINE
  5
147
330
1F
100
AcDbEntity
  8
0
  6
Continuous
 62
     7
370
    25
100
AcDbLine
 10
7603.6557769044
 20
5231.9529287482
 30
0.0
 11
7671.4375232918
 21
5231.9529287482
 31
0.0
  0
ARC
  5
148
330
1F
100
AcDbEntity
  8
0
  6
Continuous
 62
     7
370
    25
100
AcDbCircle
 10
7603.6557792885
 20
5278.452931788
 30
0.0
 40
46.5
100
AcDbArc
 50
180.0
 51
270.0
  0
ARC
  5
149
330
1F
100
AcDbEntity
  8
0
  6
Continuous
 62
     7
370
    25
100
AcDbCircle
 10
7711.6557792885
 20
5383.452931788
 30
0.0
 40
105.0000000000009
100
AcDbArc
 50
270.0
 51
0.0
  0
LINE
  5
14A
330
1F
100
AcDbEntity
  8
0
  6
Continuous
 62
     7
370
    25
100
AcDbLine
 10
7711.6557722552
 20
5278.4529335762
 30
0.0
 11
7671.4375232918
 21
5278.4529335762
 31
0.0
  0
LINE
  5
14B
330
1F
100
AcDbEntity
  8
0
  6
Continuous
 62
     7
370
    25
100
AcDbLine
 10
7711.6557722552
 20
5231.9529287482
 30
0.0
 11
7711.6557722552
 21
5278.4529335762
 31
0.0
  0
LINE
  5
14C
330
1F
100
AcDbEntity
  8
0
  6
Continuous
 62
     7
370
    25
100
AcDbLine
 10
7671.4375232918
 20
5231.9529287482
 30
0.0
 11
7711.6557722552
 21
5231.9529287482
 31
0.0
  0
ARC
  5
14D
330
1F
100
AcDbEntity
  8
0
  6
Continuous
 62
     7
370
    25
100
AcDbCircle
 10
7711.6557792885
 20
5383.452931788
 30
0.0
 40
151.5000000000009
100
AcDbArc
 50
270.0
 51
0.0
  0
LINE
  5
14E
330
1F
100
AcDbEntity
  8
0
  6
Continuous
 62
     7
370
    25
100
AcDbLine
 10
7615.2671565874
 20
5230.439998951
 30
0.0
 11
7690.6083291037
 21
5230.439998951
 31
0.0
  0
LINE
  5
14F
330
1F
100
AcDbEntity
  8
0
  6
Continuous
 62
     7
370
    25
100
AcDbLine
 10
7861.3220667107
 20
5359.9529422785
 30
0.0
 11
7867.1557819111
 21
5359.9529422785
 31
0.0
  0
LINE
  5
150
330
1F
100
AcDbEntity
  8
0
  6
Continuous
 62
     7
370
    25
100
AcDbLine
 10
7874.9141310914
 20
5359.9529422785
 30
0.0
 11
7889.6557902558
 21
5359.9529422785
 31
0.0
  0
LINE
  5
151
330
1F
100
AcDbEntity
  8
0
  6
Continuous
 62
     7
370
    25
100
AcDbLine
 10
7867.1557819111
 20
5108.452931788
 30
0.0
 11
7687.1299063428
 21
5108.452931788
 31
0.0
  0
LINE
  5
152
330
1F
100
AcDbEntity
  8
0
  6
Continuous
 62
     7
370
    25
100
AcDbLine
 10
7539.8557793455
 20
5383.4529377485
 30
0.0
 11
7538.6557792885
 21
5383.4529377485
 31
0.0
  0
LINE
  5
153
330
1F
100
AcDbEntity
  8
0
  6
Continuous
 62
     7
370
    25
100
AcDbLine
 10
7539.8557793455
 20
5108.452931788
 30
0.0
 11
7539.8557793455
 21
5383.4529377485
 31
0.0
  0
LINE
  5
154
330
1F
100
AcDbEntity
  8
0
  6
Continuous
 62
     7
370
    25
100
AcDbLine
 10
7539.8557793455
 20
5108.452931788
 30
0.0
 11
7538.6557792885
 21
5108.452931788
 31
0.0
  0
LINE
  5
155
330
1F
100
AcDbEntity
  8
0
  6
Continuous
 62
     7
370
    25
100
AcDbLine
 10
7538.6557792885
 20
5108.452931788
 30
0.0
 11
7538.6557792885
 21
5383.4529377485
 31
0.0
  0
LINE
  5
156
330
1F
100
AcDbEntity
  8
0
  6
Continuous
 62
     7
370
    25
100
AcDbLine
 10
7538.6557792885
 20
5386.9529224897
 30
0.0
 11
7538.6557792885
 21
5383.4529377485
 31
0.0
  0
LINE
  5
157
330
1F
100
AcDbEntity
  8
0
  6
Continuous
 62
     7
370
    25
100
AcDbLine
 10
7539.8557793455
 20
5359.9529422785
 30
0.0
 11
7557.155779527
 21
5359.9529422785
 31
0.0
  0
LINE
  5
158
330
1F
100
AcDbEntity
  8
0
  6
Continuous
 62
     7
370
    25
100
AcDbLine
 10
7687.1299063428
 20
5108.452931788
 30
0.0
 11
7680.9377437098
 21
5108.452931788
 31
0.0
  0
LINE
  5
159
330
1F
100
AcDbEntity
  8
0
  6
Continuous
 62
     7
370
    25
100
AcDbLine
 10
7624.9377419813
 20
5108.452931788
 30
0.0
 11
7539.8557793455
 21
5108.452931788
 31
0.0
  0
LINE
  5
15A
330
1F
100
AcDbEntity
  8
0
  6
Continuous
 62
     8
370
    25
100
AcDbLine
 10
7630.9245144589
 20
5126.825812083
 30
0.0
 11
7630.9245144589
 21
5119.2961575428
 31
0.0
  0
LINE
  5
15B
330
1F
100
AcDbEntity
  8
0
  6
Continuous
 62
     8
370
    25
100
AcDbLine
 10
7674.9509637816
 20
5119.2961575428
 30
0.0
 11
7674.9509637816
 21
5126.825812083
 31
0.0
  0
LINE
  5
15C
330
1F
100
AcDbEntity
  8
0
  6
Continuous
 62
     8
370
    25
100
AcDbLine
 10
7867.1557819111
 20
5171.1529351736
 30
0.0
 11
7674.9377464516
 21
5171.1529351736
 31
0.0
  0
LINE
  5
15D
330
1F
100
AcDbEntity
  8
0
  6
Continuous
 62
     8
370
    25
100
AcDbLine
 10
7630.9377392395
 20
5171.1529351736
 30
0.0
 11
7539.8557793455
 21
5171.1529351736
 31
0.0
  0
LINE
  5
15E
330
1F
100
AcDbEntity
  8
0
  6
Continuous
 62
     8
370
    25
100
AcDbLine
 10
7867.1557819111
 20
5150.7529325748
 30
0.0
 11
7682.9377477629
 21
5150.7529325748
 31
0.0
  0
LINE
  5
15F
330
1F
100
AcDbEntity
  8
0
  6
Continuous
 62
     8
370
    25
100
AcDbLine
 10
7622.9377453787
 20
5150.7529325748
 30
0.0
 11
7539.8557793455
 21
5150.7529325748
 31
0.0
  0
LINE
  5
160
330
1F
100
AcDbEntity
  8
0
  6
Continuous
 62
     8
370
    25
100
AcDbLine
 10
7863.1557738049
 20
5383.4529377485
 30
0.0
 11
7867.1557819111
 21
5383.4529377485
 31
0.0
  0
LINE
  5
161
330
1F
100
AcDbEntity
  8
0
  6
Continuous
 62
     8
370
    25
100
AcDbLine
 10
7687.1299063428
 20
5225.6222002173
 30
0.0
 11
7687.1299063428
 21
5173.4529294039
 31
0.0
  0
LINE
  5
162
330
1F
100
AcDbEntity
  8
0
  6
Continuous
 62
     8
370
    25
100
AcDbLine
 10
7687.1299063428
 20
5148.452930894
 30
0.0
 11
7687.1299063428
 21
5108.452931788
 31
0.0
  0
LINE
  5
163
330
1F
100
AcDbEntity
  8
0
  6
Continuous
 62
     8
370
    25
100
AcDbLine
 10
7539.8557793455
 20
5383.4529377485
 30
0.0
 11
7557.155779527
 21
5383.4529377485
 31
0.0
  0
LINE
  5
164
330
1F
100
AcDbEntity
  8
0
  6
Continuous
 62
     7
370
    25
100
AcDbLine
 10
8414.8508002631
 20
5226.9300304318
 30
0.0
 11
8417.8507914416
 21
5223.9300318027
 31
0.0
  0
LINE
  5
165
330
1F
100
AcDbEntity
  8
0
  6
Continuous
 62
     7
370
    25
100
AcDbLine
 10
8482.850796508
 20
5223.9300318027
 30
0.0
 11
8485.8507951371
 21
5226.9300304318
 31
0.0
  0
LINE
  5
166
330
1F
100
AcDbEntity
  8
0
  6
Continuous
 62
     7
370
    25
100
AcDbLine
 10
8485.8507951371
 20
5226.9300304318
 30
0.0
 11
8485.8507951371
 21
5228.9300270344
 31
0.0
  0
LINE
  5
167
330
1F
100
AcDbEntity
  8
0
  6
Continuous
 62
     7
370
    25
100
AcDbLine
 10
8414.8508002631
 20
5228.9300270344
 30
0.0
 11
8414.8508002631
 21
5226.9300304318
 31
0.0
  0
LINE
  5
168
330
1F
100
AcDbEntity
  8
0
  6
Continuous
 62
     7
370
    25
100
AcDbLine
 10
8530.350795912
 20
5167.9300300742
 30
0.0
 11
8510.350796359
 21
5167.9300300742
 31
0.0
  0
LINE
  5
169
330
1F
100
AcDbEntity
  8
0
  6
Continuous
 62
     7
370
    25
100
AcDbLine
 10
8510.350796359
 20
5101.9300285692
 30
0.0
 11
8530.350795912
 21
5101.9300285692
 31
0.0
  0
LINE
  5
16A
330
1F
100
AcDbEntity
  8
0
  6
Continuous
 62
     7
370
    25
100
AcDbLine
 10
8482.850796508
 20
5218.3300264145
 30
0.0
 11
8482.850796508
 21
5223.9300318027
 31
0.0
  0
LINE
  5
16B
330
1F
100
AcDbEntity
  8
0
  6
Continuous
 62
     7
370
    25
100
AcDbLine
 10
8417.8507914416
 20
5223.9300318027
 30
0.0
 11
8417.8507914416
 21
5218.3300264145
 31
0.0
  0
LINE
  5
16C
330
1F
100
AcDbEntity
  8
0
  6
Continuous
 62
     7
370
    25
100
AcDbLine
 10
8512.8507939748
 20
5005.8450184727
 30
0.0
 11
8512.8507939748
 21
5020.8450190688
 31
0.0
  0
LINE
  5
16D
330
1F
100
AcDbEntity
  8
0
  6
Continuous
 62
     7
370
    25
100
AcDbLine
 10
8447.8507926337
 20
5020.8450190688
 30
0.0
 11
8447.8507926337
 21
5005.8450184727
 31
0.0
  0
ARC
  5
16E
330
1F
100
AcDbEntity
  8
0
  6
Continuous
 62
     7
370
    25
100
AcDbCircle
 10
8480.3507949634
 20
5078.9459773974
 30
0.0
 40
79.9999999999999
100
AcDbArc
 50
246.0305176822
 51
293.9694823178
  0
LINE
  5
16F
330
1F
100
AcDbEntity
  8
0
  6
Continuous
 62
     7
370
    25
100
AcDbLine
 10
8420.3507890574
 20
5167.9300300742
 30
0.0
 11
8420.3507890574
 21
5149.9300271238
 31
0.0
  0
LINE
  5
170
330
1F
100
AcDbEntity
  8
0
  6
Continuous
 62
     7
370
    25
100
AcDbLine
 10
8480.3507914416
 20
5149.9300271238
 30
0.0
 11
8480.3507914416
 21
5167.9300300742
 31
0.0
  0
LINE
  5
171
330
1F
100
AcDbEntity
  8
0
  6
Continuous
 62
     7
370
    25
100
AcDbLine
 10
8508.3507960312
 20
5020.8450190688
 30
0.0
 11
8508.3507960312
 21
5103.9300284313
 31
0.0
  0
LINE
  5
172
330
1F
100
AcDbEntity
  8
0
  6
Continuous
 62
     7
370
    25
100
AcDbLine
 10
8452.3507943026
 20
5020.9889046813
 30
0.0
 11
8452.3507943026
 21
5020.8450190688
 31
0.0
  0
LINE
  5
173
330
1F
100
AcDbEntity
  8
0
  6
Continuous
 62
     7
370
    25
100
AcDbLine
 10
8510.350796359
 20
5162.930027392
 30
0.0
 11
8501.5934323542
 21
5162.930027392
 31
0.0
  0
ARC
  5
174
330
1F
100
AcDbEntity
  8
0
  6
Continuous
 62
     7
370
    25
100
AcDbCircle
 10
8511.3507949634
 20
5103.9300284325
 30
0.0
 40
2.999999999999097
100
AcDbArc
 50
109.1671230324
 51
177.9506607656
  0
ARC
  5
175
330
1F
100
AcDbEntity
  8
0
  6
Continuous
 62
     7
370
    25
100
AcDbCircle
 10
8501.5934356505
 20
5159.9300284325
 30
0.0
 40
2.999999999999996
100
AcDbArc
 50
92.0321711795
 51
135.0
  0
LINE
  5
176
330
1F
100
AcDbEntity
  8
0
  6
Continuous
 62
     7
370
    25
100
AcDbLine
 10
8476.3507982366
 20
5189.3300272489
 30
0.0
 11
8476.3507982366
 21
5218.3300264145
 31
0.0
  0
LINE
  5
177
330
1F
100
AcDbEntity
  8
0
  6
Continuous
 62
     7
370
    25
100
AcDbLine
 10
8424.3507971637
 20
5218.3300264145
 30
0.0
 11
8424.3507971637
 21
5189.3300272489
 31
0.0
  0
LINE
  5
178
330
1F
100
AcDbEntity
  8
0
  6
Continuous
 62
     7
370
    25
100
AcDbLine
 10
8424.3507971637
 20
5189.3300272489
 30
0.0
 11
8428.3507903687
 21
5178.3300273085
 31
0.0
  0
LINE
  5
179
330
1F
100
AcDbEntity
  8
0
  6
Continuous
 62
     7
370
    25
100
AcDbLine
 10
8472.3507975809
 20
5178.3300273085
 30
0.0
 11
8476.3507982366
 21
5189.3300272489
 31
0.0
  0
LINE
  5
17A
330
1F
100
AcDbEntity
  8
0
  6
Continuous
 62
     7
370
    25
100
AcDbLine
 10
8475.35079621
 20
5145.1726674999
 30
0.0
 11
8475.35079621
 21
5149.9300271238
 31
0.0
  0
LINE
  5
17B
330
1F
100
AcDbEntity
  8
0
  6
Continuous
 62
     7
370
    25
100
AcDbLine
 10
8425.3507991902
 20
5149.9300271238
 30
0.0
 11
8425.3507991902
 21
5048.9300273324
 31
0.0
  0
ARC
  5
17C
330
1F
100
AcDbEntity
  8
0
  6
Continuous
 62
     7
370
    25
100
AcDbCircle
 10
8450.3507949634
 20
5048.9300284325
 30
0.0
 40
25.00000000000011
100
AcDbArc
 50
180.0
 51
268.0266324941
  0
SPLINE
  5
17D
330
1F
100
AcDbEntity
  8
0
  6
Continuous
 62
     7
370
    25
100
AcDbSpline
210
0.0
220
0.0
230
1.0
 70
     8
 71
     3
 72
    14
 73
    10
 74
     0
 42
0.000000001
 43
0.00000001
 40
0.0
 40
0.0
 40
0.0
 40
0.0
 40
0.0011995235339193
 40
0.1782763483506204
 40
0.3768789855732831
 40
0.5818266812014214
 40
0.7787138038246203
 40
0.9452568989615043
 40
0.9999999999999999
 40
0.9999999999999999
 40
0.9999999999999999
 40
0.9999999999999999
 10
8449.486873077576
 20
5023.94409551866
 30
0.0
 10
8449.488673622092
 20
5023.944250964125
 30
0.0
 10
8449.7562752924
 20
5023.967353678891
 30
0.0
 10
8450.323735198243
 20
5023.810712789949
 30
0.0
 10
8451.115897132637
 20
5023.436212607385
 30
0.0
 10
8451.77919122524
 20
5022.789535351316
 30
0.0
 10
8452.18255511983
 20
5022.027070247349
 30
0.0
 10
8452.349465567342
 20
5021.405671487228
 30
0.0
 10
8452.336757148383
 20
5021.071917717347
 30
0.0
 10
8452.33361326379
 20
5020.989351716113
 30
0.0
  0
ARC
  5
17E
330
1F
100
AcDbEntity
  8
0
  6
Continuous
 62
     7
370
    25
100
AcDbCircle
 10
8478.3507949634
 20
5145.1726691196
 30
0.0
 40
3.000000000000993
100
AcDbArc
 50
181.1338144821
 51
315.0
  0
LINE
  5
17F
330
1F
100
AcDbEntity
  8
0
  6
Continuous
 62
     7
370
    25
100
AcDbLine
 10
8472.3507975809
 20
5167.9300300742
 30
0.0
 11
8472.3507975809
 21
5178.3300273085
 31
0.0
  0
LINE
  5
180
330
1F
100
AcDbEntity
  8
0
  6
Continuous
 62
     7
370
    25
100
AcDbLine
 10
8428.3507903687
 20
5178.3300273085
 30
0.0
 11
8428.3507903687
 21
5167.9300300742
 31
0.0
  0
LINE
  5
181
330
1F
100
AcDbEntity
  8
0
  6
Continuous
 62
     7
370
    25
100
AcDbLine
 10
8411.9237502686
 20
5231.9529287482
 30
0.0
 11
8412.6802077166
 21
5230.439998951
 31
0.0
  0
LINE
  5
182
330
1F
100
AcDbEntity
  8
0
  6
Continuous
 62
     7
370
    25
100
AcDbLine
 10
8488.021380233
 20
5230.439998951
 30
0.0
 11
8488.7778451316
 21
5231.9529287482
 31
0.0
  0
LINE
  5
183
330
1F
100
AcDbEntity
  8
0
  6
Continuous
 62
     7
370
    25
100
AcDbLine
 10
8412.6802077166
 20
5230.439998951
 30
0.0
 11
8414.8508002631
 21
5228.9300270344
 31
0.0
  0
LINE
  5
184
330
1F
100
AcDbEntity
  8
0
  6
Continuous
 62
     7
370
    25
100
AcDbLine
 10
8485.8507951371
 20
5228.9300270344
 30
0.0
 11
8488.021380233
 21
5230.439998951
 31
0.0
  0
LINE
  5
185
330
1F
100
AcDbEntity
  8
0
  6
Continuous
 62
     7
370
    25
100
AcDbLine
 10
8485.8507951371
 20
5226.9300304318
 30
0.0
 11
8414.8508002631
 21
5226.9300304318
 31
0.0
  0
LINE
  5
186
330
1F
100
AcDbEntity
  8
0
  6
Continuous
 62
     7
370
    25
100
AcDbLine
 10
8482.850796508
 20
5223.9300318027
 30
0.0
 11
8417.8507914416
 21
5223.9300318027
 31
0.0
  0
LINE
  5
187
330
1F
100
AcDbEntity
  8
0
  6
Continuous
 62
     7
370
    25
100
AcDbLine
 10
8485.8507951371
 20
5228.9300270344
 30
0.0
 11
8414.8508002631
 21
5228.9300270344
 31
0.0
  0
LINE
  5
188
330
1F
100
AcDbEntity
  8
0
  6
Continuous
 62
     7
370
    25
100
AcDbLine
 10
8530.350795912
 20
5167.9300300742
 30
0.0
 11
8530.350795912
 21
5101.9300285692
 31
0.0
  0
LINE
  5
189
330
1F
100
AcDbEntity
  8
0
  6
Continuous
 62
     7
370
    25
100
AcDbLine
 10
8510.350796359
 20
5167.9300300742
 30
0.0
 11
8510.350796359
 21
5101.9300285692
 31
0.0
  0
LINE
  5
18A
330
1F
100
AcDbEntity
  8
0
  6
Continuous
 62
     7
370
    25
100
AcDbLine
 10
8482.850796508
 20
5218.3300264145
 30
0.0
 11
8417.8507914416
 21
5218.3300264145
 31
0.0
  0
LINE
  5
18B
330
1F
100
AcDbEntity
  8
0
  6
Continuous
 62
     7
370
    25
100
AcDbLine
 10
8512.8507939748
 20
5020.8450190688
 30
0.0
 11
8447.8507926337
 21
5020.8450190688
 31
0.0
  0
LINE
  5
18C
330
1F
100
AcDbEntity
  8
0
  6
Continuous
 62
     7
370
    25
100
AcDbLine
 10
8512.8507939748
 20
5005.8450184727
 30
0.0
 11
8447.8507926337
 21
5005.8450184727
 31
0.0
  0
LINE
  5
18D
330
1F
100
AcDbEntity
  8
0
  6
Continuous
 62
     7
370
    25
100
AcDbLine
 10
8420.3507890574
 20
5167.9300300742
 30
0.0
 11
8480.3507914416
 21
5167.9300300742
 31
0.0
  0
LINE
  5
18E
330
1F
100
AcDbEntity
  8
0
  6
Continuous
 62
     7
370
    25
100
AcDbLine
 10
8420.3507890574
 20
5149.9300271238
 30
0.0
 11
8480.3507914416
 21
5149.9300271238
 31
0.0
  0
LWPOLYLINE
  5
18F
330
1F
100
AcDbEntity
  8
0
  6
Continuous
 62
     7
370
    25
100
AcDbPolyline
 90
        4
 70
   128
 43
0.0
 10
8480.3507914416
 20
5134.9300283904
 10
8479.6488349907
 20
5135.5567805434
 10
8478.9473106734
 20
5136.1831378157
 10
8478.2466729752
 20
5136.808707189
  0
LINE
  5
190
330
1F
100
AcDbEntity
  8
0
  6
Continuous
 62
     7
370
    25
100
AcDbLine
 10
8464.1378884785
 20
5126.825812083
 30
0.0
 11
8464.1378884785
 21
5048.9300273324
 31
0.0
  0
SPLINE
  5
191
330
1F
100
AcDbEntity
  8
0
  6
Continuous
 62
     7
370
    25
100
AcDbSpline
210
0.0
220
0.0
230
1.0
 70
     8
 71
     3
 72
    10
 73
     6
 74
     0
 42
0.000000001
 43
0.00000001
 40
0.0
 40
0.0
 40
0.0
 40
0.0
 40
0.5035300890917368
 40
0.7716287089290403
 40
0.9999999999999999
 40
0.9999999999999999
 40
0.9999999999999999
 40
0.9999999999999999
 10
8469.383551704113
 20
5128.895205255818
 30
0.0
 10
8468.560816587147
 20
5128.257750235657
 30
0.0
 10
8467.300025921702
 20
5127.280889855589
 30
0.0
 10
8465.44362501424
 20
5126.686949634978
 30
0.0
 10
8464.549278914961
 20
5126.782061539473
 30
0.0
 10
8464.137888478463
 20
5126.825812082958
 30
0.0
  0
LWPOLYLINE
  5
192
330
1F
100
AcDbEntity
  8
0
  6
Continuous
 62
     7
370
    25
100
AcDbPolyline
 90
        4
 70
   128
 43
0.0
 10
8478.2466729752
 20
5136.808707189
 10
8475.2195467822
 20
5134.1059196705
 10
8472.2534259431
 20
5131.4575903083
 10
8469.3835517041
 20
5128.8952052558
  0
LWPOLYLINE
  5
193
330
1F
100
AcDbEntity
  8
0
  6
Continuous
 62
     7
370
    25
100
AcDbPolyline
 90
        4
 70
   128
 43
0.0
 10
8478.4721126429
 20
5137.0341487194
 10
8479.0976857416
 20
5136.3335110212
 10
8479.7240411512
 20
5135.6319904292
 10
8480.3507914416
 20
5134.9300283904
  0
LWPOLYLINE
  5
194
330
1F
100
AcDbEntity
  8
0
  6
Continuous
 62
     7
370
    25
100
AcDbPolyline
 90
       15
 70
   128
 43
0.0
 10
8480.3507914416
 20
5134.9300283904
 10
8483.2607423536
 20
5132.3016870732
 10
8486.1449962131
 20
5129.6965561772
 10
8488.9780794851
 20
5127.1376430953
 10
8491.7349731199
 20
5124.6475435758
 10
8494.3913360707
 20
5122.248247076
 10
8496.9237139098
 20
5119.9609439785
 10
8499.3097250931
 20
5117.8058309445
 10
8501.5283217303
 20
5115.8019414137
 10
8503.5598938934
 20
5113.966971446
 10
8505.3865117602
 20
5112.3171244247
 10
8506.992037373
 20
5110.8669711242
 10
8508.3622960023
 20
5109.6293174627
 10
8509.4851879053
 20
5108.6150929326
 10
8510.350796359
 20
5107.8332542523
  0
ARC
  5
195
330
1F
100
AcDbEntity
  8
0
  6
Continuous
 62
     7
370
    25
100
AcDbCircle
 10
8518.2328689855
 20
5097.0482812208
 30
0.0
 40
56.38960316003077
100
AcDbArc
 50
134.8382641887
 51
135.162209203
  0
ARC
  5
196
330
1F
100
AcDbEntity
  8
0
  6
Continuous
 62
     7
370
    25
100
AcDbCircle
 10
8487.1077701464
 20
5146.6359306904
 30
0.0
 40
13.23228494335362
100
AcDbArc
 50
215.6164282479
 51
227.9593738227
  0
ARC
  5
197
330
1F
100
AcDbEntity
  8
0
  6
Continuous
 62
     7
370
    25
100
AcDbCircle
 10
8468.6448330191
 20
5128.1730507408
 30
0.0
 40
13.23232716460896
100
AcDbArc
 50
42.0404660405
 51
54.3833641019
  0
LWPOLYLINE
  5
198
330
1F
100
AcDbEntity
  8
0
  6
Continuous
 62
     7
370
    25
100
AcDbPolyline
 90
        9
 70
   128
 43
0.0
 10
8469.3835517041
 20
5128.8952052558
 10
8469.0986936562
 20
5129.24969643
 10
8468.8517218105
 20
5129.5949898625
 10
8468.6490436665
 20
5129.9221225048
 10
8468.4959267847
 20
5130.2226044203
 10
8468.3963348739
 20
5130.4886385763
 10
8468.3528681867
 20
5130.7133182848
 10
8468.3666368596
 20
5130.8908171917
 10
8468.4372907154
 20
5131.0165252501
  0
LWPOLYLINE
  5
199
330
1F
100
AcDbEntity
  8
0
  6
Continuous
 62
     7
370
    25
100
AcDbPolyline
 90
        4
 70
   128
 43
0.0
 10
8468.4372907154
 20
5131.0165252501
 10
8470.9996794931
 20
5133.5789121652
 10
8473.6480032675
 20
5136.2272396649
 10
8476.3507982366
 20
5138.930029046
  0
LWPOLYLINE
  5
19A
330
1F
100
AcDbEntity
  8
0
  6
Continuous
 62
     7
370
    25
100
AcDbPolyline
 90
       17
 70
   128
 43
0.0
 10
8476.3507982366
 20
5138.930029046
 10
8478.8229306809
 20
5141.402163353
 10
8481.2518497579
 20
5143.83108243
 10
8483.6134304873
 20
5146.1926594342
 10
8485.8842035405
 20
5148.4634399379
 10
8488.0416309111
 20
5150.6208598579
 10
8490.0642623774
 20
5152.6434987748
 10
8491.9320260755
 20
5154.5112624729
 10
8493.6263626091
 20
5156.2055952812
 10
8495.1304411165
 20
5157.7096737886
 10
8496.4293231837
 20
5159.0085558558
 10
8497.5101044051
 20
5160.0893370772
 10
8498.362048494
 20
5160.9412848914
 10
8498.9767064921
 20
5161.5559354389
 10
8499.3479540221
 20
5161.9271866942
 10
8499.4721179478
 20
5162.0513506199
 10
8499.4721179478
 20
5162.0513506199
  0
ARC
  5
19B
330
1F
100
AcDbEntity
  8
0
  6
Continuous
 62
     7
370
    25
100
AcDbCircle
 10
8468.934934899
 20
5126.0440991839
 30
0.0
 40
4.860321945845268
100
AcDbArc
 50
144.6045624544
 51
170.7445980252
  0
SPLINE
  5
19C
330
1F
100
AcDbEntity
  8
0
  6
Continuous
 62
     7
370
    25
100
AcDbSpline
210
0.0
220
0.0
230
1.0
 70
     8
 71
     3
 72
    11
 73
     7
 74
     0
 42
0.000000001
 43
0.00000001
 40
0.0
 40
0.0
 40
0.0
 40
0.0
 40
0.1374429446451877
 40
0.1820115274690524
 40
0.4387448563123309
 40
1.0
 40
1.0
 40
1.0
 40
1.0
 10
8464.972927200024
 20
5128.859276693534
 30
0.0
 10
8465.150447207307
 20
5128.868772844109
 30
0.0
 10
8465.385531574606
 20
5128.881348308612
 30
0.0
 10
8465.947611978278
 20
5129.076767184271
 30
0.0
 10
8467.007076420594
 20
5129.673585968345
 30
0.0
 10
8467.855294090514
 20
5130.470043417128
 30
0.0
 10
8468.437290715401
 20
5131.016525250148
 30
0.0
  0
LINE
  5
19D
330
1F
100
AcDbEntity
  8
0
  6
Continuous
 62
     7
370
    25
100
AcDbLine
 10
8476.3507982366
 20
5189.3300272489
 30
0.0
 11
8424.3507971637
 21
5189.3300272489
 31
0.0
  0
LINE
  5
19E
330
1F
100
AcDbEntity
  8
0
  6
Continuous
 62
     7
370
    25
100
AcDbLine
 10
8472.3507975809
 20
5178.3300273085
 30
0.0
 11
8428.3507903687
 21
5178.3300273085
 31
0.0
  0
LINE
  5
19F
330
1F
100
AcDbEntity
  8
0
  6
Continuous
 62
     7
370
    25
100
AcDbLine
 10
8461.1097266547
 20
5048.9300273324
 30
0.0
 11
8461.1097266547
 21
5129.2226694489
 31
0.0
  0
LINE
  5
1A0
330
1F
100
AcDbEntity
  8
0
  6
Continuous
 62
     7
370
    25
100
AcDbLine
 10
8461.1097266547
 20
5048.9300273324
 30
0.0
 11
8464.1378884785
 21
5048.9300273324
 31
0.0
  0
SPLINE
  5
1A1
330
1F
100
AcDbEntity
  8
0
  6
Continuous
 62
     7
370
    25
100
AcDbSpline
210
0.0
220
0.0
230
1.0
 70
     8
 71
     3
 72
    12
 73
     8
 74
     0
 42
0.000000001
 43
0.00000001
 40
0.0
 40
0.0
 40
0.0
 40
0.0
 40
0.0053212855399935
 40
0.0597335215728539
 40
0.4061829981947099
 40
0.7139153174870477
 40
1.0
 40
1.0
 40
1.0
 40
1.0
 10
8461.109726654713
 20
5129.222669448924
 30
0.0
 10
8461.116112299187
 20
5129.221984571191
 30
0.0
 10
8461.187793668105
 20
5129.214296549479
 30
0.0
 10
8461.680327779946
 20
5129.162134824594
 30
0.0
 10
8462.590780954572
 20
5129.072370116026
 30
0.0
 10
8463.86795141376
 20
5128.954178523169
 30
0.0
 10
8464.613663599748
 20
5128.890132367849
 30
0.0
 10
8464.972927200024
 20
5128.859276693534
 30
0.0
  0
SPLINE
  5
1A2
330
1F
100
AcDbEntity
  8
0
  6
Continuous
 62
     7
370
    25
100
AcDbSpline
210
0.0
220
0.0
230
1.0
 70
     8
 71
     3
 72
    12
 73
     8
 74
     0
 42
0.000000001
 43
0.00000001
 40
0.0
 40
0.0
 40
0.0
 40
0.0
 40
0.2884594431570164
 40
0.5960430603798914
 40
0.9405740867603642
 40
0.995926329718908
 40
1.0
 40
1.0
 40
1.0
 40
1.0
 10
8464.137888478463
 20
5126.825812082958
 30
0.0
 10
8463.83676071595
 20
5127.002134655293
 30
0.0
 10
8463.214541137462
 20
5127.36646956657
 30
0.0
 10
8462.216046614605
 20
5128.165231735867
 30
0.0
 10
8461.527791871791
 20
5128.800437912306
 30
0.0
 10
8461.165842283697
 20
5129.165346442815
 30
0.0
 10
8461.11332662431
 20
5129.218992022813
 30
0.0
 10
8461.109726654713
 20
5129.222669448924
 30
0.0
  0
LINE
  5
1A3
330
1F
100
AcDbEntity
  8
0
  6
Continuous
 62
     7
370
    25
100
AcDbLine
 10
8206.1327537171
 20
5358.452931788
 30
0.0
 11
8206.1327537171
 21
5108.452931788
 31
0.0
  0
LINE
  5
1A4
330
1F
100
AcDbEntity
  8
0
  6
Continuous
 62
     7
370
    25
100
AcDbLine
 10
8204.6327432267
 20
5358.452931788
 30
0.0
 11
8206.1327537171
 21
5358.452931788
 31
0.0
  0
LINE
  5
1A5
330
1F
100
AcDbEntity
  8
0
  6
Continuous
 62
     7
370
    25
100
AcDbLine
 10
8204.6327432267
 20
5358.452931788
 30
0.0
 11
8204.6327432267
 21
5408.452943709
 31
0.0
  0
LINE
  5
1A6
330
1F
100
AcDbEntity
  8
0
  6
Continuous
 62
     7
370
    25
100
AcDbLine
 10
8224.6327539555
 20
5428.4529246355
 30
0.0
 11
8564.6327575318
 21
5428.4529246355
 31
0.0
  0
LINE
  5
1A7
330
1F
100
AcDbEntity
  8
0
  6
Continuous
 62
     7
370
    25
100
AcDbLine
 10
8564.6327575318
 20
5428.4529246355
 30
0.0
 11
8564.6327575318
 21
5386.9529224897
 31
0.0
  0
LINE
  5
1A8
330
1F
100
AcDbEntity
  8
0
  6
Continuous
 62
     7
370
    25
100
AcDbLine
 10
8564.6327575318
 20
5386.9529224897
 30
0.0
 11
8209.6327682607
 21
5386.9529224897
 31
0.0
  0
ARC
  5
1A9
330
1F
100
AcDbEntity
  8
0
  6
Continuous
 62
     7
370
    25
100
AcDbCircle
 10
8209.6327575318
 20
5383.452931788
 30
0.0
 40
3.5
100
AcDbArc
 50
90.0
 51
180.0
  0
LINE
  5
1AA
330
1F
100
AcDbEntity
  8
0
  6
Continuous
 62
     7
370
    25
100
AcDbLine
 10
8236.1327549092
 20
5383.4529377485
 30
0.0
 11
8206.1327537171
 21
5383.4529377485
 31
0.0
  0
LINE
  5
1AB
330
1F
100
AcDbEntity
  8
0
  6
Continuous
 62
     7
370
    25
100
AcDbLine
 10
8236.1327549092
 20
5108.452931788
 30
0.0
 11
8236.1327549092
 21
5383.4529377485
 31
0.0
  0
LINE
  5
1AC
330
1F
100
AcDbEntity
  8
0
  6
Continuous
 62
     7
370
    25
100
AcDbLine
 10
8206.1327537171
 20
5108.452931788
 30
0.0
 11
8236.1327549092
 21
5108.452931788
 31
0.0
  0
LINE
  5
1AD
330
1F
100
AcDbEntity
  8
0
  6
Continuous
 62
     7
370
    25
100
AcDbLine
 10
8213.6327465646
 20
5364.4529439474
 30
0.0
 11
8213.6327465646
 21
5359.797225144
 31
0.0
  0
ARC
  5
1AE
330
1F
100
AcDbEntity
  8
0
  6
Continuous
 62
     7
370
    25
100
AcDbCircle
 10
8217.6327575318
 20
5353.452931788
 30
0.0
 40
7.500000000000136
100
AcDbArc
 50
122.2309526355
 51
270.0
  0
LINE
  5
1AF
330
1F
100
AcDbEntity
  8
0
  6
Continuous
 62
     7
370
    25
100
AcDbLine
 10
8217.6327546708
 20
5345.9529288078
 30
0.0
 11
8224.6327539555
 21
5345.9529288078
 31
0.0
  0
ARC
  5
1B0
330
1F
100
AcDbEntity
  8
0
  6
Continuous
 62
     7
370
    25
100
AcDbCircle
 10
8224.6327575318
 20
5353.452931788
 30
0.0
 40
7.5
100
AcDbArc
 50
270.0
 51
90.0
  0
LINE
  5
1B1
330
1F
100
AcDbEntity
  8
0
  6
Continuous
 62
     7
370
    25
100
AcDbLine
 10
8224.6327539555
 20
5360.9529294039
 30
0.0
 11
8218.6327715985
 21
5360.9529294039
 31
0.0
  0
LINE
  5
1B2
330
1F
100
AcDbEntity
  8
0
  6
Continuous
 62
     7
370
    25
100
AcDbLine
 10
8218.6327715985
 20
5360.9529294039
 30
0.0
 11
8218.6327715985
 21
5364.4529439474
 31
0.0
  0
ARC
  5
1B3
330
1F
100
AcDbEntity
  8
0
  6
Continuous
 62
     7
370
    25
100
AcDbCircle
 10
8216.1327575318
 20
5364.452931788
 30
0.0
 40
2.5
100
AcDbArc
 50
0.0
 51
180.0
  0
LINE
  5
1B4
330
1F
100
AcDbEntity
  8
0
  6
Continuous
 62
     7
370
    25
100
AcDbLine
 10
8217.6327546708
 20
5115.9529316204
 30
0.0
 11
8224.6327539555
 21
5115.9529316204
 31
0.0
  0
ARC
  5
1B5
330
1F
100
AcDbEntity
  8
0
  6
Continuous
 62
     7
370
    25
100
AcDbCircle
 10
8224.6327575318
 20
5123.452931788
 30
0.0
 40
7.500000000000909
100
AcDbArc
 50
270.0
 51
90.0
  0
LINE
  5
1B6
330
1F
100
AcDbEntity
  8
0
  6
Continuous
 62
     7
370
    25
100
AcDbLine
 10
8224.6327539555
 20
5130.9529326821
 30
0.0
 11
8218.6327715985
 21
5130.9529326821
 31
0.0
  0
LINE
  5
1B7
330
1F
100
AcDbEntity
  8
0
  6
Continuous
 62
     7
370
    25
100
AcDbLine
 10
8218.6327715985
 20
5130.9529326821
 30
0.0
 11
8218.6327715985
 21
5134.4529323245
 31
0.0
  0
ARC
  5
1B8
330
1F
100
AcDbEntity
  8
0
  6
Continuous
 62
     7
370
    25
100
AcDbCircle
 10
8216.1327575318
 20
5134.452931788
 30
0.0
 40
2.5
100
AcDbArc
 50
0.0
 51
180.0
  0
LINE
  5
1B9
330
1F
100
AcDbEntity
  8
0
  6
Continuous
 62
     7
370
    25
100
AcDbLine
 10
8213.6327465646
 20
5134.4529323245
 30
0.0
 11
8213.6327465646
 21
5129.7972209717
 31
0.0
  0
ARC
  5
1BA
330
1F
100
AcDbEntity
  8
0
  6
Continuous
 62
     7
370
    25
100
AcDbCircle
 10
8217.6327575318
 20
5123.452931788
 30
0.0
 40
7.500000000000136
100
AcDbArc
 50
122.2309526355
 51
270.0
  0
ARC
  5
1BB
330
1F
100
AcDbEntity
  8
0
  6
Continuous
 62
     7
370
    25
100
AcDbCircle
 10
8224.6327575318
 20
5408.452931788
 30
0.0
 40
19.99999999999909
100
AcDbArc
 50
90.0
 51
180.0
  0
LINE
  5
1BC
330
1F
100
AcDbEntity
  8
0
  6
Continuous
 62
     7
370
    25
100
AcDbLine
 10
8563.4327574748
 20
5172.1529297496
 30
0.0
 11
8472.3507975809
 21
5172.1529297496
 31
0.0
  0
LINE
  5
1BD
330
1F
100
AcDbEntity
  8
0
  6
Continuous
 62
     7
370
    25
100
AcDbLine
 10
8428.3507903687
 20
5172.1529297496
 30
0.0
 11
8236.1327549092
 21
5172.1529297496
 31
0.0
  0
LINE
  5
1BE
330
1F
100
AcDbEntity
  8
0
  6
Continuous
 62
     7
370
    25
100
AcDbLine
 10
8563.4327574748
 20
5173.4529294039
 30
0.0
 11
8472.3507975809
 21
5173.4529294039
 31
0.0
  0
LINE
  5
1BF
330
1F
100
AcDbEntity
  8
0
  6
Continuous
 62
     7
370
    25
100
AcDbLine
 10
8428.3507903687
 20
5173.4529294039
 30
0.0
 11
8236.1327549092
 21
5173.4529294039
 31
0.0
  0
LINE
  5
1C0
330
1F
100
AcDbEntity
  8
0
  6
Continuous
 62
     7
370
    25
100
AcDbLine
 10
8563.4327574748
 20
5148.452930894
 30
0.0
 11
8530.350795912
 21
5148.452930894
 31
0.0
  0
LINE
  5
1C1
330
1F
100
AcDbEntity
  8
0
  6
Continuous
 62
     7
370
    25
100
AcDbLine
 10
8485.8736982219
 20
5148.452930894
 30
0.0
 11
8475.35079621
 21
5148.452930894
 31
0.0
  0
LINE
  5
1C2
330
1F
100
AcDbEntity
  8
0
  6
Continuous
 62
     7
370
    25
100
AcDbLine
 10
8425.3507991902
 20
5148.452930894
 30
0.0
 11
8236.1327549092
 21
5148.452930894
 31
0.0
  0
LINE
  5
1C3
330
1F
100
AcDbEntity
  8
0
  6
Continuous
 62
     7
370
    25
100
AcDbLine
 10
8563.4327574748
 20
5149.7529305483
 30
0.0
 11
8530.350795912
 21
5149.7529305483
 31
0.0
  0
LINE
  5
1C4
330
1F
100
AcDbEntity
  8
0
  6
Continuous
 62
     7
370
    25
100
AcDbLine
 10
8487.1736978762
 20
5149.7529305483
 30
0.0
 11
8475.35079621
 21
5149.7529305483
 31
0.0
  0
LINE
  5
1C5
330
1F
100
AcDbEntity
  8
0
  6
Continuous
 62
     7
370
    25
100
AcDbLine
 10
8425.3507991902
 20
5149.7529305483
 30
0.0
 11
8236.1327549092
 21
5149.7529305483
 31
0.0
  0
LINE
  5
1C6
330
1F
100
AcDbEntity
  8
0
  6
Continuous
 62
     7
370
    25
100
AcDbLine
 10
8286.6327603928
 20
5383.4529377485
 30
0.0
 11
8286.6327603928
 21
5386.9529224897
 31
0.0
  0
LINE
  5
1C7
330
1F
100
AcDbEntity
  8
0
  6
Continuous
 62
     7
370
    25
100
AcDbLine
 10
8240.1327630155
 20
5383.4529377485
 30
0.0
 11
8286.6327603928
 21
5383.4529377485
 31
0.0
  0
ARC
  5
1C8
330
1F
100
AcDbEntity
  8
0
  6
Continuous
 62
     7
370
    25
100
AcDbCircle
 10
8236.6327575318
 20
5383.452931788
 30
0.0
 40
3.5
100
AcDbArc
 50
0.0
 51
90.0
  0
LINE
  5
1C9
330
1F
100
AcDbEntity
  8
0
  6
Continuous
 62
     7
370
    25
100
AcDbLine
 10
8431.8510135285
 20
5386.9529224897
 30
0.0
 11
8431.8510135285
 21
5383.4529377485
 31
0.0
  0
LINE
  5
1CA
330
1F
100
AcDbEntity
  8
0
  6
Continuous
 62
     7
370
    25
100
AcDbLine
 10
8286.6327603928
 20
5383.4529377485
 30
0.0
 11
8431.8510135285
 21
5383.4529377485
 31
0.0
  0
LINE
  5
1CB
330
1F
100
AcDbEntity
  8
0
  6
Continuous
 62
     7
370
    25
100
AcDbLine
 10
8431.8510135285
 20
5383.4529377485
 30
0.0
 11
8546.1327572934
 21
5383.4529377485
 31
0.0
  0
ARC
  5
1CC
330
1F
100
AcDbEntity
  8
0
  6
Continuous
 62
     7
370
    25
100
AcDbCircle
 10
8549.6327575318
 20
5383.452931788
 30
0.0
 40
3.5
100
AcDbArc
 50
90.0
 51
180.0
  0
ARC
  5
1CD
330
1F
100
AcDbEntity
  8
0
  6
Continuous
 62
     7
370
    25
100
AcDbCircle
 10
8391.6327575318
 20
5383.452931788
 30
0.0
 40
105.0
100
AcDbArc
 50
180.0
 51
270.0
  0
LINE
  5
1CE
330
1F
100
AcDbEntity
  8
0
  6
Continuous
 62
     7
370
    25
100
AcDbLine
 10
8391.6327645652
 20
5231.9529287482
 30
0.0
 11
8391.6327645652
 21
5278.4529335762
 31
0.0
  0
ARC
  5
1CF
330
1F
100
AcDbEntity
  8
0
  6
Continuous
 62
     7
370
    25
100
AcDbCircle
 10
8391.6327575318
 20
5383.452931788
 30
0.0
 40
151.5
100
AcDbArc
 50
180.0
 51
270.0
  0
LINE
  5
1D0
330
1F
100
AcDbEntity
  8
0
  6
Continuous
 62
     7
370
    25
100
AcDbLine
 10
8431.8510135285
 20
5278.4529335762
 30
0.0
 11
8431.8510135285
 21
5383.4529377485
 31
0.0
  0
LINE
  5
1D1
330
1F
100
AcDbEntity
  8
0
  6
Continuous
 62
     7
370
    25
100
AcDbLine
 10
8431.8510135285
 20
5278.4529335762
 30
0.0
 11
8391.6327645652
 21
5278.4529335762
 31
0.0
  0
LINE
  5
1D2
330
1F
100
AcDbEntity
  8
0
  6
Continuous
 62
     7
370
    25
100
AcDbLine
 10
8431.8510135285
 20
5231.9529287482
 30
0.0
 11
8431.8510135285
 21
5278.4529335762
 31
0.0
  0
LINE
  5
1D3
330
1F
100
AcDbEntity
  8
0
  6
Continuous
 62
     7
370
    25
100
AcDbLine
 10
8391.6327645652
 20
5231.9529287482
 30
0.0
 11
8431.8510135285
 21
5231.9529287482
 31
0.0
  0
LINE
  5
1D4
330
1F
100
AcDbEntity
  8
0
  6
Continuous
 62
     7
370
    25
100
AcDbLine
 10
8546.1327572934
 20
5278.4529335762
 30
0.0
 11
8546.1327572934
 21
5383.4529377485
 31
0.0
  0
LINE
  5
1D5
330
1F
100
AcDbEntity
  8
0
  6
Continuous
 62
     7
370
    25
100
AcDbLine
 10
8546.1327572934
 20
5278.4529335762
 30
0.0
 11
8431.8510135285
 21
5278.4529335762
 31
0.0
  0
ARC
  5
1D6
330
1F
100
AcDbEntity
  8
0
  6
Continuous
 62
     7
370
    25
100
AcDbCircle
 10
8499.6327575318
 20
5278.452931788
 30
0.0
 40
46.5
100
AcDbArc
 50
270.0
 51
0.0
  0
LINE
  5
1D7
330
1F
100
AcDbEntity
  8
0
  6
Continuous
 62
     7
370
    25
100
AcDbLine
 10
8431.8510135285
 20
5231.9529287482
 30
0.0
 11
8499.632759916
 21
5231.9529287482
 31
0.0
  0
LINE
  5
1D8
330
1F
100
AcDbEntity
  8
0
  6
Continuous
 62
     7
370
    25
100
AcDbLine
 10
8412.6802077166
 20
5230.439998951
 30
0.0
 11
8488.021380233
 21
5230.439998951
 31
0.0
  0
LINE
  5
1D9
330
1F
100
AcDbEntity
  8
0
  6
Continuous
 62
     7
370
    25
100
AcDbLine
 10
8213.6327465646
 20
5359.9529422785
 30
0.0
 11
8228.374405729
 21
5359.9529422785
 31
0.0
  0
LINE
  5
1DA
330
1F
100
AcDbEntity
  8
0
  6
Continuous
 62
     7
370
    25
100
AcDbLine
 10
8236.1327549092
 20
5359.9529422785
 30
0.0
 11
8241.9664701096
 21
5359.9529422785
 31
0.0
  0
LINE
  5
1DB
330
1F
100
AcDbEntity
  8
0
  6
Continuous
 62
     7
370
    25
100
AcDbLine
 10
8416.1586304776
 20
5108.452931788
 30
0.0
 11
8236.1327549092
 21
5108.452931788
 31
0.0
  0
LINE
  5
1DC
330
1F
100
AcDbEntity
  8
0
  6
Continuous
 62
     7
370
    25
100
AcDbLine
 10
8563.4327574748
 20
5383.4529377485
 30
0.0
 11
8564.6327575318
 21
5383.4529377485
 31
0.0
  0
LINE
  5
1DD
330
1F
100
AcDbEntity
  8
0
  6
Continuous
 62
     7
370
    25
100
AcDbLine
 10
8563.4327574748
 20
5108.452931788
 30
0.0
 11
8563.4327574748
 21
5383.4529377485
 31
0.0
  0
LINE
  5
1DE
330
1F
100
AcDbEntity
  8
0
  6
Continuous
 62
     7
370
    25
100
AcDbLine
 10
8564.6327575318
 20
5108.452931788
 30
0.0
 11
8564.6327575318
 21
5383.4529377485
 31
0.0
  0
LINE
  5
1DF
330
1F
100
AcDbEntity
  8
0
  6
Continuous
 62
     7
370
    25
100
AcDbLine
 10
8563.4327574748
 20
5108.452931788
 30
0.0
 11
8564.6327575318
 21
5108.452931788
 31
0.0
  0
LINE
  5
1E0
330
1F
100
AcDbEntity
  8
0
  6
Continuous
 62
     7
370
    25
100
AcDbLine
 10
8564.6327575318
 20
5383.4529377485
 30
0.0
 11
8564.6327575318
 21
5386.9529224897
 31
0.0
  0
LINE
  5
1E1
330
1F
100
AcDbEntity
  8
0
  6
Continuous
 62
     7
370
    25
100
AcDbLine
 10
8546.1327572934
 20
5359.9529422785
 30
0.0
 11
8563.4327574748
 21
5359.9529422785
 31
0.0
  0
LINE
  5
1E2
330
1F
100
AcDbEntity
  8
0
  6
Continuous
 62
     7
370
    25
100
AcDbLine
 10
8563.4327574748
 20
5108.452931788
 30
0.0
 11
8530.350795912
 21
5108.452931788
 31
0.0
  0
LINE
  5
1E3
330
1F
100
AcDbEntity
  8
0
  6
Continuous
 62
     7
370
    25
100
AcDbLine
 10
8425.3507991902
 20
5108.452931788
 30
0.0
 11
8416.1586304776
 21
5108.452931788
 31
0.0
  0
LWPOLYLINE
  5
1E4
330
1F
100
AcDbEntity
  8
0
  6
Continuous
 62
     8
370
    25
100
AcDbPolyline
 90
       18
 70
   128
 43
0.0
 10
8508.3507960312
 20
5103.9300284313
 10
8508.2313520483
 20
5104.0622687864
 10
8507.8740408294
 20
5104.4578624854
 10
8507.281913387
 20
5105.1134334842
 10
8506.4600174896
 20
5106.0233894235
 10
8505.4153678588
 20
5107.179966449
 10
8504.156875389
 20
5108.5732972273
 10
8502.6952763669
 20
5110.1914943859
 10
8501.0430430643
 20
5112.0207519701
 10
8499.214275705
 20
5114.0454633126
 10
8497.2245683543
 20
5116.2483545916
 10
8495.0908934347
 20
5118.6106314848
 10
8492.8314676158
 20
5121.1121397058
 10
8490.465558099
 20
5123.731536601
 10
8488.0133559577
 20
5126.4464750851
 10
8485.4957824222
 20
5129.2337931658
 10
8482.9343100659
 20
5132.069709521
 10
8480.3507914416
 20
5134.9300283904
  0
SPLINE
  5
1E5
330
1F
100
AcDbEntity
  8
0
  6
Continuous
 62
     8
370
    25
100
AcDbSpline
210
0.0
220
0.0
230
1.0
 70
     8
 71
     3
 72
    18
 73
    14
 74
     0
 42
0.000000001
 43
0.00000001
 40
0.0
 40
0.0
 40
0.0
 40
0.0
 40
0.1317893632387744
 40
0.2386140133533926
 40
0.3483653396977198
 40
0.4436234349465942
 40
0.5410236707593243
 40
0.6239534568717844
 40
0.7087771000343496
 40
0.7847181157781394
 40
0.8626877782338997
 40
0.9387395113016953
 40
1.0
 40
1.0
 40
1.0
 40
1.0
 10
8464.137888478463
 20
5048.930027332377
 30
0.0
 10
8464.045750134961
 20
5047.051224376249
 30
0.0
 10
8463.878927112324
 20
5043.649518027237
 30
0.0
 10
8462.702581335856
 20
5038.879162869162
 30
0.0
 10
8461.235338541625
 20
5034.868906136335
 30
0.0
 10
8459.515184868496
 20
5031.307994254035
 30
0.0
 10
8457.828249278358
 20
5028.399667733872
 30
0.0
 10
8456.221032922482
 20
5025.96441800562
 30
0.0
 10
8454.857383477034
 20
5024.082347441358
 30
0.0
 10
8453.72296977699
 20
5022.617798554423
 30
0.0
 10
8452.908705247726
 20
5021.614170693561
 30
0.0
 10
8452.417066302198
 20
5021.026318030431
 30
0.0
 10
8452.395083153751
 20
5021.000446851636
 30
0.0
 10
8452.38527558965
 20
5020.988904681277
 30
0.0
  0
LWPOLYLINE
  5
1E6
330
1F
100
AcDbEntity
  8
0
  6
Continuous
 62
     8
370
    25
100
AcDbPolyline
 90
       16
 70
   128
 43
0.0
 10
8501.5934323542
 20
5162.930027392
 10
8501.4692758791
 20
5162.7909660304
 10
8501.0980208985
 20
5162.3751677538
 10
8500.483370351
 20
5161.6867564584
 10
8499.6314262621
 20
5160.7325755025
 10
8498.5506450407
 20
5159.5220982993
 10
8497.2517629735
 20
5158.0673538113
 10
8495.7476844661
 20
5156.382784989
 10
8494.0533479325
 20
5154.4851295615
 10
8492.1855842344
 20
5152.3932374979
 10
8490.1629453175
 20
5150.1278810168
 10
8488.0055253975
 20
5147.7115683223
 10
8485.7347448937
 20
5145.1682977343
 10
8483.3731716148
 20
5142.5233304466
 10
8480.9442525379
 20
5139.8029409314
 10
8478.4721126429
 20
5137.0341487194
  0
LWPOLYLINE
  5
1E7
330
1F
100
AcDbEntity
  8
0
  6
Continuous
 62
     8
370
    25
100
AcDbPolyline
 90
       13
 70
   128
 43
0.0
 10
8461.1097266547
 20
5129.2226694489
 10
8463.2640396826
 20
5131.6355064476
 10
8465.2946805231
 20
5133.9098241145
 10
8467.1821957104
 20
5136.0238369519
 10
8468.9085026853
 20
5137.9572980071
 10
8470.4570611588
 20
5139.6916888619
 10
8471.8130519263
 20
5141.2104003096
 10
8472.9634811751
 20
5142.4988813663
 10
8473.8973369471
 20
5143.5447975958
 10
8474.6056636445
 20
5144.3381242419
 10
8475.0816886894
 20
5144.8712728883
 10
8475.320844876
 20
5145.1391287113
 10
8475.35079621
 20
5145.1726674999
  0
LINE
  5
1E8
330
1F
100
AcDbEntity
  8
0
  6
Continuous
 62
     8
370
    25
100
AcDbLine
 10
8461.1097266547
 20
5048.9300273324
 30
0.0
 11
8425.3507991902
 21
5048.9300273324
 31
0.0
  0
SPLINE
  5
1E9
330
1F
100
AcDbEntity
  8
0
  6
Continuous
 62
     8
370
    25
100
AcDbSpline
210
0.0
220
0.0
230
1.0
 70
     8
 71
     3
 72
    18
 73
    14
 74
     0
 42
0.000000001
 43
0.00000001
 40
0.0
 40
0.0
 40
0.0
 40
0.0
 40
0.0616984115898193
 40
0.1441308530917685
 40
0.2230533129337867
 40
0.3039982893963669
 40
0.3883583671375588
 40
0.4746888950305466
 40
0.5690154932806766
 40
0.6656259748231713
 40
0.7685188135749516
 40
0.874595457668975
 40
1.0
 40
1.0
 40
1.0
 40
1.0
 10
8449.490769731228
 20
5023.981244113516
 30
0.0
 10
8449.49926532609
 20
5023.990283809984
 30
0.0
 10
8449.519111498845
 20
5024.011401033752
 30
0.0
 10
8449.993696060474
 20
5024.523561625293
 30
0.0
 10
8450.800474345742
 20
5025.42138374326
 30
0.0
 10
8451.90525034581
 20
5026.707845294336
 30
0.0
 10
8453.26038034454
 20
5028.395000984
 30
0.0
 10
8454.82963479919
 20
5030.53719205968
 30
0.0
 10
8456.510211431385
 20
5033.146281435314
 30
0.0
 10
8458.194842942097
 20
5036.279542827204
 30
0.0
 10
8459.667088833614
 20
5039.886971061833
 30
0.0
 10
8460.84815061862
 20
5044.148741559275
 30
0.0
 10
8461.017812575647
 20
5047.249951874555
 30
0.0
 10
8461.109726654713
 20
5048.930027332377
 30
0.0
  0
LINE
  5
1EA
330
1F
100
AcDbEntity
  8
0
  6
Continuous
 62
     8
370
    25
100
AcDbLine
 10
8563.4327574748
 20
5171.1529351736
 30
0.0
 11
8472.3507975809
 21
5171.1529351736
 31
0.0
  0
LINE
  5
1EB
330
1F
100
AcDbEntity
  8
0
  6
Continuous
 62
     8
370
    25
100
AcDbLine
 10
8428.3507903687
 20
5171.1529351736
 30
0.0
 11
8236.1327549092
 21
5171.1529351736
 31
0.0
  0
LINE
  5
1EC
330
1F
100
AcDbEntity
  8
0
  6
Continuous
 62
     8
370
    25
100
AcDbLine
 10
8563.4327574748
 20
5150.7529325748
 30
0.0
 11
8530.350795912
 21
5150.7529325748
 31
0.0
  0
LINE
  5
1ED
330
1F
100
AcDbEntity
  8
0
  6
Continuous
 62
     8
370
    25
100
AcDbLine
 10
8488.1736999027
 20
5150.7529325748
 30
0.0
 11
8480.3507914416
 21
5150.7529325748
 31
0.0
  0
LINE
  5
1EE
330
1F
100
AcDbEntity
  8
0
  6
Continuous
 62
     8
370
    25
100
AcDbLine
 10
8420.3507890574
 20
5150.7529325748
 30
0.0
 11
8236.1327549092
 21
5150.7529325748
 31
0.0
  0
LINE
  5
1EF
330
1F
100
AcDbEntity
  8
0
  6
Continuous
 62
     8
370
    25
100
AcDbLine
 10
8416.1586304776
 20
5225.6222002173
 30
0.0
 11
8416.1586304776
 21
5173.4529294039
 31
0.0
  0
LINE
  5
1F0
330
1F
100
AcDbEntity
  8
0
  6
Continuous
 62
     8
370
    25
100
AcDbLine
 10
8416.1586304776
 20
5148.452930894
 30
0.0
 11
8416.1586304776
 21
5108.452931788
 31
0.0
  0
LINE
  5
1F1
330
1F
100
AcDbEntity
  8
0
  6
Continuous
 62
     8
370
    25
100
AcDbLine
 10
8236.1327549092
 20
5383.4529377485
 30
0.0
 11
8240.1327630155
 21
5383.4529377485
 31
0.0
  0
LINE
  5
1F2
330
1F
100
AcDbEntity
  8
0
  6
Continuous
 62
     8
370
    25
100
AcDbLine
 10
8546.1327572934
 20
5383.4529377485
 30
0.0
 11
8563.4327574748
 21
5383.4529377485
 31
0.0
  0
CIRCLE
  5
1F3
330
1F
100
AcDbEntity
  8
0
  6
Continuous
 62
     7
370
    25
100
AcDbCircle
 10
6339.7367927676
 20
4603.9372269967
 30
0.0
 40
26.11496515556883
  0
CIRCLE
  5
1F4
330
1F
100
AcDbEntity
  8
0
  6
Continuous
 62
     7
370
    25
100
AcDbCircle
 10
6339.7367927676
 20
4603.9372269967
 30
0.0
 40
36.5
  0
CIRCLE
  5
1F5
330
1F
100
AcDbEntity
  8
0
  6
Continuous
 62
     7
370
    25
100
AcDbCircle
 10
6339.7367927676
 20
4603.9372269967
 30
0.0
 40
24.5
  0
CIRCLE
  5
1F6
330
1F
100
AcDbEntity
  8
0
  6
Continuous
 62
     7
370
    25
100
AcDbCircle
 10
6339.7367927676
 20
4603.9372269967
 30
0.0
 40
23.55754285092371
  0
CIRCLE
  5
1F7
330
1F
100
AcDbEntity
  8
0
  6
Continuous
 62
     7
370
    25
100
AcDbCircle
 10
6339.7367927676
 20
4603.9372269967
 30
0.0
 40
6.179237146239757
  0
SPLINE
  5
1F8
330
1F
100
AcDbEntity
  8
0
  6
Continuous
 62
     7
370
    25
100
AcDbSpline
210
0.0
220
0.0
230
1.0
 70
    11
 71
     3
 72
    26
 73
    22
 74
     0
 42
0.000000001
 43
0.00000001
 40
0.0
 40
0.0
 40
0.0
 40
0.0
 40
0.0536470896001502
 40
0.1072996570664316
 40
0.1608186474068021
 40
0.214253764713945
 40
0.2678236514115254
 40
0.321561905170786
 40
0.3753758283299823
 40
0.4291875881676974
 40
0.4829563126409452
 40
0.5366663963270711
 40
0.5903213589305786
 40
0.6439362948323079
 40
0.6975340116272978
 40
0.7511401960852069
 40
0.8047782708432113
 40
0.85846753493174
 40
0.9122154164531571
 40
0.9660144632460304
 40
1.0
 40
1.0
 40
1.0
 40
1.0
 10
6335.841110427672
 20
4592.819704334677
 30
0.0
 10
6336.320140790748
 20
4593.214463621678
 30
0.0
 10
6337.278250430352
 20
4594.004022504271
 30
0.0
 10
6339.109944047779
 20
4594.501281608005
 30
0.0
 10
6340.978711850148
 20
4594.403630355795
 30
0.0
 10
6342.714362934025
 20
4593.68526058638
 30
0.0
 10
6344.115196321517
 20
4592.436617245056
 30
0.0
 10
6345.026899223929
 20
4590.790978333935
 30
0.0
 10
6345.342464652555
 20
4588.933461816141
 30
0.0
 10
6345.024225622111
 20
4587.07532567341
 30
0.0
 10
6344.108143286927
 20
4585.428127744009
 30
0.0
 10
6342.698763491398
 20
4584.178277162678
 30
0.0
 10
6340.956164741629
 20
4583.466183514103
 30
0.0
 10
6339.077193811931
 20
4583.370985008403
 30
0.0
 10
6337.273255137927
 20
4583.902490817271
 30
0.0
 10
6335.746684229044
 20
4585.000678264269
 30
0.0
 10
6334.669418884358
 20
4586.541659368459
 30
0.0
 10
6334.160888170667
 20
4588.355064364571
 30
0.0
 10
6334.286878070789
 20
4590.228238199353
 30
0.0
 10
6334.917549622813
 20
4591.767546960426
 30
0.0
 10
6335.583348428254
 20
4592.526051564809
 30
0.0
 10
6335.841110427672
 20
4592.819704334677
 30
0.0
  0
SPLINE
  5
1F9
330
1F
100
AcDbEntity
  8
0
  6
Continuous
 62
     7
370
    25
100
AcDbSpline
210
0.0
220
0.0
230
1.0
 70
    11
 71
     3
 72
    26
 73
    22
 74
     0
 42
0.000000001
 43
0.00000001
 40
0.0
 40
0.0
 40
0.0
 40
0.0
 40
0.0537905452922375
 40
0.1075800601528733
 40
0.1613965107940631
 40
0.2152043797250145
 40
0.2689185357755099
 40
0.3224535294595406
 40
0.3758866016426481
 40
0.4294402112796876
 40
0.4831672068452477
 40
0.5369784892924989
 40
0.5907928078606174
 40
0.6445662265016325
 40
0.6982817289769983
 40
0.751940973674912
 40
0.8055588442484503
 40
0.859157371924158
 40
0.9127615921301135
 40
0.9663964742075565
 40
1.0
 40
1.0
 40
1.0
 40
1.0
 10
6322.861982960993
 20
4600.330962459982
 30
0.0
 10
6323.343530583144
 20
4600.725199377641
 30
0.0
 10
6324.306616602742
 20
4601.513665660811
 30
0.0
 10
6326.144273193247
 20
4602.004415218143
 30
0.0
 10
6328.018786611677
 20
4601.897704897844
 30
0.0
 10
6329.757977408663
 20
4601.165056677872
 30
0.0
 10
6331.153124034965
 20
4599.901285869246
 30
0.0
 10
6332.050015492016
 20
4598.249550875462
 30
0.0
 10
6332.350801588227
 20
4596.397656848045
 30
0.0
 10
6332.023891125934
 20
4594.54936727636
 30
0.0
 10
6331.10269382746
 20
4592.909621980793
 30
0.0
 10
6329.688021341955
 20
4591.665385787699
 30
0.0
 10
6327.939787443226
 20
4590.960032203566
 30
0.0
 10
6326.056865198904
 20
4590.874226722799
 30
0.0
 10
6324.252917204845
 20
4591.416906243153
 30
0.0
 10
6322.731412446024
 20
4592.525820621443
 30
0.0
 10
6321.663726464943
 20
4594.074352475069
 30
0.0
 10
6321.167160576582
 20
4595.890158832304
 30
0.0
 10
6321.304496159068
 20
4597.760229726194
 30
0.0
 10
6321.941473519832
 20
4599.289834474943
 30
0.0
 10
6322.606009212388
 20
4600.041447305448
 30
0.0
 10
6322.861982960993
 20
4600.330962459982
 30
0.0
  0
SPLINE
  5
1FA
330
1F
100
AcDbEntity
  8
0
  6
Continuous
 62
     7
370
    25
100
AcDbSpline
210
0.0
220
0.0
230
1.0
 70
    11
 71
     3
 72
    26
 73
    22
 74
     0
 42
0.000000001
 43
0.00000001
 40
0.0
 40
0.0
 40
0.0
 40
0.0
 40
0.0536289221333578
 40
0.1072567577343054
 40
0.1609152749146212
 40
0.2146295335427292
 40
0.268401742175209
 40
0.3222155764833233
 40
0.3760278030053935
 40
0.4297574499234514
 40
0.4833128710115115
 40
0.5367458863094593
 40
0.5902792520321547
 40
0.6439905850649696
 40
0.6977975262046014
 40
0.7516141404420774
 40
0.8053931684500726
 40
0.8591151544918143
 40
0.9127802797859847
 40
0.9664016429621302
 40
1.0
 40
1.0
 40
1.0
 40
1.0
 10
6322.859747786814
 20
4615.32872788185
 30
0.0
 10
6323.340113242403
 20
4615.722608103517
 30
0.0
 10
6324.300834421281
 20
4616.510360566761
 30
0.0
 10
6326.134360203817
 20
4617.002940973527
 30
0.0
 10
6328.005547155109
 20
4616.900333704394
 30
0.0
 10
6329.744155702506
 20
4616.173526853697
 30
0.0
 10
6331.143431493278
 20
4614.914043097364
 30
0.0
 10
6332.047364246086
 20
4613.260295028564
 30
0.0
 10
6332.35194749304
 20
4611.40023380781
 30
0.0
 10
6332.022967034202
 20
4609.545751044401
 30
0.0
 10
6331.100378718949
 20
4607.907910551724
 30
0.0
 10
6329.691329734789
 20
4606.668792150546
 30
0.0
 10
6327.952214329835
 20
4605.9635413721
 30
0.0
 10
6326.074079002088
 20
4605.872288463605
 30
0.0
 10
6324.268445926587
 20
4606.408982104262
 30
0.0
 10
6322.741588843354
 20
4607.514843838778
 30
0.0
 10
6321.668243466606
 20
4609.063698156538
 30
0.0
 10
6321.167644995848
 20
4610.881818158879
 30
0.0
 10
6321.302882853015
 20
4612.754357633145
 30
0.0
 10
6321.9391018597
 20
4614.286098264926
 30
0.0
 10
6322.603724919473
 20
4615.038782511716
 30
0.0
 10
6322.859747786814
 20
4615.32872788185
 30
0.0
  0
SPLINE
  5
1FB
330
1F
100
AcDbEntity
  8
0
  6
Continuous
 62
     7
370
    25
100
AcDbSpline
210
0.0
220
0.0
230
1.0
 70
    11
 71
     3
 72
    26
 73
    22
 74
     0
 42
0.000000001
 43
0.00000001
 40
0.0
 40
0.0
 40
0.0
 40
0.0
 40
0.0536293956345227
 40
0.1072599426156836
 40
0.1608667557316534
 40
0.2144643500786025
 40
0.2680782336665707
 40
0.3217310054300836
 40
0.3754387041598579
 40
0.4292046023376475
 40
0.4830152435718262
 40
0.5368308248809458
 40
0.5905749797907055
 40
0.6441517258526053
 40
0.6975880272337946
 40
0.7511016213991979
 40
0.8047957726805357
 40
0.858596599064896
 40
0.9124150815246246
 40
0.9661998241432054
 40
1.0
 40
1.0
 40
1.0
 40
1.0
 10
6335.842101354891
 20
4622.82070390457
 30
0.0
 10
6336.321496899966
 20
4623.21549510473
 30
0.0
 10
6337.280298282056
 20
4624.005085980652
 30
0.0
 10
6339.113059780505
 20
4624.501715310214
 30
0.0
 10
6340.984288442343
 20
4624.402897826457
 30
0.0
 10
6342.723055932941
 20
4623.680462355929
 30
0.0
 10
6344.123424520829
 20
4622.426486762577
 30
0.0
 10
6345.030909904638
 20
4620.778745586144
 30
0.0
 10
6345.342138699189
 20
4618.922800285525
 30
0.0
 10
6345.021201759203
 20
4617.067176300072
 30
0.0
 10
6344.103020972082
 20
4615.421626279774
 30
0.0
 10
6342.690904262966
 20
4614.173115120267
 30
0.0
 10
6340.94585051839
 20
4613.463782879085
 30
0.0
 10
6339.067780098465
 20
4613.372503355897
 30
0.0
 10
6337.268468615283
 20
4613.905534191741
 30
0.0
 10
6335.745646163025
 20
4615.00211317117
 30
0.0
 10
6334.668878344454
 20
4616.542410992613
 30
0.0
 10
6334.160286006225
 20
4618.357777329054
 30
0.0
 10
6334.287826417239
 20
4620.233161153773
 30
0.0
 10
6334.920140629585
 20
4621.7714754713
 30
0.0
 10
6335.58537762106
 20
4622.528541957062
 30
0.0
 10
6335.842101354891
 20
4622.82070390457
 30
0.0
  0
SPLINE
  5
1FC
330
1F
100
AcDbEntity
  8
0
  6
Continuous
 62
     7
370
    25
100
AcDbSpline
210
0.0
220
0.0
230
1.0
 70
    11
 71
     3
 72
    26
 73
    22
 74
     0
 42
0.000000001
 43
0.00000001
 40
0.0
 40
0.0
 40
0.0
 40
0.0
 40
0.0537908253357627
 40
0.1075832190717756
 40
0.1613393603955968
 40
0.2150364942344493
 40
0.268681119183042
 40
0.3222902254477433
 40
0.3758875633304827
 40
0.4294988910276186
 40
0.4831473961171645
 40
0.5368494755702573
 40
0.5906101787840929
 40
0.644417998698918
 40
0.6982358229580804
 40
0.7519907899148135
 40
0.8055857592897037
 40
0.8590273530050367
 40
0.9125254212926733
 40
0.9662047119758851
 40
1.0
 40
1.0
 40
1.0
 40
1.0
 10
6348.838760037715
 20
4615.32698444599
 30
0.0
 10
6349.319732861994
 20
4615.721626670951
 30
0.0
 10
6350.281692534467
 20
4616.510922627612
 30
0.0
 10
6352.119094810164
 20
4617.003848022108
 30
0.0
 10
6353.993451573531
 20
4616.898968141503
 30
0.0
 10
6355.732237983564
 20
4616.168897366739
 30
0.0
 10
6357.12867938716
 20
4614.907901665799
 30
0.0
 10
6358.029068680418
 20
4613.256000470293
 30
0.0
 10
6358.332170373995
 20
4611.400090809385
 30
0.0
 10
6358.004491465708
 20
4609.548426101324
 30
0.0
 10
6357.082625147134
 20
4607.908969237576
 30
0.0
 10
6355.669560558485
 20
4606.666232621763
 30
0.0
 10
6353.923616254263
 20
4605.960880880278
 30
0.0
 10
6352.041343434435
 20
4605.873695810328
 30
0.0
 10
6350.236008522068
 20
4606.415481567526
 30
0.0
 10
6348.713081363268
 20
4607.524706125195
 30
0.0
 10
6347.645721605035
 20
4609.072496221263
 30
0.0
 10
6347.149117714101
 20
4610.88434395798
 30
0.0
 10
6347.283233589847
 20
4612.750495941395
 30
0.0
 10
6347.916890700168
 20
4614.281482742555
 30
0.0
 10
6348.581854999203
 20
4615.035625742054
 30
0.0
 10
6348.838760037715
 20
4615.32698444599
 30
0.0
  0
SPLINE
  5
1FD
330
1F
100
AcDbEntity
  8
0
  6
Continuous
 62
     7
370
    25
100
AcDbSpline
210
0.0
220
0.0
230
1.0
 70
    11
 71
     3
 72
    26
 73
    22
 74
     0
 42
0.000000001
 43
0.00000001
 40
0.0
 40
0.0
 40
0.0
 40
0.0
 40
0.0536305207334785
 40
0.1072560522118032
 40
0.1610090250000765
 40
0.2148262863477221
 40
0.2686346393633406
 40
0.3223967313261647
 40
0.3761000270772423
 40
0.429749313157714
 40
0.4833612191700932
 40
0.5369587386246851
 40
0.5905676742723774
 40
0.644211643524758
 40
0.6979078199808227
 40
0.7516627985242652
 40
0.8054672001996999
 40
0.8592868762978033
 40
0.9130529061238393
 40
0.9666675400213707
 40
1.0
 40
1.0
 40
1.0
 40
1.0
 10
6348.842962165171
 20
4600.33117852682
 30
0.0
 10
6349.323416665976
 20
4600.724624379791
 30
0.0
 10
6350.284280970831
 20
4601.511479483408
 30
0.0
 10
6352.117245763939
 20
4602.003138206537
 30
0.0
 10
6353.989236172166
 20
4601.899936977199
 30
0.0
 10
6355.729507166032
 20
4601.170973084459
 30
0.0
 10
6357.128670232764
 20
4599.908557495429
 30
0.0
 10
6358.030388891269
 20
4598.253368088943
 30
0.0
 10
6358.332412278574
 20
4596.394193374562
 30
0.0
 10
6358.001996420575
 20
4594.541075281196
 30
0.0
 10
6357.077444066558
 20
4592.902676542167
 30
0.0
 10
6355.663499705535
 20
4591.662780894902
 30
0.0
 10
6353.919229129705
 20
4590.960306025976
 30
0.0
 10
6352.040392833977
 20
4590.874248818049
 30
0.0
 10
6350.238080382862
 20
4591.414851411011
 30
0.0
 10
6348.715205333618
 20
4592.522416968766
 30
0.0
 10
6347.644878569889
 20
4594.072425968305
 30
0.0
 10
6347.147150075992
 20
4595.892292311903
 30
0.0
 10
6347.286284997206
 20
4597.765960631449
 30
0.0
 10
6347.92541806766
 20
4599.294388602218
 30
0.0
 10
6348.588687843986
 20
4600.043858217087
 30
0.0
 10
6348.842962165171
 20
4600.33117852682
 30
0.0
  0
CIRCLE
  5
1FE
330
1F
100
AcDbEntity
  8
0
  6
Continuous
 62
     7
370
    25
100
AcDbCircle
 10
6339.7367927676
 20
4603.9372269967
 30
0.0
 40
5.0
  0
CIRCLE
  5
1FF
330
1F
100
AcDbEntity
  8
0
  6
Continuous
 62
     7
370
    25
100
AcDbCircle
 10
6339.7367927676
 20
4603.9372269967
 30
0.0
 40
3.199999999999818
  0
SPLINE
  5
200
330
1F
100
AcDbEntity
  8
0
  6
Continuous
 62
     7
370
    25
100
AcDbSpline
210
0.0
220
0.0
230
1.0
 70
     8
 71
     3
 72
    11
 73
     7
 74
     0
 42
0.000000001
 43
0.00000001
 40
0.0
 40
0.0
 40
0.0
 40
0.0
 40
0.2764764321828925
 40
0.5272250895947466
 40
0.7777869033121574
 40
1.0
 40
1.0
 40
1.0
 40
1.0
 10
6357.646724660689
 20
4613.74081544155
 30
0.0
 10
6357.020689224851
 20
4613.207174543004
 30
0.0
 10
6355.826874670231
 20
4612.189551202289
 30
0.0
 10
6353.514568729165
 20
4610.671047427791
 30
0.0
 10
6351.050562077395
 20
4609.345143630049
 30
0.0
 10
6349.167778599786
 20
4608.655330481526
 30
0.0
 10
6348.282834966475
 20
4608.331105332316
 30
0.0
  0
SPLINE
  5
201
330
1F
100
AcDbEntity
  8
0
  6
Continuous
 62
     7
370
    25
100
AcDbSpline
210
0.0
220
0.0
230
1.0
 70
     8
 71
     3
 72
    12
 73
     8
 74
     0
 42
0.000000001
 43
0.00000001
 40
0.0
 40
0.0
 40
0.0
 40
0.0
 40
0.1943441419775564
 40
0.4648156836796221
 40
0.5156834123166162
 40
0.8227893047668865
 40
1.0
 40
1.0
 40
1.0
 40
1.0
 10
6331.235288162524
 20
4608.358225445689
 30
0.0
 10
6330.44044102653
 20
4608.629086811537
 30
0.0
 10
6328.539393682478
 20
4609.276909841696
 30
0.0
 10
6326.757776579993
 20
4610.236765904117
 30
0.0
 10
6324.771455518511
 20
4611.429799705357
 30
0.0
 10
6323.225193725146
 20
4612.508751318465
 30
0.0
 10
6322.21383955385
 20
4613.425610943426
 30
0.0
 10
6321.843786616618
 20
4613.761088471354
 30
0.0
  0
LINE
  5
202
330
1F
100
AcDbEntity
  8
0
  6
Continuous
 62
     7
370
    25
100
AcDbLine
 10
6114.0187517598
 20
4716.7191895521
 30
0.0
 11
6452.5187553231
 21
4716.7191895521
 31
0.0
  0
LINE
  5
203
330
1F
100
AcDbEntity
  8
0
  6
Continuous
 62
     7
370
    25
100
AcDbLine
 10
6114.0187517598
 20
4718.2191895651
 30
0.0
 11
6114.0187517598
 21
4716.7191895521
 31
0.0
  0
LINE
  5
204
330
1F
100
AcDbEntity
  8
0
  6
Continuous
 62
     7
370
    25
100
AcDbLine
 10
6454.0187553361
 20
4718.2191895651
 30
0.0
 11
6114.0187517598
 21
4718.2191895651
 31
0.0
  0
LINE
  5
205
330
1F
100
AcDbEntity
  8
0
  6
Continuous
 62
     7
370
    25
100
AcDbLine
 10
6454.0187553361
 20
4378.2191859888
 30
0.0
 11
6454.0187553361
 21
4718.2191895651
 31
0.0
  0
LINE
  5
206
330
1F
100
AcDbEntity
  8
0
  6
Continuous
 62
     7
370
    25
100
AcDbLine
 10
6452.5187553231
 20
4378.2191859888
 30
0.0
 11
6454.0187553361
 21
4378.2191859888
 31
0.0
  0
LINE
  5
207
330
1F
100
AcDbEntity
  8
0
  6
Continuous
 62
     7
370
    25
100
AcDbLine
 10
6452.5187553231
 20
4716.7191895521
 30
0.0
 11
6452.5187553231
 21
4378.2191859888
 31
0.0
  0
LINE
  5
208
330
1F
100
AcDbEntity
  8
0
  6
Continuous
 62
     7
370
    25
100
AcDbLine
 10
6114.0187517598
 20
4716.7191895521
 30
0.0
 11
6094.018741031
 21
4716.7191895521
 31
0.0
  0
LINE
  5
209
330
1F
100
AcDbEntity
  8
0
  6
Continuous
 62
     7
370
    25
100
AcDbLine
 10
6094.018741031
 20
4716.7191895521
 30
0.0
 11
6094.018741031
 21
4718.2191895651
 31
0.0
  0
LINE
  5
20A
330
1F
100
AcDbEntity
  8
0
  6
Continuous
 62
     7
370
    25
100
AcDbLine
 10
6094.018741031
 20
4718.2191895651
 30
0.0
 11
6114.0187517598
 21
4718.2191895651
 31
0.0
  0
LINE
  5
20B
330
1F
100
AcDbEntity
  8
0
  6
Continuous
 62
     7
370
    25
100
AcDbLine
 10
6454.0187553361
 20
4358.21917526
 30
0.0
 11
6452.5187553231
 21
4358.21917526
 31
0.0
  0
LINE
  5
20C
330
1F
100
AcDbEntity
  8
0
  6
Continuous
 62
     7
370
    25
100
AcDbLine
 10
6454.0187553361
 20
4378.2191859888
 30
0.0
 11
6454.0187553361
 21
4358.21917526
 31
0.0
  0
LINE
  5
20D
330
1F
100
AcDbEntity
  8
0
  6
Continuous
 62
     7
370
    25
100
AcDbLine
 10
6452.5187553231
 20
4358.21917526
 30
0.0
 11
6452.5187553231
 21
4378.2191859888
 31
0.0
  0
LINE
  5
20E
330
1F
100
AcDbEntity
  8
0
  6
Continuous
 62
     7
370
    25
100
AcDbLine
 10
6099.0187660649
 20
4716.7191895521
 30
0.0
 11
6099.0187660649
 21
4569.7450625109
 31
0.0
  0
LINE
  5
20F
330
1F
100
AcDbEntity
  8
0
  6
Continuous
 62
     7
370
    25
100
AcDbLine
 10
6094.018741031
 20
4569.7450625109
 30
0.0
 11
6099.0187660649
 21
4569.7450625109
 31
0.0
  0
LINE
  5
210
330
1F
100
AcDbEntity
  8
0
  6
Continuous
 62
     7
370
    25
100
AcDbLine
 10
6094.018741031
 20
4569.7450625109
 30
0.0
 11
6094.018741031
 21
4716.7191895521
 31
0.0
  0
LINE
  5
211
330
1F
100
AcDbEntity
  8
0
  6
Continuous
 62
     7
370
    25
100
AcDbLine
 10
6305.5446282819
 20
4363.219200294
 30
0.0
 11
6452.5187553231
 21
4363.219200294
 31
0.0
  0
ARC
  5
212
330
1F
100
AcDbEntity
  8
0
  6
Continuous
 62
     7
370
    25
100
AcDbCircle
 10
6305.5446212502
 20
4569.7450554792
 30
0.0
 40
206.5258659140545
100
AcDbArc
 50
180.0
 51
270.0
  0
LINE
  5
213
330
1F
100
AcDbEntity
  8
0
  6
Continuous
 62
     7
370
    25
100
AcDbLine
 10
6176.0187581971
 20
4703.2191899004
 30
0.0
 11
6321.2370113328
 21
4703.2191899004
 31
0.0
  0
ARC
  5
214
330
1F
100
AcDbEntity
  8
0
  6
Continuous
 62
     7
370
    25
100
AcDbCircle
 10
6176.0187553361
 20
4653.2191895651
 30
0.0
 40
50.00000000000091
100
AcDbArc
 50
90.0
 51
180.0
  0
LINE
  5
215
330
1F
100
AcDbEntity
  8
0
  6
Continuous
 62
     7
370
    25
100
AcDbLine
 10
6126.0187462762
 20
4580.6090223002
 30
0.0
 11
6126.0187462762
 21
4653.2191919493
 31
0.0
  0
ARC
  5
216
330
1F
100
AcDbEntity
  8
0
  6
Continuous
 62
     7
370
    25
100
AcDbCircle
 10
6316.4085822808
 20
4580.6090165099
 30
0.0
 40
190.3898269447345
100
AcDbArc
 50
180.0
 51
270.0
  0
LINE
  5
217
330
1F
100
AcDbEntity
  8
0
  6
Continuous
 62
     7
370
    25
100
AcDbLine
 10
6389.0187577203
 20
4390.2191805052
 30
0.0
 11
6316.4085880712
 21
4390.2191805052
 31
0.0
  0
ARC
  5
218
330
1F
100
AcDbEntity
  8
0
  6
Continuous
 62
     7
370
    25
100
AcDbCircle
 10
6389.0187553361
 20
4440.2191895651
 30
0.0
 40
50.0
100
AcDbArc
 50
270.0
 51
0.0
  0
LINE
  5
219
330
1F
100
AcDbEntity
  8
0
  6
Continuous
 62
     7
370
    25
100
AcDbLine
 10
6439.0187556714
 20
4585.4374455618
 30
0.0
 11
6439.0187556714
 21
4440.2191924261
 31
0.0
  0
ARC
  5
21A
330
1F
100
AcDbEntity
  8
0
  6
Continuous
 62
     7
370
    25
100
AcDbCircle
 10
6321.2370094056
 20
4585.4374436346
 30
0.0
 40
117.7817459305197
100
AcDbArc
 50
0.0
 51
90.0
  0
LINE
  5
21B
330
1F
100
AcDbEntity
  8
0
  6
Continuous
 62
     7
370
    25
100
AcDbLine
 10
6176.0187581971
 20
4703.2191899004
 30
0.0
 11
6176.0187581971
 21
4698.2191900122
 31
0.0
  0
ARC
  5
21C
330
1F
100
AcDbEntity
  8
0
  6
Continuous
 62
     7
370
    25
100
AcDbCircle
 10
6176.0187553361
 20
4653.2191895651
 30
0.0
 40
45.0
100
AcDbArc
 50
90.0
 51
180.0
  0
LINE
  5
21D
330
1F
100
AcDbEntity
  8
0
  6
Continuous
 62
     7
370
    25
100
AcDbLine
 10
6126.0187462762
 20
4653.2191919493
 30
0.0
 11
6131.0187415078
 21
4653.2191919493
 31
0.0
  0
LINE
  5
21E
330
1F
100
AcDbEntity
  8
0
  6
Continuous
 62
     7
370
    25
100
AcDbLine
 10
6439.0187556714
 20
4585.4374455618
 30
0.0
 11
6434.0187557831
 21
4585.4374455618
 31
0.0
  0
ARC
  5
21F
330
1F
100
AcDbEntity
  8
0
  6
Continuous
 62
     7
370
    25
100
AcDbCircle
 10
6321.2370094056
 20
4585.4374436346
 30
0.0
 40
112.7817459305206
100
AcDbArc
 50
0.0
 51
90.0
  0
LINE
  5
220
330
1F
100
AcDbEntity
  8
0
  6
Continuous
 62
     7
370
    25
100
AcDbLine
 10
6321.2370113328
 20
4703.2191899004
 30
0.0
 11
6321.2370113328
 21
4698.2191900122
 31
0.0
  0
LINE
  5
221
330
1F
100
AcDbEntity
  8
0
  6
Continuous
 62
     7
370
    25
100
AcDbLine
 10
6321.2370113328
 20
4698.2191900122
 30
0.0
 11
6176.0187581971
 21
4698.2191900122
 31
0.0
  0
LINE
  5
222
330
1F
100
AcDbEntity
  8
0
  6
Continuous
 62
     7
370
    25
100
AcDbLine
 10
6131.0187415078
 20
4580.6090223002
 30
0.0
 11
6131.0187415078
 21
4653.2191919493
 31
0.0
  0
LINE
  5
223
330
1F
100
AcDbEntity
  8
0
  6
Continuous
 62
     7
370
    25
100
AcDbLine
 10
6131.0187415078
 20
4580.6090223002
 30
0.0
 11
6126.0187462762
 21
4580.6090223002
 31
0.0
  0
LINE
  5
224
330
1F
100
AcDbEntity
  8
0
  6
Continuous
 62
     7
370
    25
100
AcDbLine
 10
6434.0187557831
 20
4440.2191924261
 30
0.0
 11
6434.0187557831
 21
4585.4374455618
 31
0.0
  0
LINE
  5
225
330
1F
100
AcDbEntity
  8
0
  6
Continuous
 62
     7
370
    25
100
AcDbLine
 10
6434.0187557831
 20
4440.2191924261
 30
0.0
 11
6439.0187556714
 21
4440.2191924261
 31
0.0
  0
ARC
  5
226
330
1F
100
AcDbEntity
  8
0
  6
Continuous
 62
     7
370
    25
100
AcDbCircle
 10
6316.4085822808
 20
4580.6090165099
 30
0.0
 40
185.3898269447336
100
AcDbArc
 50
180.0
 51
270.0
  0
LINE
  5
227
330
1F
100
AcDbEntity
  8
0
  6
Continuous
 62
     7
370
    25
100
AcDbLine
 10
6316.4085880712
 20
4395.2191757368
 30
0.0
 11
6316.4085880712
 21
4390.2191805052
 31
0.0
  0
ARC
  5
228
330
1F
100
AcDbEntity
  8
0
  6
Continuous
 62
     7
370
    25
100
AcDbCircle
 10
6305.5446212502
 20
4569.7450554792
 30
0.0
 40
211.5258659140545
100
AcDbArc
 50
180.0
 51
270.0
  0
LINE
  5
229
330
1F
100
AcDbEntity
  8
0
  6
Continuous
 62
     7
370
    25
100
AcDbLine
 10
6305.5446282819
 20
4358.21917526
 30
0.0
 11
6305.5446282819
 21
4363.219200294
 31
0.0
  0
ARC
  5
22A
330
1F
100
AcDbEntity
  8
0
  6
Continuous
 62
     7
370
    25
100
AcDbCircle
 10
6389.0187553361
 20
4440.2191895651
 30
0.0
 40
45.0
100
AcDbArc
 50
270.0
 51
0.0
  0
LINE
  5
22B
330
1F
100
AcDbEntity
  8
0
  6
Continuous
 62
     7
370
    25
100
AcDbLine
 10
6389.0187577203
 20
4395.2191757368
 30
0.0
 11
6389.0187577203
 21
4390.2191805052
 31
0.0
  0
LINE
  5
22C
330
1F
100
AcDbEntity
  8
0
  6
Continuous
 62
     7
370
    25
100
AcDbLine
 10
6389.0187577203
 20
4395.2191757368
 30
0.0
 11
6316.4085880712
 21
4395.2191757368
 31
0.0
  0
LINE
  5
22D
330
1F
100
AcDbEntity
  8
0
  6
Continuous
 62
     7
370
    25
100
AcDbLine
 10
6452.5187553231
 20
4358.21917526
 30
0.0
 11
6305.5446282819
 21
4358.21917526
 31
0.0
  0
LINE
  5
22E
330
1F
100
AcDbEntity
  8
0
  6
Continuous
 62
     7
370
    25
100
AcDbLine
 10
6281.0187623694
 20
4653.2191919493
 30
0.0
 11
6131.0187415078
 21
4653.2191919493
 31
0.0
  0
LINE
  5
22F
330
1F
100
AcDbEntity
  8
0
  6
Continuous
 62
     7
370
    25
100
AcDbLine
 10
6281.0187623694
 20
4653.2191919493
 30
0.0
 11
6281.0187623694
 21
4698.2191900122
 31
0.0
  0
LINE
  5
230
330
1F
100
AcDbEntity
  8
0
  6
Continuous
 62
     7
370
    25
100
AcDbLine
 10
6281.0187623694
 20
4580.6090223002
 30
0.0
 11
6131.0187415078
 21
4580.6090223002
 31
0.0
  0
LINE
  5
231
330
1F
100
AcDbEntity
  8
0
  6
Continuous
 62
     7
370
    25
100
AcDbLine
 10
6281.0187623694
 20
4653.2191919493
 30
0.0
 11
6281.0187623694
 21
4580.6090223002
 31
0.0
  0
ARC
  5
232
330
1F
100
AcDbEntity
  8
0
  6
Continuous
 62
     7
370
    25
100
AcDbCircle
 10
6316.4085822808
 20
4580.6090165099
 30
0.0
 40
35.38982694473361
100
AcDbArc
 50
180.0
 51
270.0
  0
LINE
  5
233
330
1F
100
AcDbEntity
  8
0
  6
Continuous
 62
     7
370
    25
100
AcDbLine
 10
6316.4085880712
 20
4545.2191965985
 30
0.0
 11
6316.4085880712
 21
4395.2191757368
 31
0.0
  0
LINE
  5
234
330
1F
100
AcDbEntity
  8
0
  6
Continuous
 62
     7
370
    25
100
AcDbLine
 10
6389.0187577203
 20
4395.2191757368
 30
0.0
 11
6389.0187577203
 21
4545.2191965985
 31
0.0
  0
LINE
  5
235
330
1F
100
AcDbEntity
  8
0
  6
Continuous
 62
     7
370
    25
100
AcDbLine
 10
6389.0187577203
 20
4545.2191965985
 30
0.0
 11
6434.0187557831
 21
4545.2191965985
 31
0.0
  0
LINE
  5
236
330
1F
100
AcDbEntity
  8
0
  6
Continuous
 62
     7
370
    25
100
AcDbLine
 10
6316.4085880712
 20
4545.2191965985
 30
0.0
 11
6389.0187577203
 21
4545.2191965985
 31
0.0
  0
LINE
  5
237
330
1F
100
AcDbEntity
  8
0
  6
Continuous
 62
     7
370
    25
100
AcDbLine
 10
6321.2370113328
 20
4653.2191919493
 30
0.0
 11
6281.0187623694
 21
4653.2191919493
 31
0.0
  0
LINE
  5
238
330
1F
100
AcDbEntity
  8
0
  6
Continuous
 62
     7
370
    25
100
AcDbLine
 10
6321.2370113328
 20
4653.2191919493
 30
0.0
 11
6321.2370113328
 21
4698.2191900122
 31
0.0
  0
ARC
  5
239
330
1F
100
AcDbEntity
  8
0
  6
Continuous
 62
     7
370
    25
100
AcDbCircle
 10
6321.2370094056
 20
4585.4374436346
 30
0.0
 40
67.78174593052063
100
AcDbArc
 50
0.0
 51
90.0
  0
LINE
  5
23A
330
1F
100
AcDbEntity
  8
0
  6
Continuous
 62
     7
370
    25
100
AcDbLine
 10
6389.0187577203
 20
4585.4374455618
 30
0.0
 11
6434.0187557831
 21
4585.4374455618
 31
0.0
  0
LINE
  5
23B
330
1F
100
AcDbEntity
  8
0
  6
Continuous
 62
     7
370
    25
100
AcDbLine
 10
6389.0187577203
 20
4545.2191965985
 30
0.0
 11
6389.0187577203
 21
4585.4374455618
 31
0.0
  0
CIRCLE
  5
23C
330
1F
100
AcDbEntity
  8
0
  6
Continuous
 62
     7
370
    25
100
AcDbCircle
 10
6339.7367927676
 20
4603.9372269967
 30
0.0
 40
37.50000000000091
  0
SPLINE
  5
23D
330
1F
100
AcDbEntity
  8
0
  6
Continuous
 62
     8
370
    25
100
AcDbSpline
210
0.0
220
0.0
230
1.0
 70
     8
 71
     3
 72
    10
 73
     6
 74
     0
 42
0.000000001
 43
0.00000001
 40
0.0
 40
0.0
 40
0.0
 40
0.0
 40
0.3643221668856942
 40
0.7617549815941724
 40
1.0
 40
1.0
 40
1.0
 40
1.0
 10
6321.400268454844
 20
4610.430596988142
 30
0.0
 10
6321.991355723491
 20
4609.89359008178
 30
0.0
 10
6323.227249974171
 20
4608.770771534752
 30
0.0
 10
6325.346753854739
 20
4607.215348395026
 30
0.0
 10
6327.01080085837
 20
4606.369159621048
 30
0.0
 10
6327.634467263514
 20
4606.052017431201
 30
0.0
  0
SPLINE
  5
23E
330
1F
100
AcDbEntity
  8
0
  6
Continuous
 62
     8
370
    25
100
AcDbSpline
210
0.0
220
0.0
230
1.0
 70
     8
 71
     3
 72
    10
 73
     6
 74
     0
 42
0.000000001
 43
0.00000001
 40
0.0
 40
0.0
 40
0.0
 40
0.0
 40
0.3865344285148737
 40
0.8840991327237395
 40
1.0
 40
1.0
 40
1.0
 40
1.0
 10
6336.664064307505
 20
4603.310449640692
 30
0.0
 10
6337.451032402605
 20
4603.221496931305
 30
0.0
 10
6339.251021637798
 20
4603.01804024693
 30
0.0
 10
6341.347635312214
 20
4603.05865634076
 30
0.0
 10
6342.580575710345
 20
4603.254395527349
 30
0.0
 10
6342.813512761885
 20
4603.291376154364
 30
0.0
  0
SPLINE
  5
23F
330
1F
100
AcDbEntity
  8
0
  6
Continuous
 62
     8
370
    25
100
AcDbSpline
210
0.0
220
0.0
230
1.0
 70
     8
 71
     3
 72
    11
 73
     7
 74
     0
 42
0.000000001
 43
0.00000001
 40
0.0
 40
0.0
 40
0.0
 40
0.0
 40
0.1728930369864595
 40
0.4997606364162971
 40
0.8569035191712356
 40
1.0
 40
1.0
 40
1.0
 40
1.0
 10
6351.845784564311
 20
4606.041139583529
 30
0.0
 10
6352.305499968029
 20
4606.27084467005
 30
0.0
 10
6353.634342741211
 20
4606.934824910252
 30
0.0
 10
6355.514898922696
 20
4608.23731231972
 30
0.0
 10
6357.142527856115
 20
4609.524735289975
 30
0.0
 10
6357.85311861943
 20
4610.233539089303
 30
0.0
 10
6358.05638738423
 20
4610.436296682299
 30
0.0
  0
ENDSEC
  0
SECTION
  2
OBJECTS
  0
DICTIONARY
  5
C
330
0
100
AcDbDictionary
281
     1
  3
ACAD_GROUP
350
D
  3
ACAD_LAYOUT
350
1A
  3
ACAD_MLINESTYLE
350
17
  3
ACAD_PLOTSETTINGS
350
19
  3
ACAD_PLOTSTYLENAME
350
E
  3
ACAD_SCALELIST
350
47
  0
DICTIONARY
  5
D
102
{ACAD_REACTORS
330
C
102
}
330
C
100
AcDbDictionary
281
     1
  0
DICTIONARY
  5
1A
102
{ACAD_REACTORS
330
C
102
}
330
C
100
AcDbDictionary
281
     1
  3
Layout1
350
1E
  3
Layout2
350
26
  3
Model
350
22
  0
DICTIONARY
  5
17
102
{ACAD_REACTORS
330
C
102
}
330
C
100
AcDbDictionary
281
     1
  3
Standard
350
18
  0
DICTIONARY
  5
19
102
{ACAD_REACTORS
330
C
102
}
330
C
100
AcDbDictionary
281
     1
  0
ACDBDICTIONARYWDFLT
  5
E
102
{ACAD_REACTORS
330
C
102
}
330
C
100
AcDbDictionary
281
     1
  3
Normal
350
F
100
AcDbDictionaryWithDefault
340
F
  0
DICTIONARY
  5
47
102
{ACAD_REACTORS
330
C
102
}
330
C
100
AcDbDictionary
281
     1
  3
A0
350
48
  3
A1
350
49
  3
A2
350
4A
  3
A3
350
4B
  3
A4
350
4C
  3
A5
350
4D
  3
A6
350
4E
  3
A7
350
4F
  3
A8
350
50
  3
A9
350
51
  3
B0
350
52
  3
B1
350
53
  3
B2
350
54
  3
B3
350
55
  3
B4
350
56
  3
B5
350
57
  3
B6
350
58
  3
B7
350
59
  3
B8
350
5A
  3
B9
350
5B
  3
C0
350
5C
  3
C1
350
5D
  3
C2
350
5E
  3
C3
350
5F
  3
C4
350
60
  3
C5
350
61
  3
C6
350
62
  3
C7
350
63
  3
C8
350
64
  3
C9
350
65
  3
D0
350
66
  3
D1
350
67
  3
D2
350
68
  0
LAYOUT
  5
1E
102
{ACAD_REACTORS
330
1A
102
}
330
1A
100
AcDbPlotSettings
  1

  2
none_device
  4

  6

 40
0.0
 41
0.0
 42
0.0
 43
0.0
 44
0.0
 45
0.0
 46
0.0
 47
0.0
 48
0.0
 49
0.0
140
0.0
141
0.0
142
1.0
143
1.0
 70
   688
 72
     1
 73
     0
 74
     5
  7

 75
    16
147
1.0
148
0.0
149
0.0
100
AcDbLayout
  1
Layout1
 70
     1
 71
     1
 10
0.0
 20
0.0
 11
420.0
 21
297.0
 12
0.0
 22
0.0
 32
0.0
 14
1.0000000000E+20
 24
1.0000000000E+20
 34
1.0000000000E+20
 15
-1.0000000000E+20
 25
-1.0000000000E+20
 35
-1.0000000000E+20
146
0.0
 13
0.0
 23
0.0
 33
0.0
 16
1.0
 26
0.0
 36
0.0
 17
0.0
 27
1.0
 37
0.0
 76
     0
330
1B
  0
LAYOUT
  5
26
102
{ACAD_REACTORS
330
1A
102
}
330
1A
100
AcDbPlotSettings
  1

  2
none_device
  4

  6

 40
0.0
 41
0.0
 42
0.0
 43
0.0
 44
0.0
 45
0.0
 46
0.0
 47
0.0
 48
0.0
 49
0.0
140
0.0
141
0.0
142
1.0
143
1.0
 70
   688
 72
     1
 73
     0
 74
     5
  7

 75
    16
147
1.0
148
0.0
149
0.0
100
AcDbLayout
  1
Layout2
 70
     1
 71
     2
 10
0.0
 20
0.0
 11
0.0
 21
0.0
 12
0.0
 22
0.0
 32
0.0
 14
0.0
 24
0.0
 34
0.0
 15
0.0
 25
0.0
 35
0.0
146
0.0
 13
0.0
 23
0.0
 33
0.0
 16
1.0
 26
0.0
 36
0.0
 17
0.0
 27
1.0
 37
0.0
 76
     0
330
23
  0
LAYOUT
  5
22
102
{ACAD_REACTORS
330
1A
102
}
330
1A
100
AcDbPlotSettings
  1

  2
none_device
  4
Letter_(8.50_x_11.00_Inches)
  6

 40
6.35
 41
6.35
 42
6.35000508
 43
6.35000508
 44
215.9
 45
279.4
 46
0.0
 47
0.0
 48
0.0
 49
0.0
140
0.0
141
0.0
142
1.0
143
1.0
 70
  1712
 72
     1
 73
     0
 74
     0
  7

 75
     0
147
1.0
148
0.0
149
0.0
100
AcDbLayout
  1
Model
 70
     1
 71
     0
 10
0.0
 20
0.0
 11
20000.0
 21
10000.0
 12
0.0
 22
0.0
 32
0.0
 14
0.0
 24
0.0
 34
0.0
 15
20000.0
 25
10000.0
 35
0.0
146
0.0
 13
0.0
 23
0.0
 33
0.0
 16
1.0
 26
0.0
 36
0.0
 17
0.0
 27
1.0
 37
0.0
 76
     0
330
1F
331
29
  0
MLINESTYLE
  5
18
102
{ACAD_REACTORS
330
17
102
}
330
17
100
AcDbMlineStyle
  2
Standard
 70
     0
  3

 62
   256
 51
90.0
 52
90.0
 71
     2
 49
0.5
 62
   256
  6
BYLAYER
 49
-0.5
 62
   256
  6
BYLAYER
  0
ACDBPLACEHOLDER
  5
F
102
{ACAD_REACTORS
330
E
102
}
330
E
  0
SCALE
  5
48
102
{ACAD_REACTORS
330
47
102
}
330
47
100
AcDbScale
 70
     0
300
1:1
140
1.0
141
1.0
290
     1
  0
SCALE
  5
49
102
{ACAD_REACTORS
330
47
102
}
330
47
100
AcDbScale
 70
     0
300
1:2
140
1.0
141
2.0
290
     0
  0
SCALE
  5
4A
102
{ACAD_REACTORS
330
47
102
}
330
47
100
AcDbScale
 70
     0
300
1:4
140
1.0
141
4.0
290
     0
  0
SCALE
  5
4B
102
{ACAD_REACTORS
330
47
102
}
330
47
100
AcDbScale
 70
     0
300
1:5
140
1.0
141
5.0
290
     0
  0
SCALE
  5
4C
102
{ACAD_REACTORS
330
47
102
}
330
47
100
AcDbScale
 70
     0
300
1:8
140
1.0
141
8.0
290
     0
  0
SCALE
  5
4D
102
{ACAD_REACTORS
330
47
102
}
330
47
100
AcDbScale
 70
     0
300
1:10
140
1.0
141
10.0
290
     0
  0
SCALE
  5
4E
102
{ACAD_REACTORS
330
47
102
}
330
47
100
AcDbScale
 70
     0
300
1:16
140
1.0
141
16.0
290
     0
  0
SCALE
  5
4F
102
{ACAD_REACTORS
330
47
102
}
330
47
100
AcDbScale
 70
     0
300
1:20
140
1.0
141
20.0
290
     0
  0
SCALE
  5
50
102
{ACAD_REACTORS
330
47
102
}
330
47
100
AcDbScale
 70
     0
300
1:30
140
1.0
141
30.0
290
     0
  0
SCALE
  5
51
102
{ACAD_REACTORS
330
47
102
}
330
47
100
AcDbScale
 70
     0
300
1:40
140
1.0
141
40.0
290
     0
  0
SCALE
  5
52
102
{ACAD_REACTORS
330
47
102
}
330
47
100
AcDbScale
 70
     0
300
1:50
140
1.0
141
50.0
290
     0
  0
SCALE
  5
53
102
{ACAD_REACTORS
330
47
102
}
330
47
100
AcDbScale
 70
     0
300
1:100
140
1.0
141
100.0
290
     0
  0
SCALE
  5
54
102
{ACAD_REACTORS
330
47
102
}
330
47
100
AcDbScale
 70
     0
300
2:1
140
2.0
141
1.0
290
     0
  0
SCALE
  5
55
102
{ACAD_REACTORS
330
47
102
}
330
47
100
AcDbScale
 70
     0
300
4:1
140
4.0
141
1.0
290
     0
  0
SCALE
  5
56
102
{ACAD_REACTORS
330
47
102
}
330
47
100
AcDbScale
 70
     0
300
8:1
140
8.0
141
1.0
290
     0
  0
SCALE
  5
57
102
{ACAD_REACTORS
330
47
102
}
330
47
100
AcDbScale
 70
     0
300
10:1
140
10.0
141
1.0
290
     0
  0
SCALE
  5
58
102
{ACAD_REACTORS
330
47
102
}
330
47
100
AcDbScale
 70
     0
300
100:1
140
100.0
141
1.0
290
     0
  0
SCALE
  5
59
102
{ACAD_REACTORS
330
47
102
}
330
47
100
AcDbScale
 70
     0
300
1/128" = 1'-0"
140
0.0078125
141
12.0
290
     0
  0
SCALE
  5
5A
102
{ACAD_REACTORS
330
47
102
}
330
47
100
AcDbScale
 70
     0
300
1/64" = 1'-0"
140
0.015625
141
12.0
290
     0
  0
SCALE
  5
5B
102
{ACAD_REACTORS
330
47
102
}
330
47
100
AcDbScale
 70
     0
300
1/32" = 1'-0"
140
0.03125
141
12.0
290
     0
  0
SCALE
  5
5C
102
{ACAD_REACTORS
330
47
102
}
330
47
100
AcDbScale
 70
     0
300
1/16" = 1'-0"
140
0.0625
141
12.0
290
     0
  0
SCALE
  5
5D
102
{ACAD_REACTORS
330
47
102
}
330
47
100
AcDbScale
 70
     0
300
3/32" = 1'-0"
140
0.09375
141
12.0
290
     0
  0
SCALE
  5
5E
102
{ACAD_REACTORS
330
47
102
}
330
47
100
AcDbScale
 70
     0
300
1/8" = 1'-0"
140
0.125
141
12.0
290
     0
  0
SCALE
  5
5F
102
{ACAD_REACTORS
330
47
102
}
330
47
100
AcDbScale
 70
     0
300
3/16" = 1'-0"
140
0.1875
141
12.0
290
     0
  0
SCALE
  5
60
102
{ACAD_REACTORS
330
47
102
}
330
47
100
AcDbScale
 70
     0
300
1/4" = 1'-0"
140
0.25
141
12.0
290
     0
  0
SCALE
  5
61
102
{ACAD_REACTORS
330
47
102
}
330
47
100
AcDbScale
 70
     0
300
3/8" = 1'-0"
140
0.375
141
12.0
290
     0
  0
SCALE
  5
62
102
{ACAD_REACTORS
330
47
102
}
330
47
100
AcDbScale
 70
     0
300
1/2" = 1'-0"
140
0.5
141
12.0
290
     0
  0
SCALE
  5
63
102
{ACAD_REACTORS
330
47
102
}
330
47
100
AcDbScale
 70
     0
300
3/4" = 1'-0"
140
0.75
141
12.0
290
     0
  0
SCALE
  5
64
102
{ACAD_REACTORS
330
47
102
}
330
47
100
AcDbScale
 70
     0
300
1" = 1'-0"
140
1.0
141
12.0
290
     0
  0
SCALE
  5
65
102
{ACAD_REACTORS
330
47
102
}
330
47
100
AcDbScale
 70
     0
300
1-1/2" = 1'-0"
140
1.5
141
12.0
290
     0
  0
SCALE
  5
66
102
{ACAD_REACTORS
330
47
102
}
330
47
100
AcDbScale
 70
     0
300
3" = 1'-0"
140
3.0
141
12.0
290
     0
  0
SCALE
  5
67
102
{ACAD_REACTORS
330
47
102
}
330
47
100
AcDbScale
 70
     0
300
6" = 1'-0"
140
6.0
141
12.0
290
     0
  0
SCALE
  5
68
102
{ACAD_REACTORS
330
47
102
}
330
47
100
AcDbScale
 70
     0
300
1'-0" = 1'-0"
140
12.0
141
12.0
290
     0
  0
ENDSEC
  0
EOF
