  0
SECTION
  2
HEADER
  9
$ACADVER
  1
AC1015
  9
$ACADMAINTVER
 70
     6
  9
$DWGCODEPAGE
  3
ANSI_1250
  9
$INSBASE
 10
0.0
 20
0.0
 30
0.0
  9
$EXTMIN
 10
0.0
 20
0.0
 30
0.0
  9
$EXTMAX
 10
20000.0
 20
10000.0
 30
0.0
  9
$LIMMIN
 10
0.0
 20
0.0
  9
$LIMMAX
 10
20000.0
 20
10000.0
  9
$ORTHOMODE
 70
     0
  9
$REGENMODE
 70
     1
  9
$FILLMODE
 70
     1
  9
$QTEXTMODE
 70
     0
  9
$MIRRTEXT
 70
     1
  9
$LTSCALE
 40
1.0
  9
$ATTMODE
 70
     1
  9
$TEXTSIZE
 40
2.0
  9
$TRACEWID
 40
1.0
  9
$TEXTSTYLE
  7
Standard
  9
$CLAYER
  8
0
  9
$CELTYPE
  6
ByLayer
  9
$CECOLOR
 62
   256
  9
$CELTSCALE
 40
1.0
  9
$DISPSILH
 70
     0
  9
$DIMSCALE
 40
1.0
  9
$DIMASZ
 40
2.0
  9
$DIMEXO
 40
1.0
  9
$DIMDLI
 40
3.75
  9
$DIMRND
 40
0.0
  9
$DIMDLE
 40
0.0
  9
$DIMEXE
 40
1.0
  9
$DIMTP
 40
0.0
  9
$DIMTM
 40
0.0
  9
$DIMTXT
 40
2.0
  9
$DIMCEN
 40
2.5
  9
$DIMTSZ
 40
0.0
  9
$DIMTOL
 70
     0
  9
$DIMLIM
 70
     0
  9
$DIMTIH
 70
     1
  9
$DIMTOH
 70
     1
  9
$DIMSE1
 70
     0
  9
$DIMSE2
 70
     0
  9
$DIMTAD
 70
     1
  9
$DIMZIN
 70
     0
  9
$DIMBLK
  1

  9
$DIMASO
 70
     1
  9
$DIMSHO
 70
     1
  9
$DIMPOST
  1

  9
$DIMAPOST
  1

  9
$DIMALT
 70
     0
  9
$DIMALTD
 70
     3
  9
$DIMALTF
 40
0.0393700787
  9
$DIMLFAC
 40
1.0
  9
$DIMTOFL
 70
     1
  9
$DIMTVP
 40
0.0
  9
$DIMTIX
 70
     0
  9
$DIMSOXD
 70
     0
  9
$DIMSAH
 70
     0
  9
$DIMBLK1
  1

  9
$DIMBLK2
  1

  9
$DIMSTYLE
  2
ISO-25
  9
$DIMCLRD
 70
     0
  9
$DIMCLRE
 70
     0
  9
$DIMCLRT
 70
     0
  9
$DIMTFAC
 40
1.0
  9
$DIMGAP
 40
1.524
  9
$DIMJUST
 70
     0
  9
$DIMSD1
 70
     0
  9
$DIMSD2
 70
     0
  9
$DIMTOLJ
 70
     0
  9
$DIMTZIN
 70
     0
  9
$DIMALTZ
 70
     0
  9
$DIMALTTZ
 70
     0
  9
$DIMUPT
 70
     0
  9
$DIMDEC
 70
     2
  9
$DIMTDEC
 70
     0
  9
$DIMALTU
 70
     2
  9
$DIMALTTD
 70
     3
  9
$DIMTXSTY
  7
Standard
  9
$DIMAUNIT
 70
     0
  9
$DIMADEC
 70
     2
  9
$DIMALTRND
 40
0.0
  9
$DIMAZIN
 70
     0
  9
$DIMDSEP
 70
    44
  9
$DIMATFIT
 70
     3
  9
$DIMFRAC
 70
     0
  9
$DIMLDRBLK
  1

  9
$DIMLUNIT
 70
     2
  9
$DIMLWD
 70
    -2
  9
$DIMLWE
 70
    -2
  9
$DIMTMOVE
 70
     0
  9
$LUNITS
 70
     2
  9
$LUPREC
 70
     3
  9
$SKETCHINC
 40
1.0
  9
$FILLETRAD
 40
10.0
  9
$AUNITS
 70
     0
  9
$AUPREC
 70
     2
  9
$MENU
  1
.
  9
$ELEVATION
 40
0.0
  9
$PELEVATION
 40
0.0
  9
$THICKNESS
 40
0.0
  9
$LIMCHECK
 70
     0
  9
$CHAMFERA
 40
0.0
  9
$CHAMFERB
 40
0.0
  9
$CHAMFERC
 40
0.0
  9
$CHAMFERD
 40
0.0
  9
$SKPOLY
 70
     0
  9
$TDCREATE
 40
2458691.310864653
  9
$TDUCREATE
 40
2458691.227531319
  9
$TDUPDATE
 40
2458691.310865012
  9
$TDUUPDATE
 40
2458691.227531678
  9
$TDINDWG
 40
0.0000000116
  9
$TDUSRTIMER
 40
0.0000000116
  9
$USRTIMER
 70
     1
  9
$ANGBASE
 50
0.0
  9
$ANGDIR
 70
     0
  9
$PDMODE
 70
     0
  9
$PDSIZE
 40
-1.0
  9
$PLINEWID
 40
0.0
  9
$SPLFRAME
 70
     0
  9
$SPLINETYPE
 70
     6
  9
$SPLINESEGS
 70
     8
  9
$HANDSEED
  5
1EF
  9
$SURFTAB1
 70
     6
  9
$SURFTAB2
 70
     6
  9
$SURFTYPE
 70
     6
  9
$SURFU
 70
     6
  9
$SURFV
 70
     6
  9
$UCSBASE
  2

  9
$UCSNAME
  2

  9
$UCSORG
 10
0.0
 20
0.0
 30
0.0
  9
$UCSXDIR
 10
1.0
 20
0.0
 30
0.0
  9
$UCSYDIR
 10
0.0
 20
1.0
 30
0.0
  9
$UCSORTHOREF
  2

  9
$UCSORTHOVIEW
 70
     0
  9
$UCSORGTOP
 10
0.0
 20
0.0
 30
0.0
  9
$UCSORGBOTTOM
 10
0.0
 20
0.0
 30
0.0
  9
$UCSORGLEFT
 10
0.0
 20
0.0
 30
0.0
  9
$UCSORGRIGHT
 10
0.0
 20
0.0
 30
0.0
  9
$UCSORGFRONT
 10
0.0
 20
0.0
 30
0.0
  9
$UCSORGBACK
 10
0.0
 20
0.0
 30
0.0
  9
$PUCSBASE
  2

  9
$PUCSNAME
  2

  9
$PUCSORG
 10
0.0
 20
0.0
 30
0.0
  9
$PUCSXDIR
 10
1.0
 20
0.0
 30
0.0
  9
$PUCSYDIR
 10
0.0
 20
1.0
 30
0.0
  9
$PUCSORTHOREF
  2

  9
$PUCSORTHOVIEW
 70
     0
  9
$PUCSORGTOP
 10
0.0
 20
0.0
 30
0.0
  9
$PUCSORGBOTTOM
 10
0.0
 20
0.0
 30
0.0
  9
$PUCSORGLEFT
 10
0.0
 20
0.0
 30
0.0
  9
$PUCSORGRIGHT
 10
0.0
 20
0.0
 30
0.0
  9
$PUCSORGFRONT
 10
0.0
 20
0.0
 30
0.0
  9
$PUCSORGBACK
 10
0.0
 20
0.0
 30
0.0
  9
$USERI1
 70
     0
  9
$USERI2
 70
     0
  9
$USERI3
 70
     0
  9
$USERI4
 70
     0
  9
$USERI5
 70
     0
  9
$USERR1
 40
0.0
  9
$USERR2
 40
0.0
  9
$USERR3
 40
0.0
  9
$USERR4
 40
0.0
  9
$USERR5
 40
0.0
  9
$WORLDVIEW
 70
     1
  9
$SHADEDGE
 70
     3
  9
$SHADEDIF
 70
    70
  9
$TILEMODE
 70
     1
  9
$MAXACTVP
 70
    64
  9
$PINSBASE
 10
0.0
 20
0.0
 30
0.0
  9
$PLIMCHECK
 70
     0
  9
$PEXTMIN
 10
1.0000000000E+20
 20
1.0000000000E+20
 30
1.0000000000E+20
  9
$PEXTMAX
 10
-1.0000000000E+20
 20
-1.0000000000E+20
 30
-1.0000000000E+20
  9
$PLIMMIN
 10
0.0
 20
0.0
  9
$PLIMMAX
 10
420.0
 20
297.0
  9
$UNITMODE
 70
     0
  9
$VISRETAIN
 70
     1
  9
$PLINEGEN
 70
     0
  9
$PSLTSCALE
 70
     1
  9
$TREEDEPTH
 70
  3020
  9
$CMLSTYLE
  2
Standard
  9
$CMLJUST
 70
     0
  9
$CMLSCALE
 40
20.0
  9
$PROXYGRAPHICS
 70
     1
  9
$MEASUREMENT
 70
     1
  9
$CELWEIGHT
370
    -1
  9
$ENDCAPS
280
     0
  9
$JOINSTYLE
280
     0
  9
$LWDISPLAY
290
     1
  9
$INSUNITS
 70
     4
  9
$HYPERLINKBASE
  1

  9
$STYLESHEET
  1

  9
$XEDIT
290
     1
  9
$CEPSNTYPE
380
     0
  9
$PSTYLEMODE
290
     1
  9
$FINGERPRINTGUID
  2
{47A27954-DDA1-4609-8C15-2C076D0F3CE8}
  9
$VERSIONGUID
  2
{FAEB1C32-E019-11D5-929B-00C0DF256EC4}
  9
$EXTNAMES
290
     1
  9
$PSVPSCALE
 40
0.0
  9
$OLESTARTUP
290
     0
  0
ENDSEC
  0
SECTION
  2
CLASSES
  0
CLASS
  1
ACDBDICTIONARYWDFLT
  2
AcDbDictionaryWithDefault
  3
ObjectDBX Classes
 90
        0
280
     0
281
     0
  0
CLASS
  1
VISUALSTYLE
  2
AcDbVisualStyle
  3
ObjectDBX Classes
 90
     4095
280
     0
281
     0
  0
CLASS
  1
MATERIAL
  2
AcDbMaterial
  3
ObjectDBX Classes
 90
     1153
280
     0
281
     0
  0
CLASS
  1
SCALE
  2
AcDbScale
  3
ObjectDBX Classes
 90
     1153
280
     0
281
     0
  0
CLASS
  1
TABLESTYLE
  2
AcDbTableStyle
  3
ObjectDBX Classes
 90
     4095
280
     0
281
     0
  0
CLASS
  1
MLEADERSTYLE
  2
AcDbMLeaderStyle
  3
ACDB_MLEADERSTYLE_CLASS
 90
     4095
280
     0
281
     0
  0
CLASS
  1
SUN
  2
AcDbSun
  3
SCENEOE
 90
     1153
280
     0
281
     0
  0
CLASS
  1
ACDBPLACEHOLDER
  2
AcDbPlaceHolder
  3
ObjectDBX Classes
 90
        0
280
     0
281
     0
  0
CLASS
  1
LAYOUT
  2
AcDbLayout
  3
ObjectDBX Classes
 90
        0
280
     0
281
     0
  0
ENDSEC
  0
SECTION
  2
TABLES
  0
TABLE
  2
VPORT
  5
8
330
0
100
AcDbSymbolTable
 70
     1
  0
VPORT
  5
29
330
8
100
AcDbSymbolTableRecord
100
AcDbViewportTableRecord
  2
*Active
 70
     0
 10
0.0
 20
0.0
 11
1.0
 21
1.0
 12
10000.0
 22
5000.0
 13
0.0
 23
0.0
 14
10.0
 24
10.0
 15
10.0
 25
10.0
 16
0.0
 26
0.0
 36
1.0
 17
0.0
 27
0.0
 37
0.0
 40
10000.0
 41
2.0
 42
50.0
 43
0.0
 44
0.0
 50
0.0
 51
0.0
 71
     0
 72
  2000
 73
     1
 74
     3
 75
     0
 76
     0
 77
     0
 78
     0
281
     0
 65
     1
110
0.0
120
0.0
130
0.0
111
1.0
121
0.0
131
0.0
112
0.0
122
1.0
132
0.0
 79
     0
146
0.0
  0
ENDTAB
  0
TABLE
  2
LTYPE
  5
5
330
0
100
AcDbSymbolTable
 70
     6
  0
LTYPE
  5
14
330
5
100
AcDbSymbolTableRecord
100
AcDbLinetypeTableRecord
  2
ByBlock
 70
     0
  3

 72
    65
 73
     0
 40
0.0
  0
LTYPE
  5
15
330
5
100
AcDbSymbolTableRecord
100
AcDbLinetypeTableRecord
  2
ByLayer
 70
     0
  3

 72
    65
 73
     0
 40
0.0
  0
LTYPE
  5
16
330
5
100
AcDbSymbolTableRecord
100
AcDbLinetypeTableRecord
  2
Continuous
 70
     0
  3
Solid line
 72
    65
 73
     0
 40
0.0
  0
LTYPE
  5
6E
330
5
100
AcDbSymbolTableRecord
100
AcDbLinetypeTableRecord
  2
HIDDEN
 70
     0
  3
Hidden __ __ __ __ __ __ __ __ __ __ __ __ __ __
 72
    65
 73
     2
 40
1.905
 49
1.27
 74
     0
 49
-0.635
 74
     0
  0
LTYPE
  5
6F
330
5
100
AcDbSymbolTableRecord
100
AcDbLinetypeTableRecord
  2
PHANTOM
 70
     0
  3
Phantom ______  __  __  ______  __  __  ______
 72
    65
 73
     6
 40
12.7
 49
6.35
 74
     0
 49
-1.27
 74
     0
 49
1.27
 74
     0
 49
-1.27
 74
     0
 49
1.27
 74
     0
 49
-1.27
 74
     0
  0
LTYPE
  5
70
330
5
100
AcDbSymbolTableRecord
100
AcDbLinetypeTableRecord
  2
CENTER
 70
     0
  3
Center ____ _ ____ _ ____ _ ____ _ ____ _ ____
 72
    65
 73
     4
 40
10.16
 49
6.35
 74
     0
 49
-1.27
 74
     0
 49
1.27
 74
     0
 49
-1.27
 74
     0
  0
LTYPE
  5
71
330
5
100
AcDbSymbolTableRecord
100
AcDbLinetypeTableRecord
  2
CENTERX2
 70
     0
  3
Center (2x) ________  __  ________  __  _____
 72
    65
 73
     4
 40
20.32
 49
12.7
 74
     0
 49
-2.54
 74
     0
 49
2.54
 74
     0
 49
-2.54
 74
     0
  0
LTYPE
  5
72
330
5
100
AcDbSymbolTableRecord
100
AcDbLinetypeTableRecord
  2
DOT2
 70
     0
  3
Dot (.5x) ........................................
 72
    65
 73
     2
 40
0.635
 49
0.0
 74
     0
 49
-0.635
 74
     0
  0
ENDTAB
  0
TABLE
  2
LAYER
  5
2
330
0
100
AcDbSymbolTable
 70
    13
  0
LAYER
  5
10
330
2
100
AcDbSymbolTableRecord
100
AcDbLayerTableRecord
  2
0
 70
     0
 62
     7
  6
Continuous
370
    -3
390
F
  0
LAYER
  5
73
330
2
100
AcDbSymbolTableRecord
100
AcDbLayerTableRecord
  2
FORMAT
 70
     0
 62
     7
  6
Continuous
370
    -3
390
F
  0
LAYER
  5
74
330
2
100
AcDbSymbolTableRecord
100
AcDbLayerTableRecord
  2
OSA
 70
     0
 62
     7
  6
CENTER
370
    -3
390
F
  0
LAYER
  5
75
330
2
100
AcDbSymbolTableRecord
100
AcDbLayerTableRecord
  2
0_35
 70
     0
 62
     7
  6
Continuous
370
    35
390
F
  0
LAYER
  5
76
330
2
100
AcDbSymbolTableRecord
100
AcDbLayerTableRecord
  2
0_5
 70
     0
 62
     7
  6
Continuous
370
    50
390
F
  0
LAYER
  5
77
330
2
100
AcDbSymbolTableRecord
100
AcDbLayerTableRecord
  2
0_25
 70
     0
 62
     7
  6
Continuous
370
    25
390
F
  0
LAYER
  5
78
330
2
100
AcDbSymbolTableRecord
100
AcDbLayerTableRecord
  2
0_18
 70
     0
 62
     7
  6
Continuous
370
    -3
390
F
  0
LAYER
  5
79
330
2
100
AcDbSymbolTableRecord
100
AcDbLayerTableRecord
  2
SLD-0
 70
     0
 62
   179
  6
Continuous
370
    -3
390
F
  0
LAYER
  5
7A
330
2
100
AcDbSymbolTableRecord
100
AcDbLayerTableRecord
  2
KOTY
 70
     0
 62
     7
  6
Continuous
370
    -3
390
F
  0
LAYER
  5
7B
330
2
100
AcDbSymbolTableRecord
100
AcDbLayerTableRecord
  2
SILNA
 70
     0
 62
   179
  6
Continuous
370
    -3
390
F
  0
LAYER
  5
7C
330
2
100
AcDbSymbolTableRecord
100
AcDbLayerTableRecord
  2
0_18_1
 70
     0
 62
   179
  6
Continuous
370
    -3
390
F
  0
LAYER
  5
7D
330
2
100
AcDbSymbolTableRecord
100
AcDbLayerTableRecord
  2
0_35_1
 70
     0
 62
   179
  6
Continuous
370
    35
390
F
  0
LAYER
  5
7E
330
2
100
AcDbSymbolTableRecord
100
AcDbLayerTableRecord
  2
0_5_1
 70
     0
 62
   179
  6
Continuous
370
    50
390
F
  0
ENDTAB
  0
TABLE
  2
STYLE
  5
3
330
0
100
AcDbSymbolTable
 70
     1
  0
STYLE
  5
11
330
3
100
AcDbSymbolTableRecord
100
AcDbTextStyleTableRecord
  2
Standard
 70
     0
 40
0.0
 41
1.0
 50
0.0
 71
     0
 42
2.0
  3
txt
  4

  0
ENDTAB
  0
TABLE
  2
VIEW
  5
6
330
0
100
AcDbSymbolTable
 70
     0
  0
ENDTAB
  0
TABLE
  2
UCS
  5
7
330
0
100
AcDbSymbolTable
 70
     0
  0
ENDTAB
  0
TABLE
  2
APPID
  5
9
330
0
100
AcDbSymbolTable
 70
     1
  0
APPID
  5
12
330
9
100
AcDbSymbolTableRecord
100
AcDbRegAppTableRecord
  2
ACAD
 70
     0
  0
ENDTAB
  0
TABLE
  2
DIMSTYLE
  5
A
330
0
100
AcDbSymbolTable
 70
     1
100
AcDbDimStyleTable
  0
DIMSTYLE
105
27
330
A
100
AcDbSymbolTableRecord
100
AcDbDimStyleTableRecord
  2
ISO-25
 70
     0
 41
2.5
 42
0.625
 43
3.75
 44
1.25
 73
     0
 74
     0
 77
     1
 78
     8
140
2.5
141
2.5
143
0.0393700787
147
0.625
171
     3
172
     1
178
     0
271
     2
272
     2
274
     3
278
    44
283
     0
284
     8
340
11
  0
ENDTAB
  0
TABLE
  2
BLOCK_RECORD
  5
1
330
0
100
AcDbSymbolTable
 70
     1
  0
BLOCK_RECORD
  5
1F
330
1
100
AcDbSymbolTableRecord
100
AcDbBlockTableRecord
  2
*Model_Space
340
22
  0
BLOCK_RECORD
  5
1B
330
1
100
AcDbSymbolTableRecord
100
AcDbBlockTableRecord
  2
*Paper_Space
340
1E
  0
BLOCK_RECORD
  5
23
330
1
100
AcDbSymbolTableRecord
100
AcDbBlockTableRecord
  2
*Paper_Space0
340
26
  0
ENDTAB
  0
ENDSEC
  0
SECTION
  2
BLOCKS
  0
BLOCK
  5
20
330
1F
100
AcDbEntity
  8
0
100
AcDbBlockBegin
  2
*Model_Space
 70
     0
 10
0.0
 20
0.0
 30
0.0
  3
*Model_Space
  1

  0
ENDBLK
  5
21
330
1F
100
AcDbEntity
  8
0
100
AcDbBlockEnd
  0
BLOCK
  5
1C
330
1B
100
AcDbEntity
 67
     1
  8
0
100
AcDbBlockBegin
  2
*Paper_Space
 70
     0
 10
0.0
 20
0.0
 30
0.0
  3
*Paper_Space
  1

  0
ENDBLK
  5
1D
330
1B
100
AcDbEntity
 67
     1
  8
0
100
AcDbBlockEnd
  0
BLOCK
  5
24
330
23
100
AcDbEntity
  8
0
100
AcDbBlockBegin
  2
*Paper_Space0
 70
     0
 10
0.0
 20
0.0
 30
0.0
  3
*Paper_Space0
  1

  0
ENDBLK
  5
25
330
23
100
AcDbEntity
  8
0
100
AcDbBlockEnd
  0
ENDSEC
  0
SECTION
  2
ENTITIES
  0
ARC
  5
7F
330
1F
100
AcDbEntity
  8
0
  6
Continuous
 62
     7
370
    25
100
AcDbCircle
 10
5150.0188053361
 20
5523.2253398368
 30
0.0
 40
1.000000000000909
100
AcDbArc
 50
90.0
 51
180.0
  0
ARC
  5
80
330
1F
100
AcDbEntity
  8
0
  6
Continuous
 62
     7
370
    25
100
AcDbCircle
 10
7398.0188053361
 20
5523.2253398368
 30
0.0
 40
1.000000000000909
100
AcDbArc
 50
0.0
 51
90.0
  0
LINE
  5
81
330
1F
100
AcDbEntity
  8
0
  6
Continuous
 62
     7
370
    25
100
AcDbLine
 10
7398.0188053361
 20
5524.2253398368
 30
0.0
 11
5150.0188053361
 21
5524.2253398368
 31
0.0
  0
LINE
  5
82
330
1F
100
AcDbEntity
  8
0
  6
Continuous
 62
     7
370
    25
100
AcDbLine
 10
7168.2144409012
 20
5131.4709211618
 30
0.0
 11
7171.2010780704
 21
5128.4576175893
 31
0.0
  0
LINE
  5
83
330
1F
100
AcDbEntity
  8
0
  6
Continuous
 62
     7
370
    25
100
AcDbLine
 10
7236.2004361046
 20
5128.1687315536
 30
0.0
 11
7239.213739677
 21
5131.1553687228
 31
0.0
  0
LINE
  5
84
330
1F
100
AcDbEntity
  8
0
  6
Continuous
 62
     7
370
    25
100
AcDbLine
 10
7239.213739677
 20
5131.1553687228
 30
0.0
 11
7239.2226284781
 21
5133.15534897
 31
0.0
  0
LINE
  5
85
330
1F
100
AcDbEntity
  8
0
  6
Continuous
 62
     7
370
    25
100
AcDbLine
 10
7168.2233297023
 20
5133.470901409
 30
0.0
 11
7168.2144409012
 21
5131.4709211618
 31
0.0
  0
LINE
  5
86
330
1F
100
AcDbEntity
  8
0
  6
Continuous
 62
     7
370
    25
100
AcDbLine
 10
7236.1755474615
 20
5122.5687868614
 30
0.0
 11
7236.2004361046
 21
5128.1687315536
 31
0.0
  0
LINE
  5
87
330
1F
100
AcDbEntity
  8
0
  6
Continuous
 62
     7
370
    25
100
AcDbLine
 10
7171.2010780704
 20
5128.4576175893
 30
0.0
 11
7171.1761894273
 21
5122.8576728971
 31
0.0
  0
LINE
  5
88
330
1F
100
AcDbEntity
  8
0
  6
Continuous
 62
     7
370
    25
100
AcDbLine
 10
7173.4521669486
 20
5072.4470596662
 30
0.0
 11
7173.3721677387
 21
5054.4472374413
 31
0.0
  0
LINE
  5
89
330
1F
100
AcDbEntity
  8
0
  6
Continuous
 62
     7
370
    25
100
AcDbLine
 10
7233.3715751549
 20
5054.1805734083
 30
0.0
 11
7233.4515743648
 21
5072.1803956332
 31
0.0
  0
LINE
  5
8A
330
1F
100
AcDbEntity
  8
0
  6
Continuous
 62
     7
370
    25
100
AcDbLine
 10
7177.5472376148
 20
5093.8290707091
 30
0.0
 11
7181.4983097032
 21
5082.8114017472
 31
0.0
  0
LINE
  5
8B
330
1F
100
AcDbEntity
  8
0
  6
Continuous
 62
     7
370
    25
100
AcDbLine
 10
7225.4978751417
 20
5082.6158481231
 30
0.0
 11
7229.5467240422
 21
5093.5979618805
 31
0.0
  0
LINE
  5
8C
330
1F
100
AcDbEntity
  8
0
  6
Continuous
 62
     7
370
    25
100
AcDbLine
 10
7229.5467240422
 20
5093.5979618805
 30
0.0
 11
7229.6756116581
 21
5122.597675465
 31
0.0
  0
LINE
  5
8D
330
1F
100
AcDbEntity
  8
0
  6
Continuous
 62
     7
370
    25
100
AcDbLine
 10
7177.6761252307
 20
5122.8287842936
 30
0.0
 11
7177.5472376148
 21
5093.8290707091
 31
0.0
  0
LINE
  5
8E
330
1F
100
AcDbEntity
  8
0
  6
Continuous
 62
     7
370
    25
100
AcDbLine
 10
7227.9227400814
 20
4953.2037929272
 30
0.0
 11
7228.3716245369
 21
5054.2027954111
 31
0.0
  0
LINE
  5
8F
330
1F
100
AcDbEntity
  8
0
  6
Continuous
 62
     7
370
    25
100
AcDbLine
 10
7178.3721183568
 20
5054.4250154386
 30
0.0
 11
7177.9232339013
 21
4953.4260129546
 31
0.0
  0
ARC
  5
90
330
1F
100
AcDbEntity
  8
0
  6
Continuous
 62
     7
370
    25
100
AcDbCircle
 10
7202.9229869913
 20
4953.3149029409
 30
0.0
 40
25.00000000000056
100
AcDbArc
 50
285.6077483616
 51
359.7453537677
  0
ARC
  5
91
330
1F
100
AcDbEntity
  8
0
  6
Continuous
 62
     7
370
    25
100
AcDbCircle
 10
7202.9229869913
 20
4953.3149029409
 30
0.0
 40
24.99999999999971
100
AcDbArc
 50
179.7453537677
 51
254.2398081242
  0
LINE
  5
92
330
1F
100
AcDbEntity
  8
0
  6
Continuous
 62
     7
370
    25
100
AcDbLine
 10
7225.451653376
 20
5072.2159508376
 30
0.0
 11
7225.4978751417
 21
5082.6158481231
 31
0.0
  0
LINE
  5
93
330
1F
100
AcDbEntity
  8
0
  6
Continuous
 62
     7
370
    25
100
AcDbLine
 10
7181.4983097032
 20
5082.8114017472
 30
0.0
 11
7181.4520879375
 21
5072.4115044618
 31
0.0
  0
LINE
  5
94
330
1F
100
AcDbEntity
  8
0
  6
Continuous
 62
     7
370
    25
100
AcDbLine
 10
7235.2311789725
 20
4910.0858768266
 30
0.0
 11
7235.2978449807
 21
4925.0857286806
 31
0.0
  0
LINE
  5
95
330
1F
100
AcDbEntity
  8
0
  6
Continuous
 62
     7
370
    25
100
AcDbLine
 10
7170.2984869465
 20
4925.3746147163
 30
0.0
 11
7170.2318209383
 21
4910.3747628623
 31
0.0
  0
ARC
  5
96
330
1F
100
AcDbEntity
  8
0
  6
Continuous
 62
     7
370
    25
100
AcDbCircle
 10
7203.0563898914
 20
4983.3305554564
 30
0.0
 40
80.00000000000108
100
AcDbArc
 50
245.77587145
 51
293.7148360855
  0
LINE
  5
97
330
1F
100
AcDbEntity
  8
0
  6
Continuous
 62
     7
370
    25
100
AcDbLine
 10
7230.7978894245
 20
4925.1057284831
 30
0.0
 11
7231.3049288995
 21
5039.1896103554
 31
0.0
  0
LINE
  5
98
330
1F
100
AcDbEntity
  8
0
  6
Continuous
 62
     7
370
    25
100
AcDbLine
 10
7175.3054819777
 20
5039.4384967862
 30
0.0
 11
7174.7984425027
 21
4925.3546149139
 31
0.0
  0
LINE
  5
99
330
1F
100
AcDbEntity
  8
0
  6
Continuous
 62
     7
370
    25
100
AcDbLine
 10
7398.0188053361
 20
5397.5427281746
 30
0.0
 11
7398.0188053361
 21
5398.5427281746
 31
0.0
  0
LINE
  5
9A
330
1F
100
AcDbEntity
  8
0
  6
Continuous
 62
     7
370
    25
100
AcDbLine
 10
7399.0188053361
 20
5398.5427281746
 30
0.0
 11
7398.0188053361
 21
5398.5427281746
 31
0.0
  0
ARC
  5
9B
330
1F
100
AcDbEntity
  8
0
  6
Continuous
 62
     7
370
    25
100
AcDbCircle
 10
7398.0188053361
 20
5398.5427281746
 30
0.0
 40
1.0
100
AcDbArc
 50
270.0
 51
0.0
  0
LINE
  5
9C
330
1F
100
AcDbEntity
  8
0
  6
Continuous
 62
     7
370
    25
100
AcDbLine
 10
5149.0188053361
 20
5398.5427281746
 30
0.0
 11
5149.0188053361
 21
5423.4451437395
 31
0.0
  0
LINE
  5
9D
330
1F
100
AcDbEntity
  8
0
  6
Continuous
 62
     7
370
    25
100
AcDbLine
 10
5150.0188053361
 20
5423.4451437395
 30
0.0
 11
5149.0188053361
 21
5423.4451437395
 31
0.0
  0
LINE
  5
9E
330
1F
100
AcDbEntity
  8
0
  6
Continuous
 62
     7
370
    25
100
AcDbLine
 10
5150.0188053361
 20
5423.4451437395
 30
0.0
 11
5150.0188053361
 21
5398.5427281746
 31
0.0
  0
LINE
  5
9F
330
1F
100
AcDbEntity
  8
0
  6
Continuous
 62
     7
370
    25
100
AcDbLine
 10
5149.0188053361
 20
5398.5427281746
 30
0.0
 11
5150.0188053361
 21
5398.5427281746
 31
0.0
  0
LINE
  5
A0
330
1F
100
AcDbEntity
  8
0
  6
Continuous
 62
     7
370
    25
100
AcDbLine
 10
7398.0188053361
 20
5423.4451437395
 30
0.0
 11
5150.0188053361
 21
5423.4451437395
 31
0.0
  0
LINE
  5
A1
330
1F
100
AcDbEntity
  8
0
  6
Continuous
 62
     7
370
    25
100
AcDbLine
 10
5150.0188053361
 20
5423.4451437395
 30
0.0
 11
5150.0188053361
 21
5424.4451437395
 31
0.0
  0
LINE
  5
A2
330
1F
100
AcDbEntity
  8
0
  6
Continuous
 62
     7
370
    25
100
AcDbLine
 10
5150.0188053361
 20
5424.4451437395
 30
0.0
 11
7398.0188053361
 21
5424.4451437395
 31
0.0
  0
LINE
  5
A3
330
1F
100
AcDbEntity
  8
0
  6
Continuous
 62
     7
370
    25
100
AcDbLine
 10
7398.0188053361
 20
5423.4451437395
 30
0.0
 11
7398.0188053361
 21
5424.4451437395
 31
0.0
  0
ARC
  5
A4
330
1F
100
AcDbEntity
  8
0
  6
Continuous
 62
     7
370
    25
100
AcDbCircle
 10
7398.0188053361
 20
5423.4451437395
 30
0.0
 40
1.0
100
AcDbArc
 50
0.0
 51
90.0
  0
LINE
  5
A5
330
1F
100
AcDbEntity
  8
0
  6
Continuous
 62
     7
370
    25
100
AcDbLine
 10
7398.0188053361
 20
5423.4451437395
 30
0.0
 11
7399.0188053361
 21
5423.4451437395
 31
0.0
  0
LINE
  5
A6
330
1F
100
AcDbEntity
  8
0
  6
Continuous
 62
     7
370
    25
100
AcDbLine
 10
7398.0188053361
 20
5397.5427281746
 30
0.0
 11
5150.0188053361
 21
5397.5427281746
 31
0.0
  0
LINE
  5
A7
330
1F
100
AcDbEntity
  8
0
  6
Continuous
 62
     7
370
    25
100
AcDbLine
 10
5150.0188053361
 20
5397.5427281746
 30
0.0
 11
5150.0188053361
 21
5398.5427281746
 31
0.0
  0
LINE
  5
A8
330
1F
100
AcDbEntity
  8
0
  6
Continuous
 62
     7
370
    25
100
AcDbLine
 10
5150.0188053361
 20
5398.5427281746
 30
0.0
 11
7398.0188053361
 21
5398.5427281746
 31
0.0
  0
LINE
  5
A9
330
1F
100
AcDbEntity
  8
0
  6
Continuous
 62
     7
370
    25
100
AcDbLine
 10
7398.0188053361
 20
5398.5427281746
 30
0.0
 11
7398.0188053361
 21
5423.4451437395
 31
0.0
  0
LINE
  5
AA
330
1F
100
AcDbEntity
  8
0
  6
Continuous
 62
     7
370
    25
100
AcDbLine
 10
7399.0188053361
 20
5423.4451437395
 30
0.0
 11
7399.0188053361
 21
5398.5427281746
 31
0.0
  0
ARC
  5
AB
330
1F
100
AcDbEntity
  8
0
  6
Continuous
 62
     7
370
    25
100
AcDbCircle
 10
5150.0188053361
 20
5398.5427281746
 30
0.0
 40
1.0
100
AcDbArc
 50
180.0
 51
270.0
  0
ARC
  5
AC
330
1F
100
AcDbEntity
  8
0
  6
Continuous
 62
     7
370
    25
100
AcDbCircle
 10
5150.0188053361
 20
5423.4451437395
 30
0.0
 40
1.0
100
AcDbArc
 50
90.0
 51
180.0
  0
LINE
  5
AD
330
1F
100
AcDbEntity
  8
0
  6
Continuous
 62
     7
370
    25
100
AcDbLine
 10
5187.0188053361
 20
5142.2673659617
 30
0.0
 11
5189.0188053361
 21
5142.2673659617
 31
0.0
  0
LINE
  5
AE
330
1F
100
AcDbEntity
  8
0
  6
Continuous
 62
     7
370
    25
100
AcDbLine
 10
5187.0188053361
 20
5142.2673659617
 30
0.0
 11
5187.0188053361
 21
5397.5427281746
 31
0.0
  0
LINE
  5
AF
330
1F
100
AcDbEntity
  8
0
  6
Continuous
 62
     7
370
    25
100
AcDbLine
 10
7361.0188053361
 20
5397.5427281746
 30
0.0
 11
7361.0188053361
 21
5132.6229215173
 31
0.0
  0
LINE
  5
B0
330
1F
100
AcDbEntity
  8
0
  6
Continuous
 62
     7
370
    25
100
AcDbLine
 10
7361.0188053361
 20
5132.6229215173
 30
0.0
 11
7359.0188053361
 21
5132.6229215173
 31
0.0
  0
LINE
  5
B1
330
1F
100
AcDbEntity
  8
0
  6
Continuous
 62
     7
370
    25
100
AcDbLine
 10
5189.0188053361
 20
5142.2673659617
 30
0.0
 11
7359.0188053361
 21
5132.6229215173
 31
0.0
  0
LINE
  5
B2
330
1F
100
AcDbEntity
  8
0
  6
Continuous
 62
     7
370
    25
100
AcDbLine
 10
5150.0188053361
 20
5424.4451437395
 30
0.0
 11
5150.0188053361
 21
5425.4451437395
 31
0.0
  0
LINE
  5
B3
330
1F
100
AcDbEntity
  8
0
  6
Continuous
 62
     7
370
    25
100
AcDbLine
 10
5150.0188053361
 20
5425.4451437395
 30
0.0
 11
5149.0188053361
 21
5425.4451437395
 31
0.0
  0
LINE
  5
B4
330
1F
100
AcDbEntity
  8
0
  6
Continuous
 62
     7
370
    25
100
AcDbLine
 10
5149.0188053361
 20
5425.4451437395
 30
0.0
 11
5149.0188053361
 21
5423.4451437395
 31
0.0
  0
LINE
  5
B5
330
1F
100
AcDbEntity
  8
0
  6
Continuous
 62
     7
370
    25
100
AcDbLine
 10
5150.0188053361
 20
5425.4451437395
 30
0.0
 11
5188.0188053361
 21
5425.4451437395
 31
0.0
  0
LINE
  5
B6
330
1F
100
AcDbEntity
  8
0
  6
Continuous
 62
     7
370
    25
100
AcDbLine
 10
5188.0188053361
 20
5424.4451437395
 30
0.0
 11
5188.0188053361
 21
5425.4451437395
 31
0.0
  0
LINE
  5
B7
330
1F
100
AcDbEntity
  8
0
  6
Continuous
 62
     7
370
    25
100
AcDbLine
 10
7398.0188053361
 20
5425.4451437395
 30
0.0
 11
7398.0188053361
 21
5424.4451437395
 31
0.0
  0
LINE
  5
B8
330
1F
100
AcDbEntity
  8
0
  6
Continuous
 62
     7
370
    25
100
AcDbLine
 10
7399.0188053361
 20
5425.4451437395
 30
0.0
 11
7398.0188053361
 21
5425.4451437395
 31
0.0
  0
LINE
  5
B9
330
1F
100
AcDbEntity
  8
0
  6
Continuous
 62
     7
370
    25
100
AcDbLine
 10
7399.0188053361
 20
5423.4451437395
 30
0.0
 11
7399.0188053361
 21
5425.4451437395
 31
0.0
  0
LINE
  5
BA
330
1F
100
AcDbEntity
  8
0
  6
Continuous
 62
     7
370
    25
100
AcDbLine
 10
7360.0188053361
 20
5425.4451437395
 30
0.0
 11
7360.0188053361
 21
5424.4451437395
 31
0.0
  0
LINE
  5
BB
330
1F
100
AcDbEntity
  8
0
  6
Continuous
 62
     7
370
    25
100
AcDbLine
 10
7360.0188053361
 20
5425.4451437395
 30
0.0
 11
7398.0188053361
 21
5425.4451437395
 31
0.0
  0
LINE
  5
BC
330
1F
100
AcDbEntity
  8
0
  6
Continuous
 62
     7
370
    25
100
AcDbLine
 10
5150.0188053361
 20
5397.5427281746
 30
0.0
 11
5150.0188053361
 21
5142.440699295
 31
0.0
  0
LINE
  5
BD
330
1F
100
AcDbEntity
  8
0
  6
Continuous
 62
     7
370
    25
100
AcDbLine
 10
5150.0188053361
 20
5142.440699295
 30
0.0
 11
5187.0188053361
 21
5142.2762548506
 31
0.0
  0
LINE
  5
BE
330
1F
100
AcDbEntity
  8
0
  6
Continuous
 62
     7
370
    25
100
AcDbLine
 10
5150.0188053361
 20
5513.6253398368
 30
0.0
 11
5149.0188053361
 21
5513.6253398368
 31
0.0
  0
ARC
  5
BF
330
1F
100
AcDbEntity
  8
0
  6
Continuous
 62
     7
370
    25
100
AcDbCircle
 10
5150.0091899515
 20
5513.61553403
 30
0.0
 40
0.990433157884709
100
AcDbArc
 50
89.4437488215
 51
179.4327325208
  0
LINE
  5
C0
330
1F
100
AcDbEntity
  8
0
  6
Continuous
 62
     7
370
    25
100
AcDbLine
 10
5150.0188053361
 20
5513.6253398368
 30
0.0
 11
5150.0188053361
 21
5514.6059205125
 31
0.0
  0
LINE
  5
C1
330
1F
100
AcDbEntity
  8
0
  6
Continuous
 62
     7
370
    25
100
AcDbLine
 10
5150.0188053361
 20
5513.6253398368
 30
0.0
 11
5150.0188053361
 21
5425.4451437395
 31
0.0
  0
LINE
  5
C2
330
1F
100
AcDbEntity
  8
0
  6
Continuous
 62
     7
370
    25
100
AcDbLine
 10
5149.0188053361
 20
5425.4451437395
 30
0.0
 11
5149.0188053361
 21
5513.6253398368
 31
0.0
  0
LINE
  5
C3
330
1F
100
AcDbEntity
  8
0
  6
Continuous
 62
     7
370
    25
100
AcDbLine
 10
7398.0188053361
 20
5513.6253398368
 30
0.0
 11
5150.0188053361
 21
5513.6253398368
 31
0.0
  0
LINE
  5
C4
330
1F
100
AcDbEntity
  8
0
  6
Continuous
 62
     7
370
    25
100
AcDbLine
 10
5150.0188053361
 20
5514.6059205125
 30
0.0
 11
7398.0188053361
 21
5514.6059205125
 31
0.0
  0
LINE
  5
C5
330
1F
100
AcDbEntity
  8
0
  6
Continuous
 62
     7
370
    25
100
AcDbLine
 10
7398.0188053361
 20
5513.6253398368
 30
0.0
 11
7398.0188053361
 21
5514.6059205125
 31
0.0
  0
LINE
  5
C6
330
1F
100
AcDbEntity
  8
0
  6
Continuous
 62
     7
370
    25
100
AcDbLine
 10
7398.0188053361
 20
5425.4451437395
 30
0.0
 11
7398.0188053361
 21
5513.6253398368
 31
0.0
  0
LINE
  5
C7
330
1F
100
AcDbEntity
  8
0
  6
Continuous
 62
     7
370
    25
100
AcDbLine
 10
5150.0188053361
 20
5142.440699295
 30
0.0
 11
5149.0188053361
 21
5142.4451437395
 31
0.0
  0
LINE
  5
C8
330
1F
100
AcDbEntity
  8
0
  6
Continuous
 62
     7
370
    25
100
AcDbLine
 10
5149.0188053361
 20
5142.4451437395
 30
0.0
 11
5149.0188053361
 21
5398.5427281746
 31
0.0
  0
ARC
  5
C9
330
1F
100
AcDbEntity
  8
0
  6
Continuous
 62
     7
370
    25
100
AcDbCircle
 10
7398.0284207207
 20
5513.61553403
 30
0.0
 40
0.990433157884709
100
AcDbArc
 50
0.5672674792
 51
90.5562511785
  0
LINE
  5
CA
330
1F
100
AcDbEntity
  8
0
  6
Continuous
 62
     7
370
    25
100
AcDbLine
 10
7399.0188053361
 20
5513.6253398368
 30
0.0
 11
7398.0188053361
 21
5513.6253398368
 31
0.0
  0
LINE
  5
CB
330
1F
100
AcDbEntity
  8
0
  6
Continuous
 62
     7
370
    25
100
AcDbLine
 10
7399.0188053361
 20
5513.6253398368
 30
0.0
 11
7399.0188053361
 21
5425.4451437395
 31
0.0
  0
LINE
  5
CC
330
1F
100
AcDbEntity
  8
0
  6
Continuous
 62
     7
370
    25
100
AcDbLine
 10
7398.0188053361
 20
5132.4451437395
 30
0.0
 11
7398.0188053361
 21
5397.5427281746
 31
0.0
  0
LINE
  5
CD
330
1F
100
AcDbEntity
  8
0
  6
Continuous
 62
     7
370
    25
100
AcDbLine
 10
7399.0188053361
 20
5132.4451437395
 30
0.0
 11
7398.0188053361
 21
5132.4451437395
 31
0.0
  0
LINE
  5
CE
330
1F
100
AcDbEntity
  8
0
  6
Continuous
 62
     7
370
    25
100
AcDbLine
 10
7399.0188053361
 20
5398.5427281746
 30
0.0
 11
7399.0188053361
 21
5132.4451437395
 31
0.0
  0
LINE
  5
CF
330
1F
100
AcDbEntity
  8
0
  6
Continuous
 62
     7
370
    25
100
AcDbLine
 10
7397.0188053361
 20
5132.4540326284
 30
0.0
 11
7397.0188053361
 21
5132.4451437395
 31
0.0
  0
LINE
  5
D0
330
1F
100
AcDbEntity
  8
0
  6
Continuous
 62
     7
370
    25
100
AcDbLine
 10
7397.0188053361
 20
5132.4451437395
 30
0.0
 11
7398.0188053361
 21
5132.4451437395
 31
0.0
  0
LINE
  5
D1
330
1F
100
AcDbEntity
  8
0
  6
Continuous
 62
     7
370
    25
100
AcDbLine
 10
7397.0188053361
 20
5132.4540326284
 30
0.0
 11
7359.0188053361
 21
5132.6229215173
 31
0.0
  0
LINE
  5
D2
330
1F
100
AcDbEntity
  8
0
  6
Continuous
 62
     7
370
    25
100
AcDbLine
 10
5150.0188053361
 20
5524.2059205125
 30
0.0
 11
5150.0188053361
 21
5514.6059205125
 31
0.0
  0
ARC
  5
D3
330
1F
100
AcDbEntity
  8
0
  6
Continuous
 62
     7
370
    25
100
AcDbCircle
 10
5150.0091899515
 20
5523.21553403
 30
0.0
 40
0.990433157884709
100
AcDbArc
 50
89.4437488215
 51
179.4327325208
  0
LINE
  5
D4
330
1F
100
AcDbEntity
  8
0
  6
Continuous
 62
     7
370
    25
100
AcDbLine
 10
5149.0188053361
 20
5513.6253398368
 30
0.0
 11
5149.0188053361
 21
5523.2253398368
 31
0.0
  0
LINE
  5
D5
330
1F
100
AcDbEntity
  8
0
  6
Continuous
 62
     7
370
    25
100
AcDbLine
 10
7398.0188053361
 20
5524.2059205125
 30
0.0
 11
5150.0188053361
 21
5524.2059205125
 31
0.0
  0
LINE
  5
D6
330
1F
100
AcDbEntity
  8
0
  6
Continuous
 62
     7
370
    25
100
AcDbLine
 10
7398.0188053361
 20
5514.6059205125
 30
0.0
 11
7398.0188053361
 21
5524.2059205125
 31
0.0
  0
ARC
  5
D7
330
1F
100
AcDbEntity
  8
0
  6
Continuous
 62
     7
370
    25
100
AcDbCircle
 10
7398.0284207207
 20
5523.21553403
 30
0.0
 40
0.9904331578837996
100
AcDbArc
 50
0.5672674791
 51
90.5562511785
  0
LINE
  5
D8
330
1F
100
AcDbEntity
  8
0
  6
Continuous
 62
     7
370
    25
100
AcDbLine
 10
7399.0188053361
 20
5523.2253398368
 30
0.0
 11
7399.0188053361
 21
5513.6253398368
 31
0.0
  0
LINE
  5
D9
330
1F
100
AcDbEntity
  8
0
  6
Continuous
 62
     7
370
    25
100
AcDbLine
 10
7203.7140902891
 20
5131.3131449423
 30
0.0
 11
7168.2144409012
 21
5131.4709211618
 31
0.0
  0
LINE
  5
DA
330
1F
100
AcDbEntity
  8
0
  6
Continuous
 62
     7
370
    25
100
AcDbLine
 10
7239.213739677
 20
5131.1553687228
 30
0.0
 11
7203.7140902891
 21
5131.3131449423
 31
0.0
  0
LINE
  5
DB
330
1F
100
AcDbEntity
  8
0
  6
Continuous
 62
     7
370
    25
100
AcDbLine
 10
7203.7007570875
 20
5128.3131745714
 30
0.0
 11
7171.2010780704
 21
5128.4576175893
 31
0.0
  0
LINE
  5
DC
330
1F
100
AcDbEntity
  8
0
  6
Continuous
 62
     7
370
    25
100
AcDbLine
 10
7236.2004361046
 20
5128.1687315536
 30
0.0
 11
7203.7007570875
 21
5128.3131745714
 31
0.0
  0
LINE
  5
DD
330
1F
100
AcDbEntity
  8
0
  6
Continuous
 62
     7
370
    25
100
AcDbLine
 10
7203.6758684444
 20
5122.7132298793
 30
0.0
 11
7171.1761894273
 21
5122.8576728971
 31
0.0
  0
LINE
  5
DE
330
1F
100
AcDbEntity
  8
0
  6
Continuous
 62
     7
370
    25
100
AcDbLine
 10
7236.1755474615
 20
5122.5687868614
 30
0.0
 11
7203.6758684444
 21
5122.7132298793
 31
0.0
  0
LINE
  5
DF
330
1F
100
AcDbEntity
  8
0
  6
Continuous
 62
     7
370
    25
100
AcDbLine
 10
7173.4521669486
 20
5072.4470596662
 30
0.0
 11
7233.4515743648
 21
5072.1803956332
 31
0.0
  0
LINE
  5
E0
330
1F
100
AcDbEntity
  8
0
  6
Continuous
 62
     7
370
    25
100
AcDbLine
 10
7173.3721677387
 20
5054.4472374413
 30
0.0
 11
7233.3715751549
 21
5054.1805734083
 31
0.0
  0
LINE
  5
E1
330
1F
100
AcDbEntity
  8
0
  6
Continuous
 62
     7
370
    25
100
AcDbLine
 10
7203.5469808285
 20
5093.7135162948
 30
0.0
 11
7177.5472376148
 21
5093.8290707091
 31
0.0
  0
LINE
  5
E2
330
1F
100
AcDbEntity
  8
0
  6
Continuous
 62
     7
370
    25
100
AcDbLine
 10
7229.5467240422
 20
5093.5979618805
 30
0.0
 11
7203.5469808285
 21
5093.7135162948
 31
0.0
  0
LINE
  5
E3
330
1F
100
AcDbEntity
  8
0
  6
Continuous
 62
     7
370
    25
100
AcDbLine
 10
7203.4980924224
 20
5082.7136249351
 30
0.0
 11
7181.4983097032
 21
5082.8114017472
 31
0.0
  0
LINE
  5
E4
330
1F
100
AcDbEntity
  8
0
  6
Continuous
 62
     7
370
    25
100
AcDbLine
 10
7225.4978751417
 20
5082.6158481231
 30
0.0
 11
7203.4980924224
 21
5082.7136249351
 31
0.0
  0
SPLINE
  5
E5
330
1F
100
AcDbEntity
  8
0
  6
Continuous
 62
     7
370
    25
100
AcDbSpline
210
0.0
220
0.0
230
1.0
 70
     8
 71
     3
 72
    12
 73
     8
 74
     0
 42
0.000000001
 43
0.00000001
 40
0.0
 40
0.0
 40
0.0
 40
0.0
 40
0.1734277552910794
 40
0.4413560017117075
 40
0.6736853287714217
 40
0.9129989400830919
 40
1.0
 40
1.0
 40
1.0
 40
1.0
 10
7196.148838071946
 20
4929.308826257314
 30
0.0
 10
7196.897619042694
 20
4929.09793596069
 30
0.0
 10
7198.803190471283
 20
4928.561241600774
 30
0.0
 10
7201.9203413113
 20
4928.278539094415
 30
0.0
 10
7205.322441086364
 20
4928.3861371792
 30
0.0
 10
7207.878321488442
 20
4928.731666733202
 30
0.0
 10
7209.263971804328
 20
4929.16565693341
 30
0.0
 10
7209.633409824699
 20
4929.281366126837
 30
0.0
  0
LINE
  5
E6
330
1F
100
AcDbEntity
  8
0
  6
Continuous
 62
     7
370
    25
100
AcDbLine
 10
7202.7314999554
 20
4910.2303198444
 30
0.0
 11
7170.2318209383
 21
4910.3747628623
 31
0.0
  0
LINE
  5
E7
330
1F
100
AcDbEntity
  8
0
  6
Continuous
 62
     7
370
    25
100
AcDbLine
 10
7235.2311789725
 20
4910.0858768266
 30
0.0
 11
7202.7314999554
 21
4910.2303198444
 31
0.0
  0
LINE
  5
E8
330
1F
100
AcDbEntity
  8
0
  6
Continuous
 62
     7
370
    25
100
AcDbLine
 10
7202.7981659636
 20
4925.2301716985
 30
0.0
 11
7170.2984869465
 21
4925.3746147163
 31
0.0
  0
LINE
  5
E9
330
1F
100
AcDbEntity
  8
0
  6
Continuous
 62
     7
370
    25
100
AcDbLine
 10
7235.2978449807
 20
4925.0857286806
 30
0.0
 11
7202.7981659636
 21
4925.2301716985
 31
0.0
  0
ELLIPSE
  5
EA
330
1F
100
AcDbEntity
  8
0
  6
Continuous
 62
     7
370
    25
100
AcDbEllipse
 10
7203.3052054386
 20
5039.3140535708
 30
0.0
 11
27.99972346088634
 21
-0.1244432153816888
 31
0.0
210
0.0
220
0.0
230
1.0
 40
0.8928571429
 41
0.0
 42
0.0752180938701247
  0
ELLIPSE
  5
EB
330
1F
100
AcDbEntity
  8
0
  6
Continuous
 62
     7
370
    25
100
AcDbEllipse
 10
7203.3052054386
 20
5039.3140535708
 30
0.0
 11
27.99972346088634
 21
-0.1244432153816888
 31
0.0
210
0.0
220
0.0
230
1.0
 40
0.8928571429
 41
3.06637455971966
 42
3.141592653589809
  0
ELLIPSE
  5
EC
330
1F
100
AcDbEntity
  8
0
  6
Continuous
 62
     7
370
    25
100
AcDbEllipse
 10
7203.3219046484
 20
5043.0713757745
 30
0.0
 11
27.99972346088725
 21
-0.1244432153825983
 31
0.0
210
0.0
220
0.0
230
1.0
 40
0.8928571429
 41
3.216810747460006
 42
3.5440573851548
  0
ELLIPSE
  5
ED
330
1F
100
AcDbEntity
  8
0
  6
Continuous
 62
     7
370
    25
100
AcDbEllipse
 10
7203.3219046484
 20
5043.0713757745
 30
0.0
 11
27.99972346088725
 21
-0.1244432153825983
 31
0.0
210
0.0
220
0.0
230
1.0
 40
0.8928571429
 41
5.880720575614684
 42
6.207967213309469
  0
ARC
  5
EE
330
1F
100
AcDbEntity
  8
0
  6
Continuous
 62
     7
370
    25
100
AcDbCircle
 10
7176.8926126081
 20
5041.4228629761
 30
0.0
 40
1.503356138051032
100
AcDbArc
 50
175.4453136301
 51
184.0453939055
  0
ARC
  5
EF
330
1F
100
AcDbEntity
  8
0
  6
Continuous
 62
     7
370
    25
100
AcDbCircle
 10
7229.7354994315
 20
5041.1880057014
 30
0.0
 40
1.503356138011531
100
AcDbArc
 50
355.4453136298
 51
4.0453939055
  0
ARC
  5
F0
330
1F
100
AcDbEntity
  8
0
  6
Continuous
 62
     7
370
    25
100
AcDbCircle
 10
7203.3052054386
 20
5039.3140535708
 30
0.0
 40
28.00000000000049
100
AcDbArc
 50
152.979853191
 51
175.4356744459
  0
ARC
  5
F1
330
1F
100
AcDbEntity
  8
0
  6
Continuous
 62
     7
370
    25
100
AcDbCircle
 10
7203.3052054386
 20
5039.3140535708
 30
0.0
 40
27.99999999999986
100
AcDbArc
 50
4.0550330895
 51
26.5108543445
  0
ARC
  5
F2
330
1F
100
AcDbEntity
  8
0
  6
Continuous
 62
     7
370
    25
100
AcDbCircle
 10
7203.3052054386
 20
5039.3140535708
 30
0.0
 40
28.00000000000049
100
AcDbArc
 50
175.4356744459
 51
179.7453537677
  0
ARC
  5
F3
330
1F
100
AcDbEntity
  8
0
  6
Continuous
 62
     7
370
    25
100
AcDbCircle
 10
7203.3052054386
 20
5039.3140535708
 30
0.0
 40
28.00000000000026
100
AcDbArc
 50
359.7453537677
 51
4.0550330895
  0
ARC
  5
F4
330
1F
100
AcDbEntity
  8
0
  6
Continuous
 62
     7
370
    25
100
AcDbCircle
 10
7203.3052054386
 20
5039.3140535708
 30
0.0
 40
33.0000000000005
100
AcDbArc
 50
152.7096619783
 51
179.7453537677
  0
ARC
  5
F5
330
1F
100
AcDbEntity
  8
0
  6
Continuous
 62
     7
370
    25
100
AcDbCircle
 10
7203.3052054386
 20
5039.3140535708
 30
0.0
 40
32.9999999999997
100
AcDbArc
 50
327.7926073675
 51
26.7810455571
  0
ARC
  5
F6
330
1F
100
AcDbEntity
  8
0
  6
Continuous
 62
     7
370
    25
100
AcDbCircle
 10
7203.3052054386
 20
5039.3140535708
 30
0.0
 40
33.00000000000037
100
AcDbArc
 50
179.7453537677
 51
211.698100168
  0
ARC
  5
F7
330
1F
100
AcDbEntity
  8
0
  6
Continuous
 62
     8
370
    25
100
AcDbCircle
 10
5188.0188053361
 20
5423.4451437395
 30
0.0
 40
2.000000000000909
100
AcDbArc
 50
30.0
 51
90.0
  0
ARC
  5
F8
330
1F
100
AcDbEntity
  8
0
  6
Continuous
 62
     8
370
    25
100
AcDbCircle
 10
7360.0188053361
 20
5423.4451437395
 30
0.0
 40
2.000000000000909
100
AcDbArc
 50
90.0
 51
150.0
  0
LINE
  5
F9
330
1F
100
AcDbEntity
  8
0
  6
Continuous
 62
     8
370
    25
100
AcDbLine
 10
5150.0188053361
 20
5524.2059205125
 30
0.0
 11
5150.0188053361
 21
5524.2253398368
 31
0.0
  0
LINE
  5
FA
330
1F
100
AcDbEntity
  8
0
  6
Continuous
 62
     8
370
    25
100
AcDbLine
 10
7398.0188053361
 20
5524.2059205125
 30
0.0
 11
7398.0188053361
 21
5524.2253398368
 31
0.0
  0
LINE
  5
FB
330
1F
100
AcDbEntity
  8
0
  6
Continuous
 62
     8
370
    25
100
AcDbLine
 10
7227.9227400814
 20
4953.2037929272
 30
0.0
 11
7177.9232339013
 21
4953.4260129546
 31
0.0
  0
SPLINE
  5
FC
330
1F
100
AcDbEntity
  8
0
  6
Continuous
 62
     8
370
    25
100
AcDbSpline
210
0.0
220
0.0
230
1.0
 70
     8
 71
     3
 72
    22
 73
    18
 74
     0
 42
0.000000001
 43
0.00000001
 40
0.0
 40
0.0
 40
0.0
 40
0.0
 40
0.0619544537431754
 40
0.1393723866744927
 40
0.205288589439154
 40
0.2727101561328623
 40
0.3330713917163629
 40
0.3950450612399826
 40
0.4554943126873574
 40
0.5179498553651514
 40
0.5853136958254239
 40
0.6554546493553458
 40
0.7333333545706533
 40
0.8144635333230386
 40
0.8950288643287955
 40
0.9779569632364143
 40
1.0
 40
1.0
 40
1.0
 40
1.0
 10
7222.899287716892
 20
4938.432373555948
 30
0.0
 10
7222.471026029137
 20
4937.501665130937
 30
0.0
 10
7221.507610972795
 20
4935.407948752941
 30
0.0
 10
7219.538447959406
 20
4932.715191941622
 30
0.0
 10
7217.124501946894
 20
4930.284918279298
 30
0.0
 10
7214.520841470711
 20
4928.415006816184
 30
0.0
 10
7211.648824917093
 20
4926.965944752535
 30
0.0
 10
7208.626754675714
 20
4925.964301029534
 30
0.0
 10
7205.388331933541
 20
4925.386329350554
 30
0.0
 10
7201.966570072839
 20
4925.264801490782
 30
0.0
 10
7198.400791904302
 20
4925.66934510671
 30
0.0
 10
7194.748448873016
 20
4926.689707881053
 30
0.0
 10
7191.225400802286
 20
4928.39186346697
 30
0.0
 10
7188.049545935391
 20
4930.766776671595
 30
0.0
 10
7185.427600089493
 20
4933.745437938082
 30
0.0
 10
7183.768967257687
 20
4936.274552928721
 30
0.0
 10
7183.128173907406
 20
4937.903145094867
 30
0.0
 10
7182.993612808415
 20
4938.245135459758
 30
0.0
  0
LINE
  5
FD
330
1F
100
AcDbEntity
  8
0
  6
Continuous
 62
     8
370
    25
100
AcDbLine
 10
7178.2734656134
 20
5032.2281481833
 30
0.0
 11
7177.5158839102
 21
5033.3937893556
 31
0.0
  0
LINE
  5
FE
330
1F
100
AcDbEntity
  8
0
  6
Continuous
 62
     8
370
    25
100
AcDbLine
 10
7229.0408846184
 20
5033.1647893525
 30
0.0
 11
7228.2735011815
 21
5032.1250404551
 31
0.0
  0
ARC
  5
FF
330
1F
100
AcDbEntity
  8
0
  6
Continuous
 62
     8
370
    25
100
AcDbCircle
 10
7180.2260079031
 20
5032.3123239143
 30
0.0
 40
2.917934125010327
100
AcDbArc
 50
131.7366313664
 51
158.2457030948
  0
ARC
  5
100
330
1F
100
AcDbEntity
  8
0
  6
Continuous
 62
     8
370
    25
100
AcDbCircle
 10
7226.3212548537
 20
5032.10745615
 30
0.0
 40
2.91793412506643
100
AcDbArc
 50
21.2450044409
 51
47.7540761688
  0
ARC
  5
101
330
1F
100
AcDbEntity
  8
0
  6
Continuous
 62
     8
370
    25
100
AcDbCircle
 10
7178.1413160517
 20
5040.5831351623
 30
0.0
 40
2.844556619831886
100
AcDbArc
 50
86.33363389
 51
165.0532633282
  0
ARC
  5
102
330
1F
100
AcDbEntity
  8
0
  6
Continuous
 62
     8
370
    25
100
AcDbCircle
 10
7228.4793812185
 20
5040.3594104282
 30
0.0
 40
2.844556619831845
100
AcDbArc
 50
14.4374442073
 51
93.1570736455
  0
ARC
  5
103
330
1F
100
AcDbEntity
  8
0
  6
Continuous
 62
     8
370
    25
100
AcDbCircle
 10
7177.9081608842
 20
5040.8537258645
 30
0.0
 40
2.606730429039595
100
AcDbArc
 50
80.837603177
 51
164.684650219
  0
ARC
  5
104
330
1F
100
AcDbEntity
  8
0
  6
Continuous
 62
     8
370
    25
100
AcDbCircle
 10
7228.7149323783
 20
5040.6279179912
 30
0.0
 40
2.606730429042584
100
AcDbArc
 50
14.8060573164
 51
98.6531043584
  0
LINE
  5
105
330
1F
100
AcDbEntity
  8
0
  6
Continuous
 62
     7
370
    25
100
AcDbLine
 10
7885.9933741766
 20
5131.3124437146
 30
0.0
 11
7888.9930235576
 21
5128.3128535854
 31
0.0
  0
LINE
  5
106
330
1F
100
AcDbEntity
  8
0
  6
Continuous
 62
     7
370
    25
100
AcDbLine
 10
7953.9930235576
 20
5128.3128535854
 30
0.0
 11
7956.9926729386
 21
5131.3124437146
 31
0.0
  0
LINE
  5
107
330
1F
100
AcDbEntity
  8
0
  6
Continuous
 62
     7
370
    25
100
AcDbLine
 10
7956.9930235576
 20
5131.3131449423
 30
0.0
 11
7956.9930235576
 21
5133.3131251895
 31
0.0
  0
LINE
  5
108
330
1F
100
AcDbEntity
  8
0
  6
Continuous
 62
     7
370
    25
100
AcDbLine
 10
7885.9930235576
 20
5133.3131251895
 30
0.0
 11
7885.9930235576
 21
5131.3131449423
 31
0.0
  0
LINE
  5
109
330
1F
100
AcDbEntity
  8
0
  6
Continuous
 62
     7
370
    25
100
AcDbLine
 10
7841.4930235576
 20
5006.3140535708
 30
0.0
 11
7861.4930235576
 21
5006.3140535708
 31
0.0
  0
LINE
  5
10A
330
1F
100
AcDbEntity
  8
0
  6
Continuous
 62
     7
370
    25
100
AcDbLine
 10
7861.4930235576
 20
5072.3140535708
 30
0.0
 11
7841.4930235576
 21
5072.3140535708
 31
0.0
  0
ARC
  5
10B
330
1F
100
AcDbEntity
  8
0
  6
Continuous
 62
     7
370
    25
100
AcDbCircle
 10
7891.4930235576
 20
4983.3305554564
 30
0.0
 40
80.00000000000047
100
AcDbArc
 50
246.0317905287
 51
293.9682094713
  0
LINE
  5
10C
330
1F
100
AcDbEntity
  8
0
  6
Continuous
 62
     7
370
    25
100
AcDbLine
 10
7923.9930235576
 20
4910.2303198444
 30
0.0
 11
7923.9930235576
 21
4925.2301716985
 31
0.0
  0
LINE
  5
10D
330
1F
100
AcDbEntity
  8
0
  6
Continuous
 62
     7
370
    25
100
AcDbLine
 10
7858.9930235576
 20
4925.2301716985
 30
0.0
 11
7858.9930235576
 21
4910.2303198444
 31
0.0
  0
LINE
  5
10E
330
1F
100
AcDbEntity
  8
0
  6
Continuous
 62
     7
370
    25
100
AcDbLine
 10
7953.9930235576
 20
5122.7132298793
 30
0.0
 11
7953.9930235576
 21
5128.3131745715
 31
0.0
  0
LINE
  5
10F
330
1F
100
AcDbEntity
  8
0
  6
Continuous
 62
     7
370
    25
100
AcDbLine
 10
7888.9930235576
 20
5128.3131745715
 30
0.0
 11
7888.9930235576
 21
5122.7132298793
 31
0.0
  0
LINE
  5
110
330
1F
100
AcDbEntity
  8
0
  6
Continuous
 62
     7
370
    25
100
AcDbLine
 10
7891.4930235576
 20
5072.3137276497
 30
0.0
 11
7891.4930235576
 21
5054.3139054248
 31
0.0
  0
LINE
  5
111
330
1F
100
AcDbEntity
  8
0
  6
Continuous
 62
     7
370
    25
100
AcDbLine
 10
7951.4930235576
 20
5054.3139054248
 30
0.0
 11
7951.4930235576
 21
5072.3137276497
 31
0.0
  0
LINE
  5
112
330
1F
100
AcDbEntity
  8
0
  6
Continuous
 62
     7
370
    25
100
AcDbLine
 10
7919.4930235576
 20
4925.3035043075
 30
0.0
 11
7919.4930235576
 21
4925.3740560501
 31
0.0
  0
LINE
  5
113
330
1F
100
AcDbEntity
  8
0
  6
Continuous
 62
     7
370
    25
100
AcDbLine
 10
7863.4930235576
 20
5008.3143597391
 30
0.0
 11
7863.4930235576
 21
4925.3035043075
 31
0.0
  0
SPLINE
  5
114
330
1F
100
AcDbEntity
  8
0
  6
Continuous
 62
     7
370
    25
100
AcDbSpline
210
0.0
220
0.0
230
1.0
 70
     8
 71
     3
 72
    13
 73
     9
 74
     0
 42
0.000000001
 43
0.00000001
 40
0.0
 40
0.0
 40
0.0
 40
0.0
 40
0.0297290986174844
 40
0.283805785931313
 40
0.5438266688604672
 40
0.7863708111074439
 40
0.9928449882556548
 40
0.9999999999999999
 40
0.9999999999999999
 40
0.9999999999999999
 40
0.9999999999999999
 10
7861.473167173139
 20
5011.136232237041
 30
0.0
 10
7861.507676559359
 20
5011.128519572118
 30
0.0
 10
7861.837116869821
 20
5011.054891408739
 30
0.0
 10
7862.391575857089
 20
5010.67848177459
 30
0.0
 10
7863.020443249688
 20
5010.024572887005
 30
0.0
 10
7863.367932988221
 20
5009.248416090769
 30
0.0
 10
7863.502547637346
 20
5008.709287812262
 30
0.0
 10
7863.48793148593
 20
5008.456075344147
 30
0.0
 10
7863.487441952007
 20
5008.447594582728
 30
0.0
  0
LINE
  5
115
330
1F
100
AcDbEntity
  8
0
  6
Continuous
 62
     7
370
    25
100
AcDbLine
 10
7870.2506297804
 20
5067.3140535708
 30
0.0
 11
7861.4930235576
 21
5067.3140535708
 31
0.0
  0
SPLINE
  5
116
330
1F
100
AcDbEntity
  8
0
  6
Continuous
 62
     7
370
    25
100
AcDbSpline
210
0.0
220
0.0
230
1.0
 70
     8
 71
     3
 72
    13
 73
     9
 74
     0
 42
0.000000001
 43
0.00000001
 40
0.0
 40
0.0
 40
0.0
 40
0.0
 40
0.1178970624565847
 40
0.2078779122054607
 40
0.3100425140863142
 40
0.5724071380369795
 40
0.9008198859773889
 40
1.0
 40
1.0
 40
1.0
 40
1.0
 10
7872.240265272105
 20
5066.560111491993
 30
0.0
 10
7872.223354045707
 20
5066.575257872284
 30
0.0
 10
7872.193535911454
 20
5066.601964202762
 30
0.0
 10
7872.08189904944
 20
5066.692651920919
 30
0.0
 10
7871.825991374368
 20
5066.879717837246
 30
0.0
 10
7871.317303762127
 20
5067.141536943717
 30
0.0
 10
7870.770829121689
 20
5067.314976461558
 30
0.0
 10
7870.422805442391
 20
5067.291771229034
 30
0.0
 10
7870.342081390926
 20
5067.28638877808
 30
0.0
  0
LINE
  5
117
330
1F
100
AcDbEntity
  8
0
  6
Continuous
 62
     7
370
    25
100
AcDbLine
 10
7895.4930575134
 20
5093.7133295402
 30
0.0
 11
7899.4930235576
 21
5082.7135459235
 31
0.0
  0
LINE
  5
118
330
1F
100
AcDbEntity
  8
0
  6
Continuous
 62
     7
370
    25
100
AcDbLine
 10
7943.4930235576
 20
5082.7135459235
 30
0.0
 11
7947.4929896019
 21
5093.7133295402
 31
0.0
  0
LINE
  5
119
330
1F
100
AcDbEntity
  8
0
  6
Continuous
 62
     7
370
    25
100
AcDbLine
 10
7947.4930235576
 20
5093.7135162948
 30
0.0
 11
7947.4930235576
 21
5122.7132298793
 31
0.0
  0
LINE
  5
11A
330
1F
100
AcDbEntity
  8
0
  6
Continuous
 62
     7
370
    25
100
AcDbLine
 10
7895.4930235576
 20
5122.7132298793
 30
0.0
 11
7895.4930235576
 21
5093.7135162948
 31
0.0
  0
ARC
  5
11B
330
1F
100
AcDbEntity
  8
0
  6
Continuous
 62
     7
370
    25
100
AcDbCircle
 10
7921.4930235576
 20
4953.3149029409
 30
0.0
 40
25.00000000000062
100
AcDbArc
 50
271.9657095531
 51
0.0
  0
LINE
  5
11C
330
1F
100
AcDbEntity
  8
0
  6
Continuous
 62
     7
370
    25
100
AcDbLine
 10
7946.4930235576
 20
4953.3149029409
 30
0.0
 11
7946.4930235576
 21
5054.3139054248
 31
0.0
  0
LINE
  5
11D
330
1F
100
AcDbEntity
  8
0
  6
Continuous
 62
     7
370
    25
100
AcDbLine
 10
7896.4930235576
 20
5054.3139054248
 30
0.0
 11
7896.4930235576
 21
5049.5565930975
 31
0.0
  0
SPLINE
  5
11E
330
1F
100
AcDbEntity
  8
0
  6
Continuous
 62
     7
370
    25
100
AcDbSpline
210
0.0
220
0.0
230
1.0
 70
     8
 71
     3
 72
    13
 73
     9
 74
     0
 42
0.000000001
 43
0.00000001
 40
0.0
 40
0.0
 40
0.0
 40
0.0
 40
0.1836824589945963
 40
0.3798878576676075
 40
0.5846108993393421
 40
0.7866256881788795
 40
0.9565848434635077
 40
1.0
 40
1.0
 40
1.0
 40
1.0
 10
7919.505101055061
 20
4925.367449213725
 30
0.0
 10
7919.525899644443
 20
4925.645267766424
 30
0.0
 10
7919.568914810976
 20
4926.219845738555
 30
0.0
 10
7919.96628023908
 20
4927.027358921311
 30
0.0
 10
7920.583466697306
 20
4927.712083645431
 30
0.0
 10
7921.349721827729
 20
4928.139455675768
 30
0.0
 10
7921.962912574493
 20
4928.321396361891
 30
0.0
 10
7922.284451721985
 20
4928.315159519009
 30
0.0
 10
7922.349875119496
 20
4928.313890511939
 30
0.0
  0
SPLINE
  5
11F
330
1F
100
AcDbEntity
  8
0
  6
Continuous
 62
     7
370
    25
100
AcDbSpline
210
0.0
220
0.0
230
1.0
 70
     8
 71
     3
 72
    19
 73
    15
 74
     0
 42
0.000000001
 43
0.00000001
 40
0.0
 40
0.0
 40
0.0
 40
0.0
 40
0.0169683843332
 40
0.138877472118989
 40
0.2730478408985905
 40
0.4111141564659275
 40
0.5423829676274431
 40
0.6536762774880556
 40
0.7507407712333228
 40
0.8348228289359975
 40
0.9053987841845034
 40
0.9600253200818304
 40
0.9928776302371629
 40
1.0
 40
1.0
 40
1.0
 40
1.0
 10
7896.477739456767
 20
5049.47576526278
 30
0.0
 10
7896.481320513381
 20
5049.437964293295
 30
0.0
 10
7896.510629614379
 20
5049.128582858814
 30
0.0
 10
7896.337229964988
 20
5048.520722950933
 30
0.0
 10
7895.937160157964
 20
5047.731135196034
 30
0.0
 10
7895.276752206176
 20
5047.088298931076
 30
0.0
 10
7894.509153548598
 20
5046.694395787868
 30
0.0
 10
7893.75689109626
 20
5046.540936126963
 30
0.0
 10
7893.098184247528
 20
5046.562193754276
 30
0.0
 10
7892.548769119073
 20
5046.693680626929
 30
0.0
 10
7892.119428182175
 20
5046.879227753956
 30
0.0
 10
7891.830392671807
 20
5047.055774984658
 30
0.0
 10
7891.689422041609
 20
5047.159488016954
 30
0.0
 10
7891.655729225669
 20
5047.186484975425
 30
0.0
 10
7891.649726108347
 20
5047.191295078248
 30
0.0
  0
LINE
  5
120
330
1F
100
AcDbEntity
  8
0
  6
Continuous
 62
     7
370
    25
100
AcDbLine
 10
7943.4930235576
 20
5072.4043759902
 30
0.0
 11
7943.4930235576
 21
5082.7136249351
 31
0.0
  0
LINE
  5
121
330
1F
100
AcDbEntity
  8
0
  6
Continuous
 62
     7
370
    25
100
AcDbLine
 10
7899.4930235576
 20
5082.7136249351
 30
0.0
 11
7899.4930235576
 21
5072.4043759902
 31
0.0
  0
LINE
  5
122
330
1F
100
AcDbEntity
  8
0
  6
Continuous
 62
     7
370
    25
100
AcDbLine
 10
8027.8378571636
 20
5142.2673659617
 30
0.0
 11
8022.5167843667
 21
5132.6229215173
 31
0.0
  0
LINE
  5
123
330
1F
100
AcDbEntity
  8
0
  6
Continuous
 62
     7
370
    25
100
AcDbLine
 10
8022.5167843667
 20
5132.6229215173
 30
0.0
 11
7956.9930235576
 21
5132.6229215173
 31
0.0
  0
LINE
  5
124
330
1F
100
AcDbEntity
  8
0
  6
Continuous
 62
     7
370
    25
100
AcDbLine
 10
7885.9930235576
 20
5132.6229215173
 30
0.0
 11
7821.2379421222
 21
5132.6229215173
 31
0.0
  0
LINE
  5
125
330
1F
100
AcDbEntity
  8
0
  6
Continuous
 62
     7
370
    25
100
AcDbLine
 10
7821.2379421222
 20
5132.4540326284
 30
0.0
 11
7821.2379421222
 21
5132.6229215173
 31
0.0
  0
LINE
  5
126
330
1F
100
AcDbEntity
  8
0
  6
Continuous
 62
     7
370
    25
100
AcDbLine
 10
7819.2379421222
 20
5132.4540326284
 30
0.0
 11
7821.2379421222
 21
5132.4540326284
 31
0.0
  0
LINE
  5
127
330
1F
100
AcDbEntity
  8
0
  6
Continuous
 62
     7
370
    25
100
AcDbLine
 10
7819.2379421222
 20
5142.4451437395
 30
0.0
 11
7819.2379421222
 21
5132.4540326284
 31
0.0
  0
LINE
  5
128
330
1F
100
AcDbEntity
  8
0
  6
Continuous
 62
     7
370
    25
100
AcDbLine
 10
7820.2379421222
 20
5142.4451437395
 30
0.0
 11
7819.2379421222
 21
5142.4451437395
 31
0.0
  0
ELLIPSE
  5
129
330
1F
100
AcDbEntity
  8
0
  6
Continuous
 62
     7
370
    25
100
AcDbEllipse
 10
7820.2379421222
 20
5142.440699295
 30
0.0
 11
1.000000000000909
 21
0.0
 31
0.0
210
0.0
220
0.0
230
1.0
 40
0.0044444444
 41
0.0
 42
1.570796326794897
  0
LINE
  5
12A
330
1F
100
AcDbEntity
  8
0
  6
Continuous
 62
     7
370
    25
100
AcDbLine
 10
7821.2379421222
 20
5142.440699295
 30
0.0
 11
7821.2379421222
 21
5142.2762548506
 31
0.0
  0
LINE
  5
12B
330
1F
100
AcDbEntity
  8
0
  6
Continuous
 62
     7
370
    25
100
AcDbLine
 10
7820.2379421222
 20
5425.4451437395
 30
0.0
 11
7820.2379421222
 21
5513.6253398368
 31
0.0
  0
ARC
  5
12C
330
1F
100
AcDbEntity
  8
0
  6
Continuous
 62
     7
370
    25
100
AcDbCircle
 10
7822.2379421222
 20
5425.4451437395
 30
0.0
 40
2.000000000000909
100
AcDbArc
 50
180.0
 51
270.0
  0
LINE
  5
12D
330
1F
100
AcDbEntity
  8
0
  6
Continuous
 62
     7
370
    25
100
AcDbLine
 10
8220.2379421222
 20
5423.4451437395
 30
0.0
 11
7822.2379421222
 21
5423.4451437395
 31
0.0
  0
LINE
  5
12E
330
1F
100
AcDbEntity
  8
0
  6
Continuous
 62
     7
370
    25
100
AcDbLine
 10
8220.2379421222
 20
5398.5427281746
 30
0.0
 11
8220.2379421222
 21
5423.4451437395
 31
0.0
  0
LINE
  5
12F
330
1F
100
AcDbEntity
  8
0
  6
Continuous
 62
     7
370
    25
100
AcDbLine
 10
7820.2379421222
 20
5398.5427281746
 30
0.0
 11
8220.2379421222
 21
5398.5427281746
 31
0.0
  0
LINE
  5
130
330
1F
100
AcDbEntity
  8
0
  6
Continuous
 62
     7
370
    25
100
AcDbLine
 10
7820.2379421222
 20
5142.4451437395
 30
0.0
 11
7820.2379421222
 21
5398.5427281746
 31
0.0
  0
LINE
  5
131
330
1F
100
AcDbEntity
  8
0
  6
Continuous
 62
     7
370
    25
100
AcDbLine
 10
7819.2379421222
 20
5142.4451437395
 30
0.0
 11
7772.2379421222
 21
5142.4451437395
 31
0.0
  0
LINE
  5
132
330
1F
100
AcDbEntity
  8
0
  6
Continuous
 62
     7
370
    25
100
AcDbLine
 10
7772.2379421222
 20
5523.2253398368
 30
0.0
 11
7772.2379421222
 21
5142.4451437395
 31
0.0
  0
LINE
  5
133
330
1F
100
AcDbEntity
  8
0
  6
Continuous
 62
     7
370
    25
100
AcDbLine
 10
7820.2379421222
 20
5513.6253398368
 30
0.0
 11
7772.2379421222
 21
5523.2253398368
 31
0.0
  0
ARC
  5
134
330
1F
100
AcDbEntity
  8
0
  6
Continuous
 62
     7
370
    25
100
AcDbCircle
 10
7822.2379421222
 20
5425.4451437395
 30
0.0
 40
1.000000000000909
100
AcDbArc
 50
180.0
 51
270.0
  0
LINE
  5
135
330
1F
100
AcDbEntity
  8
0
  6
Continuous
 62
     7
370
    25
100
AcDbLine
 10
7822.2379421222
 20
5424.4451437395
 30
0.0
 11
7822.2379421222
 21
5423.4451437395
 31
0.0
  0
LINE
  5
136
330
1F
100
AcDbEntity
  8
0
  6
Continuous
 62
     7
370
    25
100
AcDbLine
 10
7821.2379421222
 20
5425.4451437395
 30
0.0
 11
7820.2379421222
 21
5425.4451437395
 31
0.0
  0
LINE
  5
137
330
1F
100
AcDbEntity
  8
0
  6
Continuous
 62
     7
370
    25
100
AcDbLine
 10
7820.2379421222
 20
5398.5427281746
 30
0.0
 11
7821.2379421222
 21
5397.5427281746
 31
0.0
  0
LINE
  5
138
330
1F
100
AcDbEntity
  8
0
  6
Continuous
 62
     7
370
    25
100
AcDbLine
 10
7821.2379421222
 20
5397.5427281746
 30
0.0
 11
7821.2379421222
 21
5142.440699295
 31
0.0
  0
LINE
  5
139
330
1F
100
AcDbEntity
  8
0
  6
Continuous
 62
     7
370
    25
100
AcDbLine
 10
7772.4340582573
 20
5524.2059205125
 30
0.0
 11
7772.2379421222
 21
5523.2253398368
 31
0.0
  0
LINE
  5
13A
330
1F
100
AcDbEntity
  8
0
  6
Continuous
 62
     7
370
    25
100
AcDbLine
 10
7771.2379421222
 20
5523.2253398368
 30
0.0
 11
7772.2379421222
 21
5523.2253398368
 31
0.0
  0
ARC
  5
13B
330
1F
100
AcDbEntity
  8
0
  6
Continuous
 62
     7
370
    25
100
AcDbCircle
 10
7772.2379421222
 20
5523.2253398368
 30
0.0
 40
1.000000000000358
100
AcDbArc
 50
78.690067526
 51
180.0
  0
LINE
  5
13C
330
1F
100
AcDbEntity
  8
0
  6
Continuous
 62
     7
370
    25
100
AcDbLine
 10
7821.2379421222
 20
5513.6253398368
 30
0.0
 11
7821.2379421222
 21
5425.4451437395
 31
0.0
  0
LINE
  5
13D
330
1F
100
AcDbEntity
  8
0
  6
Continuous
 62
     7
370
    25
100
AcDbLine
 10
7821.2379421222
 20
5513.6253398368
 30
0.0
 11
7820.2379421222
 21
5513.6253398368
 31
0.0
  0
LINE
  5
13E
330
1F
100
AcDbEntity
  8
0
  6
Continuous
 62
     7
370
    25
100
AcDbLine
 10
7772.4340582573
 20
5524.2059205125
 30
0.0
 11
7820.4340582573
 21
5514.6059205125
 31
0.0
  0
LINE
  5
13F
330
1F
100
AcDbEntity
  8
0
  6
Continuous
 62
     7
370
    25
100
AcDbLine
 10
7820.4340582573
 20
5514.6059205125
 30
0.0
 11
7820.2379421222
 21
5513.6253398368
 31
0.0
  0
ARC
  5
140
330
1F
100
AcDbEntity
  8
0
  6
Continuous
 62
     7
370
    25
100
AcDbCircle
 10
7820.2379421222
 20
5513.6253398368
 30
0.0
 40
1.000000000000909
100
AcDbArc
 50
0.0
 51
78.690067526
  0
LINE
  5
141
330
1F
100
AcDbEntity
  8
0
  6
Continuous
 62
     7
370
    25
100
AcDbLine
 10
8220.2379421222
 20
5398.5427281746
 30
0.0
 11
8220.2379421222
 21
5397.5427281746
 31
0.0
  0
LINE
  5
142
330
1F
100
AcDbEntity
  8
0
  6
Continuous
 62
     7
370
    25
100
AcDbLine
 10
8220.2379421222
 20
5397.5427281746
 30
0.0
 11
7821.2379421222
 21
5397.5427281746
 31
0.0
  0
LINE
  5
143
330
1F
100
AcDbEntity
  8
0
  6
Continuous
 62
     7
370
    25
100
AcDbLine
 10
7822.2379421222
 20
5424.4451437395
 30
0.0
 11
8220.2379421222
 21
5424.4451437395
 31
0.0
  0
LINE
  5
144
330
1F
100
AcDbEntity
  8
0
  6
Continuous
 62
     7
370
    25
100
AcDbLine
 10
8220.2379421222
 20
5424.4451437395
 30
0.0
 11
8220.2379421222
 21
5423.4451437395
 31
0.0
  0
LINE
  5
145
330
1F
100
AcDbEntity
  8
0
  6
Continuous
 62
     7
370
    25
100
AcDbLine
 10
7771.2379421222
 20
5142.4451437395
 30
0.0
 11
7771.2379421222
 21
5523.2253398368
 31
0.0
  0
LINE
  5
146
330
1F
100
AcDbEntity
  8
0
  6
Continuous
 62
     7
370
    25
100
AcDbLine
 10
7772.2379421222
 20
5142.4451437395
 30
0.0
 11
7771.2379421222
 21
5142.4451437395
 31
0.0
  0
LINE
  5
147
330
1F
100
AcDbEntity
  8
0
  6
Continuous
 62
     7
370
    25
100
AcDbLine
 10
8221.2379421222
 20
5423.4451437395
 30
0.0
 11
8220.2379421222
 21
5423.4451437395
 31
0.0
  0
LINE
  5
148
330
1F
100
AcDbEntity
  8
0
  6
Continuous
 62
     7
370
    25
100
AcDbLine
 10
8221.2379421222
 20
5423.4451437395
 30
0.0
 11
8221.2379421222
 21
5398.5427281746
 31
0.0
  0
LINE
  5
149
330
1F
100
AcDbEntity
  8
0
  6
Continuous
 62
     7
370
    25
100
AcDbLine
 10
8220.2379421222
 20
5398.5427281746
 30
0.0
 11
8221.2379421222
 21
5398.5427281746
 31
0.0
  0
ARC
  5
14A
330
1F
100
AcDbEntity
  8
0
  6
Continuous
 62
     7
370
    25
100
AcDbCircle
 10
8220.2379421222
 20
5398.5427281746
 30
0.0
 40
1.0
100
AcDbArc
 50
270.0
 51
0.0
  0
ARC
  5
14B
330
1F
100
AcDbEntity
  8
0
  6
Continuous
 62
     7
370
    25
100
AcDbCircle
 10
8220.2379421222
 20
5423.4451437395
 30
0.0
 40
1.0
100
AcDbArc
 50
0.0
 51
90.0
  0
LINE
  5
14C
330
1F
100
AcDbEntity
  8
0
  6
Continuous
 62
     7
370
    25
100
AcDbLine
 10
7821.2379421222
 20
5142.2673659617
 30
0.0
 11
8027.8378571636
 21
5142.2673659617
 31
0.0
  0
LINE
  5
14D
330
1F
100
AcDbEntity
  8
0
  6
Continuous
 62
     7
370
    25
100
AcDbLine
 10
7821.2379421222
 20
5142.2762548506
 30
0.0
 11
7821.2379421222
 21
5142.2673659617
 31
0.0
  0
LINE
  5
14E
330
1F
100
AcDbEntity
  8
0
  6
Continuous
 62
     7
370
    25
100
AcDbLine
 10
8027.8378571636
 20
5142.2673659617
 30
0.0
 11
8168.6794363156
 21
5397.5427281746
 31
0.0
  0
LINE
  5
14F
330
1F
100
AcDbEntity
  8
0
  6
Continuous
 62
     7
370
    25
100
AcDbLine
 10
7821.2379421222
 20
5132.4451437395
 30
0.0
 11
7771.2379421222
 21
5132.4451437395
 31
0.0
  0
LINE
  5
150
330
1F
100
AcDbEntity
  8
0
  6
Continuous
 62
     7
370
    25
100
AcDbLine
 10
7821.2379421222
 20
5132.4540326284
 30
0.0
 11
7821.2379421222
 21
5132.4451437395
 31
0.0
  0
LINE
  5
151
330
1F
100
AcDbEntity
  8
0
  6
Continuous
 62
     7
370
    25
100
AcDbLine
 10
7771.2379421222
 20
5132.4451437395
 30
0.0
 11
7771.2379421222
 21
5142.4451437395
 31
0.0
  0
LWPOLYLINE
  5
152
330
1F
100
AcDbEntity
  8
0
  6
Continuous
 62
     7
370
    25
100
AcDbPolyline
 90
       33
 70
   128
 43
0.0
 10
7956.9930235576
 20
5131.3131449423
 10
7956.8166160831
 20
5131.3288543807
 10
7956.2891468763
 20
5131.3444076916
 10
7955.415858163
 20
5131.3596502994
 10
7954.205429079
 20
5131.3744307159
 10
7952.6698894123
 20
5131.388602047
 10
7950.8245000459
 20
5131.4020234514
 10
7948.6876012884
 20
5131.4145615413
 10
7946.2804305997
 20
5131.4260917074
 10
7943.6269115236
 20
5131.4364993579
 10
7940.7534159249
 20
5131.4456810567
 10
7937.6885018937
 20
5131.4535455521
 10
7934.4626299226
 20
5131.4600146832
 10
7931.1078601767
 20
5131.4650241567
 10
7927.6575338648
 20
5131.4685241865
 10
7924.14594188
 20
5131.4704799875
 10
7920.6079840009
 20
5131.4708721221
 10
7917.0788220426
 20
5131.4696966931
 10
7913.5935304022
 20
5131.4669653825
 10
7910.1867474737
 20
5131.4627053353
 10
7906.8923313965
 20
5131.4569588897
 10
7903.7430235576
 20
5131.4497831565
 10
7900.7701231933
 20
5131.4412494513
 10
7898.0031763229
 20
5131.4314425859
 10
7895.4696821077
 20
5131.4204600254
 10
7893.1948195512
 20
5131.4084109194
 10
7891.2011972597
 20
5131.3954150174
 10
7889.5086287471
 20
5131.3816014783
 10
7888.1339355197
 20
5131.3671075875
 10
7887.0907798965
 20
5131.3520773916
 10
7886.3895292266
 20
5131.3366602676
 10
7886.0371528544
 20
5131.3210094377
 10
7885.9933741766
 20
5131.3124437146
  0
LWPOLYLINE
  5
153
330
1F
100
AcDbEntity
  8
0
  6
Continuous
 62
     7
370
    25
100
AcDbPolyline
 90
       32
 70
   128
 43
0.0
 10
7953.9930235576
 20
5128.3131745714
 10
7953.8149851571
 20
5128.3282729781
 10
7953.2828205815
 20
5128.3432059635
 10
7952.4023603372
 20
5128.3578099187
 10
7951.183250931
 20
5128.3719248396
 10
7949.6388491806
 20
5128.3853960804
 10
7947.7860758748
 20
5128.3980760471
 10
7945.6452303856
 20
5128.4098258156
 10
7943.2397682643
 20
5128.4205166527
 10
7940.5960442571
 20
5128.4300314276
 10
7937.7430235576
 20
5128.4382658943
 10
7934.7119644576
 20
5128.4451298343
 10
7931.5360758748
 20
5128.4505480448
 10
7928.2501535092
 20
5128.4544611628
 10
7924.8901986138
 20
5128.4568263153
 10
7921.4930235576
 20
5128.4576175893
 10
7918.0958485014
 20
5128.4568263153
 10
7914.7358936061
 20
5128.4544611628
 10
7911.4499712404
 20
5128.4505480448
 10
7908.2740826577
 20
5128.4451298343
 10
7905.2430235576
 20
5128.4382658943
 10
7902.3900028581
 20
5128.4300314276
 10
7899.746278851
 20
5128.4205166527
 10
7897.3408167296
 20
5128.4098258156
 10
7895.1999712404
 20
5128.3980760471
 10
7893.3471979346
 20
5128.3853960804
 10
7891.8027961842
 20
5128.3719248396
 10
7890.583686778
 20
5128.3578099187
 10
7889.7032265338
 20
5128.3432059635
 10
7889.1710619582
 20
5128.3282729781
 10
7888.9930235576
 20
5128.3131745714
 10
7888.9933445469
 20
5128.3125326025
  0
LWPOLYLINE
  5
154
330
1F
100
AcDbEntity
  8
0
  6
Continuous
 62
     7
370
    25
100
AcDbPolyline
 90
       33
 70
   128
 43
0.0
 10
7956.9930235576
 20
5133.3131251895
 10
7956.8166160831
 20
5133.3288346279
 10
7956.2891468763
 20
5133.3443879388
 10
7955.415858163
 20
5133.3596305466
 10
7954.205429079
 20
5133.3744109631
 10
7952.6698894123
 20
5133.3885822942
 10
7950.8245000459
 20
5133.4020036986
 10
7948.6876012884
 20
5133.4145417885
 10
7946.2804305997
 20
5133.4260719546
 10
7943.6269115236
 20
5133.4364796051
 10
7940.7534159249
 20
5133.4456613039
 10
7937.6885018937
 20
5133.4535257993
 10
7934.4626299226
 20
5133.4599949304
 10
7931.1078601767
 20
5133.4650044039
 10
7927.6575338648
 20
5133.4685044337
 10
7924.14594188
 20
5133.4704602347
 10
7920.6079840009
 20
5133.4708523693
 10
7917.0788220426
 20
5133.4696769403
 10
7913.5935304022
 20
5133.4669456297
 10
7910.1867474737
 20
5133.4626855825
 10
7906.8923313965
 20
5133.4569391369
 10
7903.7430235576
 20
5133.4497634037
 10
7900.7701231933
 20
5133.4412296985
 10
7898.0031763229
 20
5133.4314228331
 10
7895.4696821077
 20
5133.4204402726
 10
7893.1948195512
 20
5133.4083911666
 10
7891.2011972597
 20
5133.3953952646
 10
7889.5086287471
 20
5133.3815817255
 10
7888.1339355197
 20
5133.3670878347
 10
7887.0907798965
 20
5133.3520576388
 10
7886.3895292266
 20
5133.3366405148
 10
7886.0371528544
 20
5133.3209896849
 10
7885.9930235576
 20
5133.3131251895
  0
LINE
  5
155
330
1F
100
AcDbEntity
  8
0
  6
Continuous
 62
     7
370
    25
100
AcDbLine
 10
7841.4930235576
 20
5039.4607187889
 30
0.0
 11
7841.4930235576
 21
5072.3140535708
 31
0.0
  0
LINE
  5
156
330
1F
100
AcDbEntity
  8
0
  6
Continuous
 62
     7
370
    25
100
AcDbLine
 10
7841.4930235576
 20
5006.3140535708
 30
0.0
 11
7841.4930235576
 21
5039.4607187889
 31
0.0
  0
LINE
  5
157
330
1F
100
AcDbEntity
  8
0
  6
Continuous
 62
     7
370
    25
100
AcDbLine
 10
7861.4930235576
 20
5039.4607187889
 30
0.0
 11
7861.4930235576
 21
5072.3140535708
 31
0.0
  0
LINE
  5
158
330
1F
100
AcDbEntity
  8
0
  6
Continuous
 62
     7
370
    25
100
AcDbLine
 10
7861.4930235576
 20
5006.3140535708
 30
0.0
 11
7861.4930235576
 21
5039.4607187889
 31
0.0
  0
LWPOLYLINE
  5
159
330
1F
100
AcDbEntity
  8
0
  6
Continuous
 62
     7
370
    25
100
AcDbPolyline
 90
       33
 70
   128
 43
0.0
 10
7923.9913995854
 20
4910.2288758892
 10
7923.9930235576
 20
4910.2303198444
 10
7923.8149851571
 20
4910.2454182511
 10
7923.2828205815
 20
4910.2603512365
 10
7922.4023603372
 20
4910.2749551917
 10
7921.183250931
 20
4910.2890701126
 10
7919.6388491806
 20
4910.3025413534
 10
7917.7860758748
 20
4910.3152213201
 10
7915.6452303856
 20
4910.3269710885
 10
7913.2397682643
 20
4910.3376619257
 10
7910.5960442571
 20
4910.3471767006
 10
7907.7430235576
 20
4910.3554111673
 10
7904.7119644576
 20
4910.3622751073
 10
7901.5360758748
 20
4910.3676933178
 10
7898.2501535092
 20
4910.3716064358
 10
7894.8901986138
 20
4910.3739715883
 10
7891.4930235576
 20
4910.3747628623
 10
7888.0958485014
 20
4910.3739715883
 10
7884.7358936061
 20
4910.3716064358
 10
7881.4499712404
 20
4910.3676933178
 10
7878.2740826577
 20
4910.3622751073
 10
7875.2430235576
 20
4910.3554111673
 10
7872.3900028581
 20
4910.3471767006
 10
7869.746278851
 20
4910.3376619257
 10
7867.3408167296
 20
4910.3269710885
 10
7865.1999712404
 20
4910.3152213201
 10
7863.3471979346
 20
4910.3025413534
 10
7861.8027961842
 20
4910.2890701126
 10
7860.583686778
 20
4910.2749551917
 10
7859.7032265338
 20
4910.2603512365
 10
7859.1710619582
 20
4910.2454182511
 10
7858.9930235576
 20
4910.2303198444
 10
7858.9946475298
 20
4910.2288758892
  0
LWPOLYLINE
  5
15A
330
1F
100
AcDbEntity
  8
0
  6
Continuous
 62
     7
370
    25
100
AcDbPolyline
 90
       31
 70
   128
 43
0.0
 10
7923.9930235576
 20
4925.2301716985
 10
7923.8149851571
 20
4925.2452701052
 10
7923.2828205815
 20
4925.2602030905
 10
7922.4023603372
 20
4925.2748070457
 10
7921.183250931
 20
4925.2889219667
 10
7919.6388491806
 20
4925.3023932074
 10
7917.7860758748
 20
4925.3150731742
 10
7915.6452303856
 20
4925.3268229426
 10
7913.2397682643
 20
4925.3375137798
 10
7910.5960442571
 20
4925.3470285546
 10
7907.7430235576
 20
4925.3552630213
 10
7904.7119644576
 20
4925.3621269613
 10
7901.5360758748
 20
4925.3675451718
 10
7898.2501535092
 20
4925.3714582898
 10
7894.8901986138
 20
4925.3738234424
 10
7891.4930235576
 20
4925.3746147163
 10
7888.0958485014
 20
4925.3738234424
 10
7884.7358936061
 20
4925.3714582898
 10
7881.4499712404
 20
4925.3675451718
 10
7878.2740826577
 20
4925.3621269613
 10
7875.2430235576
 20
4925.3552630213
 10
7872.3900028581
 20
4925.3470285546
 10
7869.746278851
 20
4925.3375137798
 10
7867.3408167296
 20
4925.3268229426
 10
7865.1999712404
 20
4925.3150731742
 10
7863.3471979346
 20
4925.3023932074
 10
7861.8027961842
 20
4925.2889219667
 10
7860.583686778
 20
4925.2748070457
 10
7859.7032265338
 20
4925.2602030905
 10
7859.1710619582
 20
4925.2452701052
 10
7858.9930235576
 20
4925.2301716985
  0
LWPOLYLINE
  5
15B
330
1F
100
AcDbEntity
  8
0
  6
Continuous
 62
     7
370
    25
100
AcDbPolyline
 90
       38
 70
   128
 43
0.0
 10
7953.9930235576
 20
5122.7132298793
 10
7953.8149851571
 20
5122.728328286
 10
7953.2828205815
 20
5122.7432612713
 10
7952.4023603372
 20
5122.7578652265
 10
7951.183250931
 20
5122.7719801475
 10
7949.6388491806
 20
5122.7854513882
 10
7947.7860758748
 20
5122.798131355
 10
7945.6452303856
 20
5122.8098811234
 10
7943.2397682643
 20
5122.8205719606
 10
7940.5960442571
 20
5122.8300867354
 10
7937.7430235576
 20
5122.8383212021
 10
7934.7119644576
 20
5122.8451851421
 10
7931.5360758748
 20
5122.8506033526
 10
7928.2501535092
 20
5122.8545164706
 10
7924.8901986138
 20
5122.8568816232
 10
7921.4930235576
 20
5122.8576728971
 10
7918.0958485014
 20
5122.8568816232
 10
7914.7358936061
 20
5122.8545164706
 10
7911.4499712404
 20
5122.8506033526
 10
7908.2740826577
 20
5122.8451851421
 10
7905.2430235576
 20
5122.8383212021
 10
7902.3900028581
 20
5122.8300867354
 10
7899.746278851
 20
5122.8205719606
 10
7897.3408167296
 20
5122.8098811234
 10
7895.1999712404
 20
5122.798131355
 10
7893.3471979346
 20
5122.7854513882
 10
7891.8027961842
 20
5122.7719801475
 10
7890.583686778
 20
5122.7578652265
 10
7889.7032265338
 20
5122.7432612713
 10
7889.1710619582
 20
5122.728328286
 10
7888.9930235576
 20
5122.7132298793
 10
7889.1710619582
 20
5122.6981314726
 10
7889.7032265338
 20
5122.6831984872
 10
7890.583686778
 20
5122.668594532
 10
7891.8027961842
 20
5122.6544796111
 10
7893.3471979346
 20
5122.6410083703
 10
7895.1999712404
 20
5122.6283284036
 10
7895.4930235576
 20
5122.6265640686
  0
ARC
  5
15C
330
1F
100
AcDbEntity
  8
0
  6
Continuous
 62
     7
370
    25
100
AcDbCircle
 10
7948.3395504876
 20
5302.9321575694
 30
0.0
 40
180.3075806935182
100
AcDbArc
 50
269.7310007803
 51
271.7967810542
  0
LWPOLYLINE
  5
15D
330
1F
100
AcDbEntity
  8
0
  6
Continuous
 62
     7
370
    25
100
AcDbPolyline
 90
       29
 70
   128
 43
0.0
 10
7947.4930235576
 20
5122.7132298793
 10
7947.3172208589
 20
5122.726644928
 10
7946.7921901927
 20
5122.7398785611
 10
7945.9250316981
 20
5122.7527518166
 10
7944.727472206
 20
5122.7650906057
 10
7943.2157066544
 20
5122.7767280674
 10
7941.4101790787
 20
5122.787506825
 10
7939.3353061422
 20
5122.7972811144
 10
7937.0191469419
 20
5122.805918755
 10
7934.4930235576
 20
5122.8133029376
 10
7931.7910974747
 20
5122.8193338037
 10
7928.9499076081
 20
5122.8239297963
 10
7926.007876177
 20
5122.8270287624
 10
7923.0047891093
 20
5122.8285887938
 10
7919.981258006
 20
5122.8285887938
 10
7916.9781709383
 20
5122.8270287624
 10
7914.0361395071
 20
5122.8239297963
 10
7911.1949496406
 20
5122.8193338037
 10
7908.4930235576
 20
5122.8133029376
 10
7905.9669001734
 20
5122.805918755
 10
7903.650740973
 20
5122.7972811144
 10
7901.5758680365
 20
5122.787506825
 10
7899.7703404609
 20
5122.7767280674
 10
7898.2585749092
 20
5122.7650906057
 10
7897.0610154172
 20
5122.7527518166
 10
7896.1938569226
 20
5122.7398785611
 10
7895.6688262563
 20
5122.726644928
 10
7895.4930235576
 20
5122.7132298793
 10
7895.4930235576
 20
5122.7132298793
  0
LWPOLYLINE
  5
15E
330
1F
100
AcDbEntity
  8
0
  6
Continuous
 62
     7
370
    25
100
AcDbPolyline
 90
       30
 70
   128
 43
0.0
 10
7891.4930235576
 20
5072.3137276497
 10
7891.668884843
 20
5072.3281433764
 10
7892.1944068863
 20
5072.342390092
 10
7893.0634284221
 20
5072.3563007666
 10
7894.2657609675
 20
5072.3697123103
 10
7895.7873082726
 20
5072.3824674851
 10
7897.6102315865
 20
5072.3944167481
 10
7899.7131587999
 20
5072.4054200053
 10
7902.0714350142
 20
5072.4153482534
 10
7904.6574115968
 20
5072.4240850928
 10
7907.4407703366
 20
5072.4315280921
 10
7910.3888788974
 20
5072.437589989
 10
7913.4671734018
 20
5072.4421997132
 10
7916.6395636611
 20
5072.4453032198
 10
7919.8688563001
 20
5072.4468641233
 10
7923.1171908152
 20
5072.4468641233
 10
7926.3464834542
 20
5072.4453032198
 10
7929.5188737135
 20
5072.4421997132
 10
7932.5971682178
 20
5072.437589989
 10
7935.5452767786
 20
5072.4315280921
 10
7938.3286355185
 20
5072.4240850928
 10
7940.9146121011
 20
5072.4153482534
 10
7943.2728883153
 20
5072.4054200053
 10
7945.3758155288
 20
5072.3944167481
 10
7947.1987388427
 20
5072.3824674851
 10
7948.7202861478
 20
5072.3697123103
 10
7949.9226186931
 20
5072.3563007666
 10
7950.7916402289
 20
5072.342390092
 10
7951.3171622723
 20
5072.3281433764
 10
7951.4930235576
 20
5072.3137276497
  0
LWPOLYLINE
  5
15F
330
1F
100
AcDbEntity
  8
0
  6
Continuous
 62
     7
370
    25
100
AcDbPolyline
 90
       36
 70
   128
 43
0.0
 10
7891.4930235576
 20
5054.3139054248
 10
7891.668884843
 20
5054.3283211516
 10
7892.1944068863
 20
5054.3425678671
 10
7893.0634284221
 20
5054.3564785417
 10
7894.2657609675
 20
5054.3698900854
 10
7895.7873082726
 20
5054.3826452602
 10
7897.6102315865
 20
5054.3945945233
 10
7899.7131587999
 20
5054.4055977804
 10
7902.0714350142
 20
5054.4155260285
 10
7904.6574115968
 20
5054.424262868
 10
7907.4407703366
 20
5054.4317058673
 10
7910.3888788974
 20
5054.4377677641
 10
7913.4671734018
 20
5054.4423774883
 10
7916.6395636611
 20
5054.445480995
 10
7919.8688563001
 20
5054.4470418984
 10
7923.1171908152
 20
5054.4470418984
 10
7926.3464834542
 20
5054.445480995
 10
7929.5188737135
 20
5054.4423774883
 10
7932.5971682178
 20
5054.4377677641
 10
7935.5452767786
 20
5054.4317058673
 10
7938.3286355185
 20
5054.424262868
 10
7940.9146121011
 20
5054.4155260285
 10
7943.2728883153
 20
5054.4055977804
 10
7945.3758155288
 20
5054.3945945233
 10
7947.1987388427
 20
5054.3826452602
 10
7948.7202861478
 20
5054.3698900854
 10
7949.9226186931
 20
5054.3564785417
 10
7950.7916402289
 20
5054.3425678671
 10
7951.3171622723
 20
5054.3283211516
 10
7951.4930235576
 20
5054.3139054248
 10
7951.3171622723
 20
5054.2994896981
 10
7950.7916402289
 20
5054.2852429825
 10
7949.9226186931
 20
5054.2713323079
 10
7948.7202861478
 20
5054.2579207642
 10
7947.1987388427
 20
5054.2451655894
 10
7946.4930235576
 20
5054.2402033796
  0
ARC
  5
160
330
1F
100
AcDbEntity
  8
0
  6
Continuous
 62
     7
370
    25
100
AcDbCircle
 10
7896.2195065133
 20
5205.3232668614
 30
0.0
 40
151.0833110658717
100
AcDbArc
 50
268.2072691191
 51
270.1037267499
  0
LWPOLYLINE
  5
161
330
1F
100
AcDbEntity
  8
0
  6
Continuous
 62
     7
370
    25
100
AcDbPolyline
 90
       28
 70
   128
 43
0.0
 10
7896.4930235576
 20
5054.3139054248
 10
7896.6684961573
 20
5054.3270467585
 10
7897.1924507056
 20
5054.3400036166
 10
7898.0575320293
 20
5054.3525941133
 10
7899.2515962828
 20
5054.3646415057
 10
7900.7578814214
 20
5054.3759766746
 10
7902.5552425036
 20
5054.3864404993
 10
7904.6184485197
 20
5054.3958860906
 10
7906.9185365798
 20
5054.404180853
 10
7909.4232184894
 20
5054.4112083463
 10
7912.0973340048
 20
5054.4168699198
 10
7914.9033444059
 20
5054.4210860976
 10
7917.8018594576
 20
5054.4237976936
 10
7920.7521903621
 20
5054.4249666431
 10
7923.7129209407
 20
5054.4245765365
 10
7926.6424890262
 20
5054.4226328501
 10
7929.4997699042
 20
5054.419162869
 10
7932.2446536145
 20
5054.4142153041
 10
7934.8386080068
 20
5054.4078596084
 10
7937.2452196472
 20
5054.4001850019
 10
7939.4307049837
 20
5054.3912992192
 10
7941.364384593
 20
5054.3813269974
 10
7943.0191138518
 20
5054.3704083244
 10
7944.3716639887
 20
5054.3586964746
 10
7945.4030481645
 20
5054.3463558566
 10
7946.0987880063
 20
5054.3335597057
 10
7946.4491168517
 20
5054.3204876518
 10
7946.4930235576
 20
5054.3139054248
  0
ELLIPSE
  5
162
330
1F
100
AcDbEntity
  8
0
  6
Continuous
 62
     7
370
    25
100
AcDbEllipse
 10
7891.4930235576
 20
5039.3140535708
 30
0.0
 11
27.99993174549218
 21
24.99996692122022
 31
0.0
210
0.0
220
0.0
230
1.0
 40
0.0024729763
 41
1.493370219519332
 42
1.568588313389959
  0
ELLIPSE
  5
163
330
1F
100
AcDbEntity
  8
0
  6
Continuous
 62
     7
370
    25
100
AcDbEllipse
 10
7891.4930235576
 20
5043.0713757745
 30
0.0
 11
27.99993174549218
 21
-24.99996692122022
 31
0.0
210
0.0
220
0.0
230
1.0
 40
0.0024729763
 41
1.170539608633127
 42
1.497786246329654
  0
SPLINE
  5
164
330
1F
100
AcDbEntity
  8
0
  6
Continuous
 62
     7
370
    25
100
AcDbSpline
210
0.0
220
0.0
230
1.0
 70
     8
 71
     3
 72
    10
 73
     6
 74
     0
 42
0.000000001
 43
0.00000001
 40
0.0
 40
0.0
 40
0.0
 40
0.0
 40
0.2767262145199619
 40
0.6090796950219612
 40
0.9999999999999999
 40
0.9999999999999999
 40
0.9999999999999999
 40
0.9999999999999999
 10
7907.70592678344
 20
5031.311375767135
 30
0.0
 10
7907.203988776267
 20
5031.272865154731
 30
0.0
 10
7906.0992136148
 20
5031.18810255969
 30
0.0
 10
7904.256858036952
 20
5031.963263587824
 30
0.0
 10
7903.090610605867
 20
5032.891882574554
 30
0.0
 10
7902.460268665385
 20
5033.393789355621
 30
0.0
  0
LINE
  5
165
330
1F
100
AcDbEntity
  8
0
  6
Continuous
 62
     7
370
    25
100
AcDbLine
 10
7907.7059267834
 20
4953.4163620709
 30
0.0
 11
7907.7059267834
 21
5031.3113757671
 31
0.0
  0
ELLIPSE
  5
166
330
1F
100
AcDbEntity
  8
0
  6
Continuous
 62
     7
370
    25
100
AcDbEllipse
 10
7891.4930235576
 20
5039.3140535708
 30
0.0
 11
30.99993819820702
 21
27.99991612872145
 31
0.0
210
0.0
220
0.0
230
1.0
 40
0.0022107499
 41
1.568799525110849
 42
2.884907797622067
  0
ELLIPSE
  5
167
330
1F
100
AcDbEntity
  8
0
  6
Continuous
 62
     7
370
    25
100
AcDbEllipse
 10
7891.4930235576
 20
5039.3140535708
 30
0.0
 11
24.99992355484482
 21
27.99994558798516
 31
0.0
210
0.0
220
0.0
230
1.0
 40
0.0022080167
 41
1.493105256489465
 42
1.568323350358642
  0
ARC
  5
168
330
1F
100
AcDbEntity
  8
0
  6
Continuous
 62
     7
370
    25
100
AcDbCircle
 10
7855.8707924035
 20
5003.8155226043
 30
0.0
 40
53.19420946716654
100
AcDbArc
 50
44.828580779
 51
45.1719850997
  0
ARC
  5
169
330
1F
100
AcDbEntity
  8
0
  6
Continuous
 62
     7
370
    25
100
AcDbCircle
 10
7884.2814106714
 20
5051.6016641846
 30
0.0
 40
13.87664258157616
100
AcDbArc
 50
312.1693948822
 51
323.8959781541
  0
ELLIPSE
  5
16A
330
1F
100
AcDbEntity
  8
0
  6
Continuous
 62
     7
370
    25
100
AcDbEllipse
 10
7893.6143439012
 20
5045.192675167
 30
0.0
 11
-24.9999382722981
 21
24.999938272299
 31
0.0
210
0.0
220
0.0
230
1.0
 40
0.0022222112
 41
4.312146456413215
 42
4.639393094105044
  0
LWPOLYLINE
  5
16B
330
1F
100
AcDbEntity
  8
0
  6
Continuous
 62
     7
370
    25
100
AcDbPolyline
 90
        9
 70
   128
 43
0.0
 10
7902.4602686654
 20
5033.3937893556
 10
7902.7451279988
 20
5033.7475515903
 10
7902.9920997569
 20
5034.0918146878
 10
7903.1947745796
 20
5034.4176444036
 10
7903.3478926919
 20
5034.7165848724
 10
7903.4474804044
 20
5034.980878053
 10
7903.4909532373
 20
5035.2036650636
 10
7903.4771829927
 20
5035.3791641818
 10
7903.4065270331
 20
5035.5028208909
  0
ARC
  5
16C
330
1F
100
AcDbEntity
  8
0
  6
Continuous
 62
     7
370
    25
100
AcDbCircle
 10
7902.5837721948
 20
5033.2983184154
 30
0.0
 40
12.36222254402686
100
AcDbArc
 50
125.0003908826
 51
138.1744783919
  0
ELLIPSE
  5
16D
330
1F
100
AcDbEntity
  8
0
  6
Continuous
 62
     7
370
    25
100
AcDbEllipse
 10
7897.3717032141
 20
5041.4353529633
 30
0.0
 11
-24.9999382722981
 21
24.9999382722981
 31
0.0
210
0.0
220
0.0
230
1.0
 40
0.0022222112
 41
4.789829281846161
 42
6.247777934319871
  0
SPLINE
  5
16E
330
1F
100
AcDbEntity
  8
0
  6
Continuous
 62
     7
370
    25
100
AcDbSpline
210
0.0
220
0.0
230
1.0
 70
     8
 71
     3
 72
    11
 73
     7
 74
     0
 42
0.000000001
 43
0.00000001
 40
0.0
 40
0.0
 40
0.0
 40
0.0
 40
0.4418022567785285
 40
0.7742903917582821
 40
0.9215398729471709
 40
1.0
 40
1.0
 40
1.0
 40
1.0
 10
7903.406527033115
 20
5035.502820890868
 30
0.0
 10
7903.862375539451
 20
5035.072793445042
 30
0.0
 10
7904.661282998928
 20
5034.31913926065
 30
0.0
 10
7905.756741499908
 20
5033.610668026628
 30
0.0
 10
7906.482699785155
 20
5033.346156779418
 30
0.0
 10
7906.770756843383
 20
5033.343737409708
 30
0.0
 10
7906.870889901798
 20
5033.342896399633
 30
0.0
  0
ARC
  5
16F
330
1F
100
AcDbEntity
  8
0
  6
Continuous
 62
     7
370
    25
100
AcDbCircle
 10
7902.927886783
 20
5030.534785926
 30
0.0
 40
4.840739409124176
100
AcDbArc
 50
9.2317361297
 51
35.4575407026
  0
LWPOLYLINE
  5
170
330
1F
100
AcDbEntity
  8
0
  6
Continuous
 62
     7
370
    25
100
AcDbPolyline
 90
       29
 70
   128
 43
0.0
 10
7947.4930235576
 20
5093.7135162948
 10
7947.3172208589
 20
5093.7269313435
 10
7946.7921901927
 20
5093.7401649767
 10
7945.9250316981
 20
5093.7530382321
 10
7944.727472206
 20
5093.7653770212
 10
7943.2157066544
 20
5093.7770144829
 10
7941.4101790787
 20
5093.7877932405
 10
7939.3353061422
 20
5093.7975675299
 10
7937.0191469419
 20
5093.8062051705
 10
7934.4930235576
 20
5093.8135893531
 10
7931.7910974747
 20
5093.8196202192
 10
7928.9499076081
 20
5093.8242162118
 10
7926.007876177
 20
5093.8273151779
 10
7923.0047891093
 20
5093.8288752093
 10
7919.981258006
 20
5093.8288752093
 10
7916.9781709383
 20
5093.8273151779
 10
7914.0361395071
 20
5093.8242162118
 10
7911.1949496406
 20
5093.8196202192
 10
7908.4930235576
 20
5093.8135893531
 10
7905.9669001734
 20
5093.8062051705
 10
7903.650740973
 20
5093.7975675299
 10
7901.5758680365
 20
5093.7877932405
 10
7899.7703404609
 20
5093.7770144829
 10
7898.2585749092
 20
5093.7653770212
 10
7897.0610154172
 20
5093.7530382321
 10
7896.1938569226
 20
5093.7401649767
 10
7895.6688262563
 20
5093.7269313435
 10
7895.4930235576
 20
5093.7135162948
 10
7895.4930575134
 20
5093.7133295402
  0
LWPOLYLINE
  5
171
330
1F
100
AcDbEntity
  8
0
  6
Continuous
 62
     7
370
    25
100
AcDbPolyline
 90
       26
 70
   128
 43
0.0
 10
7943.4930235576
 20
5082.7136249351
 10
7943.3124038617
 20
5082.7261283564
 10
7942.7735105445
 20
5082.7384264717
 10
7941.8851922192
 20
5082.7503173466
 10
7940.6620350483
 20
5082.761605733
 10
7939.1241232387
 20
5082.7721062761
 10
7937.2967092598
 20
5082.7816465572
 10
7935.2097991985
 20
5082.7900699251
 10
7932.8976600605
 20
5082.7972380684
 10
7930.3982571063
 20
5082.8030332864
 10
7927.7526304635
 20
5082.8073604217
 10
7925.0042212484
 20
5082.8101484229
 10
7922.1981582642
 20
5082.8113515111
 10
7919.3805169877
 20
5082.8109499316
 10
7916.5975630106
 20
5082.8089502784
 10
7913.8949923604
 20
5082.8053853857
 10
7911.3171811723
 20
5082.8003137889
 10
7908.9064570349
 20
5082.7938187636
 10
7906.7024039719
 20
5082.7860069578
 10
7904.7412124735
 20
5082.7770066411
 10
7903.05508525
 20
5082.7669655987
 10
7901.6717084638
 20
5082.756048704
 10
7900.6137971234
 20
5082.7444352122
 10
7899.8987221038
 20
5082.7323158165
 10
7899.5382249171
 20
5082.719889517
 10
7899.4930522894
 20
5082.713466912
  0
LINE
  5
172
330
1F
100
AcDbEntity
  8
0
  6
Continuous
 62
     7
370
    25
100
AcDbLine
 10
7910.7340949862
 20
5033.7070450466
 30
0.0
 11
7910.7340949862
 21
4953.4151973615
 31
0.0
  0
LWPOLYLINE
  5
173
330
1F
100
AcDbEntity
  8
0
  6
Continuous
 62
     7
370
    25
100
AcDbPolyline
 90
        9
 70
   128
 43
0.0
 10
7910.7340949862
 20
4953.4151973615
 10
7910.3641534468
 20
4953.4145435434
 10
7909.9779899654
 20
4953.4141131927
 10
7909.5824052349
 20
4953.4139138885
 10
7909.1843658652
 20
4953.4139491407
 10
7908.7908816947
 20
4953.4142183283
 10
7908.4088823405
 20
4953.4147167109
 10
7908.0450951615
 20
4953.4154355113
 10
7907.7059267834
 20
4953.4163620709
  0
SPLINE
  5
174
330
1F
100
AcDbEntity
  8
0
  6
Continuous
 62
     7
370
    25
100
AcDbSpline
210
0.0
220
0.0
230
1.0
 70
     8
 71
     3
 72
    12
 73
     8
 74
     0
 42
0.000000001
 43
0.00000001
 40
0.0
 40
0.0
 40
0.0
 40
0.0
 40
0.0040736008791384
 40
0.0594267419899386
 40
0.4039567950184814
 40
0.7115404366576392
 40
1.0
 40
1.0
 40
1.0
 40
1.0
 10
7910.734094986205
 20
5033.707045046647
 30
0.0
 10
7910.730494912612
 20
5033.703360029733
 30
0.0
 10
7910.677976109004
 20
5033.649602051004
 30
0.0
 10
7910.316019630043
 20
5033.284009711869
 30
0.0
 10
7909.627773000372
 20
5032.648122720477
 30
0.0
 10
7908.629276271517
 20
5031.849728734743
 30
0.0
 10
7908.007055281487
 20
5031.486946797008
 30
0.0
 10
7907.70592678344
 20
5031.311375767135
 30
0.0
  0
SPLINE
  5
175
330
1F
100
AcDbEntity
  8
0
  6
Continuous
 62
     7
370
    25
100
AcDbSpline
210
0.0
220
0.0
230
1.0
 70
     8
 71
     3
 72
    12
 73
     8
 74
     0
 42
0.000000001
 43
0.00000001
 40
0.0
 40
0.0
 40
0.0
 40
0.0
 40
0.2860841375525701
 40
0.5938173985192473
 40
0.9402661687057537
 40
0.9946780011584758
 40
1.0
 40
1.0
 40
1.0
 40
1.0
 10
7906.870889901798
 20
5033.342896399633
 30
0.0
 10
7907.230154016132
 20
5033.373143800753
 30
0.0
 10
7907.975869187829
 20
5033.435927544021
 30
0.0
 10
7909.253032738655
 20
5033.554439212074
 30
0.0
 10
7910.163507922613
 20
5033.645355799957
 30
0.0
 10
7910.656019473619
 20
5033.698509028222
 30
0.0
 10
7910.727707890896
 20
5033.706346743666
 30
0.0
 10
7910.734094986205
 20
5033.707045046647
 30
0.0
  0
ELLIPSE
  5
176
330
1F
100
AcDbEntity
  8
0
  6
Continuous
 62
     8
370
    25
100
AcDbEllipse
 10
7891.4930235576
 20
5039.3140535708
 30
0.0
 11
27.99993157626796
 21
30.99989318977715
 31
0.0
210
0.0
220
0.0
230
1.0
 40
0.0019968085
 41
1.568585580297201
 42
3.139381907080692
  0
SPLINE
  5
177
330
1F
100
AcDbEntity
  8
0
  6
Continuous
 62
     8
370
    25
100
AcDbSpline
210
0.0
220
0.0
230
1.0
 70
     8
 71
     3
 72
    18
 73
    14
 74
     0
 42
0.000000001
 43
0.00000001
 40
0.0
 40
0.0
 40
0.0
 40
0.0
 40
0.0173164430520825
 40
0.1020731770893493
 40
0.1903240562381104
 40
0.2883105228647155
 40
0.3903879717739288
 40
0.4917547330218468
 40
0.5960943130592167
 40
0.6948132561445027
 40
0.7957827708096046
 40
0.8966057184902035
 40
0.9999999999999999
 40
0.9999999999999999
 40
0.9999999999999999
 40
0.9999999999999999
 10
7919.458541547312
 20
4925.374061182595
 30
0.0
 10
7919.4690723535
 20
4925.362628396794
 30
0.0
 10
7919.531147044111
 20
4925.295236914246
 30
0.0
 10
7919.201675359962
 20
4925.697861187209
 30
0.0
 10
7918.405181699453
 20
4926.681221366286
 30
0.0
 10
7917.073218907715
 20
4928.393353679268
 30
0.0
 10
7915.366425228341
 20
4930.770226692425
 30
0.0
 10
7913.474811046407
 20
4933.730128734042
 30
0.0
 10
7911.642218356017
 20
4937.101938687556
 30
0.0
 10
7910.012644670365
 20
4940.830510598779
 30
0.0
 10
7908.745284701583
 20
4944.798129739389
 30
0.0
 10
7907.875409708637
 20
4949.034340045941
 30
0.0
 10
7907.762893329455
 20
4951.943478244816
 30
0.0
 10
7907.70592678344
 20
4953.416362070916
 30
0.0
  0
ELLIPSE
  5
178
330
1F
100
AcDbEntity
  8
0
  6
Continuous
 62
     8
370
    25
100
AcDbEllipse
 10
7895.2503828705
 20
5039.3140535708
 30
0.0
 11
-24.99992355493669
 21
27.99994558808794
 31
0.0
210
0.0
220
0.0
230
1.0
 40
0.0022080167
 41
4.79008005068987
 42
6.281213868436026
  0
SPLINE
  5
179
330
1F
100
AcDbEntity
  8
0
  6
Continuous
 62
     8
370
    25
100
AcDbSpline
210
0.0
220
0.0
230
1.0
 70
     8
 71
     3
 72
    18
 73
    14
 74
     0
 42
0.000000001
 43
0.00000001
 40
0.0
 40
0.0
 40
0.0
 40
0.0
 40
0.0955848363984237
 40
0.1941873784721874
 40
0.289715420280618
 40
0.3877237697941603
 40
0.4888271177051086
 40
0.5928299631504601
 40
0.6936099551325662
 40
0.7981209554819009
 40
0.8869333908959759
 40
0.9789505584426393
 40
1.0
 40
1.0
 40
1.0
 40
1.0
 10
7910.734094986205
 20
4953.415197361515
 30
0.0
 10
7910.787983692156
 20
4952.131960054696
 30
0.0
 10
7910.897462422589
 20
4949.524972398931
 30
0.0
 10
7911.751105169761
 20
4945.753781796358
 30
0.0
 10
7913.014486606985
 20
4942.175837183212
 30
0.0
 10
7914.615828176597
 20
4938.86531302704
 30
0.0
 10
7916.437392321186
 20
4935.834476359097
 30
0.0
 10
7918.288236590129
 20
4933.217398519953
 30
0.0
 10
7919.986689509162
 20
4931.07667390827
 30
0.0
 10
7921.291096811012
 20
4929.56050706321
 30
0.0
 10
7922.095100664429
 20
4928.661707783012
 30
0.0
 10
7922.424472672888
 20
4928.297128829377
 30
0.0
 10
7922.361288974025
 20
4928.35825963729
 30
0.0
 10
7922.349526159282
 20
4928.369640268395
 30
0.0
  0
LWPOLYLINE
  5
17A
330
1F
100
AcDbEntity
  8
0
  6
Continuous
 62
     8
370
    25
100
AcDbPolyline
 90
       18
 70
   128
 43
0.0
 10
7946.4930235576
 20
4953.3149029409
 10
7946.3174947045
 20
4953.3280463734
 10
7945.7933729753
 20
4953.3410052418
 10
7944.928018249
 20
4953.3535975736
 10
7943.7335821033
 20
4953.3656465434
 10
7942.2268371789
 20
4953.376982956
 10
7940.4289416523
 20
4953.3874476218
 10
7938.3651421269
 20
4953.3968935929
 10
7936.0644191116
 20
4953.4051882259
 10
7933.5590800683
 20
4953.4122150452
 10
7930.8843057401
 20
4953.4178753779
 10
7928.0776561326
 20
4953.4220897399
 10
7925.1785430847
 20
4953.4247989518
 10
7922.2276768356
 20
4953.42596497
 10
7919.2664943587
 20
4953.4255714211
 10
7916.3365774912
 20
4953.4236238311
 10
7913.4790690288
 20
4953.420149549
 10
7910.7340949862
 20
4953.4151973615
  0
ELLIPSE
  5
17B
330
1F
100
AcDbEntity
  8
0
  6
Continuous
 62
     8
370
    25
100
AcDbEllipse
 10
7921.4930235576
 20
5021.5568696366
 30
0.0
 11
-24.99993905840256
 21
27.99990053917281
 31
0.0
210
0.0
220
0.0
230
1.0
 40
0.0019714459
 41
5.159485390010224
 42
6.285393320585957
  0
LINE
  5
17C
330
1F
100
AcDbEntity
  8
0
  6
Continuous
 62
     7
370
    25
100
AcDbLine
 10
7203.6849029051
 20
4381.5704812655
 30
0.0
 11
7203.6820266776
 21
4381.5704812655
 31
0.0
  0
LINE
  5
17D
330
1F
100
AcDbEntity
  8
0
  6
Continuous
 62
     7
370
    25
100
AcDbLine
 10
7203.6820266776
 20
4371.0704812655
 30
0.0
 11
7203.6849029051
 21
4371.0704812655
 31
0.0
  0
ARC
  5
17E
330
1F
100
AcDbEntity
  8
0
  6
Continuous
 62
     7
370
    25
100
AcDbCircle
 10
7203.6849399454
 20
4376.3204713646
 30
0.0
 40
5.249996812616239
100
AcDbArc
 50
75.2768952433
 51
238.8497649762
  0
LWPOLYLINE
  5
17F
330
1F
100
AcDbEntity
  8
0
  6
Continuous
 62
     7
370
    25
100
AcDbPolyline
 90
        9
 70
   128
 43
0.0
 10
7205.0192160231
 20
4381.3980863442
 10
7204.5658734103
 20
4380.3188295974
 10
7204.0695574424
 20
4379.1401380897
 10
7203.5435844307
 20
4377.8936364799
 10
7203.0020663943
 20
4376.6127687928
 10
7202.4595324301
 20
4375.3319011056
 10
7201.9305388925
 20
4374.0853994958
 10
7201.4292788423
 20
4372.9067079882
 10
7200.9692012421
 20
4371.8274512413
  0
ARC
  5
180
330
1F
100
AcDbEntity
  8
0
  6
Continuous
 62
     7
370
    25
100
AcDbCircle
 10
7203.6848658647
 20
4376.3204911665
 30
0.0
 40
5.24999681261559
100
AcDbArc
 50
255.2768952433
 51
58.8497649762
  0
LWPOLYLINE
  5
181
330
1F
100
AcDbEntity
  8
0
  6
Continuous
 62
     7
370
    25
100
AcDbPolyline
 90
        9
 70
   128
 43
0.0
 10
7202.3505897871
 20
4371.2428761868
 10
7202.8106673873
 20
4372.3221329337
 10
7203.3119274375
 20
4373.5008244413
 10
7203.8409209751
 20
4374.7473260511
 10
7204.3834549393
 20
4376.0281937383
 10
7204.9249729757
 20
4377.3090614254
 10
7205.4509459873
 20
4378.5555630352
 10
7205.9472619552
 20
4379.7342545429
 10
7206.400604568
 20
4380.8135112897
  0
LINE
  5
182
330
1F
100
AcDbEntity
  8
0
  6
Continuous
 62
     7
370
    25
100
AcDbLine
 10
7206.400604568
 20
4380.8135112897
 30
0.0
 11
7202.3505897871
 21
4371.2428761868
 31
0.0
  0
ARC
  5
183
330
1F
100
AcDbEntity
  8
0
  6
Continuous
 62
     7
370
    25
100
AcDbCircle
 10
7203.6818287785
 20
4376.32047411
 30
0.0
 40
5.249992844649588
100
AcDbArc
 50
157.0630091731
 51
269.9995967051
  0
ARC
  5
184
330
1F
100
AcDbEntity
  8
0
  6
Continuous
 62
     7
370
    25
100
AcDbCircle
 10
7203.6818045453
 20
4376.3205341279
 30
0.0
 40
5.249947137662225
100
AcDbArc
 50
90.0001388278
 51
157.063509325
  0
ARC
  5
185
330
1F
100
AcDbEntity
  8
0
  6
Continuous
 62
     7
370
    25
100
AcDbCircle
 10
7203.6848969501
 20
4376.3205617165
 30
0.0
 40
5.249920354907463
100
AcDbArc
 50
58.8496570283
 51
75.2761908074
  0
ARC
  5
186
330
1F
100
AcDbEntity
  8
0
  6
Continuous
 62
     7
370
    25
100
AcDbCircle
 10
7203.6849088601
 20
4376.3204008146
 30
0.0
 40
5.249920355012624
100
AcDbArc
 50
238.8496570285
 51
255.2761908073
  0
LINE
  5
187
330
1F
100
AcDbEntity
  8
0
  6
Continuous
 62
     7
370
    25
100
AcDbLine
 10
7398.0188053361
 20
4525.3794465658
 30
0.0
 11
5150.0188053361
 21
4525.3794465658
 31
0.0
  0
LINE
  5
188
330
1F
100
AcDbEntity
  8
0
  6
Continuous
 62
     7
370
    25
100
AcDbLine
 10
5150.0188053361
 20
4525.3794465658
 30
0.0
 11
5150.0188053361
 21
4526.575562701
 31
0.0
  0
LINE
  5
189
330
1F
100
AcDbEntity
  8
0
  6
Continuous
 62
     7
370
    25
100
AcDbLine
 10
5150.0188053361
 20
4526.575562701
 30
0.0
 11
7398.0188053361
 21
4526.575562701
 31
0.0
  0
LINE
  5
18A
330
1F
100
AcDbEntity
  8
0
  6
Continuous
 62
     7
370
    25
100
AcDbLine
 10
7398.0188053361
 20
4525.3794465658
 30
0.0
 11
7398.0188053361
 21
4526.575562701
 31
0.0
  0
ARC
  5
18B
330
1F
100
AcDbEntity
  8
0
  6
Continuous
 62
     7
370
    25
100
AcDbCircle
 10
5149.7784207207
 20
4526.8012885456
 30
0.0
 40
1.442019201921556
100
AcDbArc
 50
238.2123876692
 51
279.5960057644
  0
ARC
  5
18C
330
1F
100
AcDbEntity
  8
0
  6
Continuous
 62
     7
370
    25
100
AcDbCircle
 10
5150.0188053361
 20
4525.575562701
 30
0.0
 40
1.0
100
AcDbArc
 50
90.0
 51
180.0
  0
ARC
  5
18D
330
1F
100
AcDbEntity
  8
0
  6
Continuous
 62
     7
370
    25
100
AcDbCircle
 10
7398.0188053361
 20
4525.575562701
 30
0.0
 40
0.9999999999990905
100
AcDbArc
 50
0.0
 51
90.0
  0
ARC
  5
18E
330
1F
100
AcDbEntity
  8
0
  6
Continuous
 62
     7
370
    25
100
AcDbCircle
 10
7398.2591899515
 20
4526.8012885456
 30
0.0
 40
1.442019201917905
100
AcDbArc
 50
260.4039942355
 51
301.7876123308
  0
LINE
  5
18F
330
1F
100
AcDbEntity
  8
0
  6
Continuous
 62
     7
370
    25
100
AcDbLine
 10
7398.0188053361
 20
4477.3794465658
 30
0.0
 11
7398.0188053361
 21
4525.3794465658
 31
0.0
  0
LINE
  5
190
330
1F
100
AcDbEntity
  8
0
  6
Continuous
 62
     7
370
    25
100
AcDbLine
 10
5150.0188053361
 20
4477.3794465658
 30
0.0
 11
7398.0188053361
 21
4477.3794465658
 31
0.0
  0
LINE
  5
191
330
1F
100
AcDbEntity
  8
0
  6
Continuous
 62
     7
370
    25
100
AcDbLine
 10
5150.0188053361
 20
4525.3794465658
 30
0.0
 11
5150.0188053361
 21
4477.3794465658
 31
0.0
  0
LINE
  5
192
330
1F
100
AcDbEntity
  8
0
  6
Continuous
 62
     7
370
    25
100
AcDbLine
 10
7399.0188053361
 20
4525.575562701
 30
0.0
 11
7399.0188053361
 21
4477.575562701
 31
0.0
  0
ARC
  5
193
330
1F
100
AcDbEntity
  8
0
  6
Continuous
 62
     7
370
    25
100
AcDbCircle
 10
7398.2591899515
 20
4478.8012885456
 30
0.0
 40
1.442019201917905
100
AcDbArc
 50
260.4039942355
 51
301.7876123308
  0
ARC
  5
194
330
1F
100
AcDbEntity
  8
0
  6
Continuous
 62
     7
370
    25
100
AcDbCircle
 10
5149.7784207207
 20
4478.8012885456
 30
0.0
 40
1.442019201921556
100
AcDbArc
 50
238.2123876692
 51
279.5960057644
  0
LINE
  5
195
330
1F
100
AcDbEntity
  8
0
  6
Continuous
 62
     7
370
    25
100
AcDbLine
 10
5149.0188053361
 20
4477.575562701
 30
0.0
 11
5149.0188053361
 21
4525.575562701
 31
0.0
  0
LINE
  5
196
330
1F
100
AcDbEntity
  8
0
  6
Continuous
 62
     7
370
    25
100
AcDbLine
 10
7398.0188053361
 20
4476.575562701
 30
0.0
 11
5150.0188053361
 21
4476.575562701
 31
0.0
  0
LINE
  5
197
330
1F
100
AcDbEntity
  8
0
  6
Continuous
 62
     7
370
    25
100
AcDbLine
 10
5150.0188053361
 20
4476.575562701
 30
0.0
 11
5150.0188053361
 21
4477.3794465658
 31
0.0
  0
LINE
  5
198
330
1F
100
AcDbEntity
  8
0
  6
Continuous
 62
     7
370
    25
100
AcDbLine
 10
7398.0188053361
 20
4476.575562701
 30
0.0
 11
7398.0188053361
 21
4477.3794465658
 31
0.0
  0
ARC
  5
199
330
1F
100
AcDbEntity
  8
0
  6
Continuous
 62
     7
370
    25
100
AcDbCircle
 10
7398.0188053361
 20
4477.575562701
 30
0.0
 40
1.0
100
AcDbArc
 50
270.0
 51
0.0
  0
ARC
  5
19A
330
1F
100
AcDbEntity
  8
0
  6
Continuous
 62
     7
370
    25
100
AcDbCircle
 10
5150.0188053361
 20
4477.575562701
 30
0.0
 40
1.0
100
AcDbArc
 50
180.0
 51
270.0
  0
LINE
  5
19B
330
1F
100
AcDbEntity
  8
0
  6
Continuous
 62
     7
370
    25
100
AcDbLine
 10
5188.0188053361
 20
4475.575562701
 30
0.0
 11
5189.0188053361
 21
4475.575562701
 31
0.0
  0
LINE
  5
19C
330
1F
100
AcDbEntity
  8
0
  6
Continuous
 62
     7
370
    25
100
AcDbLine
 10
5188.0188053361
 20
4475.575562701
 30
0.0
 11
5188.0188053361
 21
4476.575562701
 31
0.0
  0
ARC
  5
19D
330
1F
100
AcDbEntity
  8
0
  6
Continuous
 62
     7
370
    25
100
AcDbCircle
 10
5190.0188053361
 20
4475.575562701
 30
0.0
 40
1.0
100
AcDbArc
 50
90.0
 51
180.0
  0
LINE
  5
19E
330
1F
100
AcDbEntity
  8
0
  6
Continuous
 62
     7
370
    25
100
AcDbLine
 10
7398.0188053361
 20
4476.575562701
 30
0.0
 11
7398.0188053361
 21
4475.575562701
 31
0.0
  0
LINE
  5
19F
330
1F
100
AcDbEntity
  8
0
  6
Continuous
 62
     7
370
    25
100
AcDbLine
 10
7398.0188053361
 20
4475.575562701
 30
0.0
 11
7360.0188053361
 21
4475.575562701
 31
0.0
  0
LINE
  5
1A0
330
1F
100
AcDbEntity
  8
0
  6
Continuous
 62
     7
370
    25
100
AcDbLine
 10
7360.0188053361
 20
4476.575562701
 30
0.0
 11
7360.0188053361
 21
4475.575562701
 31
0.0
  0
LINE
  5
1A1
330
1F
100
AcDbEntity
  8
0
  6
Continuous
 62
     7
370
    25
100
AcDbLine
 10
5188.0188053361
 20
4475.575562701
 30
0.0
 11
5150.0188053361
 21
4475.575562701
 31
0.0
  0
LINE
  5
1A2
330
1F
100
AcDbEntity
  8
0
  6
Continuous
 62
     7
370
    25
100
AcDbLine
 10
5150.0188053361
 20
4475.575562701
 30
0.0
 11
5150.0188053361
 21
4476.575562701
 31
0.0
  0
LINE
  5
1A3
330
1F
100
AcDbEntity
  8
0
  6
Continuous
 62
     7
370
    25
100
AcDbLine
 10
5150.0188053361
 20
4475.575562701
 30
0.0
 11
5149.0188053361
 21
4475.575562701
 31
0.0
  0
LINE
  5
1A4
330
1F
100
AcDbEntity
  8
0
  6
Continuous
 62
     7
370
    25
100
AcDbLine
 10
5149.0188053361
 20
4477.575562701
 30
0.0
 11
5149.0188053361
 21
4475.575562701
 31
0.0
  0
LINE
  5
1A5
330
1F
100
AcDbEntity
  8
0
  6
Continuous
 62
     7
370
    25
100
AcDbLine
 10
7399.0188053361
 20
4475.575562701
 30
0.0
 11
7398.0188053361
 21
4475.575562701
 31
0.0
  0
LINE
  5
1A6
330
1F
100
AcDbEntity
  8
0
  6
Continuous
 62
     7
370
    25
100
AcDbLine
 10
7399.0188053361
 20
4475.575562701
 30
0.0
 11
7399.0188053361
 21
4477.575562701
 31
0.0
  0
LINE
  5
1A7
330
1F
100
AcDbEntity
  8
0
  6
Continuous
 62
     7
370
    25
100
AcDbLine
 10
7359.0188053361
 20
4475.575562701
 30
0.0
 11
7360.0188053361
 21
4475.575562701
 31
0.0
  0
ARC
  5
1A8
330
1F
100
AcDbEntity
  8
0
  6
Continuous
 62
     7
370
    25
100
AcDbCircle
 10
7358.0188053361
 20
4475.575562701
 30
0.0
 40
1.0
100
AcDbArc
 50
0.0
 51
90.0
  0
LINE
  5
1A9
330
1F
100
AcDbEntity
  8
0
  6
Continuous
 62
     7
370
    25
100
AcDbLine
 10
7399.0188053361
 20
4077.575562701
 30
0.0
 11
7398.0188053361
 21
4077.575562701
 31
0.0
  0
LINE
  5
1AA
330
1F
100
AcDbEntity
  8
0
  6
Continuous
 62
     7
370
    25
100
AcDbLine
 10
7398.0188053361
 20
4077.575562701
 30
0.0
 11
7398.0188053361
 21
4475.575562701
 31
0.0
  0
LINE
  5
1AB
330
1F
100
AcDbEntity
  8
0
  6
Continuous
 62
     7
370
    25
100
AcDbLine
 10
7399.0188053361
 20
4475.575562701
 30
0.0
 11
7399.0188053361
 21
4077.575562701
 31
0.0
  0
LINE
  5
1AC
330
1F
100
AcDbEntity
  8
0
  6
Continuous
 62
     7
370
    25
100
AcDbLine
 10
7358.0188053361
 20
4115.9851837243
 30
0.0
 11
5190.0188053361
 21
4115.9851837243
 31
0.0
  0
ELLIPSE
  5
1AD
330
1F
100
AcDbEntity
  8
0
  6
Continuous
 62
     7
370
    25
100
AcDbEllipse
 10
7358.0188053361
 20
4118.2693899535
 30
0.0
 11
0.0
 21
-2.28420622919657
 31
0.0
210
0.0
220
0.0
230
1.0
 40
0.875577684
 41
0.0
 42
1.570796326794897
  0
LINE
  5
1AE
330
1F
100
AcDbEntity
  8
0
  6
Continuous
 62
     7
370
    25
100
AcDbLine
 10
7360.0188053361
 20
4475.575562701
 30
0.0
 11
7360.0188053361
 21
4118.2693899535
 31
0.0
  0
LINE
  5
1AF
330
1F
100
AcDbEntity
  8
0
  6
Continuous
 62
     7
370
    25
100
AcDbLine
 10
5150.0188053361
 20
4077.575562701
 30
0.0
 11
7398.0188053361
 21
4077.575562701
 31
0.0
  0
LINE
  5
1B0
330
1F
100
AcDbEntity
  8
0
  6
Continuous
 62
     7
370
    25
100
AcDbLine
 10
5150.0188053361
 20
4475.575562701
 30
0.0
 11
5150.0188053361
 21
4077.575562701
 31
0.0
  0
LINE
  5
1B1
330
1F
100
AcDbEntity
  8
0
  6
Continuous
 62
     7
370
    25
100
AcDbLine
 10
5188.0188053361
 20
4118.2693899535
 30
0.0
 11
5188.0188053361
 21
4475.575562701
 31
0.0
  0
ELLIPSE
  5
1B2
330
1F
100
AcDbEntity
  8
0
  6
Continuous
 62
     7
370
    25
100
AcDbEllipse
 10
5190.0188053361
 20
4118.2693899535
 30
0.0
 11
0.0
 21
-2.28420622919657
 31
0.0
210
0.0
220
0.0
230
1.0
 40
0.875577684
 41
4.712388980384702
 42
6.283185307179586
  0
LINE
  5
1B3
330
1F
100
AcDbEntity
  8
0
  6
Continuous
 62
     7
370
    25
100
AcDbLine
 10
5150.0188053361
 20
4077.575562701
 30
0.0
 11
5149.0188053361
 21
4077.575562701
 31
0.0
  0
LINE
  5
1B4
330
1F
100
AcDbEntity
  8
0
  6
Continuous
 62
     7
370
    25
100
AcDbLine
 10
5149.0188053361
 20
4077.575562701
 30
0.0
 11
5149.0188053361
 21
4475.575562701
 31
0.0
  0
LINE
  5
1B5
330
1F
100
AcDbEntity
  8
0
  6
Continuous
 62
     7
370
    25
100
AcDbLine
 10
7359.0188053361
 20
4118.2693899535
 30
0.0
 11
7359.0188053361
 21
4475.575562701
 31
0.0
  0
LINE
  5
1B6
330
1F
100
AcDbEntity
  8
0
  6
Continuous
 62
     7
370
    25
100
AcDbLine
 10
7359.0188053361
 20
4118.2693899535
 30
0.0
 11
7360.0188053361
 21
4118.2693899535
 31
0.0
  0
LINE
  5
1B7
330
1F
100
AcDbEntity
  8
0
  6
Continuous
 62
     7
370
    25
100
AcDbLine
 10
5189.0188053361
 20
4475.575562701
 30
0.0
 11
5189.0188053361
 21
4118.2693899535
 31
0.0
  0
LINE
  5
1B8
330
1F
100
AcDbEntity
  8
0
  6
Continuous
 62
     7
370
    25
100
AcDbLine
 10
5188.0188053361
 20
4118.2693899535
 30
0.0
 11
5189.0188053361
 21
4118.2693899535
 31
0.0
  0
ELLIPSE
  5
1B9
330
1F
100
AcDbEntity
  8
0
  6
Continuous
 62
     7
370
    25
100
AcDbEllipse
 10
5190.0188053361
 20
4118.2693899535
 30
0.0
 11
0.0
 21
1.408628545170359
 31
0.0
210
0.0
220
0.0
230
1.0
 40
0.7099103617
 41
1.570796326794897
 42
3.141592653589793
  0
LINE
  5
1BA
330
1F
100
AcDbEntity
  8
0
  6
Continuous
 62
     7
370
    25
100
AcDbLine
 10
5190.0188053361
 20
4115.9851837243
 30
0.0
 11
5190.0188053361
 21
4116.8607614083
 31
0.0
  0
LINE
  5
1BB
330
1F
100
AcDbEntity
  8
0
  6
Continuous
 62
     7
370
    25
100
AcDbLine
 10
5190.0188053361
 20
4116.8607614083
 30
0.0
 11
7358.0188053361
 21
4116.8607614083
 31
0.0
  0
LINE
  5
1BC
330
1F
100
AcDbEntity
  8
0
  6
Continuous
 62
     7
370
    25
100
AcDbLine
 10
7358.0188053361
 20
4115.9851837243
 30
0.0
 11
7358.0188053361
 21
4116.8607614083
 31
0.0
  0
ELLIPSE
  5
1BD
330
1F
100
AcDbEntity
  8
0
  6
Continuous
 62
     7
370
    25
100
AcDbEllipse
 10
7358.0188053361
 20
4118.2693899535
 30
0.0
 11
0.0
 21
1.408628545170359
 31
0.0
210
0.0
220
0.0
230
1.0
 40
0.7099103617
 41
3.141592653589793
 42
4.712388980384699
  0
LINE
  5
1BE
330
1F
100
AcDbEntity
  8
0
  6
Continuous
 62
     7
370
    25
100
AcDbLine
 10
7398.0188053361
 20
4076.575562701
 30
0.0
 11
7398.0188053361
 21
4077.575562701
 31
0.0
  0
ARC
  5
1BF
330
1F
100
AcDbEntity
  8
0
  6
Continuous
 62
     7
370
    25
100
AcDbCircle
 10
7398.0188053361
 20
4077.575562701
 30
0.0
 40
0.9999999999995453
100
AcDbArc
 50
270.0
 51
0.0
  0
ARC
  5
1C0
330
1F
100
AcDbEntity
  8
0
  6
Continuous
 62
     7
370
    25
100
AcDbCircle
 10
5150.0188053361
 20
4077.575562701
 30
0.0
 40
1.0
100
AcDbArc
 50
180.0
 51
270.0
  0
LINE
  5
1C1
330
1F
100
AcDbEntity
  8
0
  6
Continuous
 62
     7
370
    25
100
AcDbLine
 10
5150.0188053361
 20
4076.575562701
 30
0.0
 11
5150.0188053361
 21
4077.575562701
 31
0.0
  0
LINE
  5
1C2
330
1F
100
AcDbEntity
  8
0
  6
Continuous
 62
     7
370
    25
100
AcDbLine
 10
7398.0188053361
 20
4076.575562701
 30
0.0
 11
5150.0188053361
 21
4076.575562701
 31
0.0
  0
LINE
  5
1C3
330
1F
100
AcDbEntity
  8
0
  6
Continuous
 62
     7
370
    25
100
AcDbLine
 10
5190.0188053361
 20
4270.8736535637
 30
0.0
 11
5190.0188053361
 21
4116.8607614083
 31
0.0
  0
ARC
  5
1C4
330
1F
100
AcDbEntity
  8
0
  6
Continuous
 62
     7
370
    25
100
AcDbCircle
 10
5189.9604644063
 20
4271.8158626053
 30
0.0
 40
0.9440135286627628
100
AcDbArc
 50
184.0474765744
 51
273.5431913158
  0
LINE
  5
1C5
330
1F
100
AcDbEntity
  8
0
  6
Continuous
 62
     7
370
    25
100
AcDbLine
 10
7358.0188053361
 20
4116.8607614083
 30
0.0
 11
7358.0188053361
 21
4276.189822146
 31
0.0
  0
ARC
  5
1C6
330
1F
100
AcDbEntity
  8
0
  6
Continuous
 62
     7
370
    25
100
AcDbCircle
 10
7358.0771462659
 20
4277.1320311877
 30
0.0
 40
0.9440135286605239
100
AcDbArc
 50
266.4568086842
 51
355.9525234256
  0
LINE
  5
1C7
330
1F
100
AcDbEntity
  8
0
  6
Continuous
 62
     7
370
    25
100
AcDbLine
 10
7358.0188053361
 20
4276.189822146
 30
0.0
 11
5190.0188053361
 21
4270.8736535637
 31
0.0
  0
ARC
  5
1C8
330
1F
100
AcDbEntity
  8
0
  6
Continuous
 62
     7
370
    25
100
AcDbCircle
 10
5246.2682498104
 20
4475.8255577627
 30
0.0
 40
56.25444436726289
100
AcDbArc
 50
179.2360889664
 51
180.254623599
  0
LINE
  5
1C9
330
1F
100
AcDbEntity
  8
0
  6
Continuous
 62
     7
370
    25
100
AcDbLine
 10
5189.0188053361
 20
4475.575562701
 30
0.0
 11
5190.0143609356
 21
4475.575562701
 31
0.0
  0
LINE
  5
1CA
330
1F
100
AcDbEntity
  8
0
  6
Continuous
 62
     7
370
    25
100
AcDbLine
 10
7358.0143609356
 20
4475.575562701
 30
0.0
 11
5190.0143609356
 21
4475.575562701
 31
0.0
  0
ARC
  5
1CB
330
1F
100
AcDbEntity
  8
0
  6
Continuous
 62
     7
370
    25
100
AcDbCircle
 10
7414.2682497761
 20
4475.8255577628
 30
0.0
 40
56.25444433296775
100
AcDbArc
 50
179.236088966
 51
180.2546235993
  0
LINE
  5
1CC
330
1F
100
AcDbEntity
  8
0
  6
Continuous
 62
     7
370
    25
100
AcDbLine
 10
5190.0143609356
 20
4475.575562701
 30
0.0
 11
5190.0143609356
 21
4271.7492312477
 31
0.0
  0
LINE
  5
1CD
330
1F
100
AcDbEntity
  8
0
  6
Continuous
 62
     7
370
    25
100
AcDbLine
 10
5189.0188053361
 20
4271.7492312477
 30
0.0
 11
5190.0143609356
 21
4271.7492312477
 31
0.0
  0
ARC
  5
1CE
330
1F
100
AcDbEntity
  8
0
  6
Continuous
 62
     7
370
    25
100
AcDbCircle
 10
5319.138977661
 20
4271.9668629945
 30
0.0
 40
129.1248001279442
100
AcDbArc
 50
180.0965684862
 51
180.4850891134
  0
LINE
  5
1CF
330
1F
100
AcDbEntity
  8
0
  6
Continuous
 62
     7
370
    25
100
AcDbLine
 10
5190.0143609356
 20
4271.7492312477
 30
0.0
 11
7358.0143609356
 21
4277.0653998301
 31
0.0
  0
ARC
  5
1D0
330
1F
100
AcDbEntity
  8
0
  6
Continuous
 62
     7
370
    25
100
AcDbCircle
 10
7487.1389774591
 20
4277.2830315758
 30
0.0
 40
129.1247999259967
100
AcDbArc
 50
180.0965684859
 51
180.4850891137
  0
LINE
  5
1D1
330
1F
100
AcDbEntity
  8
0
  6
Continuous
 62
     7
370
    25
100
AcDbLine
 10
7358.0143609356
 20
4277.0653998301
 30
0.0
 11
7358.0143609356
 21
4475.575562701
 31
0.0
  0
LINE
  5
1D2
330
1F
100
AcDbEntity
  8
0
  6
Continuous
 62
     7
370
    25
100
AcDbLine
 10
7358.0143609356
 20
4475.575562701
 30
0.0
 11
7359.0188053361
 21
4475.575562701
 31
0.0
  0
LINE
  5
1D3
330
1F
100
AcDbEntity
  8
0
  6
Continuous
 62
     7
370
    25
100
AcDbLine
 10
7358.0143609356
 20
4277.0653998301
 30
0.0
 11
7359.0188053361
 21
4277.0653998301
 31
0.0
  0
CIRCLE
  5
1D4
330
1F
100
AcDbEntity
  8
0
  6
Continuous
 62
     7
370
    25
100
AcDbCircle
 10
7203.7468321825
 20
4376.3202319719
 30
0.0
 40
34.99978814993383
  0
CIRCLE
  5
1D5
330
1F
100
AcDbEntity
  8
0
  6
Continuous
 62
     7
370
    25
100
AcDbCircle
 10
7203.7438142464
 20
4376.3202307667
 30
0.0
 40
35.16900657553012
  0
CIRCLE
  5
1D6
330
1F
100
AcDbEntity
  8
0
  6
Continuous
 62
     7
370
    25
100
AcDbCircle
 10
7203.7356741205
 20
4376.3203091115
 30
0.0
 40
24.96498134695635
  0
CIRCLE
  5
1D7
330
1F
100
AcDbEntity
  8
0
  6
Continuous
 62
     7
370
    25
100
AcDbCircle
 10
7203.7216708348
 20
4376.3203297924
 30
0.0
 40
21.99987363088675
  0
CIRCLE
  5
1D8
330
1F
100
AcDbEntity
  8
0
  6
Continuous
 62
     7
370
    25
100
AcDbCircle
 10
7203.6859454747
 20
4376.3203398175
 30
0.0
 40
20.49988199892015
  0
CIRCLE
  5
1D9
330
1F
100
AcDbEntity
  8
0
  6
Continuous
 62
     7
370
    25
100
AcDbCircle
 10
7203.6823110362
 20
4376.3203418646
 30
0.0
 40
19.48689011781658
  0
CIRCLE
  5
1DA
330
1F
100
AcDbEntity
  8
0
  6
Continuous
 62
     7
370
    25
100
AcDbCircle
 10
7203.6822420481
 20
4376.3204430383
 30
0.0
 40
5.699969452771335
  0
CIRCLE
  5
1DB
330
1F
100
AcDbEntity
  8
0
  6
Continuous
 62
     7
370
    25
100
AcDbCircle
 10
7208.7484998694
 20
4388.2926070998
 30
0.0
 40
3.999979219338826
  0
CIRCLE
  5
1DC
330
1F
100
AcDbEntity
  8
0
  6
Continuous
 62
     7
370
    25
100
AcDbCircle
 10
7195.8472806907
 20
4386.6940902967
 30
0.0
 40
3.999979219341211
  0
CIRCLE
  5
1DD
330
1F
100
AcDbEntity
  8
0
  6
Continuous
 62
     7
370
    25
100
AcDbCircle
 10
7190.7810135887
 20
4374.7219379987
 30
0.0
 40
3.999979219342886
  0
CIRCLE
  5
1DE
330
1F
100
AcDbEntity
  8
0
  6
Continuous
 62
     7
370
    25
100
AcDbCircle
 10
7198.6159656655
 20
4364.3483025037
 30
0.0
 40
3.999979219340631
  0
CIRCLE
  5
1DF
330
1F
100
AcDbEntity
  8
0
  6
Continuous
 62
     7
370
    25
100
AcDbCircle
 10
7211.5171848443
 20
4365.9468193068
 30
0.0
 40
3.999979219342048
  0
CIRCLE
  5
1E0
330
1F
100
AcDbEntity
  8
0
  6
Continuous
 62
     7
370
    25
100
AcDbCircle
 10
7216.5834519462
 20
4377.9189716049
 30
0.0
 40
3.999979219340019
  0
ARC
  5
1E1
330
1F
100
AcDbEntity
  8
0
  6
Continuous
 62
     7
370
    25
100
AcDbCircle
 10
7190.7778451174
 20
4374.7219679895
 30
0.0
 40
4.000003527213053
100
AcDbArc
 50
270.0004695585
 51
67.0628779873
  0
LWPOLYLINE
  5
1E2
330
1F
100
AcDbEntity
  8
0
  6
Continuous
 62
     7
370
    25
100
AcDbPolyline
 90
        3
 70
   128
 43
0.0
 10
7190.7778778988
 20
4378.7219644624
 10
7191.1816834629
 20
4378.7015294946
 10
7192.3367293148
 20
4378.4057036311
  0
ARC
  5
1E3
330
1F
100
AcDbEntity
  8
0
  6
Continuous
 62
     7
370
    25
100
AcDbCircle
 10
7195.8441122194
 20
4386.6941202876
 30
0.0
 40
4.000003527213053
100
AcDbArc
 50
270.0004695585
 51
67.0628779873
  0
LWPOLYLINE
  5
1E4
330
1F
100
AcDbEntity
  8
0
  6
Continuous
 62
     7
370
    25
100
AcDbPolyline
 90
        3
 70
   128
 43
0.0
 10
7195.8441450008
 20
4390.6941167605
 10
7196.2479505648
 20
4390.6736817927
 10
7197.4029964168
 20
4390.3778559291
  0
ARC
  5
1E5
330
1F
100
AcDbEntity
  8
0
  6
Continuous
 62
     7
370
    25
100
AcDbCircle
 10
7198.6127971942
 20
4364.3483324945
 30
0.0
 40
4.000003527214116
100
AcDbArc
 50
270.0004695585
 51
67.0628779873
  0
LWPOLYLINE
  5
1E6
330
1F
100
AcDbEntity
  8
0
  6
Continuous
 62
     7
370
    25
100
AcDbPolyline
 90
        3
 70
   128
 43
0.0
 10
7198.6128299756
 20
4368.3483289675
 10
7199.0166355396
 20
4368.3278939997
 10
7200.1716813916
 20
4368.0320681361
  0
ARC
  5
1E7
330
1F
100
AcDbEntity
  8
0
  6
Continuous
 62
     7
370
    25
100
AcDbCircle
 10
7208.7453313981
 20
4388.2926370907
 30
0.0
 40
4.000003527213408
100
AcDbArc
 50
270.0004695585
 51
67.0628779873
  0
LWPOLYLINE
  5
1E8
330
1F
100
AcDbEntity
  8
0
  6
Continuous
 62
     7
370
    25
100
AcDbPolyline
 90
        3
 70
   128
 43
0.0
 10
7208.7453641795
 20
4392.2926335636
 10
7209.1491697436
 20
4392.2721985958
 10
7210.3042155955
 20
4391.9763727322
  0
ARC
  5
1E9
330
1F
100
AcDbEntity
  8
0
  6
Continuous
 62
     7
370
    25
100
AcDbCircle
 10
7211.5140163729
 20
4365.9468492976
 30
0.0
 40
4.000003527213899
100
AcDbArc
 50
270.0004695585
 51
67.0628779873
  0
LWPOLYLINE
  5
1EA
330
1F
100
AcDbEntity
  8
0
  6
Continuous
 62
     7
370
    25
100
AcDbPolyline
 90
        3
 70
   128
 43
0.0
 10
7211.5140491543
 20
4369.9468457706
 10
7211.9178547184
 20
4369.9264108028
 10
7213.0729005703
 20
4369.6305849392
  0
ARC
  5
1EB
330
1F
100
AcDbEntity
  8
0
  6
Continuous
 62
     7
370
    25
100
AcDbCircle
 10
7216.5802834749
 20
4377.9190015957
 30
0.0
 40
4.000003527213053
100
AcDbArc
 50
270.0004695585
 51
67.0628779873
  0
LWPOLYLINE
  5
1EC
330
1F
100
AcDbEntity
  8
0
  6
Continuous
 62
     7
370
    25
100
AcDbPolyline
 90
        3
 70
   128
 43
0.0
 10
7216.5803162563
 20
4381.9189980686
 10
7216.9841218203
 20
4381.8985631008
 10
7218.1391676723
 20
4381.6027372372
  0
SPLINE
  5
1ED
330
1F
100
AcDbEntity
  8
0
  6
Continuous
 62
     8
370
    25
100
AcDbSpline
210
0.0
220
0.0
230
1.0
 70
     8
 71
     3
 72
     9
 73
     5
 74
     0
 42
0.000000001
 43
0.00000001
 40
0.0
 40
0.0
 40
0.0
 40
0.0
 40
0.458446328782916
 40
1.0
 40
1.0
 40
1.0
 40
1.0
 10
7190.314326304336
 20
4378.656773135917
 30
0.0
 10
7190.809767505737
 20
4378.370715658496
 30
0.0
 10
7191.890463696973
 20
4377.746744084375
 30
0.0
 10
7193.21623658515
 20
4377.302596368688
 30
0.0
 10
7193.934213759941
 20
4377.062066542695
 30
0.0
  0
SPLINE
  5
1EE
330
1F
100
AcDbEntity
  8
0
  6
Continuous
 62
     8
370
    25
100
AcDbSpline
210
0.0
220
0.0
230
1.0
 70
     8
 71
     3
 72
    11
 73
     7
 74
     0
 42
0.000000001
 43
0.00000001
 40
0.0
 40
0.0
 40
0.0
 40
0.0
 40
0.1510204065569527
 40
0.5191765371166185
 40
0.8959315750577163
 40
1.0
 40
1.0
 40
1.0
 40
1.0
 10
7212.647576956988
 20
4377.385949661
 30
0.0
 10
7213.034235300814
 20
4377.530277216851
 30
0.0
 10
7214.363485728432
 20
4378.026445134586
 30
0.0
 10
7216.340654200614
 20
4379.12300387628
 30
0.0
 10
7218.09340537856
 20
4380.22030249735
 30
0.0
 10
7218.864878650209
 20
4380.853992789257
 30
0.0
 10
7219.031854712035
 20
4380.991147391041
 30
0.0
  0
ENDSEC
  0
SECTION
  2
OBJECTS
  0
DICTIONARY
  5
C
330
0
100
AcDbDictionary
281
     1
  3
ACAD_GROUP
350
D
  3
ACAD_LAYOUT
350
1A
  3
ACAD_MLINESTYLE
350
17
  3
ACAD_PLOTSETTINGS
350
19
  3
ACAD_PLOTSTYLENAME
350
E
  3
ACAD_SCALELIST
350
47
  0
DICTIONARY
  5
D
102
{ACAD_REACTORS
330
C
102
}
330
C
100
AcDbDictionary
281
     1
  0
DICTIONARY
  5
1A
102
{ACAD_REACTORS
330
C
102
}
330
C
100
AcDbDictionary
281
     1
  3
Layout1
350
1E
  3
Layout2
350
26
  3
Model
350
22
  0
DICTIONARY
  5
17
102
{ACAD_REACTORS
330
C
102
}
330
C
100
AcDbDictionary
281
     1
  3
Standard
350
18
  0
DICTIONARY
  5
19
102
{ACAD_REACTORS
330
C
102
}
330
C
100
AcDbDictionary
281
     1
  0
ACDBDICTIONARYWDFLT
  5
E
102
{ACAD_REACTORS
330
C
102
}
330
C
100
AcDbDictionary
281
     1
  3
Normal
350
F
100
AcDbDictionaryWithDefault
340
F
  0
DICTIONARY
  5
47
102
{ACAD_REACTORS
330
C
102
}
330
C
100
AcDbDictionary
281
     1
  3
A0
350
48
  3
A1
350
49
  3
A2
350
4A
  3
A3
350
4B
  3
A4
350
4C
  3
A5
350
4D
  3
A6
350
4E
  3
A7
350
4F
  3
A8
350
50
  3
A9
350
51
  3
B0
350
52
  3
B1
350
53
  3
B2
350
54
  3
B3
350
55
  3
B4
350
56
  3
B5
350
57
  3
B6
350
58
  3
B7
350
59
  3
B8
350
5A
  3
B9
350
5B
  3
C0
350
5C
  3
C1
350
5D
  3
C2
350
5E
  3
C3
350
5F
  3
C4
350
60
  3
C5
350
61
  3
C6
350
62
  3
C7
350
63
  3
C8
350
64
  3
C9
350
65
  3
D0
350
66
  3
D1
350
67
  3
D2
350
68
  0
LAYOUT
  5
1E
102
{ACAD_REACTORS
330
1A
102
}
330
1A
100
AcDbPlotSettings
  1

  2
none_device
  4

  6

 40
0.0
 41
0.0
 42
0.0
 43
0.0
 44
0.0
 45
0.0
 46
0.0
 47
0.0
 48
0.0
 49
0.0
140
0.0
141
0.0
142
1.0
143
1.0
 70
   688
 72
     1
 73
     0
 74
     5
  7

 75
    16
147
1.0
148
0.0
149
0.0
100
AcDbLayout
  1
Layout1
 70
     1
 71
     1
 10
0.0
 20
0.0
 11
420.0
 21
297.0
 12
0.0
 22
0.0
 32
0.0
 14
1.0000000000E+20
 24
1.0000000000E+20
 34
1.0000000000E+20
 15
-1.0000000000E+20
 25
-1.0000000000E+20
 35
-1.0000000000E+20
146
0.0
 13
0.0
 23
0.0
 33
0.0
 16
1.0
 26
0.0
 36
0.0
 17
0.0
 27
1.0
 37
0.0
 76
     0
330
1B
  0
LAYOUT
  5
26
102
{ACAD_REACTORS
330
1A
102
}
330
1A
100
AcDbPlotSettings
  1

  2
none_device
  4

  6

 40
0.0
 41
0.0
 42
0.0
 43
0.0
 44
0.0
 45
0.0
 46
0.0
 47
0.0
 48
0.0
 49
0.0
140
0.0
141
0.0
142
1.0
143
1.0
 70
   688
 72
     1
 73
     0
 74
     5
  7

 75
    16
147
1.0
148
0.0
149
0.0
100
AcDbLayout
  1
Layout2
 70
     1
 71
     2
 10
0.0
 20
0.0
 11
0.0
 21
0.0
 12
0.0
 22
0.0
 32
0.0
 14
0.0
 24
0.0
 34
0.0
 15
0.0
 25
0.0
 35
0.0
146
0.0
 13
0.0
 23
0.0
 33
0.0
 16
1.0
 26
0.0
 36
0.0
 17
0.0
 27
1.0
 37
0.0
 76
     0
330
23
  0
LAYOUT
  5
22
102
{ACAD_REACTORS
330
1A
102
}
330
1A
100
AcDbPlotSettings
  1

  2
none_device
  4
Letter_(8.50_x_11.00_Inches)
  6

 40
6.35
 41
6.35
 42
6.35000508
 43
6.35000508
 44
215.9
 45
279.4
 46
0.0
 47
0.0
 48
0.0
 49
0.0
140
0.0
141
0.0
142
1.0
143
1.0
 70
  1712
 72
     1
 73
     0
 74
     0
  7

 75
     0
147
1.0
148
0.0
149
0.0
100
AcDbLayout
  1
Model
 70
     1
 71
     0
 10
0.0
 20
0.0
 11
20000.0
 21
10000.0
 12
0.0
 22
0.0
 32
0.0
 14
0.0
 24
0.0
 34
0.0
 15
20000.0
 25
10000.0
 35
0.0
146
0.0
 13
0.0
 23
0.0
 33
0.0
 16
1.0
 26
0.0
 36
0.0
 17
0.0
 27
1.0
 37
0.0
 76
     0
330
1F
331
29
  0
MLINESTYLE
  5
18
102
{ACAD_REACTORS
330
17
102
}
330
17
100
AcDbMlineStyle
  2
Standard
 70
     0
  3

 62
   256
 51
90.0
 52
90.0
 71
     2
 49
0.5
 62
   256
  6
BYLAYER
 49
-0.5
 62
   256
  6
BYLAYER
  0
ACDBPLACEHOLDER
  5
F
102
{ACAD_REACTORS
330
E
102
}
330
E
  0
SCALE
  5
48
102
{ACAD_REACTORS
330
47
102
}
330
47
100
AcDbScale
 70
     0
300
1:1
140
1.0
141
1.0
290
     1
  0
SCALE
  5
49
102
{ACAD_REACTORS
330
47
102
}
330
47
100
AcDbScale
 70
     0
300
1:2
140
1.0
141
2.0
290
     0
  0
SCALE
  5
4A
102
{ACAD_REACTORS
330
47
102
}
330
47
100
AcDbScale
 70
     0
300
1:4
140
1.0
141
4.0
290
     0
  0
SCALE
  5
4B
102
{ACAD_REACTORS
330
47
102
}
330
47
100
AcDbScale
 70
     0
300
1:5
140
1.0
141
5.0
290
     0
  0
SCALE
  5
4C
102
{ACAD_REACTORS
330
47
102
}
330
47
100
AcDbScale
 70
     0
300
1:8
140
1.0
141
8.0
290
     0
  0
SCALE
  5
4D
102
{ACAD_REACTORS
330
47
102
}
330
47
100
AcDbScale
 70
     0
300
1:10
140
1.0
141
10.0
290
     0
  0
SCALE
  5
4E
102
{ACAD_REACTORS
330
47
102
}
330
47
100
AcDbScale
 70
     0
300
1:16
140
1.0
141
16.0
290
     0
  0
SCALE
  5
4F
102
{ACAD_REACTORS
330
47
102
}
330
47
100
AcDbScale
 70
     0
300
1:20
140
1.0
141
20.0
290
     0
  0
SCALE
  5
50
102
{ACAD_REACTORS
330
47
102
}
330
47
100
AcDbScale
 70
     0
300
1:30
140
1.0
141
30.0
290
     0
  0
SCALE
  5
51
102
{ACAD_REACTORS
330
47
102
}
330
47
100
AcDbScale
 70
     0
300
1:40
140
1.0
141
40.0
290
     0
  0
SCALE
  5
52
102
{ACAD_REACTORS
330
47
102
}
330
47
100
AcDbScale
 70
     0
300
1:50
140
1.0
141
50.0
290
     0
  0
SCALE
  5
53
102
{ACAD_REACTORS
330
47
102
}
330
47
100
AcDbScale
 70
     0
300
1:100
140
1.0
141
100.0
290
     0
  0
SCALE
  5
54
102
{ACAD_REACTORS
330
47
102
}
330
47
100
AcDbScale
 70
     0
300
2:1
140
2.0
141
1.0
290
     0
  0
SCALE
  5
55
102
{ACAD_REACTORS
330
47
102
}
330
47
100
AcDbScale
 70
     0
300
4:1
140
4.0
141
1.0
290
     0
  0
SCALE
  5
56
102
{ACAD_REACTORS
330
47
102
}
330
47
100
AcDbScale
 70
     0
300
8:1
140
8.0
141
1.0
290
     0
  0
SCALE
  5
57
102
{ACAD_REACTORS
330
47
102
}
330
47
100
AcDbScale
 70
     0
300
10:1
140
10.0
141
1.0
290
     0
  0
SCALE
  5
58
102
{ACAD_REACTORS
330
47
102
}
330
47
100
AcDbScale
 70
     0
300
100:1
140
100.0
141
1.0
290
     0
  0
SCALE
  5
59
102
{ACAD_REACTORS
330
47
102
}
330
47
100
AcDbScale
 70
     0
300
1/128" = 1'-0"
140
0.0078125
141
12.0
290
     0
  0
SCALE
  5
5A
102
{ACAD_REACTORS
330
47
102
}
330
47
100
AcDbScale
 70
     0
300
1/64" = 1'-0"
140
0.015625
141
12.0
290
     0
  0
SCALE
  5
5B
102
{ACAD_REACTORS
330
47
102
}
330
47
100
AcDbScale
 70
     0
300
1/32" = 1'-0"
140
0.03125
141
12.0
290
     0
  0
SCALE
  5
5C
102
{ACAD_REACTORS
330
47
102
}
330
47
100
AcDbScale
 70
     0
300
1/16" = 1'-0"
140
0.0625
141
12.0
290
     0
  0
SCALE
  5
5D
102
{ACAD_REACTORS
330
47
102
}
330
47
100
AcDbScale
 70
     0
300
3/32" = 1'-0"
140
0.09375
141
12.0
290
     0
  0
SCALE
  5
5E
102
{ACAD_REACTORS
330
47
102
}
330
47
100
AcDbScale
 70
     0
300
1/8" = 1'-0"
140
0.125
141
12.0
290
     0
  0
SCALE
  5
5F
102
{ACAD_REACTORS
330
47
102
}
330
47
100
AcDbScale
 70
     0
300
3/16" = 1'-0"
140
0.1875
141
12.0
290
     0
  0
SCALE
  5
60
102
{ACAD_REACTORS
330
47
102
}
330
47
100
AcDbScale
 70
     0
300
1/4" = 1'-0"
140
0.25
141
12.0
290
     0
  0
SCALE
  5
61
102
{ACAD_REACTORS
330
47
102
}
330
47
100
AcDbScale
 70
     0
300
3/8" = 1'-0"
140
0.375
141
12.0
290
     0
  0
SCALE
  5
62
102
{ACAD_REACTORS
330
47
102
}
330
47
100
AcDbScale
 70
     0
300
1/2" = 1'-0"
140
0.5
141
12.0
290
     0
  0
SCALE
  5
63
102
{ACAD_REACTORS
330
47
102
}
330
47
100
AcDbScale
 70
     0
300
3/4" = 1'-0"
140
0.75
141
12.0
290
     0
  0
SCALE
  5
64
102
{ACAD_REACTORS
330
47
102
}
330
47
100
AcDbScale
 70
     0
300
1" = 1'-0"
140
1.0
141
12.0
290
     0
  0
SCALE
  5
65
102
{ACAD_REACTORS
330
47
102
}
330
47
100
AcDbScale
 70
     0
300
1-1/2" = 1'-0"
140
1.5
141
12.0
290
     0
  0
SCALE
  5
66
102
{ACAD_REACTORS
330
47
102
}
330
47
100
AcDbScale
 70
     0
300
3" = 1'-0"
140
3.0
141
12.0
290
     0
  0
SCALE
  5
67
102
{ACAD_REACTORS
330
47
102
}
330
47
100
AcDbScale
 70
     0
300
6" = 1'-0"
140
6.0
141
12.0
290
     0
  0
SCALE
  5
68
102
{ACAD_REACTORS
330
47
102
}
330
47
100
AcDbScale
 70
     0
300
1'-0" = 1'-0"
140
12.0
141
12.0
290
     0
  0
ENDSEC
  0
EOF
