  0
SECTION
  2
HEADER
  9
$ACADVER
  1
AC1015
  9
$ACADMAINTVER
 70
     6
  9
$DWGCODEPAGE
  3
ANSI_1250
  9
$INSBASE
 10
0.0
 20
0.0
 30
0.0
  9
$EXTMIN
 10
0.0
 20
0.0
 30
0.0
  9
$EXTMAX
 10
20000.0
 20
10000.0
 30
0.0
  9
$LIMMIN
 10
0.0
 20
0.0
  9
$LIMMAX
 10
20000.0
 20
10000.0
  9
$ORTHOMODE
 70
     0
  9
$REGENMODE
 70
     1
  9
$FILLMODE
 70
     1
  9
$QTEXTMODE
 70
     0
  9
$MIRRTEXT
 70
     1
  9
$LTSCALE
 40
1.0
  9
$ATTMODE
 70
     1
  9
$TEXTSIZE
 40
2.0
  9
$TRACEWID
 40
1.0
  9
$TEXTSTYLE
  7
Standard
  9
$CLAYER
  8
0
  9
$CELTYPE
  6
ByLayer
  9
$CECOLOR
 62
   256
  9
$CELTSCALE
 40
1.0
  9
$DISPSILH
 70
     0
  9
$DIMSCALE
 40
1.0
  9
$DIMASZ
 40
2.0
  9
$DIMEXO
 40
1.0
  9
$DIMDLI
 40
3.75
  9
$DIMRND
 40
0.0
  9
$DIMDLE
 40
0.0
  9
$DIMEXE
 40
1.0
  9
$DIMTP
 40
0.0
  9
$DIMTM
 40
0.0
  9
$DIMTXT
 40
2.0
  9
$DIMCEN
 40
2.5
  9
$DIMTSZ
 40
0.0
  9
$DIMTOL
 70
     0
  9
$DIMLIM
 70
     0
  9
$DIMTIH
 70
     1
  9
$DIMTOH
 70
     1
  9
$DIMSE1
 70
     0
  9
$DIMSE2
 70
     0
  9
$DIMTAD
 70
     1
  9
$DIMZIN
 70
     0
  9
$DIMBLK
  1

  9
$DIMASO
 70
     1
  9
$DIMSHO
 70
     1
  9
$DIMPOST
  1

  9
$DIMAPOST
  1

  9
$DIMALT
 70
     0
  9
$DIMALTD
 70
     3
  9
$DIMALTF
 40
0.0393700787
  9
$DIMLFAC
 40
1.0
  9
$DIMTOFL
 70
     1
  9
$DIMTVP
 40
0.0
  9
$DIMTIX
 70
     0
  9
$DIMSOXD
 70
     0
  9
$DIMSAH
 70
     0
  9
$DIMBLK1
  1

  9
$DIMBLK2
  1

  9
$DIMSTYLE
  2
ISO-25
  9
$DIMCLRD
 70
     0
  9
$DIMCLRE
 70
     0
  9
$DIMCLRT
 70
     0
  9
$DIMTFAC
 40
1.0
  9
$DIMGAP
 40
1.524
  9
$DIMJUST
 70
     0
  9
$DIMSD1
 70
     0
  9
$DIMSD2
 70
     0
  9
$DIMTOLJ
 70
     0
  9
$DIMTZIN
 70
     0
  9
$DIMALTZ
 70
     0
  9
$DIMALTTZ
 70
     0
  9
$DIMUPT
 70
     0
  9
$DIMDEC
 70
     2
  9
$DIMTDEC
 70
     0
  9
$DIMALTU
 70
     2
  9
$DIMALTTD
 70
     3
  9
$DIMTXSTY
  7
Standard
  9
$DIMAUNIT
 70
     0
  9
$DIMADEC
 70
     2
  9
$DIMALTRND
 40
0.0
  9
$DIMAZIN
 70
     0
  9
$DIMDSEP
 70
    44
  9
$DIMATFIT
 70
     3
  9
$DIMFRAC
 70
     0
  9
$DIMLDRBLK
  1

  9
$DIMLUNIT
 70
     2
  9
$DIMLWD
 70
    -2
  9
$DIMLWE
 70
    -2
  9
$DIMTMOVE
 70
     0
  9
$LUNITS
 70
     2
  9
$LUPREC
 70
     3
  9
$SKETCHINC
 40
1.0
  9
$FILLETRAD
 40
10.0
  9
$AUNITS
 70
     0
  9
$AUPREC
 70
     2
  9
$MENU
  1
.
  9
$ELEVATION
 40
0.0
  9
$PELEVATION
 40
0.0
  9
$THICKNESS
 40
0.0
  9
$LIMCHECK
 70
     0
  9
$CHAMFERA
 40
0.0
  9
$CHAMFERB
 40
0.0
  9
$CHAMFERC
 40
0.0
  9
$CHAMFERD
 40
0.0
  9
$SKPOLY
 70
     0
  9
$TDCREATE
 40
2458696.376355857
  9
$TDUCREATE
 40
2458696.293022523
  9
$TDUPDATE
 40
2458696.376358264
  9
$TDUUPDATE
 40
2458696.293024931
  9
$TDINDWG
 40
0.0000000116
  9
$TDUSRTIMER
 40
0.0000000116
  9
$USRTIMER
 70
     1
  9
$ANGBASE
 50
0.0
  9
$ANGDIR
 70
     0
  9
$PDMODE
 70
     0
  9
$PDSIZE
 40
-1.0
  9
$PLINEWID
 40
0.0
  9
$SPLFRAME
 70
     0
  9
$SPLINETYPE
 70
     6
  9
$SPLINESEGS
 70
     8
  9
$HANDSEED
  5
102
  9
$SURFTAB1
 70
     6
  9
$SURFTAB2
 70
     6
  9
$SURFTYPE
 70
     6
  9
$SURFU
 70
     6
  9
$SURFV
 70
     6
  9
$UCSBASE
  2

  9
$UCSNAME
  2

  9
$UCSORG
 10
0.0
 20
0.0
 30
0.0
  9
$UCSXDIR
 10
1.0
 20
0.0
 30
0.0
  9
$UCSYDIR
 10
0.0
 20
1.0
 30
0.0
  9
$UCSORTHOREF
  2

  9
$UCSORTHOVIEW
 70
     0
  9
$UCSORGTOP
 10
0.0
 20
0.0
 30
0.0
  9
$UCSORGBOTTOM
 10
0.0
 20
0.0
 30
0.0
  9
$UCSORGLEFT
 10
0.0
 20
0.0
 30
0.0
  9
$UCSORGRIGHT
 10
0.0
 20
0.0
 30
0.0
  9
$UCSORGFRONT
 10
0.0
 20
0.0
 30
0.0
  9
$UCSORGBACK
 10
0.0
 20
0.0
 30
0.0
  9
$PUCSBASE
  2

  9
$PUCSNAME
  2

  9
$PUCSORG
 10
0.0
 20
0.0
 30
0.0
  9
$PUCSXDIR
 10
1.0
 20
0.0
 30
0.0
  9
$PUCSYDIR
 10
0.0
 20
1.0
 30
0.0
  9
$PUCSORTHOREF
  2

  9
$PUCSORTHOVIEW
 70
     0
  9
$PUCSORGTOP
 10
0.0
 20
0.0
 30
0.0
  9
$PUCSORGBOTTOM
 10
0.0
 20
0.0
 30
0.0
  9
$PUCSORGLEFT
 10
0.0
 20
0.0
 30
0.0
  9
$PUCSORGRIGHT
 10
0.0
 20
0.0
 30
0.0
  9
$PUCSORGFRONT
 10
0.0
 20
0.0
 30
0.0
  9
$PUCSORGBACK
 10
0.0
 20
0.0
 30
0.0
  9
$USERI1
 70
     0
  9
$USERI2
 70
     0
  9
$USERI3
 70
     0
  9
$USERI4
 70
     0
  9
$USERI5
 70
     0
  9
$USERR1
 40
0.0
  9
$USERR2
 40
0.0
  9
$USERR3
 40
0.0
  9
$USERR4
 40
0.0
  9
$USERR5
 40
0.0
  9
$WORLDVIEW
 70
     1
  9
$SHADEDGE
 70
     3
  9
$SHADEDIF
 70
    70
  9
$TILEMODE
 70
     1
  9
$MAXACTVP
 70
    64
  9
$PINSBASE
 10
0.0
 20
0.0
 30
0.0
  9
$PLIMCHECK
 70
     0
  9
$PEXTMIN
 10
1.0000000000E+20
 20
1.0000000000E+20
 30
1.0000000000E+20
  9
$PEXTMAX
 10
-1.0000000000E+20
 20
-1.0000000000E+20
 30
-1.0000000000E+20
  9
$PLIMMIN
 10
0.0
 20
0.0
  9
$PLIMMAX
 10
420.0
 20
297.0
  9
$UNITMODE
 70
     0
  9
$VISRETAIN
 70
     1
  9
$PLINEGEN
 70
     0
  9
$PSLTSCALE
 70
     1
  9
$TREEDEPTH
 70
  3020
  9
$CMLSTYLE
  2
Standard
  9
$CMLJUST
 70
     0
  9
$CMLSCALE
 40
20.0
  9
$PROXYGRAPHICS
 70
     1
  9
$MEASUREMENT
 70
     1
  9
$CELWEIGHT
370
    -1
  9
$ENDCAPS
280
     0
  9
$JOINSTYLE
280
     0
  9
$LWDISPLAY
290
     1
  9
$INSUNITS
 70
     4
  9
$HYPERLINKBASE
  1

  9
$STYLESHEET
  1

  9
$XEDIT
290
     1
  9
$CEPSNTYPE
380
     0
  9
$PSTYLEMODE
290
     1
  9
$FINGERPRINTGUID
  2
{2AACEDC3-6367-4A53-B3F8-8C8A1675ADC8}
  9
$VERSIONGUID
  2
{FAEB1C32-E019-11D5-929B-00C0DF256EC4}
  9
$EXTNAMES
290
     1
  9
$PSVPSCALE
 40
0.0
  9
$OLESTARTUP
290
     0
  0
ENDSEC
  0
SECTION
  2
CLASSES
  0
CLASS
  1
ACDBDICTIONARYWDFLT
  2
AcDbDictionaryWithDefault
  3
ObjectDBX Classes
 90
        0
280
     0
281
     0
  0
CLASS
  1
VISUALSTYLE
  2
AcDbVisualStyle
  3
ObjectDBX Classes
 90
     4095
280
     0
281
     0
  0
CLASS
  1
MATERIAL
  2
AcDbMaterial
  3
ObjectDBX Classes
 90
     1153
280
     0
281
     0
  0
CLASS
  1
SCALE
  2
AcDbScale
  3
ObjectDBX Classes
 90
     1153
280
     0
281
     0
  0
CLASS
  1
TABLESTYLE
  2
AcDbTableStyle
  3
ObjectDBX Classes
 90
     4095
280
     0
281
     0
  0
CLASS
  1
MLEADERSTYLE
  2
AcDbMLeaderStyle
  3
ACDB_MLEADERSTYLE_CLASS
 90
     4095
280
     0
281
     0
  0
CLASS
  1
SUN
  2
AcDbSun
  3
SCENEOE
 90
     1153
280
     0
281
     0
  0
CLASS
  1
ACDBPLACEHOLDER
  2
AcDbPlaceHolder
  3
ObjectDBX Classes
 90
        0
280
     0
281
     0
  0
CLASS
  1
LAYOUT
  2
AcDbLayout
  3
ObjectDBX Classes
 90
        0
280
     0
281
     0
  0
ENDSEC
  0
SECTION
  2
TABLES
  0
TABLE
  2
VPORT
  5
8
330
0
100
AcDbSymbolTable
 70
     1
  0
VPORT
  5
29
330
8
100
AcDbSymbolTableRecord
100
AcDbViewportTableRecord
  2
*Active
 70
     0
 10
0.0
 20
0.0
 11
1.0
 21
1.0
 12
10000.0
 22
5000.0
 13
0.0
 23
0.0
 14
10.0
 24
10.0
 15
10.0
 25
10.0
 16
0.0
 26
0.0
 36
1.0
 17
0.0
 27
0.0
 37
0.0
 40
10000.0
 41
2.0
 42
50.0
 43
0.0
 44
0.0
 50
0.0
 51
0.0
 71
     0
 72
  2000
 73
     1
 74
     3
 75
     0
 76
     0
 77
     0
 78
     0
281
     0
 65
     1
110
0.0
120
0.0
130
0.0
111
1.0
121
0.0
131
0.0
112
0.0
122
1.0
132
0.0
 79
     0
146
0.0
  0
ENDTAB
  0
TABLE
  2
LTYPE
  5
5
330
0
100
AcDbSymbolTable
 70
     6
  0
LTYPE
  5
14
330
5
100
AcDbSymbolTableRecord
100
AcDbLinetypeTableRecord
  2
ByBlock
 70
     0
  3

 72
    65
 73
     0
 40
0.0
  0
LTYPE
  5
15
330
5
100
AcDbSymbolTableRecord
100
AcDbLinetypeTableRecord
  2
ByLayer
 70
     0
  3

 72
    65
 73
     0
 40
0.0
  0
LTYPE
  5
16
330
5
100
AcDbSymbolTableRecord
100
AcDbLinetypeTableRecord
  2
Continuous
 70
     0
  3
Solid line
 72
    65
 73
     0
 40
0.0
  0
LTYPE
  5
6E
330
5
100
AcDbSymbolTableRecord
100
AcDbLinetypeTableRecord
  2
HIDDEN
 70
     0
  3
Hidden __ __ __ __ __ __ __ __ __ __ __ __ __ __
 72
    65
 73
     2
 40
1.905
 49
1.27
 74
     0
 49
-0.635
 74
     0
  0
LTYPE
  5
6F
330
5
100
AcDbSymbolTableRecord
100
AcDbLinetypeTableRecord
  2
PHANTOM
 70
     0
  3
Phantom ______  __  __  ______  __  __  ______
 72
    65
 73
     6
 40
12.7
 49
6.35
 74
     0
 49
-1.27
 74
     0
 49
1.27
 74
     0
 49
-1.27
 74
     0
 49
1.27
 74
     0
 49
-1.27
 74
     0
  0
LTYPE
  5
70
330
5
100
AcDbSymbolTableRecord
100
AcDbLinetypeTableRecord
  2
CENTER
 70
     0
  3
Center ____ _ ____ _ ____ _ ____ _ ____ _ ____
 72
    65
 73
     4
 40
10.16
 49
6.35
 74
     0
 49
-1.27
 74
     0
 49
1.27
 74
     0
 49
-1.27
 74
     0
  0
LTYPE
  5
71
330
5
100
AcDbSymbolTableRecord
100
AcDbLinetypeTableRecord
  2
CENTERX2
 70
     0
  3
Center (2x) ________  __  ________  __  _____
 72
    65
 73
     4
 40
20.32
 49
12.7
 74
     0
 49
-2.54
 74
     0
 49
2.54
 74
     0
 49
-2.54
 74
     0
  0
LTYPE
  5
72
330
5
100
AcDbSymbolTableRecord
100
AcDbLinetypeTableRecord
  2
DOT2
 70
     0
  3
Dot (.5x) ........................................
 72
    65
 73
     2
 40
0.635
 49
0.0
 74
     0
 49
-0.635
 74
     0
  0
ENDTAB
  0
TABLE
  2
LAYER
  5
2
330
0
100
AcDbSymbolTable
 70
    13
  0
LAYER
  5
10
330
2
100
AcDbSymbolTableRecord
100
AcDbLayerTableRecord
  2
0
 70
     0
 62
     7
  6
Continuous
370
    -3
390
F
  0
LAYER
  5
73
330
2
100
AcDbSymbolTableRecord
100
AcDbLayerTableRecord
  2
FORMAT
 70
     0
 62
     7
  6
Continuous
370
    -3
390
F
  0
LAYER
  5
74
330
2
100
AcDbSymbolTableRecord
100
AcDbLayerTableRecord
  2
OSA
 70
     0
 62
     7
  6
CENTER
370
    -3
390
F
  0
LAYER
  5
75
330
2
100
AcDbSymbolTableRecord
100
AcDbLayerTableRecord
  2
0_35
 70
     0
 62
     7
  6
Continuous
370
    35
390
F
  0
LAYER
  5
76
330
2
100
AcDbSymbolTableRecord
100
AcDbLayerTableRecord
  2
0_5
 70
     0
 62
     7
  6
Continuous
370
    50
390
F
  0
LAYER
  5
77
330
2
100
AcDbSymbolTableRecord
100
AcDbLayerTableRecord
  2
0_25
 70
     0
 62
     7
  6
Continuous
370
    25
390
F
  0
LAYER
  5
78
330
2
100
AcDbSymbolTableRecord
100
AcDbLayerTableRecord
  2
0_18
 70
     0
 62
     7
  6
Continuous
370
    -3
390
F
  0
LAYER
  5
79
330
2
100
AcDbSymbolTableRecord
100
AcDbLayerTableRecord
  2
SLD-0
 70
     0
 62
   179
  6
Continuous
370
    -3
390
F
  0
LAYER
  5
7A
330
2
100
AcDbSymbolTableRecord
100
AcDbLayerTableRecord
  2
KOTY
 70
     0
 62
     7
  6
Continuous
370
    -3
390
F
  0
LAYER
  5
7B
330
2
100
AcDbSymbolTableRecord
100
AcDbLayerTableRecord
  2
SILNA
 70
     0
 62
   179
  6
Continuous
370
    -3
390
F
  0
LAYER
  5
7C
330
2
100
AcDbSymbolTableRecord
100
AcDbLayerTableRecord
  2
0_18_1
 70
     0
 62
   179
  6
Continuous
370
    -3
390
F
  0
LAYER
  5
7D
330
2
100
AcDbSymbolTableRecord
100
AcDbLayerTableRecord
  2
0_35_1
 70
     0
 62
   179
  6
Continuous
370
    35
390
F
  0
LAYER
  5
7E
330
2
100
AcDbSymbolTableRecord
100
AcDbLayerTableRecord
  2
0_5_1
 70
     0
 62
   179
  6
Continuous
370
    50
390
F
  0
ENDTAB
  0
TABLE
  2
STYLE
  5
3
330
0
100
AcDbSymbolTable
 70
     1
  0
STYLE
  5
11
330
3
100
AcDbSymbolTableRecord
100
AcDbTextStyleTableRecord
  2
Standard
 70
     0
 40
0.0
 41
1.0
 50
0.0
 71
     0
 42
2.0
  3
txt
  4

  0
ENDTAB
  0
TABLE
  2
VIEW
  5
6
330
0
100
AcDbSymbolTable
 70
     0
  0
ENDTAB
  0
TABLE
  2
UCS
  5
7
330
0
100
AcDbSymbolTable
 70
     0
  0
ENDTAB
  0
TABLE
  2
APPID
  5
9
330
0
100
AcDbSymbolTable
 70
     1
  0
APPID
  5
12
330
9
100
AcDbSymbolTableRecord
100
AcDbRegAppTableRecord
  2
ACAD
 70
     0
  0
ENDTAB
  0
TABLE
  2
DIMSTYLE
  5
A
330
0
100
AcDbSymbolTable
 70
     1
100
AcDbDimStyleTable
  0
DIMSTYLE
105
27
330
A
100
AcDbSymbolTableRecord
100
AcDbDimStyleTableRecord
  2
ISO-25
 70
     0
 41
2.5
 42
0.625
 43
3.75
 44
1.25
 73
     0
 74
     0
 77
     1
 78
     8
140
2.5
141
2.5
143
0.0393700787
147
0.625
171
     3
172
     1
178
     0
271
     2
272
     2
274
     3
278
    44
283
     0
284
     8
340
11
  0
ENDTAB
  0
TABLE
  2
BLOCK_RECORD
  5
1
330
0
100
AcDbSymbolTable
 70
     1
  0
BLOCK_RECORD
  5
1F
330
1
100
AcDbSymbolTableRecord
100
AcDbBlockTableRecord
  2
*Model_Space
340
22
  0
BLOCK_RECORD
  5
1B
330
1
100
AcDbSymbolTableRecord
100
AcDbBlockTableRecord
  2
*Paper_Space
340
1E
  0
BLOCK_RECORD
  5
23
330
1
100
AcDbSymbolTableRecord
100
AcDbBlockTableRecord
  2
*Paper_Space0
340
26
  0
ENDTAB
  0
ENDSEC
  0
SECTION
  2
BLOCKS
  0
BLOCK
  5
20
330
1F
100
AcDbEntity
  8
0
100
AcDbBlockBegin
  2
*Model_Space
 70
     0
 10
0.0
 20
0.0
 30
0.0
  3
*Model_Space
  1

  0
ENDBLK
  5
21
330
1F
100
AcDbEntity
  8
0
100
AcDbBlockEnd
  0
BLOCK
  5
1C
330
1B
100
AcDbEntity
 67
     1
  8
0
100
AcDbBlockBegin
  2
*Paper_Space
 70
     0
 10
0.0
 20
0.0
 30
0.0
  3
*Paper_Space
  1

  0
ENDBLK
  5
1D
330
1B
100
AcDbEntity
 67
     1
  8
0
100
AcDbBlockEnd
  0
BLOCK
  5
24
330
23
100
AcDbEntity
  8
0
100
AcDbBlockBegin
  2
*Paper_Space0
 70
     0
 10
0.0
 20
0.0
 30
0.0
  3
*Paper_Space0
  1

  0
ENDBLK
  5
25
330
23
100
AcDbEntity
  8
0
100
AcDbBlockEnd
  0
ENDSEC
  0
SECTION
  2
ENTITIES
  0
SPLINE
  5
7F
330
1F
100
AcDbEntity
  8
0
  6
Continuous
 62
     7
370
    25
100
AcDbSpline
210
0.0
220
0.0
230
1.0
 70
     8
 71
     3
 72
    74
 73
    70
 74
     0
 42
0.000000001
 43
0.00000001
 40
0.0
 40
0.0
 40
0.0
 40
0.0
 40
0.0094468904299339
 40
0.0410049504024321
 40
0.0726468755716576
 40
0.1095195740207082
 40
0.1454315633003424
 40
0.1799527021238645
 40
0.2127479857427339
 40
0.2441720904574998
 40
0.273342774291895
 40
0.3000803250964878
 40
0.3242350102703219
 40
0.3457437743394592
 40
0.364614354763366
 40
0.3809078941013266
 40
0.3946520784088535
 40
0.4060696208865177
 40
0.4152996416037988
 40
0.4224939113423922
 40
0.4278253501626592
 40
0.4315329592083843
 40
0.4329204873178454
 40
0.4341278883153087
 40
0.437146713055774
 40
0.4422961121730735
 40
0.4496413579014906
 40
0.4590708812371125
 40
0.4692168198859966
 40
0.4797091060319654
 40
0.4905508286673893
 40
0.5017435681686604
 40
0.5132876146303349
 40
0.5250822564414301
 40
0.5358957461656055
 40
0.5456996062606176
 40
0.5549033997706625
 40
0.5638570418289515
 40
0.5728040047300451
 40
0.5818699857064553
 40
0.5910816620550868
 40
0.6015190972876214
 40
0.6119859660118931
 40
0.6211587184191152
 40
0.6250127081514795
 40
0.6265122072389788
 40
0.6280612763599432
 40
0.6285003106290371
 40
0.6288846997020177
 40
0.630026650503437
 40
0.6312143985909268
 40
0.6331798262334842
 40
0.6369617555659715
 40
0.6446556641630575
 40
0.652555927640475
 40
0.6614183355610813
 40
0.6772029708009502
 40
0.6953119938835443
 40
0.7157349287711753
 40
0.7384758618813801
 40
0.7635622364348182
 40
0.7910301846950518
 40
0.8165045770846385
 40
0.8437994274063071
 40
0.8729600980187006
 40
0.9040419868522146
 40
0.9371122223741978
 40
0.9722515296614678
 40
0.9999999999999999
 40
0.9999999999999999
 40
0.9999999999999999
 40
0.9999999999999999
 10
6083.064825317627
 20
5325.866510728768
 30
0.0
 10
6083.077044186676
 20
5325.820385742767
 30
0.0
 10
6083.130081122274
 20
5325.620176713421
 30
0.0
 10
6083.224913516614
 20
5325.259625178443
 30
0.0
 10
6083.358719023024
 20
5324.749654130479
 30
0.0
 10
6083.504084072976
 20
5324.193431629407
 30
0.0
 10
6083.66233559534
 20
5323.586100377827
 30
0.0
 10
6083.82564498542
 20
5322.957770331034
 30
0.0
 10
6083.995070198179
 20
5322.304587156947
 30
0.0
 10
6084.170821222974
 20
5321.625880778317
 30
0.0
 10
6084.353004674249
 20
5320.921382786308
 30
0.0
 10
6084.540330275393
 20
5320.196230408244
 30
0.0
 10
6084.733047773888
 20
5319.449599945245
 30
0.0
 10
6084.931126122776
 20
5318.681747608019
 30
0.0
 10
6085.134528064552
 20
5317.892952430288
 30
0.0
 10
6085.342878794657
 20
5317.084799161642
 30
0.0
 10
6085.555954175029
 20
5316.258288567771
 30
0.0
 10
6085.773420851828
 20
5315.41484348268
 30
0.0
 10
6085.995246205248
 20
5314.554719705465
 30
0.0
 10
6086.221407459242
 20
5313.678135961658
 30
0.0
 10
6086.45043612642
 20
5312.790914549983
 30
0.0
 10
6086.665479202249
 20
5311.958415227567
 30
0.0
 10
6086.851378055484
 20
5311.239274328707
 30
0.0
 10
6087.050562195512
 20
5310.469153995902
 30
0.0
 10
6087.387380969397
 20
5309.167760555183
 30
0.0
 10
6087.928511461808
 20
5307.076638018876
 30
0.0
 10
6088.690247121562
 20
5304.133000552371
 30
0.0
 10
6089.618180860901
 20
5300.546650995006
 30
0.0
 10
6090.645601120769
 20
5296.575466801426
 30
0.0
 10
6091.7108093338
 20
5292.457959903522
 30
0.0
 10
6092.801635143285
 20
5288.241235807363
 30
0.0
 10
6093.916735336242
 20
5283.930662284874
 30
0.0
 10
6095.057968202922
 20
5279.51879812227
 30
0.0
 10
6096.162662915244
 20
5275.249323888397
 30
0.0
 10
6097.280955611089
 20
5270.922279175426
 30
0.0
 10
6098.351731907397
 20
5266.771651665297
 30
0.0
 10
6099.353112432996
 20
5262.88130243911
 30
0.0
 10
6100.280407733431
 20
5259.268875302281
 30
0.0
 10
6101.132904812549
 20
5255.937071813139
 30
0.0
 10
6101.912589649492
 20
5252.878403606454
 30
0.0
 10
6102.651859038058
 20
5249.965933242352
 30
0.0
 10
6103.338186009432
 20
5247.247920794032
 30
0.0
 10
6103.954008827711
 20
5244.79574038434
 30
0.0
 10
6104.347479784865
 20
5243.216370881472
 30
0.0
 10
6104.624867175056
 20
5242.109384620698
 30
0.0
 10
6104.780127832029
 20
5241.494250664624
 30
0.0
 10
6104.844497200435
 20
5241.242219778949
 30
0.0
 10
6104.913716966165
 20
5240.97427920186
 30
0.0
 10
6104.982136506078
 20
5240.709779140141
 30
0.0
 10
6105.081198530674
 20
5240.327676373708
 30
0.0
 10
6105.235151561165
 20
5239.732969221316
 30
0.0
 10
6105.483052914855
 20
5238.774702355377
 30
0.0
 10
6105.966393489842
 20
5236.907315667755
 30
0.0
 10
6106.655850458291
 20
5234.240936219423
 30
0.0
 10
6107.519539214042
 20
5230.898729186269
 30
0.0
 10
6108.663757085847
 20
5226.467896783182
 30
0.0
 10
6110.159111395091
 20
5220.673120649119
 30
0.0
 10
6112.053624405744
 20
5213.325912742346
 30
0.0
 10
6114.186587404742
 20
5205.048635824126
 30
0.0
 10
6116.558573286017
 20
5195.838582259457
 30
0.0
 10
6119.168361917153
 20
5185.700243783578
 30
0.0
 10
6121.863455562663
 20
5175.226113067341
 30
0.0
 10
6124.623291941418
 20
5164.496816942798
 30
0.0
 10
6127.428120598829
 20
5153.589726379122
 30
0.0
 10
6130.407850632123
 20
5141.999936013577
 30
0.0
 10
6133.562968361934
 20
5129.725768215302
 30
0.0
 10
6136.892065423461
 20
5116.772970623289
 30
0.0
 10
6140.083724247966
 20
5104.353741774921
 30
0.0
 10
6142.145324777077
 20
5096.331216194199
 30
0.0
 10
6143.054981045619
 20
5092.79137393039
 30
0.0
  0
SPLINE
  5
80
330
1F
100
AcDbEntity
  8
0
  6
Continuous
 62
     7
370
    25
100
AcDbSpline
210
0.0
220
0.0
230
1.0
 70
     8
 71
     3
 72
    46
 73
    42
 74
     0
 42
0.000000001
 43
0.00000001
 40
0.0
 40
0.0
 40
0.0
 40
0.0
 40
0.0510631614297919
 40
0.1094129793399916
 40
0.1641908387452736
 40
0.2153967396456375
 40
0.2630306820410837
 40
0.3070926659316115
 40
0.3475826913172216
 40
0.3837974020536483
 40
0.4165816038419516
 40
0.4459352966821319
 40
0.4718584805741888
 40
0.489820089446688
 40
0.5056638841216213
 40
0.5193898645989888
 40
0.531026456415296
 40
0.5432027628277418
 40
0.5552195640306299
 40
0.5673426486251587
 40
0.579849451828237
 40
0.5930319967002662
 40
0.6072094584796756
 40
0.6227507836969605
 40
0.6401059080018688
 40
0.6545835853621021
 40
0.6706792832815807
 40
0.6887458256392819
 40
0.7009865677608081
 40
0.7153406457674812
 40
0.7322428501475885
 40
0.7521437167339659
 40
0.7717326926167444
 40
0.7938655138097599
 40
0.8182963176183926
 40
0.8446837144240766
 40
0.8725927720050383
 40
0.901514312808741
 40
0.9363216838456349
 40
0.9712366712082737
 40
1.0
 40
1.0
 40
1.0
 40
1.0
 10
6404.986246759514
 20
5092.789420584478
 30
0.0
 10
6406.464127993552
 20
5098.531352592136
 30
0.0
 10
6409.630782473988
 20
5110.834583934153
 30
0.0
 10
6414.382829794094
 20
5129.297456308993
 30
0.0
 10
6419.139008307821
 20
5147.776379386916
 30
0.0
 10
6423.585045610601
 20
5165.050327596075
 30
0.0
 10
6427.720941650477
 20
5181.119300734614
 30
0.0
 10
6431.546696600617
 20
5195.983299475321
 30
0.0
 10
6435.041953203053
 20
5209.563230865109
 30
0.0
 10
6438.210807161376
 20
5221.87500771958
 30
0.0
 10
6441.05734645214
 20
5232.934512832881
 30
0.0
 10
6443.606040336371
 20
5242.836815301112
 30
0.0
 10
6445.725693143446
 20
5251.07218768272
 30
0.0
 10
6447.454449684119
 20
5257.788831947254
 30
0.0
 10
6448.829886631762
 20
5263.132742711179
 30
0.0
 10
6450.023175195317
 20
5267.768962211801
 30
0.0
 10
6451.10748790081
 20
5271.981783708185
 30
0.0
 10
6452.153784577476
 20
5276.046903578335
 30
0.0
 10
6453.206192840433
 20
5280.135768486637
 30
0.0
 10
6454.23546827271
 20
5284.134756574058
 30
0.0
 10
6455.241088990557
 20
5288.041840611528
 30
0.0
 10
6456.222854884961
 20
5291.856241455505
 30
0.0
 10
6457.180970364703
 20
5295.578760184256
 30
0.0
 10
6458.115742736897
 20
5299.210561395633
 30
0.0
 10
6458.93610355505
 20
5302.397941903845
 30
0.0
 10
6459.663537192386
 20
5305.223944112198
 30
0.0
 10
6460.312179367101
 20
5307.745140668782
 30
0.0
 10
6460.860458171286
 20
5309.871309260505
 30
0.0
 10
6461.305639680976
 20
5311.617905190702
 30
0.0
 10
6461.665655512454
 20
5313.028657932306
 30
0.0
 10
6462.022258296065
 20
5314.426163854833
 30
0.0
 10
6462.352049879295
 20
5315.716958323936
 30
0.0
 10
6462.659917014686
 20
5316.920382251756
 30
0.0
 10
6462.949778622474
 20
5318.051598497938
 30
0.0
 10
6463.237555865834
 20
5319.172543552167
 30
0.0
 10
6463.522932081692
 20
5320.281617590644
 30
0.0
 10
6463.805997394756
 20
5321.378775204073
 30
0.0
 10
6464.104846541299
 20
5322.53356958164
 30
0.0
 10
6464.417389488909
 20
5323.736157492626
 30
0.0
 10
6464.724543458779
 20
5324.912899797739
 30
0.0
 10
6464.928251065175
 20
5325.686324618256
 30
0.0
 10
6465.02026525798
 20
5326.035678586007
 30
0.0
  0
ARC
  5
81
330
1F
100
AcDbEntity
  8
0
  6
Continuous
 62
     7
370
    25
100
AcDbCircle
 10
6147.8962474969
 20
5094.0357208364
 30
0.0
 40
4.999999999999741
100
AcDbArc
 50
194.461835932
 51
268.4014101835
  0
SPLINE
  5
82
330
1F
100
AcDbEntity
  8
0
  6
Continuous
 62
     7
370
    25
100
AcDbSpline
210
0.0
220
0.0
230
1.0
 70
     8
 71
     3
 72
    11
 73
     7
 74
     0
 42
0.000000001
 43
0.00000001
 40
0.0
 40
0.0
 40
0.0
 40
0.0
 40
0.2499999999999986
 40
0.4999999999999983
 40
0.7500000000000019
 40
1.0
 40
1.0
 40
1.0
 40
1.0
 10
6400.144063813561
 20
5089.035720836389
 30
0.0
 10
6400.694087672425
 20
5089.088369249294
 30
0.0
 10
6401.794135390153
 20
5089.193666075103
 30
0.0
 10
6403.257122733994
 20
5090.019949244123
 30
0.0
 10
6404.421989886941
 20
5091.230800333081
 30
0.0
 10
6404.798161135323
 20
5092.269880500679
 30
0.0
 10
6404.986246759514
 20
5092.789420584478
 30
0.0
  0
LINE
  5
83
330
1F
100
AcDbEntity
  8
0
  6
Continuous
 62
     7
370
    25
100
AcDbLine
 10
6074.0201046303
 20
5339.0357208364
 30
0.0
 11
6074.0201046303
 21
5338.0357208364
 31
0.0
  0
LINE
  5
84
330
1F
100
AcDbEntity
  8
0
  6
Continuous
 62
     7
370
    25
100
AcDbLine
 10
6474.0201046303
 20
5339.0357208364
 30
0.0
 11
6474.0201046303
 21
5338.0357208364
 31
0.0
  0
LINE
  5
85
330
1F
100
AcDbEntity
  8
0
  6
Continuous
 62
     7
370
    25
100
AcDbLine
 10
6074.0201046303
 20
5339.0357208364
 30
0.0
 11
6474.0201046303
 21
5339.0357208364
 31
0.0
  0
LINE
  5
86
330
1F
100
AcDbEntity
  8
0
  6
Continuous
 62
     7
370
    25
100
AcDbLine
 10
6074.0201046303
 20
5338.0357208364
 30
0.0
 11
6474.0201046303
 21
5338.0357208364
 31
0.0
  0
LINE
  5
87
330
1F
100
AcDbEntity
  8
0
  6
Continuous
 62
     7
370
    25
100
AcDbLine
 10
6465.0201046303
 20
5336.0357208364
 30
0.0
 11
6083.0201046303
 21
5336.0357208364
 31
0.0
  0
ARC
  5
88
330
1F
100
AcDbEntity
  8
0
  6
Continuous
 62
     7
370
    25
100
AcDbCircle
 10
6081.0201046303
 20
5336.0357208364
 30
0.0
 40
2.0
100
AcDbArc
 50
0.0
 51
90.0
  0
ARC
  5
89
330
1F
100
AcDbEntity
  8
0
  6
Continuous
 62
     7
370
    25
100
AcDbCircle
 10
6467.0201046303
 20
5336.0357208364
 30
0.0
 40
2.000000000000909
100
AcDbArc
 50
90.0
 51
180.0
  0
SPLINE
  5
8A
330
1F
100
AcDbEntity
  8
0
  6
Continuous
 62
     7
370
    25
100
AcDbSpline
210
0.0
220
0.0
230
1.0
 70
     8
 71
     3
 72
   106
 73
   102
 74
     0
 42
0.000000001
 43
0.00000001
 40
0.0
 40
0.0
 40
0.0
 40
0.0
 40
0.0312500000000005
 40
0.0312500000000005
 40
0.0468750000000008
 40
0.0468750000000008
 40
0.0546875000000009
 40
0.0546875000000009
 40
0.062500000000001
 40
0.062500000000001
 40
0.0937500000000014
 40
0.0937500000000014
 40
0.1250000000000019
 40
0.1250000000000019
 40
0.1562500000000022
 40
0.1562500000000022
 40
0.1640625000000023
 40
0.1640625000000023
 40
0.1718750000000023
 40
0.1718750000000023
 40
0.1875000000000024
 40
0.1875000000000024
 40
0.2187500000000026
 40
0.2187500000000026
 40
0.2343750000000026
 40
0.2343750000000026
 40
0.2500000000000026
 40
0.2500000000000026
 40
0.2578125000000026
 40
0.2578125000000026
 40
0.2656250000000026
 40
0.2656250000000026
 40
0.2812500000000027
 40
0.2812500000000027
 40
0.3125000000000028
 40
0.3125000000000028
 40
0.3437500000000028
 40
0.3437500000000028
 40
0.3593750000000029
 40
0.3593750000000029
 40
0.3671875000000029
 40
0.3671875000000029
 40
0.3750000000000029
 40
0.3750000000000029
 40
0.4062500000000027
 40
0.4062500000000027
 40
0.4375000000000025
 40
0.4375000000000025
 40
0.4687500000000023
 40
0.4687500000000023
 40
0.4765625000000022
 40
0.4765625000000022
 40
0.4843750000000022
 40
0.4843750000000022
 40
0.5000000000000021
 40
0.5000000000000021
 40
0.5312500000000019
 40
0.5312500000000019
 40
0.5625000000000018
 40
0.5625000000000018
 40
0.5781250000000017
 40
0.5781250000000017
 40
0.5937500000000016
 40
0.5937500000000016
 40
0.6250000000000013
 40
0.6250000000000013
 40
0.656250000000001
 40
0.656250000000001
 40
0.6875000000000008
 40
0.6875000000000008
 40
0.6953125000000008
 40
0.6953125000000008
 40
0.7031250000000008
 40
0.7031250000000008
 40
0.7187500000000008
 40
0.7187500000000008
 40
0.7500000000000007
 40
0.7500000000000007
 40
0.7812500000000004
 40
0.7812500000000004
 40
0.7968750000000004
 40
0.7968750000000004
 40
0.8046875000000004
 40
0.8046875000000004
 40
0.8125000000000004
 40
0.8125000000000004
 40
0.8437500000000003
 40
0.8437500000000003
 40
0.8750000000000003
 40
0.8750000000000003
 40
0.9062500000000002
 40
0.9062500000000002
 40
0.9140625000000003
 40
0.9140625000000003
 40
0.9218750000000003
 40
0.9218750000000003
 40
0.9375000000000002
 40
0.9375000000000002
 40
0.9687500000000001
 40
0.9687500000000001
 40
1.0
 40
1.0
 40
1.0
 40
1.0
 10
6465.020104630259
 20
5326.035720836389
 30
0.0
 10
6465.020104630259
 20
5326.03572083685
 30
0.0
 10
6464.7090690973
 20
5326.035561884598
 30
0.0
 10
6463.780458641465
 20
5326.035637288035
 30
0.0
 10
6463.393770751
 20
5326.035669302995
 30
0.0
 10
6462.69730020104
 20
5326.035674822506
 30
0.0
 10
6462.445435246928
 20
5326.03567014405
 30
0.0
 10
6461.904452229966
 20
5326.035652204589
 30
0.0
 10
6461.615352662466
 20
5326.035638869956
 30
0.0
 10
6460.077816054585
 20
5326.035595649
 30
0.0
 10
6458.553944450691
 20
5326.035773338668
 30
0.0
 10
6454.932883225869
 20
5326.035920810529
 30
0.0
 10
6452.835665005559
 20
5326.035771449078
 30
0.0
 10
6448.065513148182
 20
5326.035511951978
 30
0.0
 10
6445.392631662513
 20
5326.035676214746
 30
0.0
 10
6441.679652334685
 20
5326.035751671708
 30
0.0
 10
6440.918906792698
 20
5326.035763468807
 30
0.0
 10
6439.36510779087
 20
5326.035780809011
 30
0.0
 10
6438.571494592719
 20
5326.035784664705
 30
0.0
 10
6436.140550025063
 20
5326.035773534665
 30
0.0
 10
6434.451546023146
 20
5326.035729443473
 30
0.0
 10
6429.195252606967
 20
5326.035632046184
 30
0.0
 10
6425.445626415064
 20
5326.03572813927
 30
0.0
 10
6419.45555370373
 20
5326.035731159999
 30
0.0
 10
6417.397812585255
 20
5326.035745068234
 30
0.0
 10
6413.159304146058
 20
5326.035735834734
 30
0.0
 10
6410.981460954006
 20
5326.035705003144
 30
0.0
 10
6407.634656472728
 20
5326.035686411486
 30
0.0
 10
6406.505327129365
 20
5326.035690705235
 30
0.0
 10
6404.219186488483
 20
5326.035710448807
 30
0.0
 10
6403.061348891227
 20
5326.035723538685
 30
0.0
 10
6399.555955387654
 20
5326.035750681485
 30
0.0
 10
6397.176341443712
 20
5326.035746285496
 30
0.0
 10
6389.911998640439
 20
5326.035720164405
 30
0.0
 10
6384.902065528464
 20
5326.035642949119
 30
0.0
 10
6374.554157267185
 20
5326.035687944257
 30
0.0
 10
6369.216176015671
 20
5326.035842835593
 30
0.0
 10
6360.960570894303
 20
5326.035764956541
 30
0.0
 10
6358.167190557148
 20
5326.035707907201
 30
0.0
 10
6353.913839486313
 20
5326.035615157294
 30
0.0
 10
6352.485504079186
 20
5326.035584601435
 30
0.0
 10
6349.60749909943
 20
5326.035550129553
 30
0.0
 10
6348.156879532267
 20
5326.035548932648
 30
0.0
 10
6340.890213810351
 20
5326.035674920263
 30
0.0
 10
6335.003623257433
 20
5326.035965407011
 30
0.0
 10
6323.088418708468
 20
5326.035813998335
 30
0.0
 10
6317.059793231644
 20
5326.03545054086
 30
0.0
 10
6304.860803923229
 20
5326.035673114654
 30
0.0
 10
6298.690448475669
 20
5326.035909921571
 30
0.0
 10
6290.886533825867
 20
5326.03580409408
 30
0.0
 10
6289.321191767902
 20
5326.035770345726
 30
0.0
 10
6286.181285592157
 20
5326.035694015585
 30
0.0
 10
6284.60908976613
 20
5326.035651529859
 30
0.0
 10
6279.903778050761
 20
5326.035554261087
 30
0.0
 10
6276.774821399708
 20
5326.035572536982
 30
0.0
 10
6267.411272118427
 20
5326.035801059422
 30
0.0
 10
6261.19994524676
 20
5326.035929619642
 30
0.0
 10
6248.838455167824
 20
5326.035659118077
 30
0.0
 10
6242.688292108437
 20
5326.035503374363
 30
0.0
 10
6233.509560014417
 20
5326.035752415485
 30
0.0
 10
6230.457748433941
 20
5326.035835252052
 30
0.0
 10
6224.369936863455
 20
5326.035876592494
 30
0.0
 10
6221.32831808082
 20
5326.035834969907
 30
0.0
 10
6212.324201692169
 20
5326.035618493488
 30
0.0
 10
6206.453849282948
 20
5326.035571492816
 30
0.0
 10
6194.970695608177
 20
5326.035875215033
 30
0.0
 10
6189.357910852601
 20
5326.035870061655
 30
0.0
 10
6178.390228214907
 20
5326.035566298036
 30
0.0
 10
6173.035310780813
 20
5326.035588358768
 30
0.0
 10
6166.507745496786
 20
5326.035776097232
 30
0.0
 10
6165.20880004029
 20
5326.035808721671
 30
0.0
 10
6162.637355161405
 20
5326.035850809903
 30
0.0
 10
6161.365429604926
 20
5326.035860327038
 30
0.0
 10
6157.59058507852
 20
5326.035851273611
 30
0.0
 10
6155.128572518576
 20
5326.035791316952
 30
0.0
 10
6147.903484383532
 20
5326.035585057628
 30
0.0
 10
6143.300980335063
 20
5326.035628815652
 30
0.0
 10
6134.51952347508
 20
5326.035857084549
 30
0.0
 10
6130.340564829889
 20
5326.035820425252
 30
0.0
 10
6124.395298532004
 20
5326.03566749985
 30
0.0
 10
6122.467500591264
 20
5326.03561545589
 30
0.0
 10
6119.658343588772
 20
5326.035624235351
 30
0.0
 10
6118.734859917919
 20
5326.035640958429
 30
0.0
 10
6116.925289531778
 20
5326.035678328476
 30
0.0
 10
6116.038127270419
 20
5326.035699036771
 30
0.0
 10
6111.689493307766
 20
5326.035781896204
 30
0.0
 10
6108.488909342514
 20
5326.035741357852
 30
0.0
 10
6102.631040611967
 20
5326.035680498288
 30
0.0
 10
6099.97378170286
 20
5326.035715607534
 30
0.0
 10
6095.205076797934
 20
5326.035685480908
 30
0.0
 10
6093.09358018497
 20
5326.035671303071
 30
0.0
 10
6090.806925963258
 20
5326.035931107685
 30
0.0
 10
6090.367655991784
 20
5326.035993711722
 30
0.0
 10
6089.528929777188
 20
5326.036119140786
 30
0.0
 10
6089.128904557477
 20
5326.036182327118
 30
0.0
 10
6087.986355620765
 20
5326.03630433822
 30
0.0
 10
6087.301323410325
 20
5326.036230454314
 30
0.0
 10
6085.473639837597
 20
5326.035377684671
 30
0.0
 10
6084.557862292924
 20
5326.034286090099
 30
0.0
 10
6083.331114794967
 20
5326.034176261461
 30
0.0
 10
6083.020104630259
 20
5326.035720837344
 30
0.0
 10
6083.020104630259
 20
5326.035720836389
 30
0.0
  0
LINE
  5
8B
330
1F
100
AcDbEntity
  8
0
  6
Continuous
 62
     7
370
    25
100
AcDbLine
 10
6083.0201046303
 20
5326.0357208364
 30
0.0
 11
6083.0201046303
 21
5336.0357208364
 31
0.0
  0
LINE
  5
8C
330
1F
100
AcDbEntity
  8
0
  6
Continuous
 62
     7
370
    25
100
AcDbLine
 10
6465.0201046303
 20
5326.0357208364
 30
0.0
 11
6465.0201046303
 21
5336.0357208364
 31
0.0
  0
LWPOLYLINE
  5
8D
330
1F
100
AcDbEntity
  8
0
  6
Continuous
 62
     7
370
    25
100
AcDbPolyline
 90
        2
 70
   128
 43
0.0
 10
6404.9862467595
 20
5092.7894205845
 10
6404.9862467595
 20
5092.7894205845
  0
SPLINE
  5
8E
330
1F
100
AcDbEntity
  8
0
  6
Continuous
 62
     7
370
    25
100
AcDbSpline
210
0.0
220
0.0
230
1.0
 70
     8
 71
     3
 72
    11
 73
     7
 74
     0
 42
0.000000001
 43
0.00000001
 40
0.0
 40
0.0
 40
0.0
 40
0.0
 40
0.0003291410966827
 40
0.0003291410966827
 40
0.0003291410966827
 40
0.0003292010966827
 40
0.0003292010966827
 40
0.0003292010966827
 40
0.0003292010966827
 10
6404.985572607845
 20
5092.795669105765
 30
0.0
 10
6404.986574554124
 20
5092.792866479479
 30
0.0
 10
6404.986608822995
 20
5092.790828114696
 30
0.0
 10
6404.986246957455
 20
5092.789421353753
 30
0.0
 10
6404.98624689149
 20
5092.78942109731
 30
0.0
 10
6404.986246825513
 20
5092.789420840898
 30
0.0
 10
6404.986246759514
 20
5092.789420584478
 30
0.0
  0
SPLINE
  5
8F
330
1F
100
AcDbEntity
  8
0
  6
Continuous
 62
     7
370
    25
100
AcDbSpline
210
0.0
220
0.0
230
1.0
 70
     8
 71
     3
 72
    24
 73
    20
 74
     0
 42
0.000000001
 43
0.00000001
 40
0.0
 40
0.0
 40
0.0
 40
0.0
 40
0.0625000000000035
 40
0.0625000000000035
 40
0.125000000000007
 40
0.125000000000007
 40
0.2500000000000079
 40
0.2500000000000079
 40
0.500000000000004
 40
0.500000000000004
 40
0.625000000000002
 40
0.625000000000002
 40
0.7500000000000001
 40
0.7500000000000001
 40
0.8749999999999981
 40
0.8749999999999981
 40
0.9374999999999991
 40
0.9374999999999991
 40
1.0
 40
1.0
 40
1.0
 40
1.0
 10
6402.100265944632
 20
5091.969179131982
 30
0.0
 10
6402.229715286307
 20
5091.99520094418
 30
0.0
 10
6402.354898160643
 20
5092.027682442208
 30
0.0
 10
6402.591318777443
 20
5092.087008609045
 30
0.0
 10
6402.705506162928
 20
5092.122171634333
 30
0.0
 10
6403.027546599555
 20
5092.219215943836
 30
0.0
 10
6403.221525559972
 20
5092.288989443253
 30
0.0
 10
6403.741962053851
 20
5092.478423962176
 30
0.0
 10
6404.011880468711
 20
5092.584138406352
 30
0.0
 10
6404.344529917999
 20
5092.697680583104
 30
0.0
 10
6404.443464622288
 20
5092.728589066158
 30
0.0
 10
6404.619260248748
 20
5092.776520906701
 30
0.0
 10
6404.696453426731
 20
5092.793534232166
 30
0.0
 10
6404.826979262822
 20
5092.813410731853
 30
0.0
 10
6404.880346244831
 20
5092.816227675189
 30
0.0
 10
6404.9372305529
 20
5092.812961723112
 30
0.0
 10
6404.953226896881
 20
5092.811179353625
 30
0.0
 10
6404.975092343218
 20
5092.803406137689
 30
0.0
 10
6404.983288675106
 20
5092.802057681744
 30
0.0
 10
6404.985572607845
 20
5092.795669105765
 30
0.0
  0
SPLINE
  5
90
330
1F
100
AcDbEntity
  8
0
  6
Continuous
 62
     7
370
    25
100
AcDbSpline
210
0.0
220
0.0
230
1.0
 70
     8
 71
     3
 72
    10
 73
     6
 74
     0
 42
0.000000001
 43
0.00000001
 40
0.0
 40
0.0
 40
0.0
 40
0.0
 40
0.5
 40
0.5
 40
1.0
 40
1.0
 40
1.0
 40
1.0
 10
6401.717530549014
 20
5091.899789571672
 30
0.0
 10
6401.782863158067
 20
5091.908320352572
 30
0.0
 10
6401.848532372753
 20
5091.920703480684
 30
0.0
 10
6401.977110679783
 20
5091.947431714336
 30
0.0
 10
6402.038714749457
 20
5091.956806155644
 30
0.0
 10
6402.100265944633
 20
5091.969179131983
 30
0.0
  0
SPLINE
  5
91
330
1F
100
AcDbEntity
  8
0
  6
Continuous
 62
     7
370
    25
100
AcDbSpline
210
0.0
220
0.0
230
1.0
 70
     8
 71
     3
 72
    70
 73
    66
 74
     0
 42
0.000000001
 43
0.00000001
 40
0.0
 40
0.0
 40
0.0
 40
0.0
 40
0.0078124999999998
 40
0.0078124999999998
 40
0.0156249999999997
 40
0.0156249999999997
 40
0.0312499999999997
 40
0.0312499999999997
 40
0.0468749999999998
 40
0.0468749999999998
 40
0.0624999999999998
 40
0.0624999999999998
 40
0.1249999999999999
 40
0.1249999999999999
 40
0.1875
 40
0.1875
 40
0.21875
 40
0.21875
 40
0.2500000000000001
 40
0.2500000000000001
 40
0.3125000000000002
 40
0.3125000000000002
 40
0.3750000000000002
 40
0.3750000000000002
 40
0.3906250000000002
 40
0.3906250000000002
 40
0.4062500000000002
 40
0.4062500000000002
 40
0.4375000000000002
 40
0.4375000000000002
 40
0.5000000000000001
 40
0.5000000000000001
 40
0.53125
 40
0.53125
 40
0.5468750000000001
 40
0.5468750000000001
 40
0.5625000000000001
 40
0.5625000000000001
 40
0.6250000000000002
 40
0.6250000000000002
 40
0.6875000000000003
 40
0.6875000000000003
 40
0.7031250000000003
 40
0.7031250000000003
 40
0.7187500000000003
 40
0.7187500000000003
 40
0.7500000000000002
 40
0.7500000000000002
 40
0.8125000000000003
 40
0.8125000000000003
 40
0.8750000000000004
 40
0.8750000000000004
 40
0.8906250000000004
 40
0.8906250000000004
 40
0.9062500000000006
 40
0.9062500000000006
 40
0.9375000000000004
 40
0.9375000000000004
 40
0.9687500000000004
 40
0.9687500000000004
 40
0.9843750000000003
 40
0.9843750000000003
 40
0.9921875000000001
 40
0.9921875000000001
 40
1.0
 40
1.0
 40
1.0
 40
1.0
 10
6146.321873177916
 20
5091.902768982913
 30
0.0
 10
6146.743881862809
 20
5091.878834630234
 30
0.0
 10
6147.172982267424
 20
5091.855481798511
 30
0.0
 10
6148.040557119251
 20
5091.810111077453
 30
0.0
 10
6148.479814259646
 20
5091.788048868032
 30
0.0
 10
6149.813856561363
 20
5091.723601943163
 30
0.0
 10
6150.724904240882
 20
5091.682953633979
 30
0.0
 10
6152.589856993721
 20
5091.605681827754
 30
0.0
 10
6153.543763723419
 20
5091.569058821869
 30
0.0
 10
6155.494171670948
 20
5091.499330379653
 30
0.0
 10
6156.491941526298
 20
5091.466188663755
 30
0.0
 10
6161.567224079695
 20
5091.30880922195
 30
0.0
 10
6165.904509274065
 20
5091.208829202016
 30
0.0
 10
6175.103879744423
 20
5091.039459554168
 30
0.0
 10
6179.966711862576
 20
5090.970106480831
 30
0.0
 10
6187.659120655584
 20
5090.881243260938
 30
0.0
 10
6190.289735586293
 20
5090.854189342317
 30
0.0
 10
6195.687052419792
 20
5090.804364024121
 30
0.0
 10
6198.428880792822
 20
5090.781860567452
 30
0.0
 10
6206.765536596363
 20
5090.720320344801
 30
0.0
 10
6212.478016434617
 20
5090.687028222981
 30
0.0
 10
6224.207287157636
 20
5090.632231891391
 30
0.0
 10
6230.224080030604
 20
5090.610580557935
 30
0.0
 10
6237.941207980844
 20
5090.589678535574
 30
0.0
 10
6239.496386495975
 20
5090.585801367771
 30
0.0
 10
6242.605976665474
 20
5090.578680649145
 30
0.0
 10
6244.16252316835
 20
5090.57543054464
 30
0.0
 10
6248.837367879021
 20
5090.56656225722
 30
0.0
 10
6251.960881542279
 20
5090.561845743711
 30
0.0
 10
6261.351795511587
 20
5090.551142958074
 30
0.0
 10
6267.639489749512
 20
5090.548416310708
 30
0.0
 10
6277.111949220837
 20
5090.550835021169
 30
0.0
 10
6280.276241548818
 20
5090.552731264643
 30
0.0
 10
6285.033087545875
 20
5090.557251069064
 30
0.0
 10
6286.620440109499
 20
5090.559037946223
 30
0.0
 10
6289.798686125448
 20
5090.563192053886
 30
0.0
 10
6291.38444152224
 20
5090.565554344648
 30
0.0
 10
6299.272609920307
 20
5090.578764902779
 30
0.0
 10
6305.478483827685
 20
5090.593774972452
 30
0.0
 10
6317.685529680955
 20
5090.633768430749
 30
0.0
 10
6323.687104930005
 20
5090.658617719157
 30
0.0
 10
6331.058988426608
 20
5090.697540161725
 30
0.0
 10
6332.526808259791
 20
5090.705707263264
 30
0.0
 10
6335.449232010253
 20
5090.722866815635
 30
0.0
 10
6336.906101175676
 20
5090.731874211878
 30
0.0
 10
6341.239700784469
 20
5090.760134189894
 30
0.0
 10
6344.071393110488
 20
5090.780558536928
 30
0.0
 10
6352.397691507171
 20
5090.847374135241
 30
0.0
 10
6357.723946822426
 20
5090.898929019226
 30
0.0
 10
6367.933635601032
 20
5091.021678190893
 30
0.0
 10
6372.816285081862
 20
5091.092656068985
 30
0.0
 10
6378.631289642051
 20
5091.199273459503
 30
0.0
 10
6379.78075381793
 20
5091.221543194799
 30
0.0
 10
6382.037601041167
 20
5091.267810671783
 30
0.0
 10
6383.146468275258
 20
5091.291837749035
 30
0.0
 10
6386.414695982344
 20
5091.36687672728
 30
0.0
 10
6388.515782595584
 20
5091.420826579209
 30
0.0
 10
6392.561838606336
 20
5091.538472143962
 30
0.0
 10
6394.506724827253
 20
5091.602152123066
 30
0.0
 10
6397.304642990764
 20
5091.706617247244
 30
0.0
 10
6398.217947465716
 20
5091.742964206526
 30
0.0
 10
6399.555126955649
 20
5091.799901963233
 30
0.0
 10
6399.99534995679
 20
5091.819281861382
 30
0.0
 10
6400.864744270322
 20
5091.858888428964
 30
0.0
 10
6401.294657149568
 20
5091.87915122768
 30
0.0
 10
6401.717530549014
 20
5091.899789571672
 30
0.0
  0
SPLINE
  5
92
330
1F
100
AcDbEntity
  8
0
  6
Continuous
 62
     7
370
    25
100
AcDbSpline
210
0.0
220
0.0
230
1.0
 70
     8
 71
     3
 72
    14
 73
    10
 74
     0
 42
0.000000001
 43
0.00000001
 40
0.0
 40
0.0
 40
0.0
 40
0.0
 40
0.1249999999999659
 40
0.1249999999999659
 40
0.2499999999999317
 40
0.2499999999999317
 40
0.4999999999999247
 40
0.4999999999999247
 40
1.0
 40
1.0
 40
1.0
 40
1.0
 10
6145.934536767693
 20
5092.007023860529
 30
0.0
 10
6145.949023888857
 20
5092.005132360469
 30
0.0
 10
6145.963383769528
 20
5092.003658686443
 30
0.0
 10
6145.991737843797
 20
5092.001686211173
 30
0.0
 10
6146.005936901377
 20
5092.000352608628
 30
0.0
 10
6146.054046763031
 20
5091.980201030848
 30
0.0
 10
6146.089559350365
 20
5091.958948518142
 30
0.0
 10
6146.1910077092
 20
5091.92047294665
 30
0.0
 10
6146.256599867494
 20
5091.910829962708
 30
0.0
 10
6146.321873177916
 20
5091.902768982913
 30
0.0
  0
SPLINE
  5
93
330
1F
100
AcDbEntity
  8
0
  6
Continuous
 62
     7
370
    25
100
AcDbSpline
210
0.0
220
0.0
230
1.0
 70
     8
 71
     3
 72
    32
 73
    28
 74
     0
 42
0.000000001
 43
0.00000001
 40
0.0
 40
0.0
 40
0.0
 40
0.0
 40
0.1249999999999969
 40
0.1249999999999969
 40
0.2499999999999937
 40
0.2499999999999937
 40
0.4999999999999903
 40
0.4999999999999903
 40
0.6249999999999908
 40
0.6249999999999908
 40
0.7499999999999911
 40
0.7499999999999911
 40
0.8124999999999902
 40
0.8124999999999902
 40
0.8749999999999893
 40
0.8749999999999893
 40
0.9062499999999896
 40
0.9062499999999896
 40
0.9218749999999918
 40
0.9218749999999918
 40
0.937499999999994
 40
0.937499999999994
 40
0.9687499999999953
 40
0.9687499999999953
 40
0.9843749999999978
 40
0.9843749999999978
 40
1.0
 40
1.0
 40
1.0
 40
1.0
 10
6143.148727948054
 20
5093.077135078628
 30
0.0
 10
6143.193562340355
 20
5093.08987824903
 30
0.0
 10
6143.247658747611
 20
5093.087205254329
 30
0.0
 10
6143.365956607597
 20
5093.064533600866
 30
0.0
 10
6143.429842434222
 20
5093.046987895998
 30
0.0
 10
6143.635730786326
 20
5092.982633051598
 30
0.0
 10
6143.790809020941
 20
5092.925541388231
 30
0.0
 10
6144.078002102504
 20
5092.80514911716
 30
0.0
 10
6144.182999254963
 20
5092.758973956946
 30
0.0
 10
6144.420441985102
 20
5092.650054149932
 30
0.0
 10
6144.552582399055
 20
5092.58690713034
 30
0.0
 10
6144.783868913788
 20
5092.47611071608
 30
0.0
 10
6144.864515572947
 20
5092.439673049775
 30
0.0
 10
6145.044640204287
 20
5092.349859463434
 30
0.0
 10
6145.136331014142
 20
5092.317121151542
 30
0.0
 10
6145.291552405416
 20
5092.240863413195
 30
0.0
 10
6145.346070859299
 20
5092.214129153564
 30
0.0
 10
6145.427373546214
 20
5092.183539388146
 30
0.0
 10
6145.454557428612
 20
5092.174237963346
 30
0.0
 10
6145.508973498815
 20
5092.156990025688
 30
0.0
 10
6145.535994466438
 20
5092.149480240921
 30
0.0
 10
6145.621755919709
 20
5092.115149458787
 30
0.0
 10
6145.683761882517
 20
5092.083660833058
 30
0.0
 10
6145.778548740587
 20
5092.045425103127
 30
0.0
 10
6145.810709141556
 20
5092.033193244413
 30
0.0
 10
6145.873376653974
 20
5092.016624682506
 30
0.0
 10
6145.90422323274
 20
5092.010981724382
 30
0.0
 10
6145.934536767693
 20
5092.007023860529
 30
0.0
  0
SPLINE
  5
94
330
1F
100
AcDbEntity
  8
0
  6
Continuous
 62
     7
370
    25
100
AcDbSpline
210
0.0
220
0.0
230
1.0
 70
     8
 71
     3
 72
    24
 73
    20
 74
     0
 42
0.000000001
 43
0.00000001
 40
0.0
 40
0.0
 40
0.0
 40
0.0
 40
0.0312500000000027
 40
0.0312500000000027
 40
0.0625000000000055
 40
0.0625000000000055
 40
0.0937500000000082
 40
0.0937500000000082
 40
0.1250000000000109
 40
0.1250000000000109
 40
0.187500000000002
 40
0.187500000000002
 40
0.2499999999999931
 40
0.2499999999999931
 40
0.3749999999999897
 40
0.3749999999999897
 40
0.4999999999999863
 40
0.4999999999999863
 40
1.0
 40
1.0
 40
1.0
 40
1.0
 10
6143.053962501005
 20
5092.789420584477
 30
0.0
 10
6143.053085136156
 20
5092.79282936266
 30
0.0
 10
6143.052030341478
 20
5092.797102404852
 30
0.0
 10
6143.049212921605
 20
5092.809096206176
 30
0.0
 10
6143.047227578054
 20
5092.817738003396
 30
0.0
 10
6143.043897993306
 20
5092.83354532973
 30
0.0
 10
6143.043758593374
 20
5092.83576950703
 30
0.0
 10
6143.043101002353
 20
5092.841882034583
 30
0.0
 10
6143.042707269992
 20
5092.845367625392
 30
0.0
 10
6143.041113171534
 20
5092.858234855052
 30
0.0
 10
6143.039443725058
 20
5092.870397241665
 30
0.0
 10
6143.037419972983
 20
5092.892139515671
 30
0.0
 10
6143.037758093066
 20
5092.898583047344
 30
0.0
 10
6143.038422982379
 20
5092.921727015108
 30
0.0
 10
6143.039535819284
 20
5092.938347325077
 30
0.0
 10
6143.044485551321
 20
5092.967186344475
 30
0.0
 10
6143.048233224219
 20
5092.979786597615
 30
0.0
 10
6143.071492585186
 20
5093.03785895661
 30
0.0
 10
6143.105622532816
 20
5093.064883331177
 30
0.0
 10
6143.148727948054
 20
5093.077135078628
 30
0.0
  0
LINE
  5
95
330
1F
100
AcDbEntity
  8
0
  6
Continuous
 62
     7
370
    25
100
AcDbLine
 10
6143.0551126892
 20
5092.7914077614
 30
0.0
 11
6143.0539625034
 21
5092.7894205752
 31
0.0
  0
ARC
  5
96
330
1F
100
AcDbEntity
  8
0
  6
Continuous
 62
     7
370
    25
100
AcDbCircle
 10
6397.945498653
 20
5093.4406866349
 30
0.0
 40
4.407655338029081
100
AcDbArc
 50
272.0016810074
 51
340.4972155008
  0
SPLINE
  5
97
330
1F
100
AcDbEntity
  8
0
  6
Continuous
 62
     7
370
    25
100
AcDbSpline
210
0.0
220
0.0
230
1.0
 70
    24
 71
     3
 72
    78
 73
    74
 74
     0
 42
0.000000001
 43
0.00000001
 40
0.0
 40
0.0
 40
0.0
 40
0.0
 40
0.001953125
 40
0.001953125
 40
0.00390625
 40
0.0078125
 40
0.015625
 40
0.015625
 40
0.0312499999999999
 40
0.0312499999999999
 40
0.0624999999999997
 40
0.0624999999999997
 40
0.0937499999999995
 40
0.0937499999999995
 40
0.1093749999999995
 40
0.1093749999999995
 40
0.1249999999999995
 40
0.1249999999999995
 40
0.1874999999999992
 40
0.1874999999999992
 40
0.2499999999999989
 40
0.2499999999999989
 40
0.2812499999999988
 40
0.2812499999999988
 40
0.2968749999999988
 40
0.2968749999999988
 40
0.3124999999999987
 40
0.3124999999999987
 40
0.3749999999999987
 40
0.3749999999999987
 40
0.4374999999999986
 40
0.4374999999999986
 40
0.4531249999999986
 40
0.4531249999999986
 40
0.4687499999999986
 40
0.4687499999999986
 40
0.4999999999999985
 40
0.4999999999999985
 40
0.5624999999999984
 40
0.5624999999999984
 40
0.5937499999999984
 40
0.5937499999999984
 40
0.6093749999999984
 40
0.6093749999999984
 40
0.6249999999999984
 40
0.6249999999999984
 40
0.6874999999999988
 40
0.6874999999999988
 40
0.749999999999999
 40
0.749999999999999
 40
0.7812499999999991
 40
0.7812499999999991
 40
0.8124999999999991
 40
0.8124999999999991
 40
0.8749999999999993
 40
0.8749999999999993
 40
0.9374999999999997
 40
0.9374999999999997
 40
0.9531249999999997
 40
0.9531249999999997
 40
0.9687499999999997
 40
0.9687499999999997
 40
0.9843749999999998
 40
0.9843749999999998
 40
0.9921874999999998
 40
0.9960937499999999
 40
0.9980468749999999
 40
0.9980468749999999
 40
0.9990234374999999
 40
0.9990234374999999
 40
0.99951171875
 40
0.99951171875
 40
1.0
 40
1.0
 40
1.0
 40
1.0
 10
6398.099452843784
 20
5089.035720836389
 30
0.0
 10
6398.00568791739
 20
5089.03572083639
 30
0.0
 10
6397.906512723414
 20
5089.035720836389
 30
0.0
 10
6397.70342218492
 20
5089.03572083639
 30
0.0
 10
6397.39781208048
 20
5089.03572083639
 30
0.0
 10
6396.677919269726
 20
5089.03572083639
 30
0.0
 10
6396.04926460248
 20
5089.035720836389
 30
0.0
 10
6394.776617286536
 20
5089.035720836389
 30
0.0
 10
6393.907741600282
 20
5089.03572083639
 30
0.0
 10
6391.24059691711
 20
5089.03572083639
 30
0.0
 10
6389.381886558681
 20
5089.035720836389
 30
0.0
 10
6385.505353340937
 20
5089.03572083639
 30
0.0
 10
6383.487605483856
 20
5089.03572083639
 30
0.0
 10
6380.34182779028
 20
5089.035720836389
 30
0.0
 10
6379.273350197439
 20
5089.03572083639
 30
0.0
 10
6377.096345616224
 20
5089.03572083639
 30
0.0
 10
6375.986012601861
 20
5089.03572083639
 30
0.0
 10
6370.363758832649
 20
5089.03572083639
 30
0.0
 10
6365.633690270956
 20
5089.03572083639
 30
0.0
 10
6355.727733977668
 20
5089.035720836389
 30
0.0
 10
6350.552536083719
 20
5089.035720836389
 30
0.0
 10
6342.452462533206
 20
5089.035720836389
 30
0.0
 10
6339.696060618007
 20
5089.035720836389
 30
0.0
 10
6335.475311397603
 20
5089.035720836389
 30
0.0
 10
6334.055364291821
 20
5089.035720836389
 30
0.0
 10
6331.207056551418
 20
5089.03572083639
 30
0.0
 10
6329.776279404367
 20
5089.035720836389
 30
0.0
 10
6322.589560278684
 20
5089.035720836389
 30
0.0
 10
6316.735887287796
 20
5089.03572083639
 30
0.0
 10
6304.824762028279
 20
5089.03572083639
 30
0.0
 10
6298.766847346127
 20
5089.03572083639
 30
0.0
 10
6291.063708606719
 20
5089.035720836389
 30
0.0
 10
6289.51520662416
 20
5089.035720836389
 30
0.0
 10
6286.410291413348
 20
5089.03572083639
 30
0.0
 10
6284.859597593989
 20
5089.035720836389
 30
0.0
 10
6280.21270485873
 20
5089.035720836389
 30
0.0
 10
6277.121683752884
 20
5089.035720836389
 30
0.0
 10
6267.868934236551
 20
5089.035720836389
 30
0.0
 10
6261.727575380679
 20
5089.035720836389
 30
0.0
 10
6252.555951976769
 20
5089.03572083639
 30
0.0
 10
6249.505501970012
 20
5089.03572083639
 30
0.0
 10
6244.940206754986
 20
5089.03572083639
 30
0.0
 10
6243.42016879754
 20
5089.035720836389
 30
0.0
 10
6240.38358131366
 20
5089.035720836389
 30
0.0
 10
6238.864811670567
 20
5089.03572083639
 30
0.0
 10
6231.32915864862
 20
5089.03572083639
 30
0.0
 10
6225.457483046156
 20
5089.035720836389
 30
0.0
 10
6214.018367656217
 20
5089.035720836389
 30
0.0
 10
6208.450980710008
 20
5089.035720836389
 30
0.0
 10
6200.332458847672
 20
5089.03572083639
 30
0.0
 10
6197.663287262556
 20
5089.035720836389
 30
0.0
 10
6192.412306084843
 20
5089.035720836389
 30
0.0
 10
6189.855166900671
 20
5089.03572083639
 30
0.0
 10
6182.384257453324
 20
5089.035720836389
 30
0.0
 10
6177.670522244466
 20
5089.035720836389
 30
0.0
 10
6168.77369306818
 20
5089.035720836389
 30
0.0
 10
6164.589982222729
 20
5089.035720836389
 30
0.0
 10
6159.711419094759
 20
5089.035720836389
 30
0.0
 10
6158.753627538645
 20
5089.035720836389
 30
0.0
 10
6156.883729077596
 20
5089.035720836389
 30
0.0
 10
6155.970345014143
 20
5089.035720836389
 30
0.0
 10
6154.186954592646
 20
5089.03572083639
 30
0.0
 10
6153.316946963519
 20
5089.035720836389
 30
0.0
 10
6152.04482643667
 20
5089.035720836389
 30
0.0
 10
6151.41699179211
 20
5089.035720836389
 30
0.0
 10
6150.699024784102
 20
5089.03572083639
 30
0.0
 10
6150.394447563331
 20
5089.03572083639
 30
0.0
 10
6150.242680691137
 20
5089.035720836389
 30
0.0
 10
6150.191884024021
 20
5089.035720836389
 30
0.0
 10
6150.117055805727
 20
5089.035720836389
 30
0.0
 10
6150.091879920484
 20
5089.03572083639
 30
0.0
 10
6150.047324047701
 20
5089.03572083639
 30
0.0
 10
6150.024979538082
 20
5089.035720836389
 30
0.0
 10
6150.002610346001
 20
5089.035720836389
 30
0.0
  0
ARC
  5
98
330
1F
100
AcDbEntity
  8
0
  6
Continuous
 62
     7
370
    25
100
AcDbCircle
 10
6150.1436368522
 20
5093.4992973366
 30
0.0
 40
4.46580380765445
100
AcDbArc
 50
199.5212003084
 51
268.1903443257
  0
ARC
  5
99
330
1F
100
AcDbEntity
  8
0
  6
Continuous
 62
     7
370
    25
100
AcDbCircle
 10
6148.0422005574
 20
5094.0190049768
 30
0.0
 40
4.983291390573577
100
AcDbArc
 50
190.8947568965
 51
269.9022641665
  0
SPLINE
  5
9A
330
1F
100
AcDbEntity
  8
0
  6
Continuous
 62
     7
370
    25
100
AcDbSpline
210
0.0
220
0.0
230
1.0
 70
    24
 71
     3
 72
    20
 73
    16
 74
     0
 42
0.000000001
 43
0.00000001
 40
0.0
 40
0.0
 40
0.0
 40
0.0
 40
0.0312499999999993
 40
0.0312499999999993
 40
0.0624999999999985
 40
0.0624999999999985
 40
0.1249999999999986
 40
0.1249999999999986
 40
0.2499999999999988
 40
0.2499999999999988
 40
0.4999999999999992
 40
0.4999999999999992
 40
0.7499999999999996
 40
0.7499999999999996
 40
1.0
 40
1.0
 40
1.0
 40
1.0
 10
6150.002610346
 20
5089.035720836389
 30
0.0
 10
6149.953444806642
 20
5089.035720836389
 30
0.0
 10
6149.903269711116
 20
5089.03572083639
 30
0.0
 10
6149.814236479207
 20
5089.03572083639
 30
0.0
 10
6149.774176278444
 20
5089.035720836389
 30
0.0
 10
6149.652735759883
 20
5089.035720836389
 30
0.0
 10
6149.580687495762
 20
5089.03572083639
 30
0.0
 10
6149.379039238602
 20
5089.03572083639
 30
0.0
 10
6149.267769196157
 20
5089.03572083639
 30
0.0
 10
6148.967171395163
 20
5089.03572083639
 30
0.0
 10
6148.812125483124
 20
5089.03572083639
 30
0.0
 10
6148.53874215182
 20
5089.03572083639
 30
0.0
 10
6148.42233335623
 20
5089.035720836389
 30
0.0
 10
6148.210366629034
 20
5089.035720836389
 30
0.0
 10
6148.113222047965
 20
5089.035720836389
 30
0.0
 10
6148.0337000028
 20
5089.035720836389
 30
0.0
  0
ARC
  5
9B
330
1F
100
AcDbEntity
  8
0
  6
Continuous
 62
     7
370
    25
100
AcDbCircle
 10
6400.1421733771
 20
5094.0352214092
 30
0.0
 40
4.999500577150751
100
AcDbArc
 50
270.0023786344
 51
345.6446369551
  0
SPLINE
  5
9C
330
1F
100
AcDbEntity
  8
0
  6
Continuous
 62
     7
370
    25
100
AcDbSpline
210
0.0
220
0.0
230
1.0
 70
    24
 71
     3
 72
    14
 73
    10
 74
     0
 42
0.000000001
 43
0.00000001
 40
0.0
 40
0.0
 40
0.0
 40
0.0
 40
0.2500000000000003
 40
0.2500000000000003
 40
0.5000000000000007
 40
0.5000000000000007
 40
0.750000000000001
 40
0.750000000000001
 40
1.0
 40
1.0
 40
1.0
 40
1.0
 10
6400.142380931426
 20
5089.035720836389
 30
0.0
 10
6400.12980515377
 20
5089.03572083639
 30
0.0
 10
6400.06058287634
 20
5089.035720836389
 30
0.0
 10
6399.861625674068
 20
5089.035720836389
 30
0.0
 10
6399.733432013184
 20
5089.035720836389
 30
0.0
 10
6399.423439640183
 20
5089.035720836389
 30
0.0
 10
6399.241105961562
 20
5089.03572083639
 30
0.0
 10
6398.773468009909
 20
5089.03572083639
 30
0.0
 10
6398.485962572054
 20
5089.035720836389
 30
0.0
 10
6398.099452843784
 20
5089.035720836389
 30
0.0
  0
LWPOLYLINE
  5
9D
330
1F
100
AcDbEntity
  8
0
  6
Continuous
 62
     7
370
    25
100
AcDbPolyline
 90
        2
 70
   128
 43
0.0
 10
6400.1440638136
 20
5089.0357208364
 10
6400.1440638136
 20
5089.0357208364
  0
LINE
  5
9E
330
1F
100
AcDbEntity
  8
0
  6
Continuous
 62
     7
370
    25
100
AcDbLine
 10
6857.8867350547
 20
5339.0357208364
 30
0.0
 11
6857.8867350547
 21
5338.0357208364
 31
0.0
  0
LINE
  5
9F
330
1F
100
AcDbEntity
  8
0
  6
Continuous
 62
     7
370
    25
100
AcDbLine
 10
7557.8867350547
 20
5338.0357208364
 30
0.0
 11
7557.8867350547
 21
5339.0357208364
 31
0.0
  0
ARC
  5
A0
330
1F
100
AcDbEntity
  8
0
  6
Continuous
 62
     7
370
    25
100
AcDbCircle
 10
6864.8867350547
 20
5336.0357208364
 30
0.0
 40
2.0
100
AcDbArc
 50
0.0
 51
90.0
  0
ARC
  5
A1
330
1F
100
AcDbEntity
  8
0
  6
Continuous
 62
     7
370
    25
100
AcDbCircle
 10
7550.8867350547
 20
5336.0357208364
 30
0.0
 40
2.0
100
AcDbArc
 50
90.0
 51
180.0
  0
SPLINE
  5
A2
330
1F
100
AcDbEntity
  8
0
  6
Continuous
 62
     7
370
    25
100
AcDbSpline
210
0.0
220
0.0
230
1.0
 70
     8
 71
     3
 72
    11
 73
     7
 74
     0
 42
0.000000001
 43
0.00000001
 40
0.0
 40
0.0
 40
0.0
 40
0.0
 40
0.2492683433427931
 40
0.504748583277474
 40
0.7601959606523868
 40
0.9999999999999999
 40
0.9999999999999999
 40
0.9999999999999999
 40
0.9999999999999999
 10
6866.895162235835
 20
5326.000666911431
 30
0.0
 10
6871.89619466049
 20
5306.626133937295
 30
0.0
 10
6882.022887835477
 20
5267.394244563723
 30
0.0
 10
6897.257559388762
 20
5208.295859164602
 30
0.0
 10
6912.278349634972
 20
5149.926929024338
 30
0.0
 10
6922.14948699659
 20
5111.41623859403
 30
0.0
 10
6926.929157548441
 20
5092.769105417978
 30
0.0
  0
SPLINE
  5
A3
330
1F
100
AcDbEntity
  8
0
  6
Continuous
 62
     7
370
    25
100
AcDbSpline
210
0.0
220
0.0
230
1.0
 70
     8
 71
     3
 72
    45
 73
    41
 74
     0
 42
0.000000001
 43
0.00000001
 40
0.0
 40
0.0
 40
0.0
 40
0.0
 40
0.0427230294297286
 40
0.0880277121971444
 40
0.1300444026098385
 40
0.1687731420010295
 40
0.2042140757456728
 40
0.2363675179227447
 40
0.265234050529723
 40
0.2908146835919744
 40
0.3131111296015054
 40
0.3321263100457714
 40
0.3478653826040796
 40
0.3603381034883312
 40
0.3704557799288548
 40
0.3765897958052207
 40
0.3781270679328299
 40
0.3791931693487325
 40
0.3798647046122427
 40
0.3807563068693288
 40
0.3818978027721607
 40
0.3860809016829607
 40
0.3921124043386656
 40
0.4000221380987532
 40
0.4129712556756537
 40
0.4290594033769083
 40
0.4482934800016939
 40
0.4706775339841935
 40
0.49621414816596
 40
0.5249050682456128
 40
0.5567515214673463
 40
0.5934159858557613
 40
0.6335302631544556
 40
0.677094868605845
 40
0.7241101489876433
 40
0.7745763085189238
 40
0.8275003554570288
 40
0.8837531629941443
 40
0.9433345674567837
 40
1.0
 40
1.0
 40
1.0
 40
1.0
 10
7319.322648223928
 20
5090.512590157849
 30
0.0
 10
7322.593566993658
 20
5093.875964473847
 30
0.0
 10
7329.33305854951
 20
5100.805953995938
 30
0.0
 10
7339.292211868426
 20
5111.043060317044
 30
0.0
 10
7348.947443198759
 20
5120.965195292636
 30
0.0
 10
7357.849112337573
 20
5130.110251429362
 30
0.0
 10
7365.996748277733
 20
5138.47825651205
 30
0.0
 10
7373.389910902908
 20
5146.069210555666
 30
0.0
 10
7380.02817822676
 20
5152.883184659413
 30
0.0
 10
7385.91095372193
 20
5158.920092174732
 30
0.0
 10
7391.038194261208
 20
5164.180437676698
 30
0.0
 10
7395.408323726398
 20
5168.663168236416
 30
0.0
 10
7399.024656973066
 20
5172.372259929239
 30
0.0
 10
7401.946145704336
 20
5175.368738618558
 30
0.0
 10
7404.139405473723
 20
5177.618965995902
 30
0.0
 10
7405.441561795781
 20
5178.956339882998
 30
0.0
 10
7406.064505227676
 20
5179.598307149112
 30
0.0
 10
7406.155707921596
 20
5179.694901618483
 30
0.0
 10
7406.308231784422
 20
5179.853401569121
 30
0.0
 10
7406.491080439486
 20
5180.042567412284
 30
0.0
 10
7406.935243340657
 20
5180.501232680567
 30
0.0
 10
7407.788349411346
 20
5181.380212436233
 30
0.0
 10
7409.16169126094
 20
5182.79354714594
 30
0.0
 10
7411.213416728543
 20
5184.903226571737
 30
0.0
 10
7414.03913060736
 20
5187.806747739513
 30
0.0
 10
7417.736166107436
 20
5191.603438020841
 30
0.0
 10
7422.1585708233
 20
5196.143009039859
 30
0.0
 10
7427.30697431758
 20
5201.425862216555
 30
0.0
 10
7433.181597350252
 20
5207.452039706781
 30
0.0
 10
7439.782632105195
 20
5214.221611524567
 30
0.0
 10
7447.237606481985
 20
5221.865260115657
 30
0.0
 10
7455.569027590015
 20
5230.405953813894
 30
0.0
 10
7464.799312519232
 20
5239.866650128119
 30
0.0
 10
7474.823367156248
 20
5250.139723335053
 30
0.0
 10
7485.641020302472
 20
5261.225176706126
 30
0.0
 10
7497.17586054954
 20
5273.044969624585
 30
0.0
 10
7509.418225243013
 20
5285.589534561947
 30
0.0
 10
7522.358307081771
 20
5298.84927733719
 30
0.0
 10
7535.583891707155
 20
5312.402107886356
 30
0.0
 10
7544.494892136675
 20
5321.53467375292
 30
0.0
 10
7548.838629194279
 20
5325.986414620779
 30
0.0
  0
LINE
  5
A4
330
1F
100
AcDbEntity
  8
0
  6
Continuous
 62
     7
370
    25
100
AcDbLine
 10
7548.8867350547
 20
5326.0357145806
 30
0.0
 11
7548.8867350547
 21
5336.0357208364
 31
0.0
  0
LINE
  5
A5
330
1F
100
AcDbEntity
  8
0
  6
Continuous
 62
     7
370
    25
100
AcDbLine
 10
6866.8867350547
 20
5336.0357208364
 30
0.0
 11
6866.8867350547
 21
5326.0345883467
 31
0.0
  0
ARC
  5
A6
330
1F
100
AcDbEntity
  8
0
  6
Continuous
 62
     7
370
    25
100
AcDbCircle
 10
6931.7679897237
 20
5094.0357101334
 30
0.0
 40
4.999989296475452
100
AcDbArc
 50
194.609854844
 51
270.007493374
  0
ARC
  5
A7
330
1F
100
AcDbEntity
  8
0
  6
Continuous
 62
     7
370
    25
100
AcDbCircle
 10
7315.7743810125
 20
5094.0357208364
 30
0.0
 40
5.00000000000091
100
AcDbArc
 50
269.9999988214
 51
315.3121355635
  0
LINE
  5
A8
330
1F
100
AcDbEntity
  8
0
  6
Continuous
 62
     7
370
    25
100
AcDbLine
 10
7057.8867350547
 20
5339.0357208364
 30
0.0
 11
7057.8867350547
 21
5338.0357208364
 31
0.0
  0
LINE
  5
A9
330
1F
100
AcDbEntity
  8
0
  6
Continuous
 62
     7
370
    25
100
AcDbLine
 10
6857.8867350547
 20
5338.0357208364
 30
0.0
 11
7057.8867350547
 21
5338.0357208364
 31
0.0
  0
LINE
  5
AA
330
1F
100
AcDbEntity
  8
0
  6
Continuous
 62
     7
370
    25
100
AcDbLine
 10
6857.8867350547
 20
5339.0357208364
 30
0.0
 11
7057.8867350547
 21
5339.0357208364
 31
0.0
  0
LINE
  5
AB
330
1F
100
AcDbEntity
  8
0
  6
Continuous
 62
     7
370
    25
100
AcDbLine
 10
7357.8867350547
 20
5339.0357208364
 30
0.0
 11
7357.8867350547
 21
5338.0357208364
 31
0.0
  0
LINE
  5
AC
330
1F
100
AcDbEntity
  8
0
  6
Continuous
 62
     7
370
    25
100
AcDbLine
 10
7057.8867350547
 20
5338.0357208364
 30
0.0
 11
7357.8867350547
 21
5338.0357208364
 31
0.0
  0
LINE
  5
AD
330
1F
100
AcDbEntity
  8
0
  6
Continuous
 62
     7
370
    25
100
AcDbLine
 10
7057.8867350547
 20
5339.0357208364
 30
0.0
 11
7357.8867350547
 21
5339.0357208364
 31
0.0
  0
LINE
  5
AE
330
1F
100
AcDbEntity
  8
0
  6
Continuous
 62
     7
370
    25
100
AcDbLine
 10
7357.8867350547
 20
5338.0357208364
 30
0.0
 11
7557.8867350547
 21
5338.0357208364
 31
0.0
  0
LINE
  5
AF
330
1F
100
AcDbEntity
  8
0
  6
Continuous
 62
     7
370
    25
100
AcDbLine
 10
7357.8867350547
 20
5339.0357208364
 30
0.0
 11
7557.8867350547
 21
5339.0357208364
 31
0.0
  0
LINE
  5
B0
330
1F
100
AcDbEntity
  8
0
  6
Continuous
 62
     7
370
    25
100
AcDbLine
 10
7057.8867350547
 20
5338.0357208364
 30
0.0
 11
7057.8867350547
 21
5336.0357208364
 31
0.0
  0
LINE
  5
B1
330
1F
100
AcDbEntity
  8
0
  6
Continuous
 62
     7
370
    25
100
AcDbLine
 10
7357.8867350547
 20
5336.0357208364
 30
0.0
 11
7057.8867350547
 21
5336.0357208364
 31
0.0
  0
LINE
  5
B2
330
1F
100
AcDbEntity
  8
0
  6
Continuous
 62
     7
370
    25
100
AcDbLine
 10
7357.8867350547
 20
5336.0357208364
 30
0.0
 11
7357.8867350547
 21
5338.0357208364
 31
0.0
  0
SPLINE
  5
B3
330
1F
100
AcDbEntity
  8
0
  6
Continuous
 62
     7
370
    25
100
AcDbSpline
210
0.0
220
0.0
230
1.0
 70
     8
 71
     3
 72
    31
 73
    27
 74
     0
 42
0.000000001
 43
0.00000001
 40
0.0
 40
0.0
 40
0.0
 40
0.0
 40
0.0097266579672531
 40
0.0628379419619545
 40
0.0993183972443349
 40
0.1359192502194788
 40
0.1717881431314403
 40
0.2245332088864404
 40
0.2776444928062394
 40
0.3141249480315882
 40
0.3507258009199104
 40
0.3865946937839718
 40
0.4393397597800285
 40
0.4924510439215094
 40
0.5289314993168434
 40
0.565532352394116
 40
0.6014012454105048
 40
0.6541463113299435
 40
0.7072575954029501
 40
0.7437380507531351
 40
0.7803389037680919
 40
0.816207796732623
 40
0.8615589919616932
 40
0.9071422363664978
 40
0.9534475678953732
 40
1.0
 40
1.0
 40
1.0
 40
1.0
 10
7548.788177605497
 20
5326.03571459419
 30
0.0
 10
7548.819006675781
 20
5326.035713441456
 30
0.0
 10
7549.018174296946
 20
5326.035705994354
 30
0.0
 10
7548.218792855158
 20
5326.035983468321
 30
0.0
 10
7546.673804267517
 20
5326.035403774338
 30
0.0
 10
7544.65544526162
 20
5326.035790346309
 30
0.0
 10
7541.659921497437
 20
5326.035951723535
 30
0.0
 10
7537.311515059168
 20
5326.035333692959
 30
0.0
 10
7531.83492921435
 20
5326.035992351556
 30
0.0
 10
7526.17544304322
 20
5326.035709876542
 30
0.0
 10
7520.73834796775
 20
5326.035456169698
 30
0.0
 10
7513.882960807061
 20
5326.035969605293
 30
0.0
 10
7505.311571832058
 20
5326.035663216165
 30
0.0
 10
7495.789882443896
 20
5326.035623866406
 30
0.0
 10
7486.715043988825
 20
5326.035904279736
 30
0.0
 10
7478.458056447409
 20
5326.03568148784
 30
0.0
 10
7468.519796865601
 20
5326.035583408052
 30
0.0
 10
7456.690219934444
 20
5326.035837717825
 30
0.0
 10
7444.197372311712
 20
5326.035660635112
 30
0.0
 10
7432.730205880786
 20
5326.035725340196
 30
0.0
 10
7422.584303195865
 20
5326.035655401641
 30
0.0
 10
7411.386175117521
 20
5326.035853529049
 30
0.0
 10
7399.102316691017
 20
5326.036727492001
 30
0.0
 10
7385.596495693801
 20
5326.034575497526
 30
0.0
 10
7371.826947775802
 20
5326.033983745278
 30
0.0
 10
7362.541708837532
 20
5326.035140779704
 30
0.0
 10
7357.886735054671
 20
5326.035720836389
 30
0.0
  0
SPLINE
  5
B4
330
1F
100
AcDbEntity
  8
0
  6
Continuous
 62
     7
370
    25
100
AcDbSpline
210
0.0
220
0.0
230
1.0
 70
     8
 71
     3
 72
    29
 73
    25
 74
     0
 42
0.000000001
 43
0.00000001
 40
0.0
 40
0.0
 40
0.0
 40
0.0
 40
0.0478514466980891
 40
0.0959516386276014
 40
0.1445632867572685
 40
0.193435800772137
 40
0.2486542829367417
 40
0.3042561560254701
 40
0.3433322377969386
 40
0.382543367568169
 40
0.4183153680725716
 40
0.4735338310764746
 40
0.5291356869464359
 40
0.5843541093824651
 40
0.6334318778709123
 40
0.6758033859442009
 40
0.7183472540557426
 40
0.7540169790194549
 40
0.8092354186347894
 40
0.8648372492473317
 40
0.9039132962376674
 40
0.9431243963461112
 40
0.9788963721628222
 40
1.0
 40
1.0
 40
1.0
 40
1.0
 10
7044.39078227244
 20
5326.035720836389
 30
0.0
 10
7039.838403021025
 20
5326.035999136475
 30
0.0
 10
7030.709979974933
 20
5326.036557183328
 30
0.0
 10
7017.116825825439
 20
5326.034470952512
 30
0.0
 10
7003.637417438993
 20
5326.037033097255
 30
0.0
 10
6989.803281474028
 20
5326.03471546845
 30
0.0
 10
6975.755056402867
 20
5326.036547264245
 30
0.0
 10
6963.079443444423
 20
5326.035917373371
 30
0.0
 10
6952.217380903111
 20
5326.034207301591
 30
0.0
 10
6943.317039300154
 20
5326.03763092432
 30
0.0
 10
6933.578529293443
 20
5326.035402053179
 30
0.0
 10
6923.225505019245
 20
5326.034141710931
 30
0.0
 10
6912.429179425524
 20
5326.038912469161
 30
0.0
 10
6902.998332431781
 20
5326.031278167505
 30
0.0
 10
6895.238874152594
 20
5326.039072946113
 30
0.0
 10
6888.899297418009
 20
5326.036082053751
 30
0.0
 10
6883.842508132777
 20
5326.031636703875
 30
0.0
 10
6878.930043214122
 20
5326.039338832786
 30
0.0
 10
6874.424054129789
 20
5326.035965060782
 30
0.0
 10
6870.961727584219
 20
5326.031853343142
 30
0.0
 10
6868.744685909465
 20
5326.039987388138
 30
0.0
 10
6867.53631982114
 20
5326.037244489808
 30
0.0
 10
6866.889103607899
 20
5326.030798531611
 30
0.0
 10
6866.989385941268
 20
5326.03357064455
 30
0.0
 10
6867.026595586636
 20
5326.034599233893
 30
0.0
  0
SPLINE
  5
B5
330
1F
100
AcDbEntity
  8
0
  6
Continuous
 62
     7
370
    25
100
AcDbSpline
210
0.0
220
0.0
230
1.0
 70
     8
 71
     3
 72
     8
 73
     4
 74
     0
 42
0.000000001
 43
0.00000001
 40
0.0
 40
0.0
 40
0.0
 40
0.0
 40
1.0
 40
1.0
 40
1.0
 40
1.0
 10
7057.886735054671
 20
5326.035720836389
 30
0.0
 10
7053.383863085386
 20
5326.035720836391
 30
0.0
 10
7048.882399304568
 20
5326.035720814676
 30
0.0
 10
7044.39078227244
 20
5326.035720836389
 30
0.0
  0
LINE
  5
B6
330
1F
100
AcDbEntity
  8
0
  6
Continuous
 62
     7
370
    25
100
AcDbLine
 10
7357.8867350547
 20
5326.0357208364
 30
0.0
 11
7057.8867350547
 21
5326.0357208364
 31
0.0
  0
LINE
  5
B7
330
1F
100
AcDbEntity
  8
0
  6
Continuous
 62
     7
370
    25
100
AcDbLine
 10
7319.2833014045
 20
5090.5508174424
 30
0.0
 11
7319.2901169263
 21
5090.5508018073
 31
0.0
  0
SPLINE
  5
B8
330
1F
100
AcDbEntity
  8
0
  6
Continuous
 62
     7
370
    25
100
AcDbSpline
210
0.0
220
0.0
230
1.0
 70
     8
 71
     3
 72
    14
 73
    10
 74
     0
 42
0.000000001
 43
0.00000001
 40
0.0
 40
0.0
 40
0.0
 40
0.0
 40
0.1249999999999659
 40
0.1249999999999659
 40
0.2499999999999317
 40
0.2499999999999317
 40
0.4999999999999247
 40
0.4999999999999247
 40
1.0
 40
1.0
 40
1.0
 40
1.0
 10
7248.559726575098
 20
5092.007023860529
 30
0.0
 10
7248.586188912228
 20
5092.005132360469
 30
0.0
 10
7248.61280619397
 20
5092.003658686443
 30
0.0
 10
7248.666446752329
 20
5092.001686211173
 30
0.0
 10
7248.693192359762
 20
5092.000352608628
 30
0.0
 10
7248.767055758618
 20
5091.980201030848
 30
0.0
 10
7248.812714586348
 20
5091.958948518142
 30
0.0
 10
7248.957379618721
 20
5091.92047294665
 30
0.0
 10
7249.058366182909
 20
5091.910829962708
 30
0.0
 10
7249.158955088944
 20
5091.902768982913
 30
0.0
  0
SPLINE
  5
B9
330
1F
100
AcDbEntity
  8
0
  6
Continuous
 62
     7
370
    25
100
AcDbSpline
210
0.0
220
0.0
230
1.0
 70
     8
 71
     3
 72
    32
 73
    28
 74
     0
 42
0.000000001
 43
0.00000001
 40
0.0
 40
0.0
 40
0.0
 40
0.0
 40
0.1249999999999969
 40
0.1249999999999969
 40
0.2499999999999937
 40
0.2499999999999937
 40
0.4999999999999903
 40
0.4999999999999903
 40
0.6249999999999908
 40
0.6249999999999908
 40
0.7499999999999911
 40
0.7499999999999911
 40
0.8124999999999902
 40
0.8124999999999902
 40
0.8749999999999893
 40
0.8749999999999893
 40
0.9062499999999896
 40
0.9062499999999896
 40
0.9218749999999918
 40
0.9218749999999918
 40
0.937499999999994
 40
0.937499999999994
 40
0.9687499999999953
 40
0.9687499999999953
 40
0.9843749999999978
 40
0.9843749999999978
 40
1.0
 40
1.0
 40
1.0
 40
1.0
 10
7237.168789935045
 20
5093.077135078628
 30
0.0
 10
7237.66384736472
 20
5093.08987824903
 30
0.0
 10
7238.155825174259
 20
5093.087205254329
 30
0.0
 10
7239.136381418952
 20
5093.064533600866
 30
0.0
 10
7239.625214977878
 20
5093.046987895998
 30
0.0
 10
7241.087916370249
 20
5092.982633051598
 30
0.0
 10
7242.058331029964
 20
5092.925541388231
 30
0.0
 10
7243.50017602094
 20
5092.80514911716
 30
0.0
 10
7243.978440708379
 20
5092.758973956946
 30
0.0
 10
7244.92811196115
 20
5092.650054149932
 30
0.0
 10
7245.399549072688
 20
5092.58690713034
 30
0.0
 10
7246.09874368591
 20
5092.47611071608
 30
0.0
 10
7246.33112682001
 20
5092.439673049775
 30
0.0
 10
7246.790753996518
 20
5092.349859463434
 30
0.0
 10
7247.022795437003
 20
5092.317121151542
 30
0.0
 10
7247.358382461386
 20
5092.240863413195
 30
0.0
 10
7247.468544059766
 20
5092.214129153564
 30
0.0
 10
7247.635925319893
 20
5092.183539388146
 30
0.0
 10
7247.691854221292
 20
5092.174237963346
 30
0.0
 10
7247.803956627327
 20
5092.156990025688
 30
0.0
 10
7247.860326456946
 20
5092.149480240921
 30
0.0
 10
7248.024653524327
 20
5092.115149458787
 30
0.0
 10
7248.129990322855
 20
5092.083660833058
 30
0.0
 10
7248.288864962068
 20
5092.045425103127
 30
0.0
 10
7248.341632769711
 20
5092.033193244413
 30
0.0
 10
7248.449595953087
 20
5092.016624682506
 30
0.0
 10
7248.504355533993
 20
5092.010981724382
 30
0.0
 10
7248.559726575098
 20
5092.007023860529
 30
0.0
  0
SPLINE
  5
BA
330
1F
100
AcDbEntity
  8
0
  6
Continuous
 62
     7
370
    25
100
AcDbSpline
210
0.0
220
0.0
230
1.0
 70
     8
 71
     3
 72
    24
 73
    20
 74
     0
 42
0.000000001
 43
0.00000001
 40
0.0
 40
0.0
 40
0.0
 40
0.0
 40
0.0312500000000027
 40
0.0312500000000027
 40
0.0625000000000055
 40
0.0625000000000055
 40
0.0937500000000082
 40
0.0937500000000082
 40
0.1250000000000109
 40
0.1250000000000109
 40
0.187500000000002
 40
0.187500000000002
 40
0.2499999999999931
 40
0.2499999999999931
 40
0.3749999999999897
 40
0.3749999999999897
 40
0.4999999999999863
 40
0.4999999999999863
 40
1.0
 40
1.0
 40
1.0
 40
1.0
 10
7234.329227611691
 20
5092.789420584477
 30
0.0
 10
7234.35876523231
 20
5092.79282936266
 30
0.0
 10
7234.388344404755
 20
5092.797102404852
 30
0.0
 10
7234.447053962614
 20
5092.809096206176
 30
0.0
 10
7234.476159996949
 20
5092.817738003396
 30
0.0
 10
7234.534500249371
 20
5092.83354532973
 30
0.0
 10
7234.564194930184
 20
5092.83576950703
 30
0.0
 10
7234.623428314405
 20
5092.841882034583
 30
0.0
 10
7234.653003672948
 20
5092.845367625392
 30
0.0
 10
7234.741499293642
 20
5092.858234855052
 30
0.0
 10
7234.80015345677
 20
5092.870397241665
 30
0.0
 10
7234.917679557957
 20
5092.892139515671
 30
0.0
 10
7234.976846172333
 20
5092.898583047344
 30
0.0
 10
7235.153971295618
 20
5092.921727015108
 30
0.0
 10
7235.271911688491
 20
5092.938347325077
 30
0.0
 10
7235.508147544396
 20
5092.967186344475
 30
0.0
 10
7235.626407325935
 20
5092.979786597615
 30
0.0
 10
7236.218054760117
 20
5093.03785895661
 30
0.0
 10
7236.692823718541
 20
5093.064883331177
 30
0.0
 10
7237.168789935045
 20
5093.077135078628
 30
0.0
  0
SPLINE
  5
BB
330
1F
100
AcDbEntity
  8
0
  6
Continuous
 62
     7
370
    25
100
AcDbSpline
210
0.0
220
0.0
230
1.0
 70
     8
 71
     3
 72
    20
 73
    16
 74
     0
 42
0.000000001
 43
0.00000001
 40
0.0
 40
0.0
 40
0.0
 40
0.0
 40
0.0625000000000001
 40
0.0625000000000001
 40
0.1250000000000001
 40
0.1250000000000001
 40
0.2500000000000002
 40
0.2500000000000002
 40
0.5
 40
0.5
 40
0.7499999999999998
 40
0.7499999999999998
 40
0.8749999999999999
 40
0.8749999999999999
 40
1.0
 40
1.0
 40
1.0
 40
1.0
 10
7057.886735054653
 20
5092.798077649349
 30
0.0
 10
7061.562619413729
 20
5092.795059901578
 30
0.0
 10
7065.238505250679
 20
5092.79619358211
 30
0.0
 10
7072.590275731864
 20
5092.795238607746
 30
0.0
 10
7076.266160991078
 20
5092.79496593704
 30
0.0
 10
7087.29381676586
 20
5092.794113042921
 30
0.0
 10
7094.645587299312
 20
5092.793731959745
 30
0.0
 10
7116.700898909573
 20
5092.792695276812
 30
0.0
 10
7131.404439997065
 20
5092.792221486686
 30
0.0
 10
7160.811522170493
 20
5092.79135942174
 30
0.0
 10
7175.515063259672
 20
5092.790991504751
 30
0.0
 10
7197.570374892745
 20
5092.790419439369
 30
0.0
 10
7204.922145436929
 20
5092.790223635229
 30
0.0
 10
7219.625686523765
 20
5092.789791129259
 30
0.0
 10
7226.977457176867
 20
5092.788286184643
 30
0.0
 10
7234.329227611691
 20
5092.789420584477
 30
0.0
  0
LINE
  5
BC
330
1F
100
AcDbEntity
  8
0
  6
Continuous
 62
     7
370
    25
100
AcDbLine
 10
6927.0354848866
 20
5092.7951998482
 30
0.0
 11
6927.0311653419
 21
5092.7952528295
 31
0.0
  0
LINE
  5
BD
330
1F
100
AcDbEntity
  8
0
  6
Continuous
 62
     7
370
    25
100
AcDbLine
 10
7357.8867350547
 20
5326.0357208364
 30
0.0
 11
7357.8867350547
 21
5336.0357208364
 31
0.0
  0
LINE
  5
BE
330
1F
100
AcDbEntity
  8
0
  6
Continuous
 62
     7
370
    25
100
AcDbLine
 10
7057.8867350547
 20
5326.0357208364
 30
0.0
 11
7057.8867350547
 21
5336.0357208364
 31
0.0
  0
LWPOLYLINE
  5
BF
330
1F
100
AcDbEntity
  8
0
  6
Continuous
 62
     7
370
    25
100
AcDbPolyline
 90
        9
 70
   128
 43
0.0
 10
7057.8867350547
 20
5092.7980776493
 10
7057.8869777601
 20
5092.0188005827
 10
7057.8873326032
 20
5091.2943650133
 10
7057.8877899356
 20
5090.64446886
 10
7057.888337322
 20
5090.0867832619
 10
7057.8889598787
 20
5089.6364720871
 10
7057.8896406778
 20
5089.3057796173
 10
7057.890361208
 20
5089.1036976159
 10
7057.8911018776
 20
5089.0357208364
  0
SPLINE
  5
C0
330
1F
100
AcDbEntity
  8
0
  6
Continuous
 62
     7
370
    25
100
AcDbSpline
210
0.0
220
0.0
230
1.0
 70
    24
 71
     3
 72
    27
 73
    23
 74
     0
 42
0.000000001
 43
0.00000001
 40
0.0
 40
0.0
 40
0.0
 40
0.0
 40
0.0334077125843202
 40
0.0668141726995335
 40
0.1203343017366695
 40
0.174046241880568
 40
0.2277584602887168
 40
0.2812789701366513
 40
0.3348133628039994
 40
0.3885392212976607
 40
0.4422652734939217
 40
0.4957999312456977
 40
0.5493211043808283
 40
0.6030334585176399
 40
0.6567458693776075
 40
0.7102671201387794
 40
0.7637776698446701
 40
0.8174793310534598
 40
0.8711808256075029
 40
0.9246911472451483
 40
0.9781979807459035
 40
0.9999999999999999
 40
0.9999999999999999
 40
0.9999999999999999
 40
0.9999999999999999
 10
7057.891101877571
 20
5089.035720836389
 30
0.0
 10
7055.682034242538
 20
5089.03572083639
 30
0.0
 10
7051.263981791341
 20
5089.035720836389
 30
0.0
 10
7043.328412852347
 20
5089.03572083639
 30
0.0
 10
7034.119581501221
 20
5089.035720836389
 30
0.0
 10
7023.752058654855
 20
5089.03572083639
 30
0.0
 10
7013.623972575513
 20
5089.03572083639
 30
0.0
 10
7003.819006944557
 20
5089.035720836389
 30
0.0
 10
6994.407324753673
 20
5089.035720836389
 30
0.0
 10
6985.434669576583
 20
5089.035720836389
 30
0.0
 10
6976.970625167294
 20
5089.03572083639
 30
0.0
 10
6969.088393391104
 20
5089.035720836389
 30
0.0
 10
6961.853437826581
 20
5089.03572083639
 30
0.0
 10
6955.291118823597
 20
5089.03572083639
 30
0.0
 10
6949.44823905609
 20
5089.03572083639
 30
0.0
 10
6944.378503462906
 20
5089.035720836389
 30
0.0
 10
6940.133988921404
 20
5089.03572083639
 30
0.0
 10
6936.722010553886
 20
5089.03572083639
 30
0.0
 10
6934.144836743875
 20
5089.035720836389
 30
0.0
 10
6932.49986863186
 20
5089.035720836389
 30
0.0
 10
6931.749136823137
 20
5089.035720836389
 30
0.0
 10
6931.855372510706
 20
5089.035720836389
 30
0.0
 10
6931.886127892326
 20
5089.035720836389
 30
0.0
  0
ARC
  5
C1
330
1F
100
AcDbEntity
  8
0
  6
Continuous
 62
     7
370
    25
100
AcDbCircle
 10
7226.9772246758
 20
5092.2073047602
 30
0.0
 40
10.22861707256932
100
AcDbArc
 50
341.9365708017
 51
4.8782616286
  0
SPLINE
  5
C2
330
1F
100
AcDbEntity
  8
0
  6
Continuous
 62
     7
370
    25
100
AcDbSpline
210
0.0
220
0.0
230
1.0
 70
    24
 71
     3
 72
    29
 73
    25
 74
     0
 42
0.000000001
 43
0.00000001
 40
0.0
 40
0.0
 40
0.0
 40
0.0
 40
0.0078125000000001
 40
0.0078125000000001
 40
0.0117187500000001
 40
0.0117187500000001
 40
0.0156250000000002
 40
0.0156250000000002
 40
0.0312500000000002
 40
0.0312500000000002
 40
0.0625000000000001
 40
0.0625000000000001
 40
0.1250000000000001
 40
0.2499999999999999
 40
0.2499999999999999
 40
0.4999999999999997
 40
0.4999999999999997
 40
0.7499999999999993
 40
0.7499999999999993
 40
0.8749999999999997
 40
0.8749999999999997
 40
0.9374999999999999
 40
0.9374999999999999
 40
1.0
 40
1.0
 40
1.0
 40
1.0
 10
7236.701712458219
 20
5089.035720836389
 30
0.0
 10
7236.236122387705
 20
5089.035720836389
 30
0.0
 10
7235.770523566362
 20
5089.03572083639
 30
0.0
 10
7235.072097996295
 20
5089.035720836391
 30
0.0
 10
7234.839284986776
 20
5089.03572083639
 30
0.0
 10
7234.373643726031
 20
5089.03572083639
 30
0.0
 10
7234.140815105114
 20
5089.03572083639
 30
0.0
 10
7232.976682268708
 20
5089.03572083639
 30
0.0
 10
7232.045375975736
 20
5089.03572083639
 30
0.0
 10
7229.251457134422
 20
5089.035720836389
 30
0.0
 10
7227.388844563583
 20
5089.03572083639
 30
0.0
 10
7221.801006872343
 20
5089.03572083639
 30
0.0
 10
7210.625331498195
 20
5089.03572083639
 30
0.0
 10
7199.449656176187
 20
5089.035720836389
 30
0.0
 10
7177.098305550388
 20
5089.03572083639
 30
0.0
 10
7162.197405148307
 20
5089.03572083639
 30
0.0
 10
7132.39560419541
 20
5089.03572083639
 30
0.0
 10
7117.494703678172
 20
5089.035720836389
 30
0.0
 10
7095.143352947695
 20
5089.03572083639
 30
0.0
 10
7087.692902706111
 20
5089.03572083639
 30
0.0
 10
7076.51722735841
 20
5089.03572083639
 30
0.0
 10
7072.792002241998
 20
5089.035720836389
 30
0.0
 10
7065.341552030775
 20
5089.035720836389
 30
0.0
 10
7061.616326797188
 20
5089.035720836389
 30
0.0
 10
7057.891101877571
 20
5089.035720836389
 30
0.0
  0
LWPOLYLINE
  5
C3
330
1F
100
AcDbEntity
  8
0
  6
Continuous
 62
     7
370
    25
100
AcDbPolyline
 90
        9
 70
   128
 43
0.0
 10
7246.4776204439
 20
5089.0357208364
 10
7246.8048104089
 20
5089.0875618245
 10
7247.1252156334
 20
5089.2420097938
 10
7247.4321920681
 20
5089.49586205
 10
7247.7193741283
 20
5089.8438546124
 10
7247.9808066932
 20
5090.2787713698
 10
7248.211068594
 20
5090.7915937162
 10
7248.4053850288
 20
5091.3716875649
 10
7248.5597265751
 20
5092.0070238605
  0
SPLINE
  5
C4
330
1F
100
AcDbEntity
  8
0
  6
Continuous
 62
     7
370
    25
100
AcDbSpline
210
0.0
220
0.0
230
1.0
 70
    24
 71
     3
 72
    20
 73
    16
 74
     0
 42
0.000000001
 43
0.00000001
 40
0.0
 40
0.0
 40
0.0
 40
0.0
 40
0.0312499999999993
 40
0.0312499999999993
 40
0.0624999999999985
 40
0.0624999999999985
 40
0.1249999999999986
 40
0.1249999999999986
 40
0.2499999999999988
 40
0.2499999999999988
 40
0.4999999999999992
 40
0.4999999999999992
 40
0.7499999999999996
 40
0.7499999999999996
 40
1.0
 40
1.0
 40
1.0
 40
1.0
 10
7246.477620443889
 20
5089.035720836389
 30
0.0
 10
7246.381559523348
 20
5089.035720836389
 30
0.0
 10
7246.285701931802
 20
5089.03572083639
 30
0.0
 10
7246.091707463974
 20
5089.03572083639
 30
0.0
 10
7245.993812688678
 20
5089.035720836389
 30
0.0
 10
7245.700382115402
 20
5089.035720836389
 30
0.0
 10
7245.502966801261
 20
5089.03572083639
 30
0.0
 10
7244.907801193672
 20
5089.03572083639
 30
0.0
 10
7244.506359168532
 20
5089.03572083639
 30
0.0
 10
7243.295343986279
 20
5089.03572083639
 30
0.0
 10
7242.478866316331
 20
5089.03572083639
 30
0.0
 10
7240.838517726496
 20
5089.03572083639
 30
0.0
 10
7240.014258373421
 20
5089.035720836389
 30
0.0
 10
7238.361540212674
 20
5089.035720836389
 30
0.0
 10
7237.533400963097
 20
5089.035720836389
 30
0.0
 10
7236.701712458221
 20
5089.035720836389
 30
0.0
  0
SPLINE
  5
C5
330
1F
100
AcDbEntity
  8
0
  6
Continuous
 62
     7
370
    25
100
AcDbSpline
210
0.0
220
0.0
230
1.0
 70
    24
 71
     3
 72
    21
 73
    17
 74
     0
 42
0.000000001
 43
0.00000001
 40
0.0
 40
0.0
 40
0.0
 40
0.0
 40
0.0663507795340187
 40
0.1504077381026692
 40
0.2344643419999991
 40
0.314625548461703
 40
0.3947864554044273
 40
0.4771822196381674
 40
0.5595777139629108
 40
0.6394345959609583
 40
0.7192903924928318
 40
0.8014338103992874
 40
0.8835745102321565
 40
0.9416533370866381
 40
0.9708576707776644
 40
1.0
 40
1.0
 40
1.0
 40
1.0
 10
7315.697454594167
 20
5089.035720836389
 30
0.0
 10
7315.664459880237
 20
5089.035720836389
 30
0.0
 10
7315.589665577496
 20
5089.03572083639
 30
0.0
 10
7314.229548873892
 20
5089.035720836389
 30
0.0
 10
7311.872904219265
 20
5089.035720836389
 30
0.0
 10
7308.538809013185
 20
5089.035720836389
 30
0.0
 10
7304.311592390564
 20
5089.035720836389
 30
0.0
 10
7299.114597443689
 20
5089.035720836389
 30
0.0
 10
7293.028682565037
 20
5089.03572083639
 30
0.0
 10
7286.163778417746
 20
5089.035720836389
 30
0.0
 10
7278.528866256584
 20
5089.03572083639
 30
0.0
 10
7270.057458542668
 20
5089.035720836389
 30
0.0
 10
7261.727640837524
 20
5089.03572083639
 30
0.0
 10
7254.924382880243
 20
5089.03572083639
 30
0.0
 10
7250.231761834917
 20
5089.035720836389
 30
0.0
 10
7247.728114039643
 20
5089.035720836389
 30
0.0
 10
7246.477620443891
 20
5089.035720836389
 30
0.0
  0
LINE
  5
C6
330
1F
100
AcDbEntity
  8
0
  6
Continuous
 62
     8
370
    25
100
AcDbLine
 10
7057.8867350547
 20
5336.0357208364
 30
0.0
 11
6866.8867350547
 21
5336.0357208364
 31
0.0
  0
LINE
  5
C7
330
1F
100
AcDbEntity
  8
0
  6
Continuous
 62
     8
370
    25
100
AcDbLine
 10
7548.8867350547
 20
5336.0357208364
 30
0.0
 11
7357.8867350547
 21
5336.0357208364
 31
0.0
  0
SPLINE
  5
C8
330
1F
100
AcDbEntity
  8
0
  6
Continuous
 62
     8
370
    25
100
AcDbSpline
210
0.0
220
0.0
230
1.0
 70
     8
 71
     3
 72
    21
 73
    17
 74
     0
 42
0.000000001
 43
0.00000001
 40
0.0
 40
0.0
 40
0.0
 40
0.0
 40
0.0000003952856179
 40
0.0573187706602795
 40
0.1148483783640676
 40
0.194905156694258
 40
0.2755040246555329
 40
0.3577868768757421
 40
0.4406432412321294
 40
0.5207862167263227
 40
0.6014525757306456
 40
0.683762845599192
 40
0.766638844833356
 40
0.8482399177794726
 40
0.9303917791458133
 40
1.0
 40
1.0
 40
1.0
 40
1.0
 10
7249.158955088944
 20
5091.902768982913
 30
0.0
 10
7249.158972046943
 20
5091.90276838252
 30
0.0
 10
7251.617982861729
 20
5091.815707808898
 30
0.0
 10
7256.452279980532
 20
5091.658518799253
 30
0.0
 10
7264.311436043373
 20
5091.438211743822
 30
0.0
 10
7272.619647174213
 20
5091.240940964121
 30
0.0
 10
7281.177018346961
 20
5091.069251314109
 30
0.0
 10
7289.069271119144
 20
5090.93213670243
 30
0.0
 10
7296.121076063575
 20
5090.824286893601
 30
0.0
 10
7302.272484174884
 20
5090.739836908769
 30
0.0
 10
7307.531045649277
 20
5090.673675258111
 30
0.0
 10
7311.910904758562
 20
5090.62290830089
 30
0.0
 10
7315.333080907494
 20
5090.585994003135
 30
0.0
 10
7317.725228174321
 20
5090.562076493521
 30
0.0
 10
7319.134881513241
 20
5090.549570413885
 30
0.0
 10
7319.23663146836
 20
5090.550425320123
 30
0.0
 10
7319.283301404515
 20
5090.550817442357
 30
0.0
  0
SPLINE
  5
C9
330
1F
100
AcDbEntity
  8
0
  6
Continuous
 62
     8
370
    25
100
AcDbSpline
210
0.0
220
0.0
230
1.0
 70
     8
 71
     3
 72
    27
 73
    23
 74
     0
 42
0.000000001
 43
0.00000001
 40
0.0
 40
0.0
 40
0.0
 40
0.0
 40
0.0190299634592846
 40
0.073695878601217
 40
0.1266365319855934
 40
0.1799475814172084
 40
0.2338317537116404
 40
0.2885013283672114
 40
0.3412612507120501
 40
0.3943874422308154
 40
0.448668550719526
 40
0.5033488583725862
 40
0.556121287084545
 40
0.60926016923456
 40
0.6635554669455767
 40
0.7182503365022135
 40
0.7710097578188682
 40
0.8241359633575516
 40
0.8784194591405563
 40
0.9331030134518102
 40
0.9817186206986815
 40
1.0
 40
1.0
 40
1.0
 40
1.0
 10
6927.031165341909
 20
5092.795252829489
 30
0.0
 10
6927.002927138931
 20
5092.795443884823
 30
0.0
 10
6926.893571218036
 20
5092.796183770148
 30
0.0
 10
6927.676357853305
 20
5092.797555608671
 30
0.0
 10
6929.361139546966
 20
5092.799105791139
 30
0.0
 10
6931.998441552099
 20
5092.800563828781
 30
0.0
 10
6935.544162531097
 20
5092.801602185923
 30
0.0
 10
6939.962991029365
 20
5092.802327878966
 30
0.0
 10
6945.194290473438
 20
5092.802455745977
 30
0.0
 10
6951.198735349839
 20
5092.802121436242
 30
0.0
 10
6958.03794922596
 20
5092.801204897828
 30
0.0
 10
6965.585682026263
 20
5092.799747667646
 30
0.0
 10
6973.73314127306
 20
5092.797946341489
 30
0.0
 10
6982.447879681249
 20
5092.795799490492
 30
0.0
 10
6991.807920079945
 20
5092.793600890313
 30
0.0
 10
7001.624844698011
 20
5092.791533665431
 30
0.0
 10
7011.768772054617
 20
5092.789975565444
 30
0.0
 10
7022.208466436113
 20
5092.789219028393
 30
0.0
 10
7033.029713244825
 20
5092.78972065335
 30
0.0
 10
7043.725415043014
 20
5092.791780248427
 30
0.0
 10
7052.048681682932
 20
5092.795370923593
 30
0.0
 10
7056.633744732459
 20
5092.797496719205
 30
0.0
 10
7057.886735054653
 20
5092.798077649349
 30
0.0
  0
ARC
  5
CA
330
1F
100
AcDbEntity
  8
0
  6
Continuous
 62
     7
100
AcDbCircle
 10
6274.0201046303
 20
4494.6972767382
 30
0.0
 40
130.0
100
AcDbArc
 50
0.0
 51
180.0
  0
ARC
  5
CB
330
1F
100
AcDbEntity
  8
0
  6
Continuous
 62
     7
100
AcDbCircle
 10
6274.0201046303
 20
4384.6972767382
 30
0.0
 40
149.9999999999991
100
AcDbArc
 50
212.204227504
 51
327.795772496
  0
ARC
  5
CC
330
1F
100
AcDbEntity
  8
0
  6
Continuous
 62
     7
100
AcDbCircle
 10
6384.0201046303
 20
4315.4152444354
 30
0.0
 40
19.99999999999909
100
AcDbArc
 50
327.795772496
 51
0.0
  0
ARC
  5
CD
330
1F
100
AcDbEntity
  8
0
  6
Continuous
 62
     7
100
AcDbCircle
 10
6164.0201046303
 20
4315.4152444354
 30
0.0
 40
20.0
100
AcDbArc
 50
180.0
 51
212.204227504
  0
LINE
  5
CE
330
1F
100
AcDbEntity
  8
0
  6
Continuous
 62
     7
100
AcDbLine
 10
6144.0201046303
 20
4494.6972767382
 30
0.0
 11
6144.0201046303
 21
4315.4152444354
 31
0.0
  0
LINE
  5
CF
330
1F
100
AcDbEntity
  8
0
  6
Continuous
 62
     7
100
AcDbLine
 10
6404.0201046303
 20
4315.4152444354
 30
0.0
 11
6404.0201046303
 21
4494.6972767382
 31
0.0
  0
ARC
  5
D0
330
1F
100
AcDbEntity
  8
0
  6
Continuous
 62
     7
370
    25
100
AcDbCircle
 10
6084.6898005402
 20
4195.7512333592
 30
0.0
 40
1.24872621936502
100
AcDbArc
 50
237.5676632237
 51
272.4419700901
  0
SPLINE
  5
D1
330
1F
100
AcDbEntity
  8
0
  6
Continuous
 62
     7
370
    25
100
AcDbSpline
210
0.0
220
0.0
230
1.0
 70
     8
 71
     3
 72
   104
 73
   100
 74
     0
 42
0.000000001
 43
0.00000001
 40
0.0
 40
0.0
 40
0.0
 40
0.0
 40
0.0312499999999998
 40
0.0312499999999998
 40
0.0390624999999997
 40
0.0390624999999997
 40
0.0468749999999997
 40
0.0468749999999997
 40
0.0624999999999996
 40
0.0624999999999996
 40
0.0937499999999994
 40
0.0937499999999994
 40
0.1249999999999992
 40
0.1249999999999992
 40
0.1406249999999992
 40
0.1406249999999992
 40
0.1484374999999992
 40
0.1484374999999992
 40
0.1562499999999992
 40
0.1562499999999992
 40
0.1874999999999993
 40
0.1874999999999993
 40
0.2187499999999994
 40
0.2187499999999994
 40
0.2499999999999994
 40
0.2499999999999994
 40
0.2578124999999994
 40
0.2578124999999994
 40
0.2656249999999994
 40
0.2656249999999994
 40
0.2812499999999994
 40
0.2812499999999994
 40
0.3124999999999994
 40
0.3124999999999994
 40
0.3437499999999994
 40
0.3437499999999994
 40
0.3593749999999995
 40
0.3593749999999995
 40
0.3671874999999995
 40
0.3671874999999995
 40
0.3749999999999994
 40
0.3749999999999994
 40
0.4062499999999996
 40
0.4062499999999996
 40
0.4374999999999998
 40
0.4374999999999998
 40
0.4687499999999999
 40
0.4687499999999999
 40
0.4765624999999999
 40
0.4765624999999999
 40
0.4843749999999999
 40
0.4843749999999999
 40
0.5
 40
0.5
 40
0.5312500000000001
 40
0.5312500000000001
 40
0.5625000000000002
 40
0.5625000000000002
 40
0.5781250000000002
 40
0.5781250000000002
 40
0.5937500000000002
 40
0.5937500000000002
 40
0.6250000000000002
 40
0.6250000000000002
 40
0.6562500000000002
 40
0.6562500000000002
 40
0.6718750000000002
 40
0.6718750000000002
 40
0.6796875000000001
 40
0.6796875000000001
 40
0.6875000000000001
 40
0.6875000000000001
 40
0.7187500000000002
 40
0.7187500000000002
 40
0.7500000000000002
 40
0.7500000000000002
 40
0.7812500000000003
 40
0.7812500000000003
 40
0.7890625000000004
 40
0.7890625000000004
 40
0.7968750000000004
 40
0.7968750000000004
 40
0.8125000000000004
 40
0.8125000000000004
 40
0.8437500000000003
 40
0.8437500000000003
 40
0.8750000000000002
 40
0.8750000000000002
 40
0.8906250000000002
 40
0.8906250000000002
 40
0.8984375000000003
 40
0.8984375000000003
 40
0.9062500000000003
 40
0.9062500000000003
 40
0.9375000000000002
 40
0.9375000000000002
 40
0.9687500000000001
 40
0.9687500000000001
 40
1.0
 40
1.0
 40
1.0
 40
1.0
 10
6084.743005662796
 20
4194.503641123807
 30
0.0
 10
6084.850416426258
 20
4188.359555126253
 30
0.0
 10
6085.266930420158
 20
4182.242237955309
 30
0.0
 10
6086.170020953561
 20
4174.62853357213
 30
0.0
 10
6086.369803833603
 20
4173.107444650837
 30
0.0
 10
6086.807771536771
 20
4170.068576215212
 30
0.0
 10
6087.046173655951
 20
4168.549696864869
 30
0.0
 10
6087.816077238407
 20
4164.015332613243
 30
0.0
 10
6088.402817804291
 20
4161.017296596776
 30
0.0
 10
6090.378404463865
 20
4152.096105251092
 30
0.0
 10
6091.982285943294
 20
4146.245768955871
 30
0.0
 10
6095.750116609202
 20
4134.734675215199
 30
0.0
 10
6097.91398001276
 20
4129.073886794689
 30
0.0
 10
6101.581666548938
 20
4120.725521114598
 30
0.0
 10
6102.874676072178
 20
4117.966580734183
 30
0.0
 10
6104.921311676566
 20
4113.864436167527
 30
0.0
 10
6105.621383866924
 20
4112.503101183676
 30
0.0
 10
6107.057587634265
 20
4109.79263932601
 30
0.0
 10
6107.794183626096
 20
4108.442797868244
 30
0.0
 10
6111.547196897131
 20
4101.760996277369
 30
0.0
 10
6114.787961521331
 20
4096.601870244599
 30
0.0
 10
6121.730055114287
 20
4086.643664461581
 30
0.0
 10
6125.431490598158
 20
4081.84466685632
 30
0.0
 10
6133.292437937957
 20
4072.604796924249
 30
0.0
 10
6137.451962937773
 20
4068.163938155038
 30
0.0
 10
6142.944766293729
 20
4062.842273281125
 30
0.0
 10
6144.058031400647
 20
4061.7894377181
 30
0.0
 10
6146.314289708687
 20
4059.707011364123
 30
0.0
 10
6147.455561369608
 20
4058.679078005093
 30
0.0
 10
6150.906433182494
 20
4055.645623733316
 30
0.0
 10
6153.247809345052
 20
4053.685998793059
 30
0.0
 10
6160.392185140758
 20
4047.991879507952
 30
0.0
 10
6165.315154059189
 20
4044.441714206074
 30
0.0
 10
6175.476911466545
 20
4037.826649114904
 30
0.0
 10
6180.715732499011
 20
4034.761797169476
 30
0.0
 10
6188.813955812393
 20
4030.533277889762
 30
0.0
 10
6191.553444817811
 20
4029.185358732681
 30
0.0
 10
6195.723887096983
 20
4027.257532807498
 30
0.0
 10
6197.125642850202
 20
4026.630003892808
 30
0.0
 10
6199.943282479599
 20
4025.409488920435
 30
0.0
 10
6201.356752005639
 20
4024.817504010634
 30
0.0
 10
6208.447104177346
 20
4021.947983488629
 30
0.0
 10
6214.192839079238
 20
4019.941024629007
 30
0.0
 10
6225.827515572929
 20
4016.489888782716
 30
0.0
 10
6231.716488965885
 20
4015.045838411242
 30
0.0
 10
6243.638185525024
 20
4012.722660092837
 30
0.0
 10
6249.670891540297
 20
4011.843462656936
 30
0.0
 10
6257.30437435028
 20
4011.108376664951
 30
0.0
 10
6258.83675514703
 20
4010.979573277496
 30
0.0
 10
6261.89486020113
 20
4010.759857493578
 30
0.0
 10
6263.422446559334
 20
4010.668737736282
 30
0.0
 10
6268.0008508848
 20
4010.451033641095
 30
0.0
 10
6271.047316654302
 20
4010.38007189551
 30
0.0
 10
6280.169557204494
 20
4010.386455158257
 30
0.0
 10
6286.228215449675
 20
4010.682553569177
 30
0.0
 10
6298.300250701819
 20
4011.853459755064
 30
0.0
 10
6304.313627616178
 20
4012.728269208315
 30
0.0
 10
6313.299090942352
 20
4014.482706157924
 30
0.0
 10
6316.288468936762
 20
4015.14134262285
 30
0.0
 10
6322.255432266582
 20
4016.609328566068
 30
0.0
 10
6325.209878305919
 20
4017.412996558409
 30
0.0
 10
6333.984423313612
 20
4020.027856482001
 30
0.0
 10
6339.717490542816
 20
4022.042827934527
 30
0.0
 10
6350.955141744237
 20
4026.605094212407
 30
0.0
 10
6356.459659623628
 20
4029.152542945658
 30
0.0
 10
6364.543706582152
 20
4033.376142941672
 30
0.0
 10
6367.209551577018
 20
4034.851194801076
 30
0.0
 10
6371.164449843985
 20
4037.165978185946
 30
0.0
 10
6372.475434713382
 20
4037.954613925856
 30
0.0
 10
6375.082633225621
 20
4039.566298789469
 30
0.0
 10
6376.38054457297
 20
4040.390478392793
 30
0.0
 10
6382.80556403936
 20
4044.580442920088
 30
0.0
 10
6387.744646965592
 20
4048.155216705622
 30
0.0
 10
6397.233568448164
 20
4055.736353124983
 30
0.0
 10
6401.783307019365
 20
4059.742828106649
 30
0.0
 10
6410.494573609526
 20
4068.186192661591
 30
0.0
 10
6414.656002874034
 20
4072.623194795679
 30
0.0
 10
6419.608803061135
 20
4078.445487353247
 30
0.0
 10
6420.586879293183
 20
4079.623786161388
 30
0.0
 10
6422.517788706782
 20
4082.008369298982
 30
0.0
 10
6423.470677960734
 20
4083.214832500666
 30
0.0
 10
6426.275997957597
 20
4086.856646281713
 30
0.0
 10
6428.080433023555
 20
4089.320830600037
 30
0.0
 10
6433.299639920766
 20
4096.820512738317
 30
0.0
 10
6436.520708879849
 20
4101.962927002761
 30
0.0
 10
6442.452332366203
 20
4112.529488432985
 30
0.0
 10
6445.162875136481
 20
4117.953642839497
 30
0.0
 10
6448.838893020157
 20
4126.304952067187
 30
0.0
 10
6449.999107978551
 20
4129.124657349528
 30
0.0
 10
6451.639787964628
 20
4133.409196927321
 30
0.0
 10
6452.170065841898
 20
4134.846545000961
 30
0.0
 10
6453.196959233315
 20
4137.739815357139
 30
0.0
 10
6453.692832772856
 20
4139.193793671227
 30
0.0
 10
6456.075249770932
 20
4146.472359907954
 30
0.0
 10
6457.681030736038
 20
4152.348954150469
 30
0.0
 10
6460.303588083453
 20
4164.207600827202
 30
0.0
 10
6461.320269742286
 20
4170.189679839378
 30
0.0
 10
6462.759047104923
 20
4182.260358900023
 30
0.0
 10
6463.181186335793
 20
4188.348944861601
 30
0.0
 10
6463.294505009404
 20
4194.492909648585
 30
0.0
  0
ARC
  5
D2
330
1F
100
AcDbEntity
  8
0
  6
Continuous
 62
     7
370
    25
100
AcDbCircle
 10
6463.3452129687
 20
4195.7031665593
 30
0.0
 40
1.211318738805542
100
AcDbArc
 50
267.6007955664
 51
303.8592385692
  0
LINE
  5
D3
330
1F
100
AcDbEntity
  8
0
  6
Continuous
 62
     7
370
    25
100
AcDbLine
 10
6464.0201046303
 20
4494.6972767382
 30
0.0
 11
6463.3888364141
 21
4494.697276744
 31
0.0
  0
SPLINE
  5
D4
330
1F
100
AcDbEntity
  8
0
  6
Continuous
 62
     7
370
    25
100
AcDbSpline
210
0.0
220
0.0
230
1.0
 70
     8
 71
     3
 72
     8
 73
     4
 74
     0
 42
0.000000001
 43
0.00000001
 40
0.0
 40
0.0
 40
0.0
 40
0.0
 40
1.0
 40
1.0
 40
1.0
 40
1.0
 10
6463.294505009404
 20
4194.492909648585
 30
0.0
 10
6463.303533897168
 20
4194.982442103558
 30
0.0
 10
6463.312354231082
 20
4195.471756298623
 30
0.0
 10
6463.32095091492
 20
4195.960706560175
 30
0.0
  0
SPLINE
  5
D5
330
1F
100
AcDbEntity
  8
0
  6
Continuous
 62
     7
370
    25
100
AcDbSpline
210
0.0
220
0.0
230
1.0
 70
     8
 71
     3
 72
    26
 73
    22
 74
     0
 42
0.000000001
 43
0.00000001
 40
0.0
 40
0.0
 40
0.0
 40
0.0
 40
0.0078125
 40
0.0078125
 40
0.015625
 40
0.015625
 40
0.03125
 40
0.03125
 40
0.0625
 40
0.0625
 40
0.1249999999999999
 40
0.1249999999999999
 40
0.2499999999999998
 40
0.2499999999999998
 40
0.3749999999999998
 40
0.3749999999999998
 40
0.4374999999999998
 40
0.4374999999999998
 40
0.4999999999999999
 40
0.4999999999999999
 40
1.0
 40
1.0
 40
1.0
 40
1.0
 10
6463.32095091492
 20
4195.960706560175
 30
0.0
 10
6463.327116216042
 20
4196.738492177919
 30
0.0
 10
6463.329157760899
 20
4197.516581866628
 30
0.0
 10
6463.33336963168
 20
4199.072483092951
 30
0.0
 10
6463.335001311685
 20
4199.85043634971
 30
0.0
 10
6463.339236151015
 20
4202.184299673156
 30
0.0
 10
6463.34120795817
 20
4203.740213352842
 30
0.0
 10
6463.346579825738
 20
4208.40795654833
 30
0.0
 10
6463.349058692776
 20
4211.519790908059
 30
0.0
 10
6463.355632162207
 20
4220.855297910535
 30
0.0
 10
6463.358623461768
 20
4227.078975910955
 30
0.0
 10
6463.366523057874
 20
4245.750014746268
 30
0.0
 10
6463.370131029361
 20
4258.197377050612
 30
0.0
 10
6463.37665450734
 20
4283.092100271519
 30
0.0
 10
6463.379420490532
 20
4295.539462215314
 30
0.0
 10
6463.383790479288
 20
4314.210504974566
 30
0.0
 10
6463.385324133055
 20
4320.434185839969
 30
0.0
 10
6463.388426902512
 20
4332.881547547
 30
0.0
 10
6463.388836414074
 20
4339.105229204281
 30
0.0
 10
6463.388836414074
 20
4395.118366318575
 30
0.0
 10
6463.38883641557
 20
4444.90782153128
 30
0.0
 10
6463.388836414074
 20
4494.697276743986
 30
0.0
  0
SPLINE
  5
D6
330
1F
100
AcDbEntity
  8
0
  6
Continuous
 62
     7
370
    25
100
AcDbSpline
210
0.0
220
0.0
230
1.0
 70
     8
 71
     3
 72
   143
 73
   139
 74
     0
 42
0.000000001
 43
0.00000001
 40
0.0
 40
0.0
 40
0.0
 40
0.0
 40
0.0312499999999987
 40
0.0312499999999987
 40
0.0624999999999973
 40
0.0624999999999973
 40
0.093749999999996
 40
0.093749999999996
 40
0.1015624999999956
 40
0.1015624999999956
 40
0.1093749999999952
 40
0.1093749999999952
 40
0.1249999999999947
 40
0.1249999999999947
 40
0.1562499999999934
 40
0.1562499999999934
 40
0.1874999999999922
 40
0.1874999999999922
 40
0.2031249999999914
 40
0.2031249999999914
 40
0.2109374999999912
 40
0.2109374999999912
 40
0.218749999999991
 40
0.218749999999991
 40
0.2499999999999901
 40
0.2499999999999901
 40
0.2812499999999892
 40
0.2812499999999892
 40
0.2968749999999888
 40
0.2968749999999888
 40
0.3046874999999887
 40
0.3046874999999887
 40
0.3124999999999886
 40
0.3124999999999886
 40
0.3437499999999884
 40
0.3437499999999884
 40
0.3749999999999882
 40
0.3749999999999882
 40
0.4062499999999881
 40
0.4062499999999881
 40
0.414062499999988
 40
0.414062499999988
 40
0.421874999999988
 40
0.421874999999988
 40
0.4374999999999879
 40
0.4374999999999879
 40
0.468749999999988
 40
0.468749999999988
 40
0.499999999999988
 40
0.499999999999988
 40
0.515624999999988
 40
0.515624999999988
 40
0.523437499999988
 40
0.523437499999988
 40
0.531249999999988
 40
0.531249999999988
 40
0.562499999999988
 40
0.562499999999988
 40
0.593749999999988
 40
0.593749999999988
 40
0.6249999999999879
 40
0.6249999999999879
 40
0.632812499999988
 40
0.632812499999988
 40
0.6406249999999881
 40
0.6406249999999881
 40
0.6562499999999883
 40
0.6562499999999883
 40
0.687499999999989
 40
0.687499999999989
 40
0.7187499999999897
 40
0.7187499999999897
 40
0.73437499999999
 40
0.73437499999999
 40
0.7421874999999901
 40
0.7421874999999901
 40
0.7499999999999902
 40
0.7499999999999902
 40
0.78124999999999
 40
0.78124999999999
 40
0.8124999999999898
 40
0.8124999999999898
 40
0.8437499999999896
 40
0.8437499999999896
 40
0.8515624999999897
 40
0.8515624999999897
 40
0.8593749999999898
 40
0.8593749999999898
 40
0.8749999999999898
 40
0.8749999999999898
 40
0.9062499999999902
 40
0.9062499999999902
 40
0.9374999999999907
 40
0.9374999999999907
 40
0.953124999999991
 40
0.953124999999991
 40
0.9609374999999913
 40
0.9609374999999913
 40
0.9687499999999917
 40
0.976562499999992
 40
0.976562499999992
 40
0.9785156249999921
 40
0.9785156249999921
 40
0.9790039062499922
 40
0.9790039062499922
 40
0.9794921874999923
 40
0.9794921874999923
 40
0.9804687499999927
 40
0.9804687499999927
 40
0.9814453124999929
 40
0.9814453124999929
 40
0.9824218749999932
 40
0.9824218749999932
 40
0.9843749999999939
 40
0.9843749999999939
 40
0.9882812499999956
 40
0.9882812499999956
 40
0.9921874999999971
 40
0.9921874999999971
 40
0.9941406249999979
 40
0.9941406249999979
 40
0.9951171874999984
 40
0.9951171874999984
 40
0.996093749999999
 40
0.996093749999999
 40
0.9970703124999994
 40
0.9970703124999994
 40
0.9975585937499996
 40
0.9975585937499996
 40
0.9980468749999997
 40
0.9980468749999997
 40
0.9985351562499998
 40
0.9985351562499998
 40
0.9990234374999998
 40
0.9990234374999998
 40
0.9995117187499999
 40
0.9995117187499999
 40
1.0
 40
1.0
 40
1.0
 40
1.0
 10
6463.388836414074
 20
4494.697276743986
 30
0.0
 10
6463.388836413886
 20
4500.94784462311
 30
0.0
 10
6463.080061187105
 20
4507.151229654088
 30
0.0
 10
6461.863534814745
 20
4519.466472133759
 30
0.0
 10
6460.955747133979
 20
4525.578324019938
 30
0.0
 10
6458.54197986778
 20
4537.710620305126
 30
0.0
 10
6457.036012850222
 20
4543.731066552323
 30
0.0
 10
6454.769174455815
 20
4551.197888542435
 30
0.0
 10
6454.296439360692
 20
4552.68840996113
 30
0.0
 10
6453.317476654111
 20
4555.647764800116
 30
0.0
 10
6452.810661675789
 20
4557.118595460623
 30
0.0
 10
6451.238757699482
 20
4561.504823695514
 30
0.0
 10
6450.122245150936
 20
4564.393975626928
 30
0.0
 10
6446.57006694166
 20
4572.958007376435
 30
0.0
 10
6443.932230154172
 20
4578.529702835448
 30
0.0
 10
6438.121833109973
 20
4589.400181043194
 30
0.0
 10
6434.949303162261
 20
4594.698979215732
 30
0.0
 10
6429.781413322485
 20
4602.438381805591
 30
0.0
 10
6427.990473844363
 20
4604.983318743333
 30
0.0
 10
6425.199413185378
 20
4608.747312036388
 30
0.0
 10
6424.254018938185
 20
4609.989769692425
 30
0.0
 10
6422.337804630202
 20
4612.444743194362
 30
0.0
 10
6421.366303391103
 20
4613.658180346386
 30
0.0
 10
6416.442492369029
 20
4619.655816302733
 30
0.0
 10
6412.291760157198
 20
4624.23188181091
 30
0.0
 10
6403.575937310423
 20
4632.949377159927
 30
0.0
 10
6399.010812952174
 20
4637.090771202084
 30
0.0
 10
6391.850005998823
 20
4642.97441733945
 30
0.0
 10
6389.410792308715
 20
4644.880796153473
 30
0.0
 10
6385.67241218135
 20
4647.656911205442
 30
0.0
 10
6384.413019412803
 20
4648.568367602232
 30
0.0
 10
6381.867434876493
 20
4650.363169919978
 30
0.0
 10
6380.580039819418
 20
4651.247317246861
 30
0.0
 10
6374.088873309628
 20
4655.587868771457
 30
0.0
 10
6368.767299114875
 20
4658.77541109969
 30
0.0
 10
6357.875543424604
 20
4664.59991234569
 30
0.0
 10
6352.305338441457
 20
4667.236819217675
 30
0.0
 10
6340.917613451982
 20
4671.962908293545
 30
0.0
 10
6335.100113520487
 20
4674.052134776824
 30
0.0
 10
6327.669988093334
 20
4676.313195002518
 30
0.0
 10
6326.17603226529
 20
4676.747843045091
 30
0.0
 10
6323.172091460359
 20
4677.581639802157
 30
0.0
 10
6321.660011926294
 20
4677.981290267528
 30
0.0
 10
6317.120316173467
 20
4679.121229054585
 30
0.0
 10
6314.087090478288
 20
4679.803401002881
 30
0.0
 10
6304.967530324418
 20
4681.621193208336
 30
0.0
 10
6298.861362561405
 20
4682.528667474538
 30
0.0
 10
6286.597047631846
 20
4683.74564975441
 30
0.0
 10
6280.438898295899
 20
4684.055131448667
 30
0.0
 10
6271.162262552531
 20
4684.06597511474
 30
0.0
 10
6268.063470041649
 20
4683.99389014743
 30
0.0
 10
6263.405251906384
 20
4683.770391328952
 30
0.0
 10
6261.850840065857
 20
4683.67665256943
 30
0.0
 10
6258.738634471187
 20
4683.450270596445
 30
0.0
 10
6257.180283008749
 20
4683.317509918314
 30
0.0
 10
6249.423428063252
 20
4682.560056713362
 30
0.0
 10
6243.295040662165
 20
4681.652997286166
 30
0.0
 10
6231.187784905064
 20
4679.254935638874
 30
0.0
 10
6225.208923644551
 20
4677.763902324162
 30
0.0
 10
6213.400415791416
 20
4674.199079961147
 30
0.0
 10
6207.570771318503
 20
4672.125284537453
 30
0.0
 10
6200.379541397181
 20
4669.158796100052
 30
0.0
 10
6198.946097805007
 20
4668.54674276651
 30
0.0
 10
6196.088925539396
 20
4667.284694427212
 30
0.0
 10
6194.668279537699
 20
4666.636017263588
 30
0.0
 10
6190.442572547377
 20
4664.643262306163
 30
0.0
 10
6187.66848094779
 20
4663.250183614164
 30
0.0
 10
6179.473029998162
 20
4658.880694379659
 30
0.0
 10
6174.178198535678
 20
4655.714474579155
 30
0.0
 10
6163.921325395089
 20
4648.882804601421
 30
0.0
 10
6158.959279545366
 20
4645.217361026705
 30
0.0
 10
6151.769304515009
 20
4639.339520614489
 30
0.0
 10
6149.414908129746
 20
4637.316841750508
 30
0.0
 10
6145.947868704078
 20
4634.185981840606
 30
0.0
 10
6144.802110015029
 20
4633.125411346013
 30
0.0
 10
6142.53606872396
 20
4630.975098868015
 30
0.0
 10
6141.418677126926
 20
4629.888142387133
 30
0.0
 10
6135.908980603704
 20
4624.395026149228
 30
0.0
 10
6131.747871281404
 20
4619.814309966436
 30
0.0
 10
6123.90579460999
 20
4610.290361433835
 30
0.0
 10
6120.224880537046
 20
4605.347088485905
 30
0.0
 10
6113.344331225248
 20
4595.097168070492
 30
0.0
 10
6110.144631134258
 20
4589.790570133738
 30
0.0
 10
6106.455242372353
 20
4582.923088155732
 30
0.0
 10
6105.732062349764
 20
4581.536097596247
 30
0.0
 10
6104.324066117525
 20
4578.752210110668
 30
0.0
 10
6103.638640683464
 20
4577.354285440064
 30
0.0
 10
6101.637490598372
 20
4573.14275923224
 30
0.0
 10
6100.376858620015
 20
4570.31141630053
 30
0.0
 10
6096.811911336856
 20
4561.747523967464
 30
0.0
 10
6094.724023620254
 20
4555.945278810593
 30
0.0
 10
6091.120339496964
 20
4544.156558925988
 30
0.0
 10
6089.604522542394
 20
4538.170090825128
 30
0.0
 10
6087.768300826791
 20
4529.049500191473
 30
0.0
 10
6087.229278565708
 20
4525.98577862717
 30
0.0
 10
6086.532658683732
 20
4521.354156969195
 30
0.0
 10
6086.319305808044
 20
4519.805312725726
 30
0.0
 10
6085.931510724343
 20
4516.706077667709
 30
0.0
 10
6085.582255932182
 20
4513.602900643345
 30
0.0
 10
6085.310048030739
 20
4510.491843052872
 30
0.0
 10
6085.164029245725
 20
4508.544965830662
 30
0.0
 10
6085.135926920662
 20
4508.155476915912
 30
0.0
 10
6085.102717165259
 20
4507.668422375224
 30
0.0
 10
6085.096162604801
 20
4507.571002701763
 30
0.0
 10
6085.083015181225
 20
4507.376165689972
 30
0.0
 10
6085.076330956183
 20
4507.278755780918
 30
0.0
 10
6085.059430690486
 20
4506.98621565643
 30
0.0
 10
6085.047442210211
 20
4506.791263620414
 30
0.0
 10
6085.024114781782
 20
4506.401288607346
 30
0.0
 10
6085.012981425795
 20
4506.20622174247
 30
0.0
 10
6084.992941597671
 20
4505.816077343247
 30
0.0
 10
6084.982909205405
 20
4505.621010518761
 30
0.0
 10
6084.952919732053
 20
4505.035734260809
 30
0.0
 10
6084.936035087858
 20
4504.645481333235
 30
0.0
 10
6084.886005076939
 20
4503.474640863528
 30
0.0
 10
6084.857566029721
 20
4502.693885417516
 30
0.0
 10
6084.80886353822
 20
4501.132128730468
 30
0.0
 10
6084.788048561203
 20
4500.351126910208
 30
0.0
 10
6084.7611428146
 20
4499.179478142273
 30
0.0
 10
6084.753318995038
 20
4498.788899414434
 30
0.0
 10
6084.741963736861
 20
4498.203018128946
 30
0.0
 10
6084.738213791205
 20
4498.007724359302
 30
0.0
 10
6084.731353466816
 20
4497.617124271758
 30
0.0
 10
6084.728544595358
 20
4497.421811305608
 30
0.0
 10
6084.721868682282
 20
4497.031209842054
 30
0.0
 10
6084.716897618581
 20
4496.835945993684
 30
0.0
 10
6084.714052965217
 20
4496.542950169533
 30
0.0
 10
6084.713819654806
 20
4496.44526923344
 30
0.0
 10
6084.710052192096
 20
4496.249980086479
 30
0.0
 10
6084.706364461951
 20
4496.152375374888
 30
0.0
 10
6084.701577685634
 20
4495.957110343231
 30
0.0
 10
6084.700716582195
 20
4495.859444616087
 30
0.0
 10
6084.70103534064
 20
4495.66406825251
 30
0.0
 10
6084.702894597537
 20
4495.566342550907
 30
0.0
 10
6084.698593673144
 20
4495.371067382034
 30
0.0
 10
6084.692848074303
 20
4495.273509158318
 30
0.0
 10
6084.685500750398
 20
4495.078303762286
 30
0.0
 10
6084.684891335201
 20
4494.980634396587
 30
0.0
 10
6084.685181660534
 20
4494.882945169482
 30
0.0
  0
ARC
  5
D7
330
1F
100
AcDbEntity
  8
0
  6
Continuous
 62
     7
370
    25
100
AcDbCircle
 10
6084.638545512
 20
4493.7659891062
 30
0.0
 40
1.117929236417976
100
AcDbArc
 50
87.609124066
 51
123.5869739224
  0
LINE
  5
D8
330
1F
100
AcDbEntity
  8
0
  6
Continuous
 62
     7
370
    25
100
AcDbLine
 10
6074.0201046303
 20
4494.6972767382
 30
0.0
 11
6074.0201046303
 21
4194.6972767382
 31
0.0
  0
ARC
  5
D9
330
1F
100
AcDbEntity
  8
0
  6
Continuous
 62
     7
370
    25
100
AcDbCircle
 10
6274.0201046303
 20
4494.6972767382
 30
0.0
 40
200.0
100
AcDbArc
 50
0.0
 51
180.0
  0
LINE
  5
DA
330
1F
100
AcDbEntity
  8
0
  6
Continuous
 62
     7
370
    25
100
AcDbLine
 10
6474.0201046303
 20
4194.6972767382
 30
0.0
 11
6474.0201046303
 21
4494.6972767382
 31
0.0
  0
ARC
  5
DB
330
1F
100
AcDbEntity
  8
0
  6
Continuous
 62
     7
370
    25
100
AcDbCircle
 10
6274.0201046303
 20
4194.6972767382
 30
0.0
 40
200.0
100
AcDbArc
 50
180.0
 51
0.0
  0
ARC
  5
DC
330
1F
100
AcDbEntity
  8
0
  6
Continuous
 62
     7
370
    25
100
AcDbCircle
 10
6274.0201046303
 20
4194.6972767382
 30
0.0
 40
192.0
100
AcDbArc
 50
180.0
 51
0.0
  0
LINE
  5
DD
330
1F
100
AcDbEntity
  8
0
  6
Continuous
 62
     7
370
    25
100
AcDbLine
 10
6466.0201046303
 20
4494.6972767382
 30
0.0
 11
6466.0201046303
 21
4194.6972767382
 31
0.0
  0
ARC
  5
DE
330
1F
100
AcDbEntity
  8
0
  6
Continuous
 62
     7
370
    25
100
AcDbCircle
 10
6274.0201046303
 20
4494.6972767382
 30
0.0
 40
192.0
100
AcDbArc
 50
0.0
 51
180.0
  0
LINE
  5
DF
330
1F
100
AcDbEntity
  8
0
  6
Continuous
 62
     7
370
    25
100
AcDbLine
 10
6082.0201046303
 20
4194.6972767382
 30
0.0
 11
6082.0201046303
 21
4494.6972767382
 31
0.0
  0
LINE
  5
E0
330
1F
100
AcDbEntity
  8
0
  6
Continuous
 62
     7
370
    25
100
AcDbLine
 10
6082.0201046303
 20
4494.6972767382
 30
0.0
 11
6084.0201046303
 21
4494.6972767382
 31
0.0
  0
LINE
  5
E1
330
1F
100
AcDbEntity
  8
0
  6
Continuous
 62
     7
370
    25
100
AcDbLine
 10
6464.0201046303
 20
4494.6972767382
 30
0.0
 11
6466.0201046303
 21
4494.6972767382
 31
0.0
  0
ARC
  5
E2
330
1F
100
AcDbEntity
  8
0
  6
Continuous
 62
     7
370
    25
100
AcDbCircle
 10
6274.0201046303
 20
4494.6972767382
 30
0.0
 40
190.0000000000009
100
AcDbArc
 50
0.0
 51
180.0
  0
LINE
  5
E3
330
1F
100
AcDbEntity
  8
0
  6
Continuous
 62
     7
370
    25
100
AcDbLine
 10
6084.0201046303
 20
4494.6972767382
 30
0.0
 11
6084.0201046303
 21
4194.6972767382
 31
0.0
  0
LINE
  5
E4
330
1F
100
AcDbEntity
  8
0
  6
Continuous
 62
     7
370
    25
100
AcDbLine
 10
6082.0201046303
 20
4194.6972767382
 30
0.0
 11
6084.0201046303
 21
4194.6972767382
 31
0.0
  0
LINE
  5
E5
330
1F
100
AcDbEntity
  8
0
  6
Continuous
 62
     7
370
    25
100
AcDbLine
 10
6464.0201046303
 20
4194.6972767382
 30
0.0
 11
6466.0201046303
 21
4194.6972767382
 31
0.0
  0
LINE
  5
E6
330
1F
100
AcDbEntity
  8
0
  6
Continuous
 62
     7
370
    25
100
AcDbLine
 10
6464.0201046303
 20
4194.6972767382
 30
0.0
 11
6464.0201046303
 21
4494.6972767382
 31
0.0
  0
ARC
  5
E7
330
1F
100
AcDbEntity
  8
0
  6
Continuous
 62
     7
370
    25
100
AcDbCircle
 10
6274.0201046303
 20
4194.6972767382
 30
0.0
 40
190.0000000000009
100
AcDbArc
 50
180.0
 51
0.0
  0
SPLINE
  5
E8
330
1F
100
AcDbEntity
  8
0
  6
Continuous
 62
     7
370
    25
100
AcDbSpline
210
0.0
220
0.0
230
1.0
 70
     8
 71
     3
 72
    11
 73
     7
 74
     0
 42
0.000000001
 43
0.00000001
 40
0.013343591246066
 40
0.013343591246066
 40
0.013343591246066
 40
0.013343591246066
 40
0.0154804202010344
 40
0.0154804202010344
 40
0.0154804202010344
 40
0.0154804802010346
 40
0.0154804802010346
 40
0.0154804802010346
 40
0.0154804802010346
 10
6084.685181660533
 20
4494.882945169481
 30
0.0
 10
6084.687294919144
 20
4494.171871844875
 30
0.0
 10
6084.654092251627
 20
4493.461038473663
 30
0.0
 10
6084.651373075611
 20
4492.749241630103
 30
0.0
 10
6084.651372999218
 20
4492.749221632451
 30
0.0
 10
6084.651372922833
 20
4492.749201634799
 30
0.0
 10
6084.651372846445
 20
4492.749181637147
 30
0.0
  0
SPLINE
  5
E9
330
1F
100
AcDbEntity
  8
0
  6
Continuous
 62
     7
370
    25
100
AcDbSpline
210
0.0
220
0.0
230
1.0
 70
     8
 71
     3
 72
    30
 73
    26
 74
     0
 42
0.000000001
 43
0.00000001
 40
0.0
 40
0.0
 40
0.0
 40
0.0
 40
0.0156250000000003
 40
0.0156250000000003
 40
0.0312500000000007
 40
0.0312500000000007
 40
0.0625000000000007
 40
0.0625000000000007
 40
0.1250000000000009
 40
0.1250000000000009
 40
0.2500000000000008
 40
0.2500000000000008
 40
0.5000000000000004
 40
0.5000000000000004
 40
0.75
 40
0.75
 40
0.875
 40
0.875
 40
0.9375
 40
0.9375
 40
0.96875
 40
0.96875
 40
0.984375
 40
0.984375
 40
1.0
 40
1.0
 40
1.0
 40
1.0
 10
6084.651372846445
 20
4492.749181637147
 30
0.0
 10
6084.650662934554
 20
4491.20339845568
 30
0.0
 10
6084.651428607375
 20
4489.65761003193
 30
0.0
 10
6084.651786262081
 20
4486.56603842443
 30
0.0
 10
6084.651980420245
 20
4485.020252631364
 30
0.0
 10
6084.652565355087
 20
4480.382895253763
 30
0.0
 10
6084.652963605752
 20
4477.291323674785
 30
0.0
 10
6084.654137920927
 20
4468.016608927408
 30
0.0
 10
6084.654898047825
 20
4461.833465751622
 30
0.0
 10
6084.657091784418
 20
4443.284036178954
 30
0.0
 10
6084.658435060183
 20
4430.917749736681
 30
0.0
 10
6084.662379008471
 20
4393.818890245276
 30
0.0
 10
6084.66493869921
 20
4369.086317160783
 30
0.0
 10
6084.671006244062
 20
4319.621171983872
 30
0.0
 10
6084.674366875556
 20
4294.888599733553
 30
0.0
 10
6084.68167463619
 20
4257.789743747281
 30
0.0
 10
6084.684372151482
 20
4245.423458684395
 30
0.0
 10
6084.690435617296
 20
4226.874033271461
 30
0.0
 10
6084.692604209888
 20
4220.690891629203
 30
0.0
 10
6084.697581473181
 20
4211.416181033577
 30
0.0
 10
6084.699161446531
 20
4208.324610662738
 30
0.0
 10
6084.703048454845
 20
4203.68725707839
 30
0.0
 10
6084.704864992073
 20
4202.141473242407
 30
0.0
 10
6084.708522808901
 20
4199.049905131417
 30
0.0
 10
6084.708412707416
 20
4197.503917212672
 30
0.0
 10
6084.718195808077
 20
4195.958346294135
 30
0.0
  0
SPLINE
  5
EA
330
1F
100
AcDbEntity
  8
0
  6
Continuous
 62
     7
370
    25
100
AcDbSpline
210
0.0
220
0.0
230
1.0
 70
     8
 71
     3
 72
     8
 73
     4
 74
     0
 42
0.000000001
 43
0.00000001
 40
0.0
 40
0.0
 40
0.0
 40
0.0
 40
1.0
 40
1.0
 40
1.0
 40
1.0
 10
6084.718195808077
 20
4195.958346294135
 30
0.0
 10
6084.726249699879
 20
4195.473741559263
 30
0.0
 10
6084.73452424033
 20
4194.98879351767
 30
0.0
 10
6084.743005662796
 20
4194.503641123807
 30
0.0
  0
SPLINE
  5
EB
330
1F
100
AcDbEntity
  8
0
  6
Continuous
 62
     7
370
    25
100
AcDbSpline
210
0.0
220
0.0
230
1.0
 70
     8
 71
     3
 72
    18
 73
    14
 74
     0
 42
0.000000001
 43
0.00000001
 40
0.0
 40
0.0
 40
0.0
 40
0.0
 40
0.2499999999999998
 40
0.2499999999999998
 40
0.4999999999999996
 40
0.4999999999999996
 40
0.7499999999999993
 40
0.7499999999999993
 40
0.8749999999999992
 40
0.8749999999999992
 40
0.9374999999999996
 40
0.9374999999999996
 40
1.0
 40
1.0
 40
1.0
 40
1.0
 10
6144.022399090195
 20
4318.254784181137
 30
0.0
 10
6144.02286629612
 20
4332.958546705773
 30
0.0
 10
6144.022952975038
 20
4347.662309457819
 30
0.0
 10
6144.023415286556
 20
4377.069834737939
 30
0.0
 10
6144.023641652622
 20
4391.773597378648
 30
0.0
 10
6144.024173720074
 20
4421.181122652755
 30
0.0
 10
6144.024467495928
 20
4435.884885287301
 30
0.0
 10
6144.025109901625
 20
4457.940529220348
 30
0.0
 10
6144.025348215831
 20
4465.29241052924
 30
0.0
 10
6144.025878081256
 20
4476.320232476442
 30
0.0
 10
6144.02605002288
 20
4479.996173126089
 30
0.0
 10
6144.026651560212
 20
4487.348054401645
 30
0.0
 10
6144.025270277303
 20
4491.023995157097
 30
0.0
 10
6144.027977285454
 20
4494.699935618313
 30
0.0
  0
SPLINE
  5
EC
330
1F
100
AcDbEntity
  8
0
  6
Continuous
 62
     7
370
    25
100
AcDbSpline
210
0.0
220
0.0
230
1.0
 70
     8
 71
     3
 72
    24
 73
    20
 74
     0
 42
0.000000001
 43
0.00000001
 40
0.0
 40
0.0
 40
0.0
 40
0.0
 40
0.4999999999999796
 40
0.4999999999999796
 40
0.7499999999999677
 40
0.7499999999999677
 40
0.8124999999999662
 40
0.8124999999999662
 40
0.8749999999999648
 40
0.8749999999999648
 40
0.9062499999999706
 40
0.9062499999999706
 40
0.9374999999999765
 40
0.9374999999999765
 40
0.9687499999999822
 40
0.9687499999999822
 40
0.9843749999999911
 40
0.9843749999999911
 40
1.0
 40
1.0
 40
1.0
 40
1.0
 10
6144.161705100837
 20
4315.134028818944
 30
0.0
 10
6144.109373199813
 20
4315.655472052981
 30
0.0
 10
6144.065428012416
 20
4316.176416654525
 30
0.0
 10
6144.02517190046
 20
4316.956537262142
 30
0.0
 10
6144.015816974664
 20
4317.216440791388
 30
0.0
 10
6144.011866381705
 20
4317.541027984114
 30
0.0
 10
6144.011302494289
 20
4317.605978766039
 30
0.0
 10
6144.010397053022
 20
4317.735980643966
 30
0.0
 10
6144.011704982205
 20
4317.800603547274
 30
0.0
 10
6144.01322407066
 20
4317.897861589218
 30
0.0
 10
6144.013658042316
 20
4317.930329761003
 30
0.0
 10
6144.014225898351
 20
4317.995381941882
 30
0.0
 10
6144.013961874529
 20
4318.028066773631
 30
0.0
 10
6144.015489031474
 20
4318.092938213809
 30
0.0
 10
6144.017804332421
 20
4318.12501566196
 30
0.0
 10
6144.019920344954
 20
4318.173547735166
 30
0.0
 10
6144.020515741046
 20
4318.189761977814
 30
0.0
 10
6144.021554250753
 20
4318.222240716676
 30
0.0
 10
6144.021996623041
 20
4318.238398875477
 30
0.0
 10
6144.022399090195
 20
4318.254784181137
 30
0.0
  0
SPLINE
  5
ED
330
1F
100
AcDbEntity
  8
0
  6
Continuous
 62
     7
370
    25
100
AcDbSpline
210
0.0
220
0.0
230
1.0
 70
     8
 71
     3
 72
    28
 73
    24
 74
     0
 42
0.000000001
 43
0.00000001
 40
0.0
 40
0.0
 40
0.0
 40
0.0
 40
0.0312500000000005
 40
0.0312500000000005
 40
0.062500000000001
 40
0.062500000000001
 40
0.0937500000000014
 40
0.0937500000000014
 40
0.1250000000000019
 40
0.1250000000000019
 40
0.1562500000000024
 40
0.1562500000000024
 40
0.1875000000000029
 40
0.1875000000000029
 40
0.2500000000000038
 40
0.2500000000000038
 40
0.5000000000000026
 40
0.5000000000000026
 40
0.7500000000000012
 40
0.7500000000000012
 40
0.8750000000000007
 40
0.8750000000000007
 40
1.0
 40
1.0
 40
1.0
 40
1.0
 10
6146.451774016955
 20
4304.963051251192
 30
0.0
 10
6146.399337739257
 20
4305.060559813868
 30
0.0
 10
6146.353121280084
 20
4305.160700098882
 30
0.0
 10
6146.25877516567
 20
4305.359814828003
 30
0.0
 10
6146.211658128931
 20
4305.459178448113
 30
0.0
 10
6146.1182563348
 20
4305.657212799926
 30
0.0
 10
6146.074174224468
 20
4305.756991329826
 30
0.0
 10
6145.991156482734
 20
4305.958618119545
 30
0.0
 10
6145.951498656223
 20
4306.060179469214
 30
0.0
 10
6145.872448408625
 20
4306.262848265465
 30
0.0
 10
6145.833504875012
 20
4306.364128089423
 30
0.0
 10
6145.759588811708
 20
4306.568059672121
 30
0.0
 10
6145.72445037728
 20
4306.670677269699
 30
0.0
 10
6145.621410704965
 20
4306.979186899121
 30
0.0
 10
6145.556182633769
 20
4307.185651235563
 30
0.0
 10
6145.252213863625
 20
4308.225303386412
 30
0.0
 10
6145.063661732665
 20
4309.073411498388
 30
0.0
 10
6144.738203782417
 20
4310.785703029241
 30
0.0
 10
6144.602401495278
 20
4311.650099084514
 30
0.0
 10
6144.419779074698
 20
4312.953361332888
 30
0.0
 10
6144.362627209221
 20
4313.388915798072
 30
0.0
 10
6144.255599431656
 20
4314.260545626471
 30
0.0
 10
6144.205580849216
 20
4314.696844010377
 30
0.0
 10
6144.161705100837
 20
4315.134028818944
 30
0.0
  0
SPLINE
  5
EE
330
1F
100
AcDbEntity
  8
0
  6
Continuous
 62
     7
370
    25
100
AcDbSpline
210
0.0
220
0.0
230
1.0
 70
     8
 71
     3
 72
    20
 73
    16
 74
     0
 42
0.000000001
 43
0.00000001
 40
0.0
 40
0.0
 40
0.0
 40
0.0
 40
0.2499999999999794
 40
0.2499999999999794
 40
0.3124999999999747
 40
0.3124999999999747
 40
0.3749999999999701
 40
0.3749999999999701
 40
0.4374999999999655
 40
0.4374999999999655
 40
0.4999999999999608
 40
0.4999999999999608
 40
0.7499999999999803
 40
0.7499999999999803
 40
1.0
 40
1.0
 40
1.0
 40
1.0
 10
6147.09580528854
 20
4303.893084207109
 30
0.0
 10
6147.039158993975
 20
4303.981388330681
 30
0.0
 10
6146.982412922957
 20
4304.070516675127
 30
0.0
 10
6146.909128316644
 20
4304.177177773717
 30
0.0
 10
6146.894260208627
 20
4304.198192894743
 30
0.0
 10
6146.864216051708
 20
4304.239621213026
 30
0.0
 10
6146.849007170289
 20
4304.259982547263
 30
0.0
 10
6146.821040833599
 20
4304.303215299269
 30
0.0
 10
6146.808648728862
 20
4304.326518138159
 30
0.0
 10
6146.784119665415
 20
4304.373476477665
 30
0.0
 10
6146.771731817003
 20
4304.396832672582
 30
0.0
 10
6146.709334171205
 20
4304.513117385794
 30
0.0
 10
6146.657917355277
 20
4304.60460844715
 30
0.0
 10
6146.552841107478
 20
4304.783202742123
 30
0.0
 10
6146.500765850013
 20
4304.871947850383
 30
0.0
 10
6146.451774016955
 20
4304.963051251192
 30
0.0
  0
SPLINE
  5
EF
330
1F
100
AcDbEntity
  8
0
  6
Continuous
 62
     7
370
    25
100
AcDbSpline
210
0.0
220
0.0
230
1.0
 70
     8
 71
     3
 72
    74
 73
    70
 74
     0
 42
0.000000001
 43
0.00000001
 40
0.0
 40
0.0
 40
0.0
 40
0.0
 40
0.0078125000000001
 40
0.0078125000000001
 40
0.0156250000000002
 40
0.0156250000000002
 40
0.0312500000000002
 40
0.0312500000000002
 40
0.0468750000000002
 40
0.0468750000000002
 40
0.0625000000000003
 40
0.0625000000000003
 40
0.1250000000000002
 40
0.1250000000000002
 40
0.1875000000000002
 40
0.1875000000000002
 40
0.2187500000000002
 40
0.2187500000000002
 40
0.2500000000000003
 40
0.2500000000000003
 40
0.3125000000000006
 40
0.3125000000000006
 40
0.3750000000000007
 40
0.3750000000000007
 40
0.3906250000000007
 40
0.3906250000000007
 40
0.4062500000000007
 40
0.4062500000000007
 40
0.4375000000000007
 40
0.4375000000000007
 40
0.5000000000000006
 40
0.5000000000000006
 40
0.5312500000000006
 40
0.5312500000000006
 40
0.5468750000000004
 40
0.5468750000000004
 40
0.5625000000000004
 40
0.5625000000000004
 40
0.6250000000000006
 40
0.6250000000000006
 40
0.6875000000000006
 40
0.6875000000000006
 40
0.7031250000000006
 40
0.7031250000000006
 40
0.7187500000000004
 40
0.7187500000000004
 40
0.7500000000000004
 40
0.7500000000000004
 40
0.8125000000000001
 40
0.8125000000000001
 40
0.8749999999999999
 40
0.8749999999999999
 40
0.8906249999999998
 40
0.8906249999999998
 40
0.9062499999999998
 40
0.9062499999999998
 40
0.9374999999999997
 40
0.9374999999999997
 40
0.9687499999999997
 40
0.9687499999999997
 40
0.9843749999999998
 40
0.9843749999999998
 40
0.9921874999999998
 40
0.99609375
 40
0.998046875
 40
0.9990234375
 40
0.99951171875
 40
0.99951171875
 40
1.0
 40
1.0
 40
1.0
 40
1.0
 10
6400.945311487752
 20
4303.896748309978
 30
0.0
 10
6400.526196983364
 20
4303.223601935577
 30
0.0
 10
6400.100285195644
 20
4302.552055860223
 30
0.0
 10
6399.239076639579
 20
4301.218749775966
 30
0.0
 10
6398.803091112944
 20
4300.555883326419
 30
0.0
 10
6397.479082391591
 20
4298.578580421919
 30
0.0
 10
6396.575013849866
 20
4297.275435648562
 30
0.0
 10
6394.724398342627
 20
4294.699045223047
 30
0.0
 10
6393.777850465833
 20
4293.425800209592
 30
0.0
 10
6391.842381203737
 20
4290.909140446912
 30
0.0
 10
6390.852608361855
 20
4289.664787651858
 30
0.0
 10
6385.821679407973
 20
4283.546011178013
 30
0.0
 10
6381.52074564565
 20
4278.957569044367
 30
0.0
 10
6372.389923676937
 20
4270.367995945143
 30
0.0
 10
6367.560603639736
 20
4266.366231278209
 30
0.0
 10
6359.915823436479
 20
4260.808679442282
 30
0.0
 10
6357.299045452501
 20
4259.029414736167
 30
0.0
 10
6351.935404749944
 20
4255.626968800463
 30
0.0
 10
6349.213609078754
 20
4254.019612471438
 30
0.0
 10
6340.930823716209
 20
4249.473215838112
 30
0.0
 10
6335.253737373985
 20
4246.806790054847
 30
0.0
 10
6323.59312777498
 20
4242.193542004092
 30
0.0
 10
6317.609720552831
 20
4240.246444508624
 30
0.0
 10
6309.933151340014
 20
4238.275926267047
 30
0.0
 10
6308.38669124322
 20
4237.90504429642
 30
0.0
 10
6305.295247125038
 20
4237.215176061582
 30
0.0
 10
6303.747716166035
 20
4236.895455563775
 30
0.0
 10
6299.099783794567
 20
4236.010719778802
 30
0.0
 10
6295.994053713769
 20
4235.519979322743
 30
0.0
 10
6286.655824544162
 20
4234.341015729337
 30
0.0
 10
6280.402249139693
 20
4233.946571769805
 30
0.0
 10
6270.979939726914
 20
4233.939591155191
 30
0.0
 10
6267.832134014918
 20
4234.0353368467
 30
0.0
 10
6263.0996238935
 20
4234.329517249501
 30
0.0
 10
6261.520324367401
 20
4234.452613777288
 30
0.0
 10
6258.358091634169
 20
4234.749456252671
 30
0.0
 10
6256.782235092877
 20
4234.922558250384
 30
0.0
 10
6248.93864886279
 20
4235.908790491244
 30
0.0
 10
6242.767677355571
 20
4237.084946852417
 30
0.0
 10
6230.627423939341
 20
4240.188843407693
 30
0.0
 10
6224.658176153851
 20
4242.116709661634
 30
0.0
 10
6217.325371176473
 20
4245.006329092275
 30
0.0
 10
6215.865261159738
 20
4245.608291590138
 30
0.0
 10
6212.958119980232
 20
4246.860952541915
 30
0.0
 10
6211.508576042657
 20
4247.51285094772
 30
0.0
 10
6207.200576613625
 20
4249.533244476965
 30
0.0
 10
6204.385888868389
 20
4250.964342444662
 30
0.0
 10
6196.109080191317
 20
4255.503259180919
 30
0.0
 10
6190.813595092279
 20
4258.855792314632
 30
0.0
 10
6180.664352820902
 20
4266.209496243529
 30
0.0
 10
6175.810676857829
 20
4270.210786973839
 30
0.0
 10
6170.031370173612
 20
4275.634922678035
 30
0.0
 10
6168.889471510098
 20
4276.741517455613
 30
0.0
 10
6166.646041114551
 20
4278.986605177203
 30
0.0
 10
6165.543110591334
 20
4280.126364678078
 30
0.0
 10
6162.290819965038
 20
4283.597418420271
 30
0.0
 10
6160.197900894164
 20
4285.980433607979
 30
0.0
 10
6156.165000147911
 20
4290.88657081906
 30
0.0
 10
6154.229667587922
 20
4293.404276710816
 30
0.0
 10
6151.457378287141
 20
4297.268750550131
 30
0.0
 10
6150.554675148564
 20
4298.572078202364
 30
0.0
 10
6149.233094063817
 20
4300.550088011034
 30
0.0
 10
6148.580424995242
 20
4301.544849654507
 30
0.0
 10
6147.833310103899
 20
4302.715562105906
 30
0.0
 10
6147.463353721106
 20
4303.303470107247
 30
0.0
 10
6147.279278143532
 20
4303.598063682625
 30
0.0
 10
6147.200582288482
 20
4303.724455305118
 30
0.0
 10
6147.148161454274
 20
4303.808746903556
 30
0.0
 10
6147.121902070905
 20
4303.851000981067
 30
0.0
 10
6147.09580528854
 20
4303.893084207109
 30
0.0
  0
SPLINE
  5
F0
330
1F
100
AcDbEntity
  8
0
  6
Continuous
 62
     7
370
    25
100
AcDbSpline
210
0.0
220
0.0
230
1.0
 70
     8
 71
     3
 72
    14
 73
    10
 74
     0
 42
0.000000001
 43
0.00000001
 40
0.0
 40
0.0
 40
0.0
 40
0.0
 40
0.499999999999954
 40
0.499999999999954
 40
0.7499999999999515
 40
0.7499999999999515
 40
0.8749999999999757
 40
0.8749999999999757
 40
1.0
 40
1.0
 40
1.0
 40
1.0
 10
6401.482487857424
 20
4304.774675706207
 30
0.0
 10
6401.397650347064
 20
4304.625820641176
 30
0.0
 10
6401.310255349377
 20
4304.478328547369
 30
0.0
 10
6401.176989809092
 20
4304.257963192116
 30
0.0
 10
6401.131766696371
 20
4304.185079402546
 30
0.0
 10
6401.062144989301
 20
4304.076946478721
 30
0.0
 10
6401.038817066971
 20
4304.040944874922
 30
0.0
 10
6400.992108142815
 20
4303.968880902642
 30
0.0
 10
6400.968762151182
 20
4303.932882141388
 30
0.0
 10
6400.945311487752
 20
4303.896748309978
 30
0.0
  0
SPLINE
  5
F1
330
1F
100
AcDbEntity
  8
0
  6
Continuous
 62
     7
370
    25
100
AcDbSpline
210
0.0
220
0.0
230
1.0
 70
     8
 71
     3
 72
    26
 73
    22
 74
     0
 42
0.000000001
 43
0.00000001
 40
0.0
 40
0.0
 40
0.0
 40
0.0
 40
0.0312499999999981
 40
0.0312499999999981
 40
0.0624999999999962
 40
0.0624999999999962
 40
0.1249999999999966
 40
0.1249999999999966
 40
0.2499999999999967
 40
0.2499999999999967
 40
0.4999999999999996
 40
0.4999999999999996
 40
0.6250000000000004
 40
0.6250000000000004
 40
0.7500000000000013
 40
0.7500000000000013
 40
0.8750000000000022
 40
0.8750000000000022
 40
0.9375000000000011
 40
0.9375000000000011
 40
1.0
 40
1.0
 40
1.0
 40
1.0
 10
6404.015729524261
 20
4315.339217837254
 30
0.0
 10
6404.013815635377
 20
4315.223934080139
 30
0.0
 10
6404.010349638857
 20
4315.108999634506
 30
0.0
 10
6404.00287868469
 20
4314.879146488147
 30
0.0
 10
6403.998461665497
 20
4314.764320905827
 30
0.0
 10
6403.982013810353
 20
4314.420401299808
 30
0.0
 10
6403.966729029296
 20
4314.191933922928
 30
0.0
 10
6403.913413072871
 20
4313.507817031495
 30
0.0
 10
6403.864528323209
 20
4313.054158634139
 30
0.0
 10
6403.688223018226
 20
4311.698791837478
 30
0.0
 10
6403.533399925703
 20
4310.802302131041
 30
0.0
 10
6403.24351685639
 20
4309.468524178293
 30
0.0
 10
6403.136496102594
 20
4309.025897238937
 30
0.0
 10
6402.895539643537
 20
4308.145640185105
 30
0.0
 10
6402.761281521586
 20
4307.706949219771
 30
0.0
 10
6402.458244050478
 20
4306.840953609176
 30
0.0
 10
6402.290435261572
 20
4306.415662815079
 30
0.0
 10
6402.008973280736
 20
4305.791150011429
 30
0.0
 10
6401.910946961494
 20
4305.584686210729
 30
0.0
 10
6401.703557670842
 20
4305.176999422692
 30
0.0
 10
6401.596234278369
 20
4304.9742540627
 30
0.0
 10
6401.482487857424
 20
4304.774675706207
 30
0.0
  0
SPLINE
  5
F2
330
1F
100
AcDbEntity
  8
0
  6
Continuous
 62
     7
370
    25
100
AcDbSpline
210
0.0
220
0.0
230
1.0
 70
     8
 71
     3
 72
    11
 73
     7
 74
     0
 42
0.000000001
 43
0.00000001
 40
-0.0000000600000003
 40
-0.0000000600000003
 40
-0.0000000600000003
 40
-0.0000000600000003
 40
0.0
 40
0.0
 40
0.0
 40
0.0004051736781702
 40
0.0004051736781702
 40
0.0004051736781702
 40
0.0004051736781702
 10
6404.017810170323
 20
4315.744385533316
 30
0.0
 10
6404.017810224805
 20
4315.744365534511
 30
0.0
 10
6404.017810279301
 20
4315.744345535706
 30
0.0
 10
6404.017810333766
 20
4315.744325536902
 30
0.0
 10
6404.018178129325
 20
4315.609275715923
 30
0.0
 10
6404.017970885756
 20
4315.474227019984
 30
0.0
 10
6404.015729524261
 20
4315.339217837254
 30
0.0
  0
LINE
  5
F3
330
1F
100
AcDbEntity
  8
0
  6
Continuous
 62
     7
370
    25
100
AcDbLine
 10
6404.0178101703
 20
4494.6972767375
 30
0.0
 11
6404.0178101703
 21
4315.7443855333
 31
0.0
  0
SPLINE
  5
F4
330
1F
100
AcDbEntity
  8
0
  6
Continuous
 62
     7
370
    25
100
AcDbSpline
210
0.0
220
0.0
230
1.0
 70
     8
 71
     3
 72
   104
 73
   100
 74
     0
 42
0.000000001
 43
0.00000001
 40
0.0
 40
0.0
 40
0.0
 40
0.0
 40
0.0078124999999999
 40
0.0078124999999999
 40
0.0156249999999997
 40
0.0156249999999997
 40
0.0312499999999994
 40
0.0312499999999994
 40
0.0624999999999992
 40
0.0624999999999992
 40
0.093749999999999
 40
0.093749999999999
 40
0.1015624999999991
 40
0.1015624999999991
 40
0.1093749999999992
 40
0.1093749999999992
 40
0.1249999999999993
 40
0.1249999999999993
 40
0.1562499999999996
 40
0.1562499999999996
 40
0.1874999999999999
 40
0.1874999999999999
 40
0.203125
 40
0.203125
 40
0.2109375000000001
 40
0.2109375000000001
 40
0.2187500000000001
 40
0.2187500000000001
 40
0.2500000000000004
 40
0.2500000000000004
 40
0.2812500000000007
 40
0.2812500000000007
 40
0.312500000000001
 40
0.312500000000001
 40
0.3203125000000009
 40
0.3203125000000009
 40
0.3281250000000008
 40
0.3281250000000008
 40
0.3437500000000008
 40
0.3437500000000008
 40
0.3750000000000004
 40
0.3750000000000004
 40
0.40625
 40
0.40625
 40
0.4218749999999998
 40
0.4218749999999998
 40
0.4374999999999996
 40
0.4374999999999996
 40
0.4687499999999992
 40
0.4687499999999992
 40
0.4999999999999989
 40
0.4999999999999989
 40
0.5312499999999986
 40
0.5312499999999986
 40
0.5390624999999984
 40
0.5390624999999984
 40
0.5468749999999984
 40
0.5468749999999984
 40
0.5624999999999983
 40
0.5624999999999983
 40
0.5937499999999981
 40
0.5937499999999981
 40
0.6249999999999978
 40
0.6249999999999978
 40
0.6406249999999976
 40
0.6406249999999976
 40
0.6484374999999973
 40
0.6484374999999973
 40
0.6562499999999972
 40
0.6562499999999972
 40
0.687499999999997
 40
0.687499999999997
 40
0.7187499999999967
 40
0.7187499999999967
 40
0.7499999999999964
 40
0.7499999999999964
 40
0.7578124999999966
 40
0.7578124999999966
 40
0.7656249999999966
 40
0.7656249999999966
 40
0.7812499999999968
 40
0.7812499999999968
 40
0.8124999999999968
 40
0.8124999999999968
 40
0.8437499999999969
 40
0.8437499999999969
 40
0.8593749999999971
 40
0.8593749999999971
 40
0.8749999999999973
 40
0.8749999999999973
 40
0.9062499999999982
 40
0.9062499999999982
 40
0.9374999999999991
 40
0.9374999999999991
 40
0.9531249999999993
 40
0.9531249999999993
 40
0.9687499999999996
 40
0.9687499999999996
 40
1.0
 40
1.0
 40
1.0
 40
1.0
 10
6144.027977285454
 20
4494.699935618314
 30
0.0
 10
6144.028767614071
 20
4495.773150318472
 30
0.0
 10
6144.040597856183
 20
4496.844482227939
 30
0.0
 10
6144.092761264778
 20
4498.982286196624
 30
0.0
 10
6144.132001957487
 20
4500.048944391142
 30
0.0
 10
6144.288832348331
 20
4503.242250464697
 30
0.0
 10
6144.445508885991
 20
4505.362233495205
 30
0.0
 10
6145.069732285172
 20
4511.695890399839
 30
0.0
 10
6145.691110718391
 20
4515.883333849551
 30
0.0
 10
6147.341157096797
 20
4524.188772185558
 30
0.0
 10
6148.369771174358
 20
4528.306776257392
 30
0.0
 10
6149.91590832527
 20
4533.409884673502
 30
0.0
 10
6150.238183240124
 20
4534.428281576957
 30
0.0
 10
6150.909093442181
 20
4536.460580568956
 30
0.0
 10
6151.258189781915
 20
4537.475754772327
 30
0.0
 10
6152.342034918604
 20
4540.504880264666
 30
0.0
 10
6153.111618714177
 20
4542.498172124288
 30
0.0
 10
6155.558520944228
 20
4548.401289285661
 30
0.0
 10
6157.373704851771
 20
4552.234514724798
 30
0.0
 10
6161.36481865506
 20
4559.700530431593
 30
0.0
 10
6163.540695354977
 20
4563.333350255867
 30
0.0
 10
6167.07749860094
 20
4568.630904204474
 30
0.0
 10
6168.302016020783
 20
4570.37142901112
 30
0.0
 10
6170.208318917208
 20
4572.943586246939
 30
0.0
 10
6170.855347122067
 20
4573.794530267644
 30
0.0
 10
6172.17282800544
 20
4575.483403367995
 30
0.0
 10
6172.844148182557
 20
4576.322354577677
 30
0.0
 10
6176.242793760798
 20
4580.463534155402
 30
0.0
 10
6179.103771185672
 20
4583.616459576143
 30
0.0
 10
6185.10073283777
 20
4589.612541261334
 30
0.0
 10
6188.236834967081
 20
4592.455564718161
 30
0.0
 10
6194.783552936031
 20
4597.832397904651
 30
0.0
 10
6198.19406641988
 20
4600.366322928643
 30
0.0
 10
6202.633080481819
 20
4603.335625803149
 30
0.0
 10
6203.529698061
 20
4603.919557377
 30
0.0
 10
6205.340765854758
 20
4605.067333747415
 30
0.0
 10
6206.254968289631
 20
4605.630965914753
 30
0.0
 10
6209.009017814729
 20
4607.282303274135
 30
0.0
 10
6210.865319507335
 20
4608.333707999754
 30
0.0
 10
6216.49384292549
 20
4611.342361423708
 30
0.0
 10
6220.325547513482
 20
4613.154380144021
 30
0.0
 10
6228.145212134365
 20
4616.396913172559
 30
0.0
 10
6232.133218465593
 20
4617.827314444949
 30
0.0
 10
6238.233997467803
 20
4619.682935482699
 30
0.0
 10
6240.287410814744
 20
4620.253083598371
 30
0.0
 10
6244.434581670108
 20
4621.294877819857
 30
0.0
 10
6246.533281209985
 20
4621.767313106706
 30
0.0
 10
6252.826143466937
 20
4623.021257598484
 30
0.0
 10
6257.032301989591
 20
4623.644428425533
 30
0.0
 10
6265.465815083624
 20
4624.477621134088
 30
0.0
 10
6269.693161643017
 20
4624.687799180379
 30
0.0
 10
6278.169066461686
 20
4624.694701501552
 30
0.0
 10
6282.417640549613
 20
4624.491117297206
 30
0.0
 10
6287.742007387742
 20
4623.970589251241
 30
0.0
 10
6288.808779454678
 20
4623.853000475287
 30
0.0
 10
6290.937889392219
 20
4623.591575370238
 30
0.0
 10
6291.998649467875
 20
4623.447967286917
 30
0.0
 10
6295.169671246833
 20
4622.978885394275
 30
0.0
 10
6297.268682881499
 20
4622.615182416545
 30
0.0
 10
6303.521404641946
 20
4621.373491762282
 30
0.0
 10
6307.630844107
 20
4620.345066723914
 30
0.0
 10
6315.733359858139
 20
4617.892799720366
 30
0.0
 10
6319.726458608322
 20
4616.469034091272
 30
0.0
 10
6325.627230426183
 20
4614.031372604066
 30
0.0
 10
6327.579298659524
 20
4613.168337187885
 30
0.0
 10
6330.484717266882
 20
4611.796701810536
 30
0.0
 10
6331.450609258516
 20
4611.326010811135
 30
0.0
 10
6333.365238440766
 20
4610.363492427032
 30
0.0
 10
6334.314724959973
 20
4609.871350087049
 30
0.0
 10
6339.023449969838
 20
4607.356824320141
 30
0.0
 10
6342.666901962291
 20
4605.173466185297
 30
0.0
 10
6349.712244622403
 20
4600.470914009235
 30
0.0
 10
6353.114089953993
 20
4597.95165693877
 30
0.0
 10
6359.675798306009
 20
4592.576721603717
 30
0.0
 10
6362.835677755114
 20
4589.721066179418
 30
0.0
 10
6366.628818367488
 20
4585.933629207457
 30
0.0
 10
6367.379368153989
 20
4585.165377249128
 30
0.0
 10
6368.856401304675
 20
4583.615654315471
 30
0.0
 10
6369.583953642967
 20
4582.833130565091
 30
0.0
 10
6371.734080080592
 20
4580.462825538074
 30
0.0
 10
6373.12414723854
 20
4578.852327003326
 30
0.0
 10
6377.166299267154
 20
4573.931344902195
 30
0.0
 10
6379.69066396195
 20
4570.531604946484
 30
0.0
 10
6384.40067354225
 20
4563.495412966292
 30
0.0
 10
6386.586447692802
 20
4559.859051277918
 30
0.0
 10
6389.606501856252
 20
4554.223782931771
 30
0.0
 10
6390.56999499972
 20
4552.315176004939
 30
0.0
 10
6392.408678187152
 20
4548.436252121644
 30
0.0
 10
6393.276876003222
 20
4546.480561012021
 30
0.0
 10
6395.727601287839
 20
4540.573311859898
 30
0.0
 10
6397.15836919173
 20
4536.578382631113
 30
0.0
 10
6399.622753828678
 20
4528.47749901406
 30
0.0
 10
6400.656316034498
 20
4524.371529382541
 30
0.0
 10
6401.905938369108
 20
4518.128507211818
 30
0.0
 10
6402.27228523737
 20
4516.033467917874
 30
0.0
 10
6402.903195359102
 20
4511.814935322588
 30
0.0
 10
6403.167929924045
 20
4509.689680944505
 30
0.0
 10
6403.804926916608
 20
4503.281744644973
 30
0.0
 10
6404.01781016896
 20
4498.990873571378
 30
0.0
 10
6404.017810170323
 20
4494.697276737197
 30
0.0
  0
LINE
  5
F5
330
1F
100
AcDbEntity
  8
0
  6
Continuous
 62
     7
370
    25
100
AcDbLine
 10
6146.451774017
 20
4304.9630512512
 30
0.0
 11
6149.8351528731
 21
4306.4479462745
 31
0.0
  0
SPLINE
  5
F6
330
1F
100
AcDbEntity
  8
0
  6
Continuous
 62
     7
370
    25
100
AcDbSpline
210
0.0
220
0.0
230
1.0
 70
     8
 71
     3
 72
    79
 73
    75
 74
     0
 42
0.000000001
 43
0.00000001
 40
0.0
 40
0.0
 40
0.0
 40
0.0
 40
0.0009765625
 40
0.0009765625
 40
0.0014648437499999
 40
0.0014648437499999
 40
0.0019531249999999
 40
0.0019531249999999
 40
0.0039062499999999
 40
0.0039062499999999
 40
0.0078124999999999
 40
0.0156249999999998
 40
0.0156249999999998
 40
0.0312499999999998
 40
0.0312499999999998
 40
0.0624999999999997
 40
0.0624999999999997
 40
0.0937499999999996
 40
0.0937499999999996
 40
0.1093749999999995
 40
0.1093749999999995
 40
0.1249999999999995
 40
0.1249999999999995
 40
0.1874999999999994
 40
0.1874999999999994
 40
0.2499999999999992
 40
0.2499999999999992
 40
0.2812499999999992
 40
0.2812499999999992
 40
0.2968749999999992
 40
0.2968749999999992
 40
0.3124999999999992
 40
0.3124999999999992
 40
0.3749999999999993
 40
0.3749999999999993
 40
0.4374999999999994
 40
0.4374999999999994
 40
0.4531249999999994
 40
0.4531249999999994
 40
0.4687499999999994
 40
0.4687499999999994
 40
0.4999999999999996
 40
0.4999999999999996
 40
0.5624999999999997
 40
0.5624999999999997
 40
0.5937499999999997
 40
0.5937499999999997
 40
0.6093749999999997
 40
0.6093749999999997
 40
0.6249999999999996
 40
0.6249999999999996
 40
0.6874999999999996
 40
0.6874999999999996
 40
0.7499999999999997
 40
0.7499999999999997
 40
0.7812499999999997
 40
0.7812499999999997
 40
0.8124999999999998
 40
0.8124999999999998
 40
0.8749999999999997
 40
0.8749999999999997
 40
0.9374999999999997
 40
0.9374999999999997
 40
0.9531249999999998
 40
0.9531249999999998
 40
0.9687499999999999
 40
0.9843749999999999
 40
0.9843749999999999
 40
0.9921874999999999
 40
0.99609375
 40
0.99609375
 40
0.998046875
 40
0.998046875
 40
1.0
 40
1.0
 40
1.0
 40
1.0
 10
6149.835152873105
 20
4306.447946274523
 30
0.0
 10
6149.875036766082
 20
4306.357069601035
 30
0.0
 10
6149.919408543104
 20
4306.26927681262
 30
0.0
 10
6149.986445614258
 20
4306.137917057366
 30
0.0
 10
6150.008873876161
 20
4306.094187211956
 30
0.0
 10
6150.053616077833
 20
4306.006648963774
 30
0.0
 10
6150.075127426951
 20
4305.962289054476
 30
0.0
 10
6150.197357506986
 20
4305.750572406003
 30
0.0
 10
6150.300573000906
 20
4305.584931337304
 30
0.0
 10
6150.605215091468
 20
4305.084569324146
 30
0.0
 10
6151.218682667965
 20
4304.086719951101
 30
0.0
 10
6151.844641049866
 20
4303.09745373394
 30
0.0
 10
6153.113080454596
 20
4301.130274963219
 30
0.0
 10
6153.980729061554
 20
4299.833955272827
 30
0.0
 10
6156.648997378571
 20
4295.98988307235
 30
0.0
 10
6158.515762106994
 20
4293.485806865674
 30
0.0
 10
6162.418177088093
 20
4288.601149511338
 30
0.0
 10
6164.447103626257
 20
4286.228861504704
 30
0.0
 10
6167.605052157211
 20
4282.773670206906
 30
0.0
 10
6168.676812283752
 20
4281.639162326765
 30
0.0
 10
6170.8584124772
 20
4279.404464338496
 30
0.0
 10
6171.969698750426
 20
4278.302910678096
 30
0.0
 10
6177.601147012811
 20
4272.900361766218
 30
0.0
 10
6182.339854937922
 20
4268.91726245402
 30
0.0
 10
6192.263427055816
 20
4261.598550737144
 30
0.0
 10
6197.44817625089
 20
4258.262771441366
 30
0.0
 10
6205.561093462218
 20
4253.746424671573
 30
0.0
 10
6208.321514004002
 20
4252.322412688631
 30
0.0
 10
6212.548594550354
 20
4250.311855398669
 30
0.0
 10
6213.97207037732
 20
4249.662750845634
 30
0.0
 10
6216.827021239807
 20
4248.415736405945
 30
0.0
 10
6218.26108047622
 20
4247.816560621837
 30
0.0
 10
6225.46381453203
 20
4244.940560710565
 30
0.0
 10
6231.329554040874
 20
4243.022453646495
 30
0.0
 10
6243.263555934568
 20
4239.934693067258
 30
0.0
 10
6249.331735396339
 20
4238.76473309747
 30
0.0
 10
6257.047286964453
 20
4237.783926927258
 30
0.0
 10
6258.597377992353
 20
4237.61180918938
 30
0.0
 10
6261.708891952881
 20
4237.316629112349
 30
0.0
 10
6263.262818833003
 20
4237.194263335982
 30
0.0
 10
6267.91917400592
 20
4236.901945200568
 30
0.0
 10
6271.01616016107
 20
4236.807001800526
 30
0.0
 10
6280.285869030444
 20
4236.815054688699
 30
0.0
 10
6286.4375321262
 20
4237.208315604705
 30
0.0
 10
6295.622613094056
 20
4238.38279448352
 30
0.0
 10
6298.677247380631
 20
4238.871586699888
 30
0.0
 10
6303.248457955052
 20
4239.752816187269
 30
0.0
 10
6304.770401851843
 20
4240.071271728021
 30
0.0
 10
6307.810642670053
 20
4240.758449054926
 30
0.0
 10
6309.331399161145
 20
4241.127902598961
 30
0.0
 10
6316.877900150037
 20
4243.090287559242
 30
0.0
 10
6322.756530496109
 20
4245.028738353559
 30
0.0
 10
6334.205780811188
 20
4249.621504836184
 30
0.0
 10
6339.776435138988
 20
4252.275740669216
 30
0.0
 10
6347.897690381194
 20
4256.802635394724
 30
0.0
 10
6350.565449470595
 20
4258.403321241743
 30
0.0
 10
6355.819863300754
 20
4261.791906022821
 30
0.0
 10
6358.378271069213
 20
4263.561537560494
 30
0.0
 10
6365.851314020288
 20
4269.091831656048
 30
0.0
 10
6370.564354121595
 20
4273.073252787813
 30
0.0
 10
6379.457801702102
 20
4281.61935937157
 30
0.0
 10
6383.637702898791
 20
4286.184599232948
 30
0.0
 10
6388.513199180456
 20
4292.273741121582
 30
0.0
 10
6389.471095080837
 20
4293.511459922151
 30
0.0
 10
6391.341621477151
 20
4296.013261981508
 30
0.0
 10
6393.16933421576
 20
4298.544379115698
 30
0.0
 10
6394.911250286178
 20
4301.134242357631
 30
0.0
 10
6396.185294695499
 20
4303.098819458349
 30
0.0
 10
6396.814216221006
 20
4304.086654650324
 30
0.0
 10
6397.430921362923
 20
4305.082854560905
 30
0.0
 10
6397.737231067824
 20
4305.582353293466
 30
0.0
 10
6397.840522592608
 20
4305.748039233314
 30
0.0
 10
6398.038515157209
 20
4306.085293131108
 30
0.0
 10
6398.132334253179
 20
4306.257464967613
 30
0.0
 10
6398.221500238059
 20
4306.432822850515
 30
0.0
  0
LINE
  5
F7
330
1F
100
AcDbEntity
  8
0
  6
Continuous
 62
     7
370
    25
100
AcDbLine
 10
6398.2215002381
 20
4306.4328228505
 30
0.0
 11
6401.4824878574
 21
4304.7746757062
 31
0.0
  0
SPLINE
  5
F8
330
1F
100
AcDbEntity
  8
0
  6
Continuous
 62
     7
370
    25
100
AcDbSpline
210
0.0
220
0.0
230
1.0
 70
     8
 71
     3
 72
   104
 73
   100
 74
     0
 42
0.000000001
 43
0.00000001
 40
0.0
 40
0.0
 40
0.0
 40
0.0
 40
0.0312500000000011
 40
0.0312500000000011
 40
0.0468750000000014
 40
0.0468750000000014
 40
0.0625000000000018
 40
0.0625000000000018
 40
0.0937500000000024
 40
0.0937500000000024
 40
0.1250000000000031
 40
0.1250000000000031
 40
0.1406250000000037
 40
0.1406250000000037
 40
0.1562500000000042
 40
0.1562500000000042
 40
0.1875000000000048
 40
0.1875000000000048
 40
0.2187500000000055
 40
0.2187500000000055
 40
0.2343750000000058
 40
0.2343750000000058
 40
0.242187500000006
 40
0.242187500000006
 40
0.2500000000000061
 40
0.2500000000000061
 40
0.2812500000000059
 40
0.2812500000000059
 40
0.3125000000000057
 40
0.3125000000000057
 40
0.3437500000000054
 40
0.3437500000000054
 40
0.3515625000000055
 40
0.3515625000000055
 40
0.3593750000000056
 40
0.3593750000000056
 40
0.3750000000000056
 40
0.3750000000000056
 40
0.4062500000000059
 40
0.4062500000000059
 40
0.4375000000000063
 40
0.4375000000000063
 40
0.4531250000000064
 40
0.4531250000000064
 40
0.4609375000000064
 40
0.4609375000000064
 40
0.4687500000000065
 40
0.4687500000000065
 40
0.5000000000000066
 40
0.5000000000000066
 40
0.5312500000000067
 40
0.5312500000000067
 40
0.5625000000000068
 40
0.5625000000000068
 40
0.5781250000000068
 40
0.5781250000000068
 40
0.5937500000000067
 40
0.5937500000000067
 40
0.6250000000000067
 40
0.6250000000000067
 40
0.6562500000000068
 40
0.6562500000000068
 40
0.6718750000000068
 40
0.6718750000000068
 40
0.6796875000000068
 40
0.6796875000000068
 40
0.6875000000000069
 40
0.6875000000000069
 40
0.718750000000007
 40
0.718750000000007
 40
0.750000000000007
 40
0.750000000000007
 40
0.7812500000000071
 40
0.7812500000000071
 40
0.7890625000000071
 40
0.7890625000000071
 40
0.796875000000007
 40
0.796875000000007
 40
0.8125000000000068
 40
0.8125000000000068
 40
0.8437500000000061
 40
0.8437500000000061
 40
0.8750000000000054
 40
0.8750000000000054
 40
0.8906250000000053
 40
0.8906250000000053
 40
0.898437500000005
 40
0.898437500000005
 40
0.9062500000000048
 40
0.9062500000000048
 40
0.9375000000000031
 40
0.9375000000000031
 40
0.9687500000000016
 40
0.9687500000000016
 40
0.9843750000000008
 40
0.9843750000000008
 40
0.9921875000000004
 40
0.9921875000000004
 40
1.0
 40
1.0
 40
1.0
 40
1.0
 10
6400.144063813561
 20
4494.697276736303
 30
0.0
 10
6400.144063812265
 20
4498.863030202087
 30
0.0
 10
6399.938005349066
 20
4503.018069464239
 30
0.0
 10
6399.320395537879
 20
4509.2345864597
 30
0.0
 10
6399.063637001122
 20
4511.296794193166
 30
0.0
 10
6398.451732310661
 20
4515.389780547993
 30
0.0
 10
6398.096400709876
 20
4517.422469198073
 30
0.0
 10
6396.884298027164
 20
4523.479689043904
 30
0.0
 10
6395.881704306369
 20
4527.463453877717
 30
0.0
 10
6393.49110350126
 20
4535.323236896442
 30
0.0
 10
6392.103150163309
 20
4539.199270106752
 30
0.0
 10
6389.725721143712
 20
4544.930709843316
 30
0.0
 10
6388.883497751588
 20
4546.828163053806
 30
0.0
 10
6387.099749694279
 20
4550.5917161456
 30
0.0
 10
6386.16503890338
 20
4552.443556816362
 30
0.0
 10
6383.235194694997
 20
4557.911226861798
 30
0.0
 10
6381.114702462317
 20
4561.439450973088
 30
0.0
 10
6376.54532327117
 20
4568.266405111806
 30
0.0
 10
6374.096307679915
 20
4571.565045246001
 30
0.0
 10
6370.1748044622
 20
4576.339708193639
 30
0.0
 10
6368.82622638081
 20
4577.902323468211
 30
0.0
 10
6366.740270812471
 20
4580.202157897404
 30
0.0
 10
6366.034431776256
 20
4580.961417259401
 30
0.0
 10
6364.601477640202
 20
4582.465067502428
 30
0.0
 10
6363.873326534203
 20
4583.210478977115
 30
0.0
 10
6360.193309978235
 20
4586.885377729867
 30
0.0
 10
6357.127648418274
 20
4589.656173465927
 30
0.0
 10
6350.761580278334
 20
4594.871407401291
 30
0.0
 10
6347.461157659161
 20
4597.315823301881
 30
0.0
 10
6340.625821585505
 20
4601.878650950135
 30
0.0
 10
6337.090954068262
 20
4603.997126562691
 30
0.0
 10
6332.522555329677
 20
4606.436939600748
 30
0.0
 10
6331.601364315632
 20
4606.914459565629
 30
0.0
 10
6329.743791562834
 20
4607.848380378588
 30
0.0
 10
6328.806674005243
 20
4608.305091201632
 30
0.0
 10
6325.987796369522
 20
4609.635990855465
 30
0.0
 10
6324.093871422581
 20
4610.473392779352
 30
0.0
 10
6318.368849869705
 20
4612.838631448229
 30
0.0
 10
6314.494676632221
 20
4614.220079082113
 30
0.0
 10
6306.633478379389
 20
4616.599465452947
 30
0.0
 10
6302.646430925673
 20
4617.597327936656
 30
0.0
 10
6296.579924025707
 20
4618.802082727836
 30
0.0
 10
6294.543422797683
 20
4619.154961737487
 30
0.0
 10
6291.466837146392
 20
4619.610081508608
 30
0.0
 10
6290.437667580371
 20
4619.749414684054
 30
0.0
 10
6288.371964914067
 20
4620.003057229775
 30
0.0
 10
6287.336948376626
 20
4620.117146739232
 30
0.0
 10
6282.171100635968
 20
4620.622179885001
 30
0.0
 10
6278.049023292177
 20
4620.819696081464
 30
0.0
 10
6269.825494244654
 20
4620.812929746931
 30
0.0
 10
6265.724026374508
 20
4620.608962146511
 30
0.0
 10
6257.541650976204
 20
4619.800500260252
 30
0.0
 10
6253.460751519797
 20
4619.195848732285
 30
0.0
 10
6247.355300261635
 20
4617.979171154801
 30
0.0
 10
6245.319098710166
 20
4617.520778594586
 30
0.0
 10
6241.295417866824
 20
4616.509959214865
 30
0.0
 10
6239.303148576466
 20
4615.956767533662
 30
0.0
 10
6233.384029447173
 20
4614.156348155811
 30
0.0
 10
6229.51477073581
 20
4612.768514445384
 30
0.0
 10
6221.927947706796
 20
4609.622492337779
 30
0.0
 10
6218.210334646009
 20
4607.864422944659
 30
0.0
 10
6212.749395770379
 20
4604.945378150465
 30
0.0
 10
6210.948362453304
 20
4603.925292886395
 30
0.0
 10
6208.276309011614
 20
4602.323150597969
 30
0.0
 10
6207.389325342426
 20
4601.776310213981
 30
0.0
 10
6205.632174170776
 20
4600.662727266811
 30
0.0
 10
6204.762248574946
 20
4600.096191947773
 30
0.0
 10
6200.45537693333
 20
4597.215352158722
 30
0.0
 10
6197.146370225934
 20
4594.756929471081
 30
0.0
 10
6190.794465059657
 20
4589.540324483522
 30
0.0
 10
6187.751668744441
 20
4586.782027123109
 30
0.0
 10
6181.933106693895
 20
4580.964633822985
 30
0.0
 10
6179.157221188178
 20
4577.905672799513
 30
0.0
 10
6175.859639986841
 20
4573.88791030045
 30
0.0
 10
6175.208282462193
 20
4573.073962671507
 30
0.0
 10
6173.929977657734
 20
4571.435423452831
 30
0.0
 10
6173.302188389956
 20
4570.609839811264
 30
0.0
 10
6171.452566751293
 20
4568.114337513669
 30
0.0
 10
6170.26445756433
 20
4566.425680254217
 30
0.0
 10
6166.832807711132
 20
4561.285984863242
 30
0.0
 10
6164.721613684994
 20
4557.761407079916
 30
0.0
 10
6160.849149581461
 20
4550.517812989325
 30
0.0
 10
6159.087933316973
 20
4546.798766780415
 30
0.0
 10
6156.713819485508
 20
4541.071441580691
 30
0.0
 10
6155.967135374747
 20
4539.13750233767
 30
0.0
 10
6154.915556017778
 20
4536.198560361683
 30
0.0
 10
6154.576857890353
 20
4535.213616665493
 30
0.0
 10
6153.925938103601
 20
4533.241834374892
 30
0.0
 10
6153.613269627914
 20
4532.253762868585
 30
0.0
 10
6152.113242015953
 20
4527.302613018999
 30
0.0
 10
6151.115376605087
 20
4523.307234524163
 30
0.0
 10
6149.514869013236
 20
4515.249109761776
 30
0.0
 10
6148.91227962415
 20
4511.18635449558
 30
0.0
 10
6148.307253502436
 20
4505.04127976461
 30
0.0
 10
6148.155475819396
 20
4502.984416210427
 30
0.0
 10
6148.003718041533
 20
4499.886181854299
 30
0.0
 10
6147.965788775804
 20
4498.851279677998
 30
0.0
 10
6147.915483056879
 20
4496.777119720926
 30
0.0
 10
6147.904441045139
 20
4495.737634477945
 30
0.0
 10
6147.90349860294
 20
4494.696427712914
 30
0.0
  0
LINE
  5
F9
330
1F
100
AcDbEntity
  8
0
  6
Continuous
 62
     7
370
    25
100
AcDbLine
 10
6144.0279772855
 20
4494.6999356183
 30
0.0
 11
6147.9034986029
 21
4494.6964277129
 31
0.0
  0
LINE
  5
FA
330
1F
100
AcDbEntity
  8
0
  6
Continuous
 62
     7
370
    25
100
AcDbLine
 10
6400.1440638136
 20
4494.6972767363
 30
0.0
 11
6404.0178101703
 21
4494.6972767375
 31
0.0
  0
LINE
  5
FB
330
1F
100
AcDbEntity
  8
0
  6
Continuous
 62
     7
370
    25
100
AcDbLine
 10
6144.1617051008
 20
4315.1340288189
 30
0.0
 11
6148.0682735432
 21
4315.5328481322
 31
0.0
  0
SPLINE
  5
FC
330
1F
100
AcDbEntity
  8
0
  6
Continuous
 62
     7
370
    25
100
AcDbSpline
210
0.0
220
0.0
230
1.0
 70
     8
 71
     3
 72
    14
 73
    10
 74
     0
 42
0.000000001
 43
0.00000001
 40
0.0
 40
0.0
 40
0.0
 40
0.0
 40
0.2500000000000003
 40
0.2500000000000003
 40
0.5000000000000006
 40
0.5000000000000006
 40
0.7500000000000009
 40
0.7500000000000009
 40
1.0
 40
1.0
 40
1.0
 40
1.0
 10
6148.068273543224
 20
4315.532848132218
 30
0.0
 10
6148.146908443949
 20
4314.762593003097
 30
0.0
 10
6148.238360483841
 20
4313.993693505501
 30
0.0
 10
6148.438292181131
 20
4312.458434535099
 30
0.0
 10
6148.5476112245
 20
4311.6928498799
 30
0.0
 10
6148.801330442609
 20
4310.169350136115
 30
0.0
 10
6148.944236926259
 20
4309.411108491263
 30
0.0
 10
6149.303360056356
 20
4307.910652540324
 30
0.0
 10
6149.518999255057
 20
4307.168311990477
 30
0.0
 10
6149.835152873105
 20
4306.447946274523
 30
0.0
  0
SPLINE
  5
FD
330
1F
100
AcDbEntity
  8
0
  6
Continuous
 62
     7
370
    25
100
AcDbSpline
210
0.0
220
0.0
230
1.0
 70
     8
 71
     3
 72
    14
 73
    10
 74
     0
 42
0.000000001
 43
0.00000001
 40
0.0
 40
0.0
 40
0.0
 40
0.0
 40
0.25
 40
0.25
 40
0.5
 40
0.5
 40
0.75
 40
0.75
 40
1.0
 40
1.0
 40
1.0
 40
1.0
 10
6398.221500238059
 20
4306.432822850515
 30
0.0
 10
6398.573397886242
 20
4307.124880776705
 30
0.0
 10
6398.841292827658
 20
4307.85017675224
 30
0.0
 10
6399.281298892676
 20
4309.336418424754
 30
0.0
 10
6399.453236908534
 20
4310.087178174143
 30
0.0
 10
6399.74622912456
 20
4311.596784574267
 30
0.0
 10
6399.868017995921
 20
4312.355514464626
 30
0.0
 10
6400.058626046866
 20
4313.881392652375
 30
0.0
 10
6400.124066095339
 20
4314.649077990857
 30
0.0
 10
6400.141123062746
 20
4315.424452792052
 30
0.0
  0
LINE
  5
FE
330
1F
100
AcDbEntity
  8
0
  6
Continuous
 62
     7
370
    25
100
AcDbLine
 10
6400.1411230627
 20
4315.4244527921
 30
0.0
 11
6404.0157295243
 21
4315.3392178373
 31
0.0
  0
SPLINE
  5
FF
330
1F
100
AcDbEntity
  8
0
  6
Continuous
 62
     7
370
    25
100
AcDbSpline
210
0.0
220
0.0
230
1.0
 70
     8
 71
     3
 72
    26
 73
    22
 74
     0
 42
0.000000001
 43
0.00000001
 40
0.0
 40
0.0
 40
0.0
 40
0.0
 40
0.0624999999999997
 40
0.0624999999999997
 40
0.1249999999999994
 40
0.1249999999999994
 40
0.2499999999999998
 40
0.2499999999999998
 40
0.5
 40
0.5
 40
0.7500000000000002
 40
0.7500000000000002
 40
0.8750000000000003
 40
0.8750000000000003
 40
0.9375000000000003
 40
0.9375000000000003
 40
0.9687500000000001
 40
0.9687500000000001
 40
0.9843750000000001
 40
0.9843750000000001
 40
1.0
 40
1.0
 40
1.0
 40
1.0
 10
6147.90349860294
 20
4494.696427712914
 30
0.0
 10
6147.900120080541
 20
4490.96384827238
 30
0.0
 10
6147.901771392243
 20
4487.231268445954
 30
0.0
 10
6147.900971295843
 20
4479.766109107866
 30
0.0
 10
6147.900743213651
 20
4476.033529425629
 30
0.0
 10
6147.900034192866
 20
4464.835790380816
 30
0.0
 10
6147.899717498953
 20
4457.370631005641
 30
0.0
 10
6147.898857991708
 20
4434.975152873167
 30
0.0
 10
6147.898465626678
 20
4420.044834122043
 30
0.0
 10
6147.897752000139
 20
4390.184196897132
 30
0.0
 10
6147.897447692222
 20
4375.253878359121
 30
0.0
 10
6147.896974492177
 20
4352.85840052837
 30
0.0
 10
6147.896812188115
 20
4345.393241244973
 30
0.0
 10
6147.89654457594
 20
4334.195502285628
 30
0.0
 10
6147.896450708518
 20
4330.462922625902
 30
0.0
 10
6147.896307592198
 20
4324.864053133029
 30
0.0
 10
6147.896254206973
 20
4322.997763294019
 30
0.0
 10
6147.896187853647
 20
4320.198328554962
 30
0.0
 10
6147.896148722696
 20
4319.265183617822
 30
0.0
 10
6147.896142434151
 20
4317.398893845586
 30
0.0
 10
6147.97302310877
 20
4316.465857966448
 30
0.0
 10
6148.068273543224
 20
4315.532848132218
 30
0.0
  0
SPLINE
  5
100
330
1F
100
AcDbEntity
  8
0
  6
Continuous
 62
     7
370
    25
100
AcDbSpline
210
0.0
220
0.0
230
1.0
 70
     8
 71
     3
 72
    17
 73
    13
 74
     0
 42
0.000000001
 43
0.00000001
 40
0.0
 40
0.0
 40
0.0
 40
0.0
 40
0.00390625
 40
0.00390625
 40
0.0078124999999999
 40
0.0156249999999998
 40
0.0312499999999997
 40
0.0624999999999994
 40
0.1249999999999992
 40
0.2499999999999994
 40
0.4999999999999998
 40
1.0
 40
1.0
 40
1.0
 40
1.0
 10
6400.141123062746
 20
4315.424452792052
 30
0.0
 10
6400.146258082807
 20
4315.657880286102
 30
0.0
 10
6400.144063813561
 20
4315.891308725922
 30
0.0
 10
6400.144063813561
 20
4316.358165039265
 30
0.0
 10
6400.144063813561
 20
4317.058449509279
 30
0.0
 10
6400.144063813561
 20
4318.69244660598
 30
0.0
 10
6400.144063813561
 20
4321.960440799381
 30
0.0
 10
6400.144063813561
 20
4328.496429186183
 30
0.0
 10
6400.144063813561
 20
4341.568405959788
 30
0.0
 10
6400.144063813561
 20
4367.712359506999
 30
0.0
 10
6400.144063808915
 20
4420.000266601417
 30
0.0
 10
6400.144063822851
 20
4464.818472682348
 30
0.0
 10
6400.144063813561
 20
4494.697276736303
 30
0.0
  0
CIRCLE
  5
101
330
1F
100
AcDbEntity
  8
0
  6
Continuous
 62
     7
370
    25
100
AcDbCircle
 10
6274.0201046303
 20
4579.6972767382
 30
0.0
 40
25.0
  0
ENDSEC
  0
SECTION
  2
OBJECTS
  0
DICTIONARY
  5
C
330
0
100
AcDbDictionary
281
     1
  3
ACAD_GROUP
350
D
  3
ACAD_LAYOUT
350
1A
  3
ACAD_MLINESTYLE
350
17
  3
ACAD_PLOTSETTINGS
350
19
  3
ACAD_PLOTSTYLENAME
350
E
  3
ACAD_SCALELIST
350
47
  0
DICTIONARY
  5
D
102
{ACAD_REACTORS
330
C
102
}
330
C
100
AcDbDictionary
281
     1
  0
DICTIONARY
  5
1A
102
{ACAD_REACTORS
330
C
102
}
330
C
100
AcDbDictionary
281
     1
  3
Layout1
350
1E
  3
Layout2
350
26
  3
Model
350
22
  0
DICTIONARY
  5
17
102
{ACAD_REACTORS
330
C
102
}
330
C
100
AcDbDictionary
281
     1
  3
Standard
350
18
  0
DICTIONARY
  5
19
102
{ACAD_REACTORS
330
C
102
}
330
C
100
AcDbDictionary
281
     1
  0
ACDBDICTIONARYWDFLT
  5
E
102
{ACAD_REACTORS
330
C
102
}
330
C
100
AcDbDictionary
281
     1
  3
Normal
350
F
100
AcDbDictionaryWithDefault
340
F
  0
DICTIONARY
  5
47
102
{ACAD_REACTORS
330
C
102
}
330
C
100
AcDbDictionary
281
     1
  3
A0
350
48
  3
A1
350
49
  3
A2
350
4A
  3
A3
350
4B
  3
A4
350
4C
  3
A5
350
4D
  3
A6
350
4E
  3
A7
350
4F
  3
A8
350
50
  3
A9
350
51
  3
B0
350
52
  3
B1
350
53
  3
B2
350
54
  3
B3
350
55
  3
B4
350
56
  3
B5
350
57
  3
B6
350
58
  3
B7
350
59
  3
B8
350
5A
  3
B9
350
5B
  3
C0
350
5C
  3
C1
350
5D
  3
C2
350
5E
  3
C3
350
5F
  3
C4
350
60
  3
C5
350
61
  3
C6
350
62
  3
C7
350
63
  3
C8
350
64
  3
C9
350
65
  3
D0
350
66
  3
D1
350
67
  3
D2
350
68
  0
LAYOUT
  5
1E
102
{ACAD_REACTORS
330
1A
102
}
330
1A
100
AcDbPlotSettings
  1

  2
none_device
  4

  6

 40
0.0
 41
0.0
 42
0.0
 43
0.0
 44
0.0
 45
0.0
 46
0.0
 47
0.0
 48
0.0
 49
0.0
140
0.0
141
0.0
142
1.0
143
1.0
 70
   688
 72
     1
 73
     0
 74
     5
  7

 75
    16
147
1.0
148
0.0
149
0.0
100
AcDbLayout
  1
Layout1
 70
     1
 71
     1
 10
0.0
 20
0.0
 11
420.0
 21
297.0
 12
0.0
 22
0.0
 32
0.0
 14
1.0000000000E+20
 24
1.0000000000E+20
 34
1.0000000000E+20
 15
-1.0000000000E+20
 25
-1.0000000000E+20
 35
-1.0000000000E+20
146
0.0
 13
0.0
 23
0.0
 33
0.0
 16
1.0
 26
0.0
 36
0.0
 17
0.0
 27
1.0
 37
0.0
 76
     0
330
1B
  0
LAYOUT
  5
26
102
{ACAD_REACTORS
330
1A
102
}
330
1A
100
AcDbPlotSettings
  1

  2
none_device
  4

  6

 40
0.0
 41
0.0
 42
0.0
 43
0.0
 44
0.0
 45
0.0
 46
0.0
 47
0.0
 48
0.0
 49
0.0
140
0.0
141
0.0
142
1.0
143
1.0
 70
   688
 72
     1
 73
     0
 74
     5
  7

 75
    16
147
1.0
148
0.0
149
0.0
100
AcDbLayout
  1
Layout2
 70
     1
 71
     2
 10
0.0
 20
0.0
 11
0.0
 21
0.0
 12
0.0
 22
0.0
 32
0.0
 14
0.0
 24
0.0
 34
0.0
 15
0.0
 25
0.0
 35
0.0
146
0.0
 13
0.0
 23
0.0
 33
0.0
 16
1.0
 26
0.0
 36
0.0
 17
0.0
 27
1.0
 37
0.0
 76
     0
330
23
  0
LAYOUT
  5
22
102
{ACAD_REACTORS
330
1A
102
}
330
1A
100
AcDbPlotSettings
  1

  2
none_device
  4
Letter_(8.50_x_11.00_Inches)
  6

 40
6.35
 41
6.35
 42
6.35000508
 43
6.35000508
 44
215.9
 45
279.4
 46
0.0
 47
0.0
 48
0.0
 49
0.0
140
0.0
141
0.0
142
1.0
143
1.0
 70
  1712
 72
     1
 73
     0
 74
     0
  7

 75
     0
147
1.0
148
0.0
149
0.0
100
AcDbLayout
  1
Model
 70
     1
 71
     0
 10
0.0
 20
0.0
 11
20000.0
 21
10000.0
 12
0.0
 22
0.0
 32
0.0
 14
0.0
 24
0.0
 34
0.0
 15
20000.0
 25
10000.0
 35
0.0
146
0.0
 13
0.0
 23
0.0
 33
0.0
 16
1.0
 26
0.0
 36
0.0
 17
0.0
 27
1.0
 37
0.0
 76
     0
330
1F
331
29
  0
MLINESTYLE
  5
18
102
{ACAD_REACTORS
330
17
102
}
330
17
100
AcDbMlineStyle
  2
Standard
 70
     0
  3

 62
   256
 51
90.0
 52
90.0
 71
     2
 49
0.5
 62
   256
  6
BYLAYER
 49
-0.5
 62
   256
  6
BYLAYER
  0
ACDBPLACEHOLDER
  5
F
102
{ACAD_REACTORS
330
E
102
}
330
E
  0
SCALE
  5
48
102
{ACAD_REACTORS
330
47
102
}
330
47
100
AcDbScale
 70
     0
300
1:1
140
1.0
141
1.0
290
     1
  0
SCALE
  5
49
102
{ACAD_REACTORS
330
47
102
}
330
47
100
AcDbScale
 70
     0
300
1:2
140
1.0
141
2.0
290
     0
  0
SCALE
  5
4A
102
{ACAD_REACTORS
330
47
102
}
330
47
100
AcDbScale
 70
     0
300
1:4
140
1.0
141
4.0
290
     0
  0
SCALE
  5
4B
102
{ACAD_REACTORS
330
47
102
}
330
47
100
AcDbScale
 70
     0
300
1:5
140
1.0
141
5.0
290
     0
  0
SCALE
  5
4C
102
{ACAD_REACTORS
330
47
102
}
330
47
100
AcDbScale
 70
     0
300
1:8
140
1.0
141
8.0
290
     0
  0
SCALE
  5
4D
102
{ACAD_REACTORS
330
47
102
}
330
47
100
AcDbScale
 70
     0
300
1:10
140
1.0
141
10.0
290
     0
  0
SCALE
  5
4E
102
{ACAD_REACTORS
330
47
102
}
330
47
100
AcDbScale
 70
     0
300
1:16
140
1.0
141
16.0
290
     0
  0
SCALE
  5
4F
102
{ACAD_REACTORS
330
47
102
}
330
47
100
AcDbScale
 70
     0
300
1:20
140
1.0
141
20.0
290
     0
  0
SCALE
  5
50
102
{ACAD_REACTORS
330
47
102
}
330
47
100
AcDbScale
 70
     0
300
1:30
140
1.0
141
30.0
290
     0
  0
SCALE
  5
51
102
{ACAD_REACTORS
330
47
102
}
330
47
100
AcDbScale
 70
     0
300
1:40
140
1.0
141
40.0
290
     0
  0
SCALE
  5
52
102
{ACAD_REACTORS
330
47
102
}
330
47
100
AcDbScale
 70
     0
300
1:50
140
1.0
141
50.0
290
     0
  0
SCALE
  5
53
102
{ACAD_REACTORS
330
47
102
}
330
47
100
AcDbScale
 70
     0
300
1:100
140
1.0
141
100.0
290
     0
  0
SCALE
  5
54
102
{ACAD_REACTORS
330
47
102
}
330
47
100
AcDbScale
 70
     0
300
2:1
140
2.0
141
1.0
290
     0
  0
SCALE
  5
55
102
{ACAD_REACTORS
330
47
102
}
330
47
100
AcDbScale
 70
     0
300
4:1
140
4.0
141
1.0
290
     0
  0
SCALE
  5
56
102
{ACAD_REACTORS
330
47
102
}
330
47
100
AcDbScale
 70
     0
300
8:1
140
8.0
141
1.0
290
     0
  0
SCALE
  5
57
102
{ACAD_REACTORS
330
47
102
}
330
47
100
AcDbScale
 70
     0
300
10:1
140
10.0
141
1.0
290
     0
  0
SCALE
  5
58
102
{ACAD_REACTORS
330
47
102
}
330
47
100
AcDbScale
 70
     0
300
100:1
140
100.0
141
1.0
290
     0
  0
SCALE
  5
59
102
{ACAD_REACTORS
330
47
102
}
330
47
100
AcDbScale
 70
     0
300
1/128" = 1'-0"
140
0.0078125
141
12.0
290
     0
  0
SCALE
  5
5A
102
{ACAD_REACTORS
330
47
102
}
330
47
100
AcDbScale
 70
     0
300
1/64" = 1'-0"
140
0.015625
141
12.0
290
     0
  0
SCALE
  5
5B
102
{ACAD_REACTORS
330
47
102
}
330
47
100
AcDbScale
 70
     0
300
1/32" = 1'-0"
140
0.03125
141
12.0
290
     0
  0
SCALE
  5
5C
102
{ACAD_REACTORS
330
47
102
}
330
47
100
AcDbScale
 70
     0
300
1/16" = 1'-0"
140
0.0625
141
12.0
290
     0
  0
SCALE
  5
5D
102
{ACAD_REACTORS
330
47
102
}
330
47
100
AcDbScale
 70
     0
300
3/32" = 1'-0"
140
0.09375
141
12.0
290
     0
  0
SCALE
  5
5E
102
{ACAD_REACTORS
330
47
102
}
330
47
100
AcDbScale
 70
     0
300
1/8" = 1'-0"
140
0.125
141
12.0
290
     0
  0
SCALE
  5
5F
102
{ACAD_REACTORS
330
47
102
}
330
47
100
AcDbScale
 70
     0
300
3/16" = 1'-0"
140
0.1875
141
12.0
290
     0
  0
SCALE
  5
60
102
{ACAD_REACTORS
330
47
102
}
330
47
100
AcDbScale
 70
     0
300
1/4" = 1'-0"
140
0.25
141
12.0
290
     0
  0
SCALE
  5
61
102
{ACAD_REACTORS
330
47
102
}
330
47
100
AcDbScale
 70
     0
300
3/8" = 1'-0"
140
0.375
141
12.0
290
     0
  0
SCALE
  5
62
102
{ACAD_REACTORS
330
47
102
}
330
47
100
AcDbScale
 70
     0
300
1/2" = 1'-0"
140
0.5
141
12.0
290
     0
  0
SCALE
  5
63
102
{ACAD_REACTORS
330
47
102
}
330
47
100
AcDbScale
 70
     0
300
3/4" = 1'-0"
140
0.75
141
12.0
290
     0
  0
SCALE
  5
64
102
{ACAD_REACTORS
330
47
102
}
330
47
100
AcDbScale
 70
     0
300
1" = 1'-0"
140
1.0
141
12.0
290
     0
  0
SCALE
  5
65
102
{ACAD_REACTORS
330
47
102
}
330
47
100
AcDbScale
 70
     0
300
1-1/2" = 1'-0"
140
1.5
141
12.0
290
     0
  0
SCALE
  5
66
102
{ACAD_REACTORS
330
47
102
}
330
47
100
AcDbScale
 70
     0
300
3" = 1'-0"
140
3.0
141
12.0
290
     0
  0
SCALE
  5
67
102
{ACAD_REACTORS
330
47
102
}
330
47
100
AcDbScale
 70
     0
300
6" = 1'-0"
140
6.0
141
12.0
290
     0
  0
SCALE
  5
68
102
{ACAD_REACTORS
330
47
102
}
330
47
100
AcDbScale
 70
     0
300
1'-0" = 1'-0"
140
12.0
141
12.0
290
     0
  0
ENDSEC
  0
EOF
