  0
SECTION
  2
HEADER
  9
$ACADVER
  1
AC1015
  9
$ACADMAINTVER
 70
     6
  9
$DWGCODEPAGE
  3
ANSI_1250
  9
$INSBASE
 10
0.0
 20
0.0
 30
0.0
  9
$EXTMIN
 10
0.0
 20
0.0
 30
0.0
  9
$EXTMAX
 10
20000.0
 20
10000.0
 30
0.0
  9
$LIMMIN
 10
0.0
 20
0.0
  9
$LIMMAX
 10
20000.0
 20
10000.0
  9
$ORTHOMODE
 70
     0
  9
$REGENMODE
 70
     1
  9
$FILLMODE
 70
     1
  9
$QTEXTMODE
 70
     0
  9
$MIRRTEXT
 70
     1
  9
$LTSCALE
 40
1.0
  9
$ATTMODE
 70
     1
  9
$TEXTSIZE
 40
2.0
  9
$TRACEWID
 40
1.0
  9
$TEXTSTYLE
  7
Standard
  9
$CLAYER
  8
0
  9
$CELTYPE
  6
ByLayer
  9
$CECOLOR
 62
   256
  9
$CELTSCALE
 40
1.0
  9
$DISPSILH
 70
     0
  9
$DIMSCALE
 40
1.0
  9
$DIMASZ
 40
2.0
  9
$DIMEXO
 40
1.0
  9
$DIMDLI
 40
3.75
  9
$DIMRND
 40
0.0
  9
$DIMDLE
 40
0.0
  9
$DIMEXE
 40
1.0
  9
$DIMTP
 40
0.0
  9
$DIMTM
 40
0.0
  9
$DIMTXT
 40
2.0
  9
$DIMCEN
 40
2.5
  9
$DIMTSZ
 40
0.0
  9
$DIMTOL
 70
     0
  9
$DIMLIM
 70
     0
  9
$DIMTIH
 70
     1
  9
$DIMTOH
 70
     1
  9
$DIMSE1
 70
     0
  9
$DIMSE2
 70
     0
  9
$DIMTAD
 70
     1
  9
$DIMZIN
 70
     0
  9
$DIMBLK
  1

  9
$DIMASO
 70
     1
  9
$DIMSHO
 70
     1
  9
$DIMPOST
  1

  9
$DIMAPOST
  1

  9
$DIMALT
 70
     0
  9
$DIMALTD
 70
     3
  9
$DIMALTF
 40
0.0393700787
  9
$DIMLFAC
 40
1.0
  9
$DIMTOFL
 70
     1
  9
$DIMTVP
 40
0.0
  9
$DIMTIX
 70
     0
  9
$DIMSOXD
 70
     0
  9
$DIMSAH
 70
     0
  9
$DIMBLK1
  1

  9
$DIMBLK2
  1

  9
$DIMSTYLE
  2
ISO-25
  9
$DIMCLRD
 70
     0
  9
$DIMCLRE
 70
     0
  9
$DIMCLRT
 70
     0
  9
$DIMTFAC
 40
1.0
  9
$DIMGAP
 40
1.524
  9
$DIMJUST
 70
     0
  9
$DIMSD1
 70
     0
  9
$DIMSD2
 70
     0
  9
$DIMTOLJ
 70
     0
  9
$DIMTZIN
 70
     0
  9
$DIMALTZ
 70
     0
  9
$DIMALTTZ
 70
     0
  9
$DIMUPT
 70
     0
  9
$DIMDEC
 70
     2
  9
$DIMTDEC
 70
     0
  9
$DIMALTU
 70
     2
  9
$DIMALTTD
 70
     3
  9
$DIMTXSTY
  7
Standard
  9
$DIMAUNIT
 70
     0
  9
$DIMADEC
 70
     2
  9
$DIMALTRND
 40
0.0
  9
$DIMAZIN
 70
     0
  9
$DIMDSEP
 70
    44
  9
$DIMATFIT
 70
     3
  9
$DIMFRAC
 70
     0
  9
$DIMLDRBLK
  1

  9
$DIMLUNIT
 70
     2
  9
$DIMLWD
 70
    -2
  9
$DIMLWE
 70
    -2
  9
$DIMTMOVE
 70
     0
  9
$LUNITS
 70
     2
  9
$LUPREC
 70
     3
  9
$SKETCHINC
 40
1.0
  9
$FILLETRAD
 40
10.0
  9
$AUNITS
 70
     0
  9
$AUPREC
 70
     2
  9
$MENU
  1
.
  9
$ELEVATION
 40
0.0
  9
$PELEVATION
 40
0.0
  9
$THICKNESS
 40
0.0
  9
$LIMCHECK
 70
     0
  9
$CHAMFERA
 40
0.0
  9
$CHAMFERB
 40
0.0
  9
$CHAMFERC
 40
0.0
  9
$CHAMFERD
 40
0.0
  9
$SKPOLY
 70
     0
  9
$TDCREATE
 40
2459094.280395243
  9
$TDUCREATE
 40
2459094.19706191
  9
$TDUPDATE
 40
2459094.280395822
  9
$TDUUPDATE
 40
2459094.197062489
  9
$TDINDWG
 40
0.0000000116
  9
$TDUSRTIMER
 40
0.0000000116
  9
$USRTIMER
 70
     1
  9
$ANGBASE
 50
0.0
  9
$ANGDIR
 70
     0
  9
$PDMODE
 70
     0
  9
$PDSIZE
 40
-1.0
  9
$PLINEWID
 40
0.0
  9
$SPLFRAME
 70
     0
  9
$SPLINETYPE
 70
     6
  9
$SPLINESEGS
 70
     8
  9
$HANDSEED
  5
25A
  9
$SURFTAB1
 70
     6
  9
$SURFTAB2
 70
     6
  9
$SURFTYPE
 70
     6
  9
$SURFU
 70
     6
  9
$SURFV
 70
     6
  9
$UCSBASE
  2

  9
$UCSNAME
  2

  9
$UCSORG
 10
0.0
 20
0.0
 30
0.0
  9
$UCSXDIR
 10
1.0
 20
0.0
 30
0.0
  9
$UCSYDIR
 10
0.0
 20
1.0
 30
0.0
  9
$UCSORTHOREF
  2

  9
$UCSORTHOVIEW
 70
     0
  9
$UCSORGTOP
 10
0.0
 20
0.0
 30
0.0
  9
$UCSORGBOTTOM
 10
0.0
 20
0.0
 30
0.0
  9
$UCSORGLEFT
 10
0.0
 20
0.0
 30
0.0
  9
$UCSORGRIGHT
 10
0.0
 20
0.0
 30
0.0
  9
$UCSORGFRONT
 10
0.0
 20
0.0
 30
0.0
  9
$UCSORGBACK
 10
0.0
 20
0.0
 30
0.0
  9
$PUCSBASE
  2

  9
$PUCSNAME
  2

  9
$PUCSORG
 10
0.0
 20
0.0
 30
0.0
  9
$PUCSXDIR
 10
1.0
 20
0.0
 30
0.0
  9
$PUCSYDIR
 10
0.0
 20
1.0
 30
0.0
  9
$PUCSORTHOREF
  2

  9
$PUCSORTHOVIEW
 70
     0
  9
$PUCSORGTOP
 10
0.0
 20
0.0
 30
0.0
  9
$PUCSORGBOTTOM
 10
0.0
 20
0.0
 30
0.0
  9
$PUCSORGLEFT
 10
0.0
 20
0.0
 30
0.0
  9
$PUCSORGRIGHT
 10
0.0
 20
0.0
 30
0.0
  9
$PUCSORGFRONT
 10
0.0
 20
0.0
 30
0.0
  9
$PUCSORGBACK
 10
0.0
 20
0.0
 30
0.0
  9
$USERI1
 70
     0
  9
$USERI2
 70
     0
  9
$USERI3
 70
     0
  9
$USERI4
 70
     0
  9
$USERI5
 70
     0
  9
$USERR1
 40
0.0
  9
$USERR2
 40
0.0
  9
$USERR3
 40
0.0
  9
$USERR4
 40
0.0
  9
$USERR5
 40
0.0
  9
$WORLDVIEW
 70
     1
  9
$SHADEDGE
 70
     3
  9
$SHADEDIF
 70
    70
  9
$TILEMODE
 70
     1
  9
$MAXACTVP
 70
    64
  9
$PINSBASE
 10
0.0
 20
0.0
 30
0.0
  9
$PLIMCHECK
 70
     0
  9
$PEXTMIN
 10
1.0000000000E+20
 20
1.0000000000E+20
 30
1.0000000000E+20
  9
$PEXTMAX
 10
-1.0000000000E+20
 20
-1.0000000000E+20
 30
-1.0000000000E+20
  9
$PLIMMIN
 10
0.0
 20
0.0
  9
$PLIMMAX
 10
420.0
 20
297.0
  9
$UNITMODE
 70
     0
  9
$VISRETAIN
 70
     1
  9
$PLINEGEN
 70
     0
  9
$PSLTSCALE
 70
     1
  9
$TREEDEPTH
 70
  3020
  9
$CMLSTYLE
  2
Standard
  9
$CMLJUST
 70
     0
  9
$CMLSCALE
 40
20.0
  9
$PROXYGRAPHICS
 70
     1
  9
$MEASUREMENT
 70
     1
  9
$CELWEIGHT
370
    -1
  9
$ENDCAPS
280
     0
  9
$JOINSTYLE
280
     0
  9
$LWDISPLAY
290
     1
  9
$INSUNITS
 70
     4
  9
$HYPERLINKBASE
  1

  9
$STYLESHEET
  1

  9
$XEDIT
290
     1
  9
$CEPSNTYPE
380
     0
  9
$PSTYLEMODE
290
     1
  9
$FINGERPRINTGUID
  2
{c59795f4-3002-42c6-8175-6904d907f2a8}
  9
$VERSIONGUID
  2
{FAEB1C32-E019-11D5-929B-00C0DF256EC4}
  9
$EXTNAMES
290
     1
  9
$PSVPSCALE
 40
0.0
  9
$OLESTARTUP
290
     0
  0
ENDSEC
  0
SECTION
  2
CLASSES
  0
CLASS
  1
ACDBDICTIONARYWDFLT
  2
AcDbDictionaryWithDefault
  3
ObjectDBX Classes
 90
        0
280
     0
281
     0
  0
CLASS
  1
VISUALSTYLE
  2
AcDbVisualStyle
  3
ObjectDBX Classes
 90
     4095
280
     0
281
     0
  0
CLASS
  1
MATERIAL
  2
AcDbMaterial
  3
ObjectDBX Classes
 90
     1153
280
     0
281
     0
  0
CLASS
  1
SCALE
  2
AcDbScale
  3
ObjectDBX Classes
 90
     1153
280
     0
281
     0
  0
CLASS
  1
TABLESTYLE
  2
AcDbTableStyle
  3
ObjectDBX Classes
 90
     4095
280
     0
281
     0
  0
CLASS
  1
MLEADERSTYLE
  2
AcDbMLeaderStyle
  3
ACDB_MLEADERSTYLE_CLASS
 90
     4095
280
     0
281
     0
  0
CLASS
  1
SUN
  2
AcDbSun
  3
SCENEOE
 90
     1153
280
     0
281
     0
  0
CLASS
  1
ACDBPLACEHOLDER
  2
AcDbPlaceHolder
  3
ObjectDBX Classes
 90
        0
280
     0
281
     0
  0
CLASS
  1
LAYOUT
  2
AcDbLayout
  3
ObjectDBX Classes
 90
        0
280
     0
281
     0
  0
ENDSEC
  0
SECTION
  2
TABLES
  0
TABLE
  2
VPORT
  5
8
330
0
100
AcDbSymbolTable
 70
     1
  0
VPORT
  5
29
330
8
100
AcDbSymbolTableRecord
100
AcDbViewportTableRecord
  2
*Active
 70
     0
 10
0.0
 20
0.0
 11
1.0
 21
1.0
 12
10000.0
 22
5000.0
 13
0.0
 23
0.0
 14
10.0
 24
10.0
 15
10.0
 25
10.0
 16
0.0
 26
0.0
 36
1.0
 17
0.0
 27
0.0
 37
0.0
 40
10000.0
 41
2.0
 42
50.0
 43
0.0
 44
0.0
 50
0.0
 51
0.0
 71
     0
 72
  2000
 73
     1
 74
     3
 75
     0
 76
     0
 77
     0
 78
     0
281
     0
 65
     1
110
0.0
120
0.0
130
0.0
111
1.0
121
0.0
131
0.0
112
0.0
122
1.0
132
0.0
 79
     0
146
0.0
  0
ENDTAB
  0
TABLE
  2
LTYPE
  5
5
330
0
100
AcDbSymbolTable
 70
     6
  0
LTYPE
  5
14
330
5
100
AcDbSymbolTableRecord
100
AcDbLinetypeTableRecord
  2
ByBlock
 70
     0
  3

 72
    65
 73
     0
 40
0.0
  0
LTYPE
  5
15
330
5
100
AcDbSymbolTableRecord
100
AcDbLinetypeTableRecord
  2
ByLayer
 70
     0
  3

 72
    65
 73
     0
 40
0.0
  0
LTYPE
  5
16
330
5
100
AcDbSymbolTableRecord
100
AcDbLinetypeTableRecord
  2
Continuous
 70
     0
  3
Solid line
 72
    65
 73
     0
 40
0.0
  0
LTYPE
  5
6E
330
5
100
AcDbSymbolTableRecord
100
AcDbLinetypeTableRecord
  2
HIDDEN
 70
     0
  3
Hidden __ __ __ __ __ __ __ __ __ __ __ __ __ __
 72
    65
 73
     2
 40
1.905
 49
1.27
 74
     0
 49
-0.635
 74
     0
  0
LTYPE
  5
6F
330
5
100
AcDbSymbolTableRecord
100
AcDbLinetypeTableRecord
  2
PHANTOM
 70
     0
  3
Phantom ______  __  __  ______  __  __  ______
 72
    65
 73
     6
 40
12.7
 49
6.35
 74
     0
 49
-1.27
 74
     0
 49
1.27
 74
     0
 49
-1.27
 74
     0
 49
1.27
 74
     0
 49
-1.27
 74
     0
  0
LTYPE
  5
70
330
5
100
AcDbSymbolTableRecord
100
AcDbLinetypeTableRecord
  2
CENTER
 70
     0
  3
Center ____ _ ____ _ ____ _ ____ _ ____ _ ____
 72
    65
 73
     4
 40
10.16
 49
6.35
 74
     0
 49
-1.27
 74
     0
 49
1.27
 74
     0
 49
-1.27
 74
     0
  0
LTYPE
  5
71
330
5
100
AcDbSymbolTableRecord
100
AcDbLinetypeTableRecord
  2
CENTERX2
 70
     0
  3
Center (2x) ________  __  ________  __  _____
 72
    65
 73
     4
 40
20.32
 49
12.7
 74
     0
 49
-2.54
 74
     0
 49
2.54
 74
     0
 49
-2.54
 74
     0
  0
LTYPE
  5
72
330
5
100
AcDbSymbolTableRecord
100
AcDbLinetypeTableRecord
  2
DOT2
 70
     0
  3
Dot (.5x) ........................................
 72
    65
 73
     2
 40
0.635
 49
0.0
 74
     0
 49
-0.635
 74
     0
  0
ENDTAB
  0
TABLE
  2
LAYER
  5
2
330
0
100
AcDbSymbolTable
 70
    13
  0
LAYER
  5
10
330
2
100
AcDbSymbolTableRecord
100
AcDbLayerTableRecord
  2
0
 70
     0
 62
     7
  6
Continuous
370
    -3
390
F
  0
LAYER
  5
73
330
2
100
AcDbSymbolTableRecord
100
AcDbLayerTableRecord
  2
FORMAT
 70
     0
 62
     7
  6
Continuous
370
    -3
390
F
  0
LAYER
  5
74
330
2
100
AcDbSymbolTableRecord
100
AcDbLayerTableRecord
  2
OSA
 70
     0
 62
     7
  6
CENTER
370
    -3
390
F
  0
LAYER
  5
75
330
2
100
AcDbSymbolTableRecord
100
AcDbLayerTableRecord
  2
0_35
 70
     0
 62
     7
  6
Continuous
370
    35
390
F
  0
LAYER
  5
76
330
2
100
AcDbSymbolTableRecord
100
AcDbLayerTableRecord
  2
0_5
 70
     0
 62
     7
  6
Continuous
370
    50
390
F
  0
LAYER
  5
77
330
2
100
AcDbSymbolTableRecord
100
AcDbLayerTableRecord
  2
0_25
 70
     0
 62
     7
  6
Continuous
370
    25
390
F
  0
LAYER
  5
78
330
2
100
AcDbSymbolTableRecord
100
AcDbLayerTableRecord
  2
0_18
 70
     0
 62
     7
  6
Continuous
370
    -3
390
F
  0
LAYER
  5
79
330
2
100
AcDbSymbolTableRecord
100
AcDbLayerTableRecord
  2
SLD-0
 70
     0
 62
   179
  6
Continuous
370
    -3
390
F
  0
LAYER
  5
7A
330
2
100
AcDbSymbolTableRecord
100
AcDbLayerTableRecord
  2
KOTY
 70
     0
 62
     7
  6
Continuous
370
    -3
390
F
  0
LAYER
  5
7B
330
2
100
AcDbSymbolTableRecord
100
AcDbLayerTableRecord
  2
SILNA
 70
     0
 62
   179
  6
Continuous
370
    -3
390
F
  0
LAYER
  5
7C
330
2
100
AcDbSymbolTableRecord
100
AcDbLayerTableRecord
  2
0_18_1
 70
     0
 62
   179
  6
Continuous
370
    -3
390
F
  0
LAYER
  5
7D
330
2
100
AcDbSymbolTableRecord
100
AcDbLayerTableRecord
  2
0_35_1
 70
     0
 62
   179
  6
Continuous
370
    35
390
F
  0
LAYER
  5
7E
330
2
100
AcDbSymbolTableRecord
100
AcDbLayerTableRecord
  2
0_5_1
 70
     0
 62
   179
  6
Continuous
370
    50
390
F
  0
ENDTAB
  0
TABLE
  2
STYLE
  5
3
330
0
100
AcDbSymbolTable
 70
     1
  0
STYLE
  5
11
330
3
100
AcDbSymbolTableRecord
100
AcDbTextStyleTableRecord
  2
Standard
 70
     0
 40
0.0
 41
1.0
 50
0.0
 71
     0
 42
2.0
  3
txt
  4

  0
ENDTAB
  0
TABLE
  2
VIEW
  5
6
330
0
100
AcDbSymbolTable
 70
     0
  0
ENDTAB
  0
TABLE
  2
UCS
  5
7
330
0
100
AcDbSymbolTable
 70
     0
  0
ENDTAB
  0
TABLE
  2
APPID
  5
9
330
0
100
AcDbSymbolTable
 70
     1
  0
APPID
  5
12
330
9
100
AcDbSymbolTableRecord
100
AcDbRegAppTableRecord
  2
ACAD
 70
     0
  0
ENDTAB
  0
TABLE
  2
DIMSTYLE
  5
A
330
0
100
AcDbSymbolTable
 70
     1
100
AcDbDimStyleTable
  0
DIMSTYLE
105
27
330
A
100
AcDbSymbolTableRecord
100
AcDbDimStyleTableRecord
  2
ISO-25
 70
     0
 41
2.5
 42
0.625
 43
3.75
 44
1.25
 73
     0
 74
     0
 77
     1
 78
     8
140
2.5
141
2.5
143
0.0393700787
147
0.625
171
     3
172
     1
178
     0
271
     2
272
     2
274
     3
278
    44
283
     0
284
     8
340
11
  0
ENDTAB
  0
TABLE
  2
BLOCK_RECORD
  5
1
330
0
100
AcDbSymbolTable
 70
     1
  0
BLOCK_RECORD
  5
1F
330
1
100
AcDbSymbolTableRecord
100
AcDbBlockTableRecord
  2
*Model_Space
340
22
  0
BLOCK_RECORD
  5
1B
330
1
100
AcDbSymbolTableRecord
100
AcDbBlockTableRecord
  2
*Paper_Space
340
1E
  0
BLOCK_RECORD
  5
23
330
1
100
AcDbSymbolTableRecord
100
AcDbBlockTableRecord
  2
*Paper_Space0
340
26
  0
ENDTAB
  0
ENDSEC
  0
SECTION
  2
BLOCKS
  0
BLOCK
  5
20
330
1F
100
AcDbEntity
  8
0
100
AcDbBlockBegin
  2
*Model_Space
 70
     0
 10
0.0
 20
0.0
 30
0.0
  3
*Model_Space
  1

  0
ENDBLK
  5
21
330
1F
100
AcDbEntity
  8
0
100
AcDbBlockEnd
  0
BLOCK
  5
1C
330
1B
100
AcDbEntity
 67
     1
  8
0
100
AcDbBlockBegin
  2
*Paper_Space
 70
     0
 10
0.0
 20
0.0
 30
0.0
  3
*Paper_Space
  1

  0
ENDBLK
  5
1D
330
1B
100
AcDbEntity
 67
     1
  8
0
100
AcDbBlockEnd
  0
BLOCK
  5
24
330
23
100
AcDbEntity
  8
0
100
AcDbBlockBegin
  2
*Paper_Space0
 70
     0
 10
0.0
 20
0.0
 30
0.0
  3
*Paper_Space0
  1

  0
ENDBLK
  5
25
330
23
100
AcDbEntity
  8
0
100
AcDbBlockEnd
  0
ENDSEC
  0
SECTION
  2
ENTITIES
  0
LINE
  5
7F
330
1F
100
AcDbEntity
  8
0
  6
Continuous
 62
     7
370
    25
100
AcDbLine
 10
4193.2985988195
 20
6995.5724916963
 30
0.0
 11
1208.2985988195
 21
6995.5724916963
 31
0.0
  0
LINE
  5
80
330
1F
100
AcDbEntity
  8
0
  6
Continuous
 62
     7
370
    25
100
AcDbLine
 10
4193.2985988195
 20
8900.3954460736
 30
0.0
 11
1208.2985988195
 21
8900.3954460736
 31
0.0
  0
LINE
  5
81
330
1F
100
AcDbEntity
  8
0
  6
Continuous
 62
     7
370
    25
100
AcDbLine
 10
1208.2985988195
 20
8900.3954460736
 30
0.0
 11
1200.7985988195
 21
8900.3954460736
 31
0.0
  0
LINE
  5
82
330
1F
100
AcDbEntity
  8
0
  6
Continuous
 62
     7
370
    25
100
AcDbLine
 10
4200.7985988195
 20
8900.3954460736
 30
0.0
 11
4193.2985988195
 21
8900.3954460736
 31
0.0
  0
LINE
  5
83
330
1F
100
AcDbEntity
  8
0
  6
Continuous
 62
     7
370
    25
100
AcDbLine
 10
2640.7985988195
 20
6351.0987274344
 30
0.0
 11
2760.7985988195
 21
6351.0987274344
 31
0.0
  0
LINE
  5
84
330
1F
100
AcDbEntity
  8
0
  6
Continuous
 62
     7
370
    25
100
AcDbLine
 10
2640.7985988195
 20
6368.7763969641
 30
0.0
 11
2640.7985988195
 21
6351.0987274344
 31
0.0
  0
LINE
  5
85
330
1F
100
AcDbEntity
  8
0
  6
Continuous
 62
     7
370
    25
100
AcDbLine
 10
2760.7985988195
 20
6368.7763969641
 30
0.0
 11
2640.7985988195
 21
6368.7763969641
 31
0.0
  0
LINE
  5
86
330
1F
100
AcDbEntity
  8
0
  6
Continuous
 62
     7
370
    25
100
AcDbLine
 10
2760.7985988195
 20
6351.0987274344
 30
0.0
 11
2760.7985988195
 21
6368.7763969641
 31
0.0
  0
LINE
  5
87
330
1F
100
AcDbEntity
  8
0
  6
Continuous
 62
     7
370
    25
100
AcDbLine
 10
2661.3935507426
 20
6363.4730961052
 30
0.0
 11
2662.7216757426
 21
6356.4020282933
 31
0.0
  0
LINE
  5
88
330
1F
100
AcDbEntity
  8
0
  6
Continuous
 62
     7
370
    25
100
AcDbLine
 10
2661.2633424092
 20
6363.4730961052
 30
0.0
 11
2661.3935507426
 21
6363.4730961052
 31
0.0
  0
LINE
  5
89
330
1F
100
AcDbEntity
  8
0
  6
Continuous
 62
     7
370
    25
100
AcDbLine
 10
2657.1447526656
 20
6357.6711943109
 30
0.0
 11
2661.2633424092
 21
6363.4730961052
 31
0.0
  0
LINE
  5
8A
330
1F
100
AcDbEntity
  8
0
  6
Continuous
 62
     7
370
    25
100
AcDbLine
 10
2653.0161468964
 20
6363.4730961052
 30
0.0
 11
2657.1447526656
 21
6357.6711943109
 31
0.0
  0
LINE
  5
8B
330
1F
100
AcDbEntity
  8
0
  6
Continuous
 62
     7
370
    25
100
AcDbLine
 10
2652.8879417682
 20
6363.4730961052
 30
0.0
 11
2653.0161468964
 21
6363.4730961052
 31
0.0
  0
LINE
  5
8C
330
1F
100
AcDbEntity
  8
0
  6
Continuous
 62
     7
370
    25
100
AcDbLine
 10
2651.5678295887
 20
6356.4020282933
 30
0.0
 11
2652.8879417682
 21
6363.4730961052
 31
0.0
  0
LINE
  5
8D
330
1F
100
AcDbEntity
  8
0
  6
Continuous
 62
     7
370
    25
100
AcDbLine
 10
2674.0858584349
 20
6363.4730961052
 30
0.0
 11
2675.4139834349
 21
6356.4020282933
 31
0.0
  0
LINE
  5
8E
330
1F
100
AcDbEntity
  8
0
  6
Continuous
 62
     7
370
    25
100
AcDbLine
 10
2673.9556501015
 20
6363.4730961052
 30
0.0
 11
2674.0858584349
 21
6363.4730961052
 31
0.0
  0
LINE
  5
8F
330
1F
100
AcDbEntity
  8
0
  6
Continuous
 62
     7
370
    25
100
AcDbLine
 10
2669.8370603579
 20
6357.6711943109
 30
0.0
 11
2673.9556501015
 21
6363.4730961052
 31
0.0
  0
LINE
  5
90
330
1F
100
AcDbEntity
  8
0
  6
Continuous
 62
     7
370
    25
100
AcDbLine
 10
2665.7084545887
 20
6363.4730961052
 30
0.0
 11
2669.8370603579
 21
6357.6711943109
 31
0.0
  0
LINE
  5
91
330
1F
100
AcDbEntity
  8
0
  6
Continuous
 62
     7
370
    25
100
AcDbLine
 10
2665.5802494605
 20
6363.4730961052
 30
0.0
 11
2665.7084545887
 21
6363.4730961052
 31
0.0
  0
LINE
  5
92
330
1F
100
AcDbEntity
  8
0
  6
Continuous
 62
     7
370
    25
100
AcDbLine
 10
2664.260137281
 20
6356.4020282933
 30
0.0
 11
2665.5802494605
 21
6363.4730961052
 31
0.0
  0
LINE
  5
93
330
1F
100
AcDbEntity
  8
0
  6
Continuous
 62
     7
370
    25
100
AcDbLine
 10
2676.6960347169
 20
6355.4048264224
 30
0.0
 11
2680.8787270246
 21
6363.6544055363
 31
0.0
  0
LINE
  5
94
330
1F
100
AcDbEntity
  8
0
  6
Continuous
 62
     7
370
    25
100
AcDbLine
 10
2680.8787270246
 20
6363.6544055363
 30
0.0
 11
2681.8242398451
 21
6363.6544055363
 31
0.0
  0
LINE
  5
95
330
1F
100
AcDbEntity
  8
0
  6
Continuous
 62
     7
370
    25
100
AcDbLine
 10
2686.26205172
 20
6359.6347139206
 30
0.0
 11
2689.901162922
 21
6356.4020282933
 31
0.0
  0
SPLINE
  5
96
330
1F
100
AcDbEntity
  8
0
  6
Continuous
 62
     7
370
    25
100
AcDbSpline
210
0.0
220
0.0
230
1.0
 70
     8
 71
     3
 72
    11
 73
     7
 74
     0
 42
0.00000001
 43
0.00000001
 40
0.0
 40
0.0
 40
0.0
 40
0.0
 40
0.2797971456708451
 40
0.5594998087059784
 40
0.7796264565611022
 40
1.0
 40
1.0
 40
1.0
 40
1.0
 10
2687.75773343487
 20
6363.376775469956
 30
0.0
 10
2688.071462977314
 20
6363.303188887045
 30
0.0
 10
2688.698816121184
 20
6363.156040570136
 30
0.0
 10
2689.358984791615
 20
6362.679545274866
 30
0.0
 10
2689.723315421953
 20
6362.13084877735
 30
0.0
 10
2689.756404154589
 20
6361.765081527519
 30
0.0
 10
2689.772957793846
 20
6361.582095398315
 30
0.0
  0
SPLINE
  5
97
330
1F
100
AcDbEntity
  8
0
  6
Continuous
 62
     7
370
    25
100
AcDbSpline
210
0.0
220
0.0
230
1.0
 70
     8
 71
     3
 72
     9
 73
     5
 74
     0
 42
0.00000001
 43
0.00000001
 40
0.0
 40
0.0
 40
0.0
 40
0.0
 40
0.5602396651480668
 40
0.9999999999999999
 40
0.9999999999999999
 40
0.9999999999999999
 40
0.9999999999999999
 10
2685.492108434869
 20
6363.473096105214
 30
0.0
 10
2685.916960513655
 20
6363.474063374509
 30
0.0
 10
2686.675300390703
 20
6363.4757899022
 30
0.0
 10
2687.427115132341
 20
6363.407018433888
 30
0.0
 10
2687.75773343487
 20
6363.376775469956
 30
0.0
  0
LINE
  5
98
330
1F
100
AcDbEntity
  8
0
  6
Continuous
 62
     7
370
    25
100
AcDbLine
 10
2683.4909065118
 20
6363.4730961052
 30
0.0
 11
2685.4921084349
 21
6363.4730961052
 31
0.0
  0
LINE
  5
99
330
1F
100
AcDbEntity
  8
0
  6
Continuous
 62
     7
370
    25
100
AcDbLine
 10
2694.7235901815
 20
6359.6347139206
 30
0.0
 11
2698.3627013836
 21
6356.4020282933
 31
0.0
  0
SPLINE
  5
9A
330
1F
100
AcDbEntity
  8
0
  6
Continuous
 62
     7
370
    25
100
AcDbSpline
210
0.0
220
0.0
230
1.0
 70
     8
 71
     3
 72
    11
 73
     7
 74
     0
 42
0.00000001
 43
0.00000001
 40
0.0
 40
0.0
 40
0.0
 40
0.0
 40
0.2797971456707857
 40
0.5594998087062732
 40
0.7796264565613573
 40
1.0
 40
1.0
 40
1.0
 40
1.0
 10
2696.219271896408
 20
6363.376775469955
 30
0.0
 10
2696.533001438852
 20
6363.303188887045
 30
0.0
 10
2697.160354582722
 20
6363.156040570137
 30
0.0
 10
2697.820523253155
 20
6362.679545274867
 30
0.0
 10
2698.184853883491
 20
6362.130848777349
 30
0.0
 10
2698.217942616127
 20
6361.76508152752
 30
0.0
 10
2698.234496255384
 20
6361.582095398316
 30
0.0
  0
SPLINE
  5
9B
330
1F
100
AcDbEntity
  8
0
  6
Continuous
 62
     7
370
    25
100
AcDbSpline
210
0.0
220
0.0
230
1.0
 70
     8
 71
     3
 72
     9
 73
     5
 74
     0
 42
0.00000001
 43
0.00000001
 40
0.0
 40
0.0
 40
0.0
 40
0.0
 40
0.5602396651484465
 40
0.9999999999999999
 40
0.9999999999999999
 40
0.9999999999999999
 40
0.9999999999999999
 10
2693.953646896407
 20
6363.473096105213
 30
0.0
 10
2694.378498975193
 20
6363.47406337451
 30
0.0
 10
2695.136838852241
 20
6363.475789902201
 30
0.0
 10
2695.888653593879
 20
6363.407018433888
 30
0.0
 10
2696.219271896408
 20
6363.376775469955
 30
0.0
  0
LINE
  5
9C
330
1F
100
AcDbEntity
  8
0
  6
Continuous
 62
     7
370
    25
100
AcDbLine
 10
2691.9524449733
 20
6363.4730961052
 30
0.0
 11
2693.9536468964
 21
6363.4730961052
 31
0.0
  0
LINE
  5
9D
330
1F
100
AcDbEntity
  8
0
  6
Continuous
 62
     7
370
    25
100
AcDbLine
 10
2703.3627013836
 20
6359.4842886216
 30
0.0
 11
2707.2088552297
 21
6359.4842886216
 31
0.0
  0
LINE
  5
9E
330
1F
100
AcDbEntity
  8
0
  6
Continuous
 62
     7
370
    25
100
AcDbLine
 10
2711.8883424092
 20
6356.4020282933
 30
0.0
 11
2715.137561157
 21
6359.9907084021
 31
0.0
  0
LINE
  5
9F
330
1F
100
AcDbEntity
  8
0
  6
Continuous
 62
     7
370
    25
100
AcDbLine
 10
2716.2052194107
 20
6359.9907086239
 30
0.0
 11
2719.4524449733
 21
6356.4020282933
 31
0.0
  0
LINE
  5
A0
330
1F
100
AcDbEntity
  8
0
  6
Continuous
 62
     7
370
    25
100
AcDbLine
 10
2718.2885827938
 20
6363.4730961052
 30
0.0
 11
2719.3242398451
 21
6363.4730961052
 31
0.0
  0
LINE
  5
A1
330
1F
100
AcDbEntity
  8
0
  6
Continuous
 62
     7
370
    25
100
AcDbLine
 10
2715.6703936913
 20
6360.5806440876
 30
0.0
 11
2718.2885827938
 21
6363.4730961052
 31
0.0
  0
LINE
  5
A2
330
1F
100
AcDbEntity
  8
0
  6
Continuous
 62
     7
370
    25
100
AcDbLine
 10
2713.0522045887
 20
6363.4730961052
 30
0.0
 11
2715.6703936913
 21
6360.5806440876
 31
0.0
  0
LINE
  5
A3
330
1F
100
AcDbEntity
  8
0
  6
Continuous
 62
     7
370
    25
100
AcDbLine
 10
2712.0165475374
 20
6363.4730961052
 30
0.0
 11
2713.0522045887
 21
6363.4730961052
 31
0.0
  0
LINE
  5
A4
330
1F
100
AcDbEntity
  8
0
  6
Continuous
 62
     7
370
    25
100
AcDbLine
 10
2720.3498808708
 20
6356.4020282933
 30
0.0
 11
2723.5990996185
 21
6359.9907084021
 31
0.0
  0
LINE
  5
A5
330
1F
100
AcDbEntity
  8
0
  6
Continuous
 62
     7
370
    25
100
AcDbLine
 10
2724.6667578722
 20
6359.9907086239
 30
0.0
 11
2727.9139834349
 21
6356.4020282933
 31
0.0
  0
LINE
  5
A6
330
1F
100
AcDbEntity
  8
0
  6
Continuous
 62
     7
370
    25
100
AcDbLine
 10
2726.7501212554
 20
6363.4730961052
 30
0.0
 11
2727.7857783067
 21
6363.4730961052
 31
0.0
  0
LINE
  5
A7
330
1F
100
AcDbEntity
  8
0
  6
Continuous
 62
     7
370
    25
100
AcDbLine
 10
2724.1319321528
 20
6360.5806440876
 30
0.0
 11
2726.7501212554
 21
6363.4730961052
 31
0.0
  0
LINE
  5
A8
330
1F
100
AcDbEntity
  8
0
  6
Continuous
 62
     7
370
    25
100
AcDbLine
 10
2721.5137430503
 20
6363.4730961052
 30
0.0
 11
2724.1319321528
 21
6360.5806440876
 31
0.0
  0
LINE
  5
A9
330
1F
100
AcDbEntity
  8
0
  6
Continuous
 62
     7
370
    25
100
AcDbLine
 10
2720.478085999
 20
6363.4730961052
 30
0.0
 11
2721.5137430503
 21
6363.4730961052
 31
0.0
  0
LINE
  5
AA
330
1F
100
AcDbEntity
  8
0
  6
Continuous
 62
     7
370
    25
100
AcDbLine
 10
2728.8114193323
 20
6356.4020282933
 30
0.0
 11
2732.0606380801
 21
6359.9907084021
 31
0.0
  0
LINE
  5
AB
330
1F
100
AcDbEntity
  8
0
  6
Continuous
 62
     7
370
    25
100
AcDbLine
 10
2733.1282963337
 20
6359.9907086239
 30
0.0
 11
2736.3755218964
 21
6356.4020282933
 31
0.0
  0
LINE
  5
AC
330
1F
100
AcDbEntity
  8
0
  6
Continuous
 62
     7
370
    25
100
AcDbLine
 10
2735.2116597169
 20
6363.4730961052
 30
0.0
 11
2736.2473167682
 21
6363.4730961052
 31
0.0
  0
LINE
  5
AD
330
1F
100
AcDbEntity
  8
0
  6
Continuous
 62
     7
370
    25
100
AcDbLine
 10
2732.5934706144
 20
6360.5806440876
 30
0.0
 11
2735.2116597169
 21
6363.4730961052
 31
0.0
  0
LINE
  5
AE
330
1F
100
AcDbEntity
  8
0
  6
Continuous
 62
     7
370
    25
100
AcDbLine
 10
2729.9752815118
 20
6363.4730961052
 30
0.0
 11
2732.5934706144
 21
6360.5806440876
 31
0.0
  0
LINE
  5
AF
330
1F
100
AcDbEntity
  8
0
  6
Continuous
 62
     7
370
    25
100
AcDbLine
 10
2728.9396244605
 20
6363.4730961052
 30
0.0
 11
2729.9752815118
 21
6363.4730961052
 31
0.0
  0
LINE
  5
B0
330
1F
100
AcDbEntity
  8
0
  6
Continuous
 62
     7
370
    25
100
AcDbLine
 10
2737.2729577938
 20
6356.4020282933
 30
0.0
 11
2740.5221765416
 21
6359.9907084021
 31
0.0
  0
LINE
  5
B1
330
1F
100
AcDbEntity
  8
0
  6
Continuous
 62
     7
370
    25
100
AcDbLine
 10
2741.5898347953
 20
6359.9907086239
 30
0.0
 11
2744.8370603579
 21
6356.4020282933
 31
0.0
  0
LINE
  5
B2
330
1F
100
AcDbEntity
  8
0
  6
Continuous
 62
     7
370
    25
100
AcDbLine
 10
2743.6731981785
 20
6363.4730961052
 30
0.0
 11
2744.7088552297
 21
6363.4730961052
 31
0.0
  0
LINE
  5
B3
330
1F
100
AcDbEntity
  8
0
  6
Continuous
 62
     7
370
    25
100
AcDbLine
 10
2741.0550090759
 20
6360.5806440876
 30
0.0
 11
2743.6731981785
 21
6363.4730961052
 31
0.0
  0
LINE
  5
B4
330
1F
100
AcDbEntity
  8
0
  6
Continuous
 62
     7
370
    25
100
AcDbLine
 10
2738.4368199733
 20
6363.4730961052
 30
0.0
 11
2741.0550090759
 21
6360.5806440876
 31
0.0
  0
LINE
  5
B5
330
1F
100
AcDbEntity
  8
0
  6
Continuous
 62
     7
370
    25
100
AcDbLine
 10
2737.4011629221
 20
6363.4730961052
 30
0.0
 11
2738.4368199733
 21
6363.4730961052
 31
0.0
  0
LINE
  5
B6
330
1F
100
AcDbEntity
  8
0
  6
Continuous
 62
     7
370
    25
100
AcDbLine
 10
2745.7344962554
 20
6356.4020282933
 30
0.0
 11
2748.9837150031
 21
6359.9907084021
 31
0.0
  0
LINE
  5
B7
330
1F
100
AcDbEntity
  8
0
  6
Continuous
 62
     7
370
    25
100
AcDbLine
 10
2750.0513732568
 20
6359.9907086239
 30
0.0
 11
2753.2985988195
 21
6356.4020282933
 31
0.0
  0
LINE
  5
B8
330
1F
100
AcDbEntity
  8
0
  6
Continuous
 62
     7
370
    25
100
AcDbLine
 10
2752.13473664
 20
6363.4730961052
 30
0.0
 11
2753.1703936913
 21
6363.4730961052
 31
0.0
  0
LINE
  5
B9
330
1F
100
AcDbEntity
  8
0
  6
Continuous
 62
     7
370
    25
100
AcDbLine
 10
2749.5165475374
 20
6360.5806440876
 30
0.0
 11
2752.13473664
 21
6363.4730961052
 31
0.0
  0
LINE
  5
BA
330
1F
100
AcDbEntity
  8
0
  6
Continuous
 62
     7
370
    25
100
AcDbLine
 10
2746.8983584349
 20
6363.4730961052
 30
0.0
 11
2749.5165475374
 21
6360.5806440876
 31
0.0
  0
LINE
  5
BB
330
1F
100
AcDbEntity
  8
0
  6
Continuous
 62
     7
370
    25
100
AcDbLine
 10
2745.8627013836
 20
6363.4730961052
 30
0.0
 11
2746.8983584349
 21
6363.4730961052
 31
0.0
  0
LINE
  5
BC
330
1F
100
AcDbEntity
  8
0
  6
Continuous
 62
     7
370
    25
100
AcDbLine
 10
2760.7985988195
 20
6368.7763969641
 30
0.0
 11
2760.7985988195
 21
6369.1299503547
 31
0.0
  0
LINE
  5
BD
330
1F
100
AcDbEntity
  8
0
  6
Continuous
 62
     7
370
    25
100
AcDbLine
 10
2640.7985988195
 20
6368.7763969641
 30
0.0
 11
2640.7985988195
 21
6369.1299503547
 31
0.0
  0
LINE
  5
BE
330
1F
100
AcDbEntity
  8
0
  6
Continuous
 62
     7
370
    25
100
AcDbLine
 10
2760.7985988195
 20
6369.1299503547
 30
0.0
 11
2640.7985988195
 21
6369.1299503547
 31
0.0
  0
LINE
  5
BF
330
1F
100
AcDbEntity
  8
0
  6
Continuous
 62
     7
370
    25
100
AcDbLine
 10
2680.8787270246
 20
6363.6190501972
 30
0.0
 11
2680.8787270246
 21
6363.6544055363
 31
0.0
  0
LINE
  5
C0
330
1F
100
AcDbEntity
  8
0
  6
Continuous
 62
     7
370
    25
100
AcDbLine
 10
2676.6960347169
 20
6355.3694710834
 30
0.0
 11
2680.8787270246
 21
6363.6190501972
 31
0.0
  0
LINE
  5
C1
330
1F
100
AcDbEntity
  8
0
  6
Continuous
 62
     7
370
    25
100
AcDbLine
 10
2676.6960347169
 20
6355.3694710834
 30
0.0
 11
2676.6960347169
 21
6355.4048264224
 31
0.0
  0
LINE
  5
C2
330
1F
100
AcDbEntity
  8
0
  6
Continuous
 62
     7
370
    25
100
AcDbLine
 10
2681.8242398451
 20
6363.6190501972
 30
0.0
 11
2677.6415475374
 21
6355.3694710834
 31
0.0
  0
LINE
  5
C3
330
1F
100
AcDbEntity
  8
0
  6
Continuous
 62
     7
370
    25
100
AcDbLine
 10
2677.6415475374
 20
6355.3694710834
 30
0.0
 11
2676.6960347169
 21
6355.3694710834
 31
0.0
  0
LINE
  5
C4
330
1F
100
AcDbEntity
  8
0
  6
Continuous
 62
     7
370
    25
100
AcDbLine
 10
2680.8787270246
 20
6363.6190501972
 30
0.0
 11
2681.8242398451
 21
6363.6190501972
 31
0.0
  0
LINE
  5
C5
330
1F
100
AcDbEntity
  8
0
  6
Continuous
 62
     7
370
    25
100
AcDbLine
 10
2681.8242398451
 20
6363.6190501972
 30
0.0
 11
2681.8242398451
 21
6363.6544055363
 31
0.0
  0
LINE
  5
C6
330
1F
100
AcDbEntity
  8
0
  6
Continuous
 62
     7
370
    25
100
AcDbLine
 10
2664.260137281
 20
6356.3666729543
 30
0.0
 11
2665.5802494605
 21
6363.4377407662
 31
0.0
  0
LINE
  5
C7
330
1F
100
AcDbEntity
  8
0
  6
Continuous
 62
     7
370
    25
100
AcDbLine
 10
2665.5802494605
 20
6363.4377407662
 30
0.0
 11
2665.7084545887
 21
6363.4377407662
 31
0.0
  0
LINE
  5
C8
330
1F
100
AcDbEntity
  8
0
  6
Continuous
 62
     7
370
    25
100
AcDbLine
 10
2665.7084545887
 20
6363.4377407662
 30
0.0
 11
2669.8370603579
 21
6357.6358389718
 31
0.0
  0
LINE
  5
C9
330
1F
100
AcDbEntity
  8
0
  6
Continuous
 62
     7
370
    25
100
AcDbLine
 10
2669.8370603579
 20
6357.6358389718
 30
0.0
 11
2673.9556501015
 21
6363.4377407662
 31
0.0
  0
LINE
  5
CA
330
1F
100
AcDbEntity
  8
0
  6
Continuous
 62
     7
370
    25
100
AcDbLine
 10
2673.9556501015
 20
6363.4377407662
 30
0.0
 11
2674.0858584349
 21
6363.4377407662
 31
0.0
  0
LINE
  5
CB
330
1F
100
AcDbEntity
  8
0
  6
Continuous
 62
     7
370
    25
100
AcDbLine
 10
2674.0858584349
 20
6363.4377407662
 30
0.0
 11
2675.4139834349
 21
6356.3666729543
 31
0.0
  0
LINE
  5
CC
330
1F
100
AcDbEntity
  8
0
  6
Continuous
 62
     7
370
    25
100
AcDbLine
 10
2675.4139834349
 20
6356.3666729543
 30
0.0
 11
2674.5125411272
 21
6356.3666729543
 31
0.0
  0
LINE
  5
CD
330
1F
100
AcDbEntity
  8
0
  6
Continuous
 62
     7
370
    25
100
AcDbLine
 10
2674.5125411272
 20
6356.3666729543
 30
0.0
 11
2673.5550090759
 21
6361.4546688638
 31
0.0
  0
LINE
  5
CE
330
1F
100
AcDbEntity
  8
0
  6
Continuous
 62
     7
370
    25
100
AcDbLine
 10
2673.5550090759
 20
6361.4546688638
 30
0.0
 11
2669.9452334349
 21
6356.3666729543
 31
0.0
  0
LINE
  5
CF
330
1F
100
AcDbEntity
  8
0
  6
Continuous
 62
     7
370
    25
100
AcDbLine
 10
2669.9452334349
 20
6356.3666729543
 30
0.0
 11
2669.7429097169
 21
6356.3666729543
 31
0.0
  0
LINE
  5
D0
330
1F
100
AcDbEntity
  8
0
  6
Continuous
 62
     7
370
    25
100
AcDbLine
 10
2669.7429097169
 20
6356.3666729543
 30
0.0
 11
2666.11911164
 21
6361.4660007032
 31
0.0
  0
LINE
  5
D1
330
1F
100
AcDbEntity
  8
0
  6
Continuous
 62
     7
370
    25
100
AcDbLine
 10
2666.11911164
 20
6361.4660007032
 30
0.0
 11
2665.1635827938
 21
6356.3666729543
 31
0.0
  0
LINE
  5
D2
330
1F
100
AcDbEntity
  8
0
  6
Continuous
 62
     7
370
    25
100
AcDbLine
 10
2665.1635827938
 20
6356.3666729543
 30
0.0
 11
2664.260137281
 21
6356.3666729543
 31
0.0
  0
LINE
  5
D3
330
1F
100
AcDbEntity
  8
0
  6
Continuous
 62
     7
370
    25
100
AcDbLine
 10
2692.8498808708
 20
6360.3554804379
 30
0.0
 11
2694.6808103579
 21
6360.3455650784
 31
0.0
  0
SPLINE
  5
D4
330
1F
100
AcDbEntity
  8
0
  6
Continuous
 62
     7
370
    25
100
AcDbSpline
210
0.0
220
0.0
230
1.0
 70
     8
 71
     3
 72
    11
 73
     7
 74
     0
 42
0.00000001
 43
0.00000001
 40
0.0
 40
0.0
 40
0.0
 40
0.0
 40
0.4998271287788491
 40
0.6254978160486712
 40
0.7512078924538754
 40
1.0
 40
1.0
 40
1.0
 40
1.0
 10
2694.680810357947
 20
6360.345565078392
 30
0.0
 10
2695.29504086541
 20
6360.346927819375
 30
0.0
 10
2696.063706307613
 20
6360.348633192012
 30
0.0
 10
2696.821946654431
 20
6360.693858759699
 30
0.0
 10
2697.219008101737
 20
6361.018793113127
 30
0.0
 10
2697.289939006085
 20
6361.33685756818
 30
0.0
 10
2697.337060357947
 20
6361.548156539186
 30
0.0
  0
SPLINE
  5
D5
330
1F
100
AcDbEntity
  8
0
  6
Continuous
 62
     7
370
    25
100
AcDbSpline
210
0.0
220
0.0
230
1.0
 70
     8
 71
     3
 72
    12
 73
     8
 74
     0
 42
0.00000001
 43
0.00000001
 40
0.0
 40
0.0
 40
0.0
 40
0.0
 40
0.1253073891288509
 40
0.2506169873752017
 40
0.375954254859989
 40
0.5012806071542658
 40
1.0
 40
1.0
 40
1.0
 40
1.0
 10
2697.337060357947
 20
6361.548156539186
 30
0.0
 10
2697.32624730288
 20
6361.651720770927
 30
0.0
 10
2697.304621002116
 20
6361.858851060201
 30
0.0
 10
2697.105748340701
 20
6362.141199374807
 30
0.0
 10
2696.824392092016
 20
6362.380572776342
 30
0.0
 10
2696.082860772028
 20
6362.726297728543
 30
0.0
 10
2695.328079962849
 20
6362.718630483418
 30
0.0
 10
2694.724880870768
 20
6362.712503041859
 30
0.0
  0
LINE
  5
D6
330
1F
100
AcDbEntity
  8
0
  6
Continuous
 62
     7
370
    25
100
AcDbLine
 10
2694.7248808708
 20
6362.7125030419
 30
0.0
 11
2692.8498808708
 21
6362.7125030419
 31
0.0
  0
LINE
  5
D7
330
1F
100
AcDbEntity
  8
0
  6
Continuous
 62
     7
370
    25
100
AcDbLine
 10
2692.8498808708
 20
6362.7125030419
 30
0.0
 11
2692.8498808708
 21
6360.3554804379
 31
0.0
  0
LINE
  5
D8
330
1F
100
AcDbEntity
  8
0
  6
Continuous
 62
     7
370
    25
100
AcDbLine
 10
2691.9524449733
 20
6363.4377407662
 30
0.0
 11
2693.9536468964
 21
6363.4377407662
 31
0.0
  0
SPLINE
  5
D9
330
1F
100
AcDbEntity
  8
0
  6
Continuous
 62
     7
370
    25
100
AcDbSpline
210
0.0
220
0.0
230
1.0
 70
     8
 71
     3
 72
     9
 73
     5
 74
     0
 42
0.00000001
 43
0.00000001
 40
0.0
 40
0.0
 40
0.0
 40
0.0
 40
0.5602396651484209
 40
1.0
 40
1.0
 40
1.0
 40
1.0
 10
2693.953646896408
 20
6363.437740766153
 30
0.0
 10
2694.378498975194
 20
6363.438708035449
 30
0.0
 10
2695.136838852241
 20
6363.44043456314
 30
0.0
 10
2695.88865359388
 20
6363.371663094828
 30
0.0
 10
2696.219271896409
 20
6363.341420130895
 30
0.0
  0
SPLINE
  5
DA
330
1F
100
AcDbEntity
  8
0
  6
Continuous
 62
     7
370
    25
100
AcDbSpline
210
0.0
220
0.0
230
1.0
 70
     8
 71
     3
 72
    11
 73
     7
 74
     0
 42
0.00000001
 43
0.00000001
 40
0.0
 40
0.0
 40
0.0
 40
0.0
 40
0.2797971456706054
 40
0.5594998087060075
 40
0.7796264565611981
 40
1.0
 40
1.0
 40
1.0
 40
1.0
 10
2696.219271896409
 20
6363.341420130895
 30
0.0
 10
2696.533001438852
 20
6363.267833547986
 30
0.0
 10
2697.160354582721
 20
6363.120685231076
 30
0.0
 10
2697.820523253155
 20
6362.644189935808
 30
0.0
 10
2698.184853883491
 20
6362.09549343829
 30
0.0
 10
2698.217942616126
 20
6361.72972618846
 30
0.0
 10
2698.234496255383
 20
6361.546740059255
 30
0.0
  0
SPLINE
  5
DB
330
1F
100
AcDbEntity
  8
0
  6
Continuous
 62
     7
370
    25
100
AcDbSpline
210
0.0
220
0.0
230
1.0
 70
     8
 71
     3
 72
    11
 73
     7
 74
     0
 42
0.00000001
 43
0.00000001
 40
0.0
 40
0.0
 40
0.0
 40
0.0
 40
0.1871202495898596
 40
0.3739788865738146
 40
0.5609111826904023
 40
1.0
 40
1.0
 40
1.0
 40
1.0
 10
2698.234496255383
 20
6361.546740059255
 30
0.0
 10
2698.208278189545
 20
6361.323107955431
 30
0.0
 10
2698.155878713319
 20
6360.87615640757
 30
0.0
 10
2697.661437161239
 20
6360.282152349218
 30
0.0
 10
2696.534420837345
 20
6359.687983788014
 30
0.0
 10
2695.449666045364
 20
6359.654046322364
 30
0.0
 10
2694.68882317846
 20
6359.630242713612
 30
0.0
  0
LINE
  5
DC
330
1F
100
AcDbEntity
  8
0
  6
Continuous
 62
     7
370
    25
100
AcDbLine
 10
2694.6888231785
 20
6359.6302427136
 30
0.0
 11
2698.3627013836
 21
6356.3666729543
 31
0.0
  0
LINE
  5
DD
330
1F
100
AcDbEntity
  8
0
  6
Continuous
 62
     7
370
    25
100
AcDbLine
 10
2698.3627013836
 20
6356.3666729543
 30
0.0
 11
2697.2529257426
 21
6356.3666729543
 31
0.0
  0
LINE
  5
DE
330
1F
100
AcDbEntity
  8
0
  6
Continuous
 62
     7
370
    25
100
AcDbLine
 10
2697.2529257426
 20
6356.3666729543
 30
0.0
 11
2693.5790475374
 21
6359.6302427136
 31
0.0
  0
LINE
  5
DF
330
1F
100
AcDbEntity
  8
0
  6
Continuous
 62
     7
370
    25
100
AcDbLine
 10
2693.5790475374
 20
6359.6302427136
 30
0.0
 11
2692.8498808708
 21
6359.6302427136
 31
0.0
  0
LINE
  5
E0
330
1F
100
AcDbEntity
  8
0
  6
Continuous
 62
     7
370
    25
100
AcDbLine
 10
2692.8498808708
 20
6359.6302427136
 30
0.0
 11
2692.8498808708
 21
6356.3666729543
 31
0.0
  0
LINE
  5
E1
330
1F
100
AcDbEntity
  8
0
  6
Continuous
 62
     7
370
    25
100
AcDbLine
 10
2692.8498808708
 20
6356.3666729543
 30
0.0
 11
2691.9524449733
 21
6356.3666729543
 31
0.0
  0
LINE
  5
E2
330
1F
100
AcDbEntity
  8
0
  6
Continuous
 62
     7
370
    25
100
AcDbLine
 10
2691.9524449733
 20
6356.3666729543
 30
0.0
 11
2691.9524449733
 21
6363.4377407662
 31
0.0
  0
LINE
  5
E3
330
1F
100
AcDbEntity
  8
0
  6
Continuous
 62
     7
370
    25
100
AcDbLine
 10
2696.2192718964
 20
6363.3414201309
 30
0.0
 11
2696.2192718964
 21
6363.37677547
 31
0.0
  0
LINE
  5
E4
330
1F
100
AcDbEntity
  8
0
  6
Continuous
 62
     7
370
    25
100
AcDbLine
 10
2693.9536468964
 20
6363.4377407662
 30
0.0
 11
2693.9536468964
 21
6363.4730961052
 31
0.0
  0
LINE
  5
E5
330
1F
100
AcDbEntity
  8
0
  6
Continuous
 62
     7
370
    25
100
AcDbLine
 10
2685.4921084349
 20
6363.4377407662
 30
0.0
 11
2685.4921084349
 21
6363.4730961052
 31
0.0
  0
LINE
  5
E6
330
1F
100
AcDbEntity
  8
0
  6
Continuous
 62
     7
370
    25
100
AcDbLine
 10
2683.4909065118
 20
6363.4377407662
 30
0.0
 11
2685.4921084349
 21
6363.4377407662
 31
0.0
  0
LINE
  5
E7
330
1F
100
AcDbEntity
  8
0
  6
Continuous
 62
     7
370
    25
100
AcDbLine
 10
2683.4909065118
 20
6363.4377407662
 30
0.0
 11
2683.4909065118
 21
6363.4730961052
 31
0.0
  0
LINE
  5
E8
330
1F
100
AcDbEntity
  8
0
  6
Continuous
 62
     7
370
    25
100
AcDbLine
 10
2728.9396244605
 20
6363.4377407662
 30
0.0
 11
2729.9752815118
 21
6363.4377407662
 31
0.0
  0
LINE
  5
E9
330
1F
100
AcDbEntity
  8
0
  6
Continuous
 62
     7
370
    25
100
AcDbLine
 10
2729.9752815118
 20
6363.4377407662
 30
0.0
 11
2732.5934706144
 21
6360.5452887486
 31
0.0
  0
LINE
  5
EA
330
1F
100
AcDbEntity
  8
0
  6
Continuous
 62
     7
370
    25
100
AcDbLine
 10
2732.5934706144
 20
6360.5452887486
 30
0.0
 11
2735.2116597169
 21
6363.4377407662
 31
0.0
  0
LINE
  5
EB
330
1F
100
AcDbEntity
  8
0
  6
Continuous
 62
     7
370
    25
100
AcDbLine
 10
2735.2116597169
 20
6363.4377407662
 30
0.0
 11
2736.2473167682
 21
6363.4377407662
 31
0.0
  0
LINE
  5
EC
330
1F
100
AcDbEntity
  8
0
  6
Continuous
 62
     7
370
    25
100
AcDbLine
 10
2736.2473167682
 20
6363.4377407662
 30
0.0
 11
2733.1123007426
 21
6359.9730308567
 31
0.0
  0
LINE
  5
ED
330
1F
100
AcDbEntity
  8
0
  6
Continuous
 62
     7
370
    25
100
AcDbLine
 10
2733.1123007426
 20
6359.9730308567
 30
0.0
 11
2736.3755218964
 21
6356.3666729543
 31
0.0
  0
LINE
  5
EE
330
1F
100
AcDbEntity
  8
0
  6
Continuous
 62
     7
370
    25
100
AcDbLine
 10
2736.3755218964
 20
6356.3666729543
 30
0.0
 11
2735.3398648451
 21
6356.3666729543
 31
0.0
  0
LINE
  5
EF
330
1F
100
AcDbEntity
  8
0
  6
Continuous
 62
     7
370
    25
100
AcDbLine
 10
2735.3398648451
 20
6356.3666729543
 30
0.0
 11
2732.5934706144
 21
6359.4007729649
 31
0.0
  0
LINE
  5
F0
330
1F
100
AcDbEntity
  8
0
  6
Continuous
 62
     7
370
    25
100
AcDbLine
 10
2732.5934706144
 20
6359.4007729649
 30
0.0
 11
2729.8470763836
 21
6356.3666729543
 31
0.0
  0
LINE
  5
F1
330
1F
100
AcDbEntity
  8
0
  6
Continuous
 62
     7
370
    25
100
AcDbLine
 10
2729.8470763836
 20
6356.3666729543
 30
0.0
 11
2728.8114193323
 21
6356.3666729543
 31
0.0
  0
LINE
  5
F2
330
1F
100
AcDbEntity
  8
0
  6
Continuous
 62
     7
370
    25
100
AcDbLine
 10
2728.8114193323
 20
6356.3666729543
 30
0.0
 11
2732.0766436913
 21
6359.9730308567
 31
0.0
  0
LINE
  5
F3
330
1F
100
AcDbEntity
  8
0
  6
Continuous
 62
     7
370
    25
100
AcDbLine
 10
2732.0766436913
 20
6359.9730308567
 30
0.0
 11
2728.9396244605
 21
6363.4377407662
 31
0.0
  0
LINE
  5
F4
330
1F
100
AcDbEntity
  8
0
  6
Continuous
 62
     7
370
    25
100
AcDbLine
 10
2661.3935507426
 20
6363.4377407662
 30
0.0
 11
2661.3935507426
 21
6363.4730961052
 31
0.0
  0
LINE
  5
F5
330
1F
100
AcDbEntity
  8
0
  6
Continuous
 62
     7
370
    25
100
AcDbLine
 10
2661.2633424092
 20
6363.4377407662
 30
0.0
 11
2661.3935507426
 21
6363.4377407662
 31
0.0
  0
LINE
  5
F6
330
1F
100
AcDbEntity
  8
0
  6
Continuous
 62
     7
370
    25
100
AcDbLine
 10
2661.2633424092
 20
6363.4377407662
 30
0.0
 11
2661.2633424092
 21
6363.4730961052
 31
0.0
  0
LINE
  5
F7
330
1F
100
AcDbEntity
  8
0
  6
Continuous
 62
     7
370
    25
100
AcDbLine
 10
2657.1447526656
 20
6357.6358389718
 30
0.0
 11
2661.2633424092
 21
6363.4377407662
 31
0.0
  0
LINE
  5
F8
330
1F
100
AcDbEntity
  8
0
  6
Continuous
 62
     7
370
    25
100
AcDbLine
 10
2657.1447526656
 20
6357.6358389718
 30
0.0
 11
2657.1447526656
 21
6357.6711943109
 31
0.0
  0
LINE
  5
F9
330
1F
100
AcDbEntity
  8
0
  6
Continuous
 62
     7
370
    25
100
AcDbLine
 10
2673.9556501015
 20
6363.4377407662
 30
0.0
 11
2673.9556501015
 21
6363.4730961052
 31
0.0
  0
LINE
  5
FA
330
1F
100
AcDbEntity
  8
0
  6
Continuous
 62
     7
370
    25
100
AcDbLine
 10
2669.8370603579
 20
6357.6358389718
 30
0.0
 11
2669.8370603579
 21
6357.6711943109
 31
0.0
  0
LINE
  5
FB
330
1F
100
AcDbEntity
  8
0
  6
Continuous
 62
     7
370
    25
100
AcDbLine
 10
2691.9524449733
 20
6363.4377407662
 30
0.0
 11
2691.9524449733
 21
6363.4730961052
 31
0.0
  0
LINE
  5
FC
330
1F
100
AcDbEntity
  8
0
  6
Continuous
 62
     7
370
    25
100
AcDbLine
 10
2720.478085999
 20
6363.4377407662
 30
0.0
 11
2721.5137430503
 21
6363.4377407662
 31
0.0
  0
LINE
  5
FD
330
1F
100
AcDbEntity
  8
0
  6
Continuous
 62
     7
370
    25
100
AcDbLine
 10
2721.5137430503
 20
6363.4377407662
 30
0.0
 11
2724.1319321528
 21
6360.5452887486
 31
0.0
  0
LINE
  5
FE
330
1F
100
AcDbEntity
  8
0
  6
Continuous
 62
     7
370
    25
100
AcDbLine
 10
2724.1319321528
 20
6360.5452887486
 30
0.0
 11
2726.7501212554
 21
6363.4377407662
 31
0.0
  0
LINE
  5
FF
330
1F
100
AcDbEntity
  8
0
  6
Continuous
 62
     7
370
    25
100
AcDbLine
 10
2726.7501212554
 20
6363.4377407662
 30
0.0
 11
2727.7857783067
 21
6363.4377407662
 31
0.0
  0
LINE
  5
100
330
1F
100
AcDbEntity
  8
0
  6
Continuous
 62
     7
370
    25
100
AcDbLine
 10
2727.7857783067
 20
6363.4377407662
 30
0.0
 11
2724.650762281
 21
6359.9730308567
 31
0.0
  0
LINE
  5
101
330
1F
100
AcDbEntity
  8
0
  6
Continuous
 62
     7
370
    25
100
AcDbLine
 10
2724.650762281
 20
6359.9730308567
 30
0.0
 11
2727.9139834349
 21
6356.3666729543
 31
0.0
  0
LINE
  5
102
330
1F
100
AcDbEntity
  8
0
  6
Continuous
 62
     7
370
    25
100
AcDbLine
 10
2727.9139834349
 20
6356.3666729543
 30
0.0
 11
2726.8783263836
 21
6356.3666729543
 31
0.0
  0
LINE
  5
103
330
1F
100
AcDbEntity
  8
0
  6
Continuous
 62
     7
370
    25
100
AcDbLine
 10
2726.8783263836
 20
6356.3666729543
 30
0.0
 11
2724.1319321528
 21
6359.4007729649
 31
0.0
  0
LINE
  5
104
330
1F
100
AcDbEntity
  8
0
  6
Continuous
 62
     7
370
    25
100
AcDbLine
 10
2724.1319321528
 20
6359.4007729649
 30
0.0
 11
2721.385537922
 21
6356.3666729543
 31
0.0
  0
LINE
  5
105
330
1F
100
AcDbEntity
  8
0
  6
Continuous
 62
     7
370
    25
100
AcDbLine
 10
2721.385537922
 20
6356.3666729543
 30
0.0
 11
2720.3498808708
 21
6356.3666729543
 31
0.0
  0
LINE
  5
106
330
1F
100
AcDbEntity
  8
0
  6
Continuous
 62
     7
370
    25
100
AcDbLine
 10
2720.3498808708
 20
6356.3666729543
 30
0.0
 11
2723.6151052297
 21
6359.9730308567
 31
0.0
  0
LINE
  5
107
330
1F
100
AcDbEntity
  8
0
  6
Continuous
 62
     7
370
    25
100
AcDbLine
 10
2723.6151052297
 20
6359.9730308567
 30
0.0
 11
2720.478085999
 21
6363.4377407662
 31
0.0
  0
LINE
  5
108
330
1F
100
AcDbEntity
  8
0
  6
Continuous
 62
     7
370
    25
100
AcDbLine
 10
2674.0858584349
 20
6363.4377407662
 30
0.0
 11
2674.0858584349
 21
6363.4730961052
 31
0.0
  0
LINE
  5
109
330
1F
100
AcDbEntity
  8
0
  6
Continuous
 62
     7
370
    25
100
AcDbLine
 10
2651.5678295887
 20
6356.3666729543
 30
0.0
 11
2652.8879417682
 21
6363.4377407662
 31
0.0
  0
LINE
  5
10A
330
1F
100
AcDbEntity
  8
0
  6
Continuous
 62
     7
370
    25
100
AcDbLine
 10
2652.8879417682
 20
6363.4377407662
 30
0.0
 11
2653.0161468964
 21
6363.4377407662
 31
0.0
  0
LINE
  5
10B
330
1F
100
AcDbEntity
  8
0
  6
Continuous
 62
     7
370
    25
100
AcDbLine
 10
2653.0161468964
 20
6363.4377407662
 30
0.0
 11
2657.1447526656
 21
6357.6358389718
 31
0.0
  0
LINE
  5
10C
330
1F
100
AcDbEntity
  8
0
  6
Continuous
 62
     7
370
    25
100
AcDbLine
 10
2661.3935507426
 20
6363.4377407662
 30
0.0
 11
2662.7216757426
 21
6356.3666729543
 31
0.0
  0
LINE
  5
10D
330
1F
100
AcDbEntity
  8
0
  6
Continuous
 62
     7
370
    25
100
AcDbLine
 10
2662.7216757426
 20
6356.3666729543
 30
0.0
 11
2661.8202334349
 21
6356.3666729543
 31
0.0
  0
LINE
  5
10E
330
1F
100
AcDbEntity
  8
0
  6
Continuous
 62
     7
370
    25
100
AcDbLine
 10
2661.8202334349
 20
6356.3666729543
 30
0.0
 11
2660.8627013836
 21
6361.4546688638
 31
0.0
  0
LINE
  5
10F
330
1F
100
AcDbEntity
  8
0
  6
Continuous
 62
     7
370
    25
100
AcDbLine
 10
2660.8627013836
 20
6361.4546688638
 30
0.0
 11
2657.2529257426
 21
6356.3666729543
 31
0.0
  0
LINE
  5
110
330
1F
100
AcDbEntity
  8
0
  6
Continuous
 62
     7
370
    25
100
AcDbLine
 10
2657.2529257426
 20
6356.3666729543
 30
0.0
 11
2657.0506020246
 21
6356.3666729543
 31
0.0
  0
LINE
  5
111
330
1F
100
AcDbEntity
  8
0
  6
Continuous
 62
     7
370
    25
100
AcDbLine
 10
2657.0506020246
 20
6356.3666729543
 30
0.0
 11
2653.4268039477
 21
6361.4660007032
 31
0.0
  0
LINE
  5
112
330
1F
100
AcDbEntity
  8
0
  6
Continuous
 62
     7
370
    25
100
AcDbLine
 10
2653.4268039477
 20
6361.4660007032
 30
0.0
 11
2652.4712751015
 21
6356.3666729543
 31
0.0
  0
LINE
  5
113
330
1F
100
AcDbEntity
  8
0
  6
Continuous
 62
     7
370
    25
100
AcDbLine
 10
2652.4712751015
 20
6356.3666729543
 30
0.0
 11
2651.5678295887
 21
6356.3666729543
 31
0.0
  0
LINE
  5
114
330
1F
100
AcDbEntity
  8
0
  6
Continuous
 62
     7
370
    25
100
AcDbLine
 10
2737.401162922
 20
6363.4377407662
 30
0.0
 11
2738.4368199733
 21
6363.4377407662
 31
0.0
  0
LINE
  5
115
330
1F
100
AcDbEntity
  8
0
  6
Continuous
 62
     7
370
    25
100
AcDbLine
 10
2738.4368199733
 20
6363.4377407662
 30
0.0
 11
2741.0550090759
 21
6360.5452887486
 31
0.0
  0
LINE
  5
116
330
1F
100
AcDbEntity
  8
0
  6
Continuous
 62
     7
370
    25
100
AcDbLine
 10
2741.0550090759
 20
6360.5452887486
 30
0.0
 11
2743.6731981785
 21
6363.4377407662
 31
0.0
  0
LINE
  5
117
330
1F
100
AcDbEntity
  8
0
  6
Continuous
 62
     7
370
    25
100
AcDbLine
 10
2743.6731981785
 20
6363.4377407662
 30
0.0
 11
2744.7088552297
 21
6363.4377407662
 31
0.0
  0
LINE
  5
118
330
1F
100
AcDbEntity
  8
0
  6
Continuous
 62
     7
370
    25
100
AcDbLine
 10
2744.7088552297
 20
6363.4377407662
 30
0.0
 11
2741.5738392041
 21
6359.9730308567
 31
0.0
  0
LINE
  5
119
330
1F
100
AcDbEntity
  8
0
  6
Continuous
 62
     7
370
    25
100
AcDbLine
 10
2741.5738392041
 20
6359.9730308567
 30
0.0
 11
2744.8370603579
 21
6356.3666729543
 31
0.0
  0
LINE
  5
11A
330
1F
100
AcDbEntity
  8
0
  6
Continuous
 62
     7
370
    25
100
AcDbLine
 10
2744.8370603579
 20
6356.3666729543
 30
0.0
 11
2743.8014033067
 21
6356.3666729543
 31
0.0
  0
LINE
  5
11B
330
1F
100
AcDbEntity
  8
0
  6
Continuous
 62
     7
370
    25
100
AcDbLine
 10
2743.8014033067
 20
6356.3666729543
 30
0.0
 11
2741.0550090759
 21
6359.4007729649
 31
0.0
  0
LINE
  5
11C
330
1F
100
AcDbEntity
  8
0
  6
Continuous
 62
     7
370
    25
100
AcDbLine
 10
2741.0550090759
 20
6359.4007729649
 30
0.0
 11
2738.3086148451
 21
6356.3666729543
 31
0.0
  0
LINE
  5
11D
330
1F
100
AcDbEntity
  8
0
  6
Continuous
 62
     7
370
    25
100
AcDbLine
 10
2738.3086148451
 20
6356.3666729543
 30
0.0
 11
2737.2729577938
 21
6356.3666729543
 31
0.0
  0
LINE
  5
11E
330
1F
100
AcDbEntity
  8
0
  6
Continuous
 62
     7
370
    25
100
AcDbLine
 10
2737.2729577938
 20
6356.3666729543
 30
0.0
 11
2740.5381821528
 21
6359.9730308567
 31
0.0
  0
LINE
  5
11F
330
1F
100
AcDbEntity
  8
0
  6
Continuous
 62
     7
370
    25
100
AcDbLine
 10
2740.5381821528
 20
6359.9730308567
 30
0.0
 11
2737.401162922
 21
6363.4377407662
 31
0.0
  0
LINE
  5
120
330
1F
100
AcDbEntity
  8
0
  6
Continuous
 62
     7
370
    25
100
AcDbLine
 10
2721.5137430503
 20
6363.4377407662
 30
0.0
 11
2721.5137430503
 21
6363.4730961052
 31
0.0
  0
LINE
  5
121
330
1F
100
AcDbEntity
  8
0
  6
Continuous
 62
     7
370
    25
100
AcDbLine
 10
2720.478085999
 20
6363.4377407662
 30
0.0
 11
2720.478085999
 21
6363.4730961052
 31
0.0
  0
LINE
  5
122
330
1F
100
AcDbEntity
  8
0
  6
Continuous
 62
     7
370
    25
100
AcDbLine
 10
2665.7084545887
 20
6363.4377407662
 30
0.0
 11
2665.7084545887
 21
6363.4730961052
 31
0.0
  0
LINE
  5
123
330
1F
100
AcDbEntity
  8
0
  6
Continuous
 62
     7
370
    25
100
AcDbLine
 10
2712.0165475374
 20
6363.4377407662
 30
0.0
 11
2713.0522045887
 21
6363.4377407662
 31
0.0
  0
LINE
  5
124
330
1F
100
AcDbEntity
  8
0
  6
Continuous
 62
     7
370
    25
100
AcDbLine
 10
2713.0522045887
 20
6363.4377407662
 30
0.0
 11
2715.6703936913
 21
6360.5452887486
 31
0.0
  0
LINE
  5
125
330
1F
100
AcDbEntity
  8
0
  6
Continuous
 62
     7
370
    25
100
AcDbLine
 10
2715.6703936913
 20
6360.5452887486
 30
0.0
 11
2718.2885827938
 21
6363.4377407662
 31
0.0
  0
LINE
  5
126
330
1F
100
AcDbEntity
  8
0
  6
Continuous
 62
     7
370
    25
100
AcDbLine
 10
2718.2885827938
 20
6363.4377407662
 30
0.0
 11
2719.3242398451
 21
6363.4377407662
 31
0.0
  0
LINE
  5
127
330
1F
100
AcDbEntity
  8
0
  6
Continuous
 62
     7
370
    25
100
AcDbLine
 10
2719.3242398451
 20
6363.4377407662
 30
0.0
 11
2716.1892238195
 21
6359.9730308567
 31
0.0
  0
LINE
  5
128
330
1F
100
AcDbEntity
  8
0
  6
Continuous
 62
     7
370
    25
100
AcDbLine
 10
2716.1892238195
 20
6359.9730308567
 30
0.0
 11
2719.4524449733
 21
6356.3666729543
 31
0.0
  0
LINE
  5
129
330
1F
100
AcDbEntity
  8
0
  6
Continuous
 62
     7
370
    25
100
AcDbLine
 10
2719.4524449733
 20
6356.3666729543
 30
0.0
 11
2718.416787922
 21
6356.3666729543
 31
0.0
  0
LINE
  5
12A
330
1F
100
AcDbEntity
  8
0
  6
Continuous
 62
     7
370
    25
100
AcDbLine
 10
2718.416787922
 20
6356.3666729543
 30
0.0
 11
2715.6703936913
 21
6359.4007729649
 31
0.0
  0
LINE
  5
12B
330
1F
100
AcDbEntity
  8
0
  6
Continuous
 62
     7
370
    25
100
AcDbLine
 10
2715.6703936913
 20
6359.4007729649
 30
0.0
 11
2712.9239994605
 21
6356.3666729543
 31
0.0
  0
LINE
  5
12C
330
1F
100
AcDbEntity
  8
0
  6
Continuous
 62
     7
370
    25
100
AcDbLine
 10
2712.9239994605
 20
6356.3666729543
 30
0.0
 11
2711.8883424092
 21
6356.3666729543
 31
0.0
  0
LINE
  5
12D
330
1F
100
AcDbEntity
  8
0
  6
Continuous
 62
     7
370
    25
100
AcDbLine
 10
2711.8883424092
 20
6356.3666729543
 30
0.0
 11
2715.1535667682
 21
6359.9730308567
 31
0.0
  0
LINE
  5
12E
330
1F
100
AcDbEntity
  8
0
  6
Continuous
 62
     7
370
    25
100
AcDbLine
 10
2715.1535667682
 20
6359.9730308567
 30
0.0
 11
2712.0165475374
 21
6363.4377407662
 31
0.0
  0
LINE
  5
12F
330
1F
100
AcDbEntity
  8
0
  6
Continuous
 62
     7
370
    25
100
AcDbLine
 10
2741.0550090759
 20
6360.5452887486
 30
0.0
 11
2741.0550090759
 21
6360.5806440876
 31
0.0
  0
LINE
  5
130
330
1F
100
AcDbEntity
  8
0
  6
Continuous
 62
     7
370
    25
100
AcDbLine
 10
2738.4368199733
 20
6363.4377407662
 30
0.0
 11
2738.4368199733
 21
6363.4730961052
 31
0.0
  0
LINE
  5
131
330
1F
100
AcDbEntity
  8
0
  6
Continuous
 62
     7
370
    25
100
AcDbLine
 10
2727.7857783067
 20
6363.4377407662
 30
0.0
 11
2727.7857783067
 21
6363.4730961052
 31
0.0
  0
LINE
  5
132
330
1F
100
AcDbEntity
  8
0
  6
Continuous
 62
     7
370
    25
100
AcDbLine
 10
2726.7501212554
 20
6363.4377407662
 30
0.0
 11
2726.7501212554
 21
6363.4730961052
 31
0.0
  0
LINE
  5
133
330
1F
100
AcDbEntity
  8
0
  6
Continuous
 62
     7
370
    25
100
AcDbLine
 10
2736.2473167682
 20
6363.4377407662
 30
0.0
 11
2736.2473167682
 21
6363.4730961052
 31
0.0
  0
LINE
  5
134
330
1F
100
AcDbEntity
  8
0
  6
Continuous
 62
     7
370
    25
100
AcDbLine
 10
2735.2116597169
 20
6363.4377407662
 30
0.0
 11
2735.2116597169
 21
6363.4730961052
 31
0.0
  0
LINE
  5
135
330
1F
100
AcDbEntity
  8
0
  6
Continuous
 62
     7
370
    25
100
AcDbLine
 10
2744.7088552297
 20
6363.4377407662
 30
0.0
 11
2744.7088552297
 21
6363.4730961052
 31
0.0
  0
LINE
  5
136
330
1F
100
AcDbEntity
  8
0
  6
Continuous
 62
     7
370
    25
100
AcDbLine
 10
2743.6731981785
 20
6363.4377407662
 30
0.0
 11
2743.6731981785
 21
6363.4730961052
 31
0.0
  0
LINE
  5
137
330
1F
100
AcDbEntity
  8
0
  6
Continuous
 62
     7
370
    25
100
AcDbLine
 10
2665.5802494605
 20
6363.4377407662
 30
0.0
 11
2665.5802494605
 21
6363.4730961052
 31
0.0
  0
LINE
  5
138
330
1F
100
AcDbEntity
  8
0
  6
Continuous
 62
     7
370
    25
100
AcDbLine
 10
2653.0161468964
 20
6363.4377407662
 30
0.0
 11
2653.0161468964
 21
6363.4730961052
 31
0.0
  0
LINE
  5
139
330
1F
100
AcDbEntity
  8
0
  6
Continuous
 62
     7
370
    25
100
AcDbLine
 10
2684.3883424092
 20
6360.3554804379
 30
0.0
 11
2686.2192718964
 21
6360.3455650784
 31
0.0
  0
SPLINE
  5
13A
330
1F
100
AcDbEntity
  8
0
  6
Continuous
 62
     7
370
    25
100
AcDbSpline
210
0.0
220
0.0
230
1.0
 70
     8
 71
     3
 72
    11
 73
     7
 74
     0
 42
0.00000001
 43
0.00000001
 40
0.0
 40
0.0
 40
0.0
 40
0.0
 40
0.4998271287785986
 40
0.625497816048366
 40
0.7512078924539688
 40
1.0
 40
1.0
 40
1.0
 40
1.0
 10
2686.219271896409
 20
6360.345565078393
 30
0.0
 10
2686.833502403871
 20
6360.346927819376
 30
0.0
 10
2687.602167846074
 20
6360.348633192013
 30
0.0
 10
2688.360408192892
 20
6360.693858759698
 30
0.0
 10
2688.757469640198
 20
6361.018793113127
 30
0.0
 10
2688.828400544547
 20
6361.33685756818
 30
0.0
 10
2688.875521896408
 20
6361.548156539185
 30
0.0
  0
SPLINE
  5
13B
330
1F
100
AcDbEntity
  8
0
  6
Continuous
 62
     7
370
    25
100
AcDbSpline
210
0.0
220
0.0
230
1.0
 70
     8
 71
     3
 72
    12
 73
     8
 74
     0
 42
0.00000001
 43
0.00000001
 40
0.0
 40
0.0
 40
0.0
 40
0.0
 40
0.1253073891290444
 40
0.2506169873755076
 40
0.3759542548600759
 40
0.50128060715446
 40
1.0
 40
1.0
 40
1.0
 40
1.0
 10
2688.875521896408
 20
6361.548156539185
 30
0.0
 10
2688.864708841341
 20
6361.651720770926
 30
0.0
 10
2688.843082540578
 20
6361.858851060202
 30
0.0
 10
2688.644209879163
 20
6362.141199374807
 30
0.0
 10
2688.362853630476
 20
6362.380572776342
 30
0.0
 10
2687.621322310491
 20
6362.726297728544
 30
0.0
 10
2686.866541501311
 20
6362.718630483419
 30
0.0
 10
2686.26334240923
 20
6362.712503041859
 30
0.0
  0
LINE
  5
13C
330
1F
100
AcDbEntity
  8
0
  6
Continuous
 62
     7
370
    25
100
AcDbLine
 10
2686.2633424092
 20
6362.7125030419
 30
0.0
 11
2684.3883424092
 21
6362.7125030419
 31
0.0
  0
LINE
  5
13D
330
1F
100
AcDbEntity
  8
0
  6
Continuous
 62
     7
370
    25
100
AcDbLine
 10
2684.3883424092
 20
6362.7125030419
 30
0.0
 11
2684.3883424092
 21
6360.3554804379
 31
0.0
  0
SPLINE
  5
13E
330
1F
100
AcDbEntity
  8
0
  6
Continuous
 62
     7
370
    25
100
AcDbSpline
210
0.0
220
0.0
230
1.0
 70
     8
 71
     3
 72
     9
 73
     5
 74
     0
 42
0.00000001
 43
0.00000001
 40
0.0
 40
0.0
 40
0.0
 40
0.0
 40
0.5602396651479379
 40
1.0
 40
1.0
 40
1.0
 40
1.0
 10
2685.492108434869
 20
6363.437740766153
 30
0.0
 10
2685.916960513655
 20
6363.438708035449
 30
0.0
 10
2686.675300390703
 20
6363.440434563141
 30
0.0
 10
2687.427115132341
 20
6363.371663094828
 30
0.0
 10
2687.75773343487
 20
6363.341420130895
 30
0.0
  0
SPLINE
  5
13F
330
1F
100
AcDbEntity
  8
0
  6
Continuous
 62
     7
370
    25
100
AcDbSpline
210
0.0
220
0.0
230
1.0
 70
     8
 71
     3
 72
    11
 73
     7
 74
     0
 42
0.00000001
 43
0.00000001
 40
0.0
 40
0.0
 40
0.0
 40
0.0
 40
0.2797971456706842
 40
0.5594998087059234
 40
0.7796264565611524
 40
1.0
 40
1.0
 40
1.0
 40
1.0
 10
2687.75773343487
 20
6363.341420130895
 30
0.0
 10
2688.071462977313
 20
6363.267833547986
 30
0.0
 10
2688.698816121183
 20
6363.120685231076
 30
0.0
 10
2689.358984791617
 20
6362.644189935808
 30
0.0
 10
2689.723315421952
 20
6362.09549343829
 30
0.0
 10
2689.756404154588
 20
6361.72972618846
 30
0.0
 10
2689.772957793845
 20
6361.546740059254
 30
0.0
  0
SPLINE
  5
140
330
1F
100
AcDbEntity
  8
0
  6
Continuous
 62
     7
370
    25
100
AcDbSpline
210
0.0
220
0.0
230
1.0
 70
     8
 71
     3
 72
    11
 73
     7
 74
     0
 42
0.00000001
 43
0.00000001
 40
0.0
 40
0.0
 40
0.0
 40
0.0
 40
0.1871202495896481
 40
0.3739788865738567
 40
0.5609111826904641
 40
1.0
 40
1.0
 40
1.0
 40
1.0
 10
2689.772957793845
 20
6361.546740059254
 30
0.0
 10
2689.746739728007
 20
6361.323107955431
 30
0.0
 10
2689.69434025178
 20
6360.876156407571
 30
0.0
 10
2689.199898699701
 20
6360.282152349217
 30
0.0
 10
2688.072882375806
 20
6359.687983788015
 30
0.0
 10
2686.988127583826
 20
6359.654046322364
 30
0.0
 10
2686.227284716922
 20
6359.630242713611
 30
0.0
  0
LINE
  5
141
330
1F
100
AcDbEntity
  8
0
  6
Continuous
 62
     7
370
    25
100
AcDbLine
 10
2686.2272847169
 20
6359.6302427136
 30
0.0
 11
2689.901162922
 21
6356.3666729543
 31
0.0
  0
LINE
  5
142
330
1F
100
AcDbEntity
  8
0
  6
Continuous
 62
     7
370
    25
100
AcDbLine
 10
2689.901162922
 20
6356.3666729543
 30
0.0
 11
2688.791387281
 21
6356.3666729543
 31
0.0
  0
LINE
  5
143
330
1F
100
AcDbEntity
  8
0
  6
Continuous
 62
     7
370
    25
100
AcDbLine
 10
2688.791387281
 20
6356.3666729543
 30
0.0
 11
2685.1175090759
 21
6359.6302427136
 31
0.0
  0
LINE
  5
144
330
1F
100
AcDbEntity
  8
0
  6
Continuous
 62
     7
370
    25
100
AcDbLine
 10
2685.1175090759
 20
6359.6302427136
 30
0.0
 11
2684.3883424092
 21
6359.6302427136
 31
0.0
  0
LINE
  5
145
330
1F
100
AcDbEntity
  8
0
  6
Continuous
 62
     7
370
    25
100
AcDbLine
 10
2684.3883424092
 20
6359.6302427136
 30
0.0
 11
2684.3883424092
 21
6356.3666729543
 31
0.0
  0
LINE
  5
146
330
1F
100
AcDbEntity
  8
0
  6
Continuous
 62
     7
370
    25
100
AcDbLine
 10
2684.3883424092
 20
6356.3666729543
 30
0.0
 11
2683.4909065118
 21
6356.3666729543
 31
0.0
  0
LINE
  5
147
330
1F
100
AcDbEntity
  8
0
  6
Continuous
 62
     7
370
    25
100
AcDbLine
 10
2683.4909065118
 20
6356.3666729543
 30
0.0
 11
2683.4909065118
 21
6363.4377407662
 31
0.0
  0
LINE
  5
148
330
1F
100
AcDbEntity
  8
0
  6
Continuous
 62
     7
370
    25
100
AcDbLine
 10
2652.8879417682
 20
6363.4377407662
 30
0.0
 11
2652.8879417682
 21
6363.4730961052
 31
0.0
  0
LINE
  5
149
330
1F
100
AcDbEntity
  8
0
  6
Continuous
 62
     7
370
    25
100
AcDbLine
 10
2715.6703936913
 20
6360.5452887486
 30
0.0
 11
2715.6703936913
 21
6360.5806440876
 31
0.0
  0
LINE
  5
14A
330
1F
100
AcDbEntity
  8
0
  6
Continuous
 62
     7
370
    25
100
AcDbLine
 10
2713.0522045887
 20
6363.4377407662
 30
0.0
 11
2713.0522045887
 21
6363.4730961052
 31
0.0
  0
LINE
  5
14B
330
1F
100
AcDbEntity
  8
0
  6
Continuous
 62
     7
370
    25
100
AcDbLine
 10
2729.9752815118
 20
6363.4377407662
 30
0.0
 11
2729.9752815118
 21
6363.4730961052
 31
0.0
  0
LINE
  5
14C
330
1F
100
AcDbEntity
  8
0
  6
Continuous
 62
     7
370
    25
100
AcDbLine
 10
2728.9396244605
 20
6363.4377407662
 30
0.0
 11
2728.9396244605
 21
6363.4730961052
 31
0.0
  0
LINE
  5
14D
330
1F
100
AcDbEntity
  8
0
  6
Continuous
 62
     7
370
    25
100
AcDbLine
 10
2745.8627013836
 20
6363.4377407662
 30
0.0
 11
2746.8983584349
 21
6363.4377407662
 31
0.0
  0
LINE
  5
14E
330
1F
100
AcDbEntity
  8
0
  6
Continuous
 62
     7
370
    25
100
AcDbLine
 10
2746.8983584349
 20
6363.4377407662
 30
0.0
 11
2749.5165475374
 21
6360.5452887486
 31
0.0
  0
LINE
  5
14F
330
1F
100
AcDbEntity
  8
0
  6
Continuous
 62
     7
370
    25
100
AcDbLine
 10
2749.5165475374
 20
6360.5452887486
 30
0.0
 11
2752.13473664
 21
6363.4377407662
 31
0.0
  0
LINE
  5
150
330
1F
100
AcDbEntity
  8
0
  6
Continuous
 62
     7
370
    25
100
AcDbLine
 10
2752.13473664
 20
6363.4377407662
 30
0.0
 11
2753.1703936913
 21
6363.4377407662
 31
0.0
  0
LINE
  5
151
330
1F
100
AcDbEntity
  8
0
  6
Continuous
 62
     7
370
    25
100
AcDbLine
 10
2753.1703936913
 20
6363.4377407662
 30
0.0
 11
2750.0353776656
 21
6359.9730308567
 31
0.0
  0
LINE
  5
152
330
1F
100
AcDbEntity
  8
0
  6
Continuous
 62
     7
370
    25
100
AcDbLine
 10
2750.0353776656
 20
6359.9730308567
 30
0.0
 11
2753.2985988195
 21
6356.3666729543
 31
0.0
  0
LINE
  5
153
330
1F
100
AcDbEntity
  8
0
  6
Continuous
 62
     7
370
    25
100
AcDbLine
 10
2753.2985988195
 20
6356.3666729543
 30
0.0
 11
2752.2629417682
 21
6356.3666729543
 31
0.0
  0
LINE
  5
154
330
1F
100
AcDbEntity
  8
0
  6
Continuous
 62
     7
370
    25
100
AcDbLine
 10
2752.2629417682
 20
6356.3666729543
 30
0.0
 11
2749.5165475374
 21
6359.4007729649
 31
0.0
  0
LINE
  5
155
330
1F
100
AcDbEntity
  8
0
  6
Continuous
 62
     7
370
    25
100
AcDbLine
 10
2749.5165475374
 20
6359.4007729649
 30
0.0
 11
2746.7701533067
 21
6356.3666729543
 31
0.0
  0
LINE
  5
156
330
1F
100
AcDbEntity
  8
0
  6
Continuous
 62
     7
370
    25
100
AcDbLine
 10
2746.7701533067
 20
6356.3666729543
 30
0.0
 11
2745.7344962554
 21
6356.3666729543
 31
0.0
  0
LINE
  5
157
330
1F
100
AcDbEntity
  8
0
  6
Continuous
 62
     7
370
    25
100
AcDbLine
 10
2745.7344962554
 20
6356.3666729543
 30
0.0
 11
2748.9997206144
 21
6359.9730308567
 31
0.0
  0
LINE
  5
158
330
1F
100
AcDbEntity
  8
0
  6
Continuous
 62
     7
370
    25
100
AcDbLine
 10
2748.9997206144
 20
6359.9730308567
 30
0.0
 11
2745.8627013836
 21
6363.4377407662
 31
0.0
  0
LINE
  5
159
330
1F
100
AcDbEntity
  8
0
  6
Continuous
 62
     7
370
    25
100
AcDbLine
 10
2712.0165475374
 20
6363.4377407662
 30
0.0
 11
2712.0165475374
 21
6363.4730961052
 31
0.0
  0
LINE
  5
15A
330
1F
100
AcDbEntity
  8
0
  6
Continuous
 62
     7
370
    25
100
AcDbLine
 10
2746.8983584349
 20
6363.4377407662
 30
0.0
 11
2746.8983584349
 21
6363.4730961052
 31
0.0
  0
LINE
  5
15B
330
1F
100
AcDbEntity
  8
0
  6
Continuous
 62
     7
370
    25
100
AcDbLine
 10
2745.8627013836
 20
6363.4377407662
 30
0.0
 11
2745.8627013836
 21
6363.4730961052
 31
0.0
  0
LINE
  5
15C
330
1F
100
AcDbEntity
  8
0
  6
Continuous
 62
     7
370
    25
100
AcDbLine
 10
2687.7577334349
 20
6363.3414201309
 30
0.0
 11
2687.7577334349
 21
6363.37677547
 31
0.0
  0
LINE
  5
15D
330
1F
100
AcDbEntity
  8
0
  6
Continuous
 62
     7
370
    25
100
AcDbLine
 10
2724.1319321528
 20
6360.5452887486
 30
0.0
 11
2724.1319321528
 21
6360.5806440876
 31
0.0
  0
LINE
  5
15E
330
1F
100
AcDbEntity
  8
0
  6
Continuous
 62
     7
370
    25
100
AcDbLine
 10
2737.401162922
 20
6363.4377407662
 30
0.0
 11
2737.4011629221
 21
6363.4730961052
 31
0.0
  0
LINE
  5
15F
330
1F
100
AcDbEntity
  8
0
  6
Continuous
 62
     7
370
    25
100
AcDbLine
 10
2732.5934706144
 20
6360.5452887486
 30
0.0
 11
2732.5934706144
 21
6360.5806440876
 31
0.0
  0
LINE
  5
160
330
1F
100
AcDbEntity
  8
0
  6
Continuous
 62
     7
370
    25
100
AcDbLine
 10
2753.1703936913
 20
6363.4377407662
 30
0.0
 11
2753.1703936913
 21
6363.4730961052
 31
0.0
  0
LINE
  5
161
330
1F
100
AcDbEntity
  8
0
  6
Continuous
 62
     7
370
    25
100
AcDbLine
 10
2752.13473664
 20
6363.4377407662
 30
0.0
 11
2752.13473664
 21
6363.4730961052
 31
0.0
  0
LINE
  5
162
330
1F
100
AcDbEntity
  8
0
  6
Continuous
 62
     7
370
    25
100
AcDbLine
 10
2749.5165475374
 20
6360.5452887486
 30
0.0
 11
2749.5165475374
 21
6360.5806440876
 31
0.0
  0
LINE
  5
163
330
1F
100
AcDbEntity
  8
0
  6
Continuous
 62
     7
370
    25
100
AcDbLine
 10
2651.5678295887
 20
6356.3666729543
 30
0.0
 11
2651.5678295887
 21
6356.4020282933
 31
0.0
  0
LINE
  5
164
330
1F
100
AcDbEntity
  8
0
  6
Continuous
 62
     7
370
    25
100
AcDbLine
 10
2662.7216757426
 20
6356.3666729543
 30
0.0
 11
2662.7216757426
 21
6356.4020282933
 31
0.0
  0
LINE
  5
165
330
1F
100
AcDbEntity
  8
0
  6
Continuous
 62
     7
370
    25
100
AcDbLine
 10
2718.2885827938
 20
6363.4377407662
 30
0.0
 11
2718.2885827938
 21
6363.4730961052
 31
0.0
  0
LINE
  5
166
330
1F
100
AcDbEntity
  8
0
  6
Continuous
 62
     7
370
    25
100
AcDbLine
 10
2719.3242398451
 20
6363.4377407662
 30
0.0
 11
2719.3242398451
 21
6363.4730961052
 31
0.0
  0
LINE
  5
167
330
1F
100
AcDbEntity
  8
0
  6
Continuous
 62
     7
370
    25
100
AcDbLine
 10
2664.260137281
 20
6356.3666729543
 30
0.0
 11
2664.260137281
 21
6356.4020282933
 31
0.0
  0
LINE
  5
168
330
1F
100
AcDbEntity
  8
0
  6
Continuous
 62
     7
370
    25
100
AcDbLine
 10
2675.4139834349
 20
6356.3666729543
 30
0.0
 11
2675.4139834349
 21
6356.4020282933
 31
0.0
  0
LINE
  5
169
330
1F
100
AcDbEntity
  8
0
  6
Continuous
 62
     7
370
    25
100
AcDbLine
 10
2698.2344962554
 20
6361.5467400593
 30
0.0
 11
2698.2344962554
 21
6361.5820953983
 31
0.0
  0
LINE
  5
16A
330
1F
100
AcDbEntity
  8
0
  6
Continuous
 62
     7
370
    25
100
AcDbLine
 10
2689.7729577938
 20
6361.5467400593
 30
0.0
 11
2689.7729577938
 21
6361.5820953983
 31
0.0
  0
SPLINE
  5
16B
330
1F
100
AcDbEntity
  8
0
  6
Continuous
 62
     7
370
    25
100
AcDbSpline
210
0.0
220
0.0
230
1.0
 70
     8
 71
     3
 72
    11
 73
     7
 74
     0
 42
0.00000001
 43
0.00000001
 40
0.0
 40
0.0
 40
0.0
 40
0.0
 40
0.4998271287790988
 40
0.6254978160488295
 40
0.7512078924540848
 40
1.0
 40
1.0
 40
1.0
 40
1.0
 10
2694.680810357947
 20
6360.380920417451
 30
0.0
 10
2695.29504086541
 20
6360.382283158435
 30
0.0
 10
2696.063706307613
 20
6360.383988531073
 30
0.0
 10
2696.821946654432
 20
6360.729214098757
 30
0.0
 10
2697.219008101737
 20
6361.054148452185
 30
0.0
 10
2697.289939006084
 20
6361.372212907238
 30
0.0
 10
2697.337060357946
 20
6361.583511878242
 30
0.0
  0
LINE
  5
16C
330
1F
100
AcDbEntity
  8
0
  6
Continuous
 62
     7
370
    25
100
AcDbLine
 10
2692.8498808708
 20
6360.390835777
 30
0.0
 11
2694.6808103579
 21
6360.3809204175
 31
0.0
  0
SPLINE
  5
16D
330
1F
100
AcDbEntity
  8
0
  6
Continuous
 62
     7
370
    25
100
AcDbSpline
210
0.0
220
0.0
230
1.0
 70
     8
 71
     3
 72
    11
 73
     7
 74
     0
 42
0.00000001
 43
0.00000001
 40
0.0
 40
0.0
 40
0.0
 40
0.0
 40
0.4998271287790197
 40
0.6254978160487128
 40
0.7512078924541822
 40
1.0
 40
1.0
 40
1.0
 40
1.0
 10
2686.219271896408
 20
6360.380920417451
 30
0.0
 10
2686.833502403871
 20
6360.382283158435
 30
0.0
 10
2687.602167846074
 20
6360.383988531072
 30
0.0
 10
2688.360408192893
 20
6360.729214098757
 30
0.0
 10
2688.757469640198
 20
6361.054148452186
 30
0.0
 10
2688.828400544547
 20
6361.372212907238
 30
0.0
 10
2688.875521896409
 20
6361.583511878244
 30
0.0
  0
LINE
  5
16E
330
1F
100
AcDbEntity
  8
0
  6
Continuous
 62
     7
370
    25
100
AcDbLine
 10
2684.3883424092
 20
6360.390835777
 30
0.0
 11
2686.2192718964
 21
6360.3809204175
 31
0.0
  0
LINE
  5
16F
330
1F
100
AcDbEntity
  8
0
  6
Continuous
 62
     7
370
    25
100
AcDbLine
 10
2694.6808103579
 20
6360.3455650784
 30
0.0
 11
2694.6808103579
 21
6360.3809204175
 31
0.0
  0
LINE
  5
170
330
1F
100
AcDbEntity
  8
0
  6
Continuous
 62
     7
370
    25
100
AcDbLine
 10
2686.2192718964
 20
6360.3455650784
 30
0.0
 11
2686.2192718964
 21
6360.3809204175
 31
0.0
  0
LINE
  5
171
330
1F
100
AcDbEntity
  8
0
  6
Continuous
 62
     7
370
    25
100
AcDbLine
 10
2736.3755218964
 20
6356.3666729543
 30
0.0
 11
2736.3755218964
 21
6356.4020282933
 31
0.0
  0
LINE
  5
172
330
1F
100
AcDbEntity
  8
0
  6
Continuous
 62
     7
370
    25
100
AcDbLine
 10
2719.4524449733
 20
6356.3666729543
 30
0.0
 11
2719.4524449733
 21
6356.4020282933
 31
0.0
  0
LINE
  5
173
330
1F
100
AcDbEntity
  8
0
  6
Continuous
 62
     7
370
    25
100
AcDbLine
 10
2744.8370603579
 20
6356.3666729543
 30
0.0
 11
2744.8370603579
 21
6356.4020282933
 31
0.0
  0
LINE
  5
174
330
1F
100
AcDbEntity
  8
0
  6
Continuous
 62
     7
370
    25
100
AcDbLine
 10
2737.2729577938
 20
6356.3666729543
 30
0.0
 11
2737.2729577938
 21
6356.4020282933
 31
0.0
  0
LINE
  5
175
330
1F
100
AcDbEntity
  8
0
  6
Continuous
 62
     7
370
    25
100
AcDbLine
 10
2753.2985988195
 20
6356.3666729543
 30
0.0
 11
2753.2985988195
 21
6356.4020282933
 31
0.0
  0
LINE
  5
176
330
1F
100
AcDbEntity
  8
0
  6
Continuous
 62
     7
370
    25
100
AcDbLine
 10
2727.9139834349
 20
6356.3666729543
 30
0.0
 11
2727.9139834349
 21
6356.4020282933
 31
0.0
  0
LINE
  5
177
330
1F
100
AcDbEntity
  8
0
  6
Continuous
 62
     7
370
    25
100
AcDbLine
 10
2720.3498808708
 20
6356.3666729543
 30
0.0
 11
2720.3498808708
 21
6356.4020282933
 31
0.0
  0
LINE
  5
178
330
1F
100
AcDbEntity
  8
0
  6
Continuous
 62
     7
370
    25
100
AcDbLine
 10
2711.8883424092
 20
6356.3666729543
 30
0.0
 11
2711.8883424092
 21
6356.4020282933
 31
0.0
  0
LINE
  5
179
330
1F
100
AcDbEntity
  8
0
  6
Continuous
 62
     7
370
    25
100
AcDbLine
 10
2745.7344962554
 20
6356.3666729543
 30
0.0
 11
2745.7344962554
 21
6356.4020282933
 31
0.0
  0
LINE
  5
17A
330
1F
100
AcDbEntity
  8
0
  6
Continuous
 62
     7
370
    25
100
AcDbLine
 10
2728.8114193323
 20
6356.3666729543
 30
0.0
 11
2728.8114193323
 21
6356.4020282933
 31
0.0
  0
LINE
  5
17B
330
1F
100
AcDbEntity
  8
0
  6
Continuous
 62
     7
370
    25
100
AcDbLine
 10
2689.901162922
 20
6356.3666729543
 30
0.0
 11
2689.901162922
 21
6356.4020282933
 31
0.0
  0
LINE
  5
17C
330
1F
100
AcDbEntity
  8
0
  6
Continuous
 62
     7
370
    25
100
AcDbLine
 10
2698.3627013836
 20
6356.3666729543
 30
0.0
 11
2698.3627013836
 21
6356.4020282933
 31
0.0
  0
LINE
  5
17D
330
1F
100
AcDbEntity
  8
0
  6
Continuous
 62
     7
370
    25
100
AcDbLine
 10
2703.3627013836
 20
6359.4489332825
 30
0.0
 11
2707.2088552297
 21
6359.4489332825
 31
0.0
  0
LINE
  5
17E
330
1F
100
AcDbEntity
  8
0
  6
Continuous
 62
     7
370
    25
100
AcDbLine
 10
2707.2088552297
 20
6359.4489332825
 30
0.0
 11
2707.2088552297
 21
6358.7236955582
 31
0.0
  0
LINE
  5
17F
330
1F
100
AcDbEntity
  8
0
  6
Continuous
 62
     7
370
    25
100
AcDbLine
 10
2707.2088552297
 20
6358.7236955582
 30
0.0
 11
2703.3627013836
 21
6358.7236955582
 31
0.0
  0
LINE
  5
180
330
1F
100
AcDbEntity
  8
0
  6
Continuous
 62
     7
370
    25
100
AcDbLine
 10
2703.3627013836
 20
6358.7236955582
 30
0.0
 11
2703.3627013836
 21
6359.4489332825
 31
0.0
  0
LINE
  5
181
330
1F
100
AcDbEntity
  8
0
  6
Continuous
 62
     7
370
    25
100
AcDbLine
 10
2707.2088552297
 20
6359.4489332825
 30
0.0
 11
2707.2088552297
 21
6359.4842886216
 31
0.0
  0
LINE
  5
182
330
1F
100
AcDbEntity
  8
0
  6
Continuous
 62
     7
370
    25
100
AcDbLine
 10
2703.3627013836
 20
6359.4489332825
 30
0.0
 11
2703.3627013836
 21
6359.4842886216
 31
0.0
  0
LINE
  5
183
330
1F
100
AcDbEntity
  8
0
  6
Continuous
 62
     7
370
    25
100
AcDbLine
 10
2820.1719626826
 20
8458.4825709171
 30
0.0
 11
2581.4252349564
 21
8458.4825709171
 31
0.0
  0
ARC
  5
184
330
1F
100
AcDbEntity
  8
0
  6
Continuous
 62
     7
370
    25
100
AcDbCircle
 10
2700.7985988195
 20
8495.5635633526
 30
0.0
 40
125.0000000000053
100
AcDbArc
 50
197.2563813775
 51
342.7436186225
  0
SPLINE
  5
185
330
1F
100
AcDbEntity
  8
0
  6
Continuous
 62
     7
370
    25
100
AcDbSpline
210
0.0
220
0.0
230
1.0
 70
     8
 71
     3
 72
    13
 73
     9
 74
     0
 42
0.00000001
 43
0.00000001
 40
0.0
 40
0.0
 40
0.0
 40
0.0
 40
0.1402043522264113
 40
0.2801592047750254
 40
0.4957927827627195
 40
0.7121031047555548
 40
0.8559094574458846
 40
1.0
 40
1.0
 40
1.0
 40
1.0
 10
2581.425234956354
 20
8532.644555788102
 30
0.0
 10
2580.521140723431
 20
8529.487426127758
 30
0.0
 10
2578.714561132177
 20
8523.178785055154
 30
0.0
 10
2576.531051092334
 20
8511.103491126429
 30
0.0
 10
2575.378271612155
 20
8495.89214248941
 30
0.0
 10
2576.460975146118
 20
8480.530726847472
 30
0.0
 10
2578.644801466528
 20
8468.214525652762
 30
0.0
 10
2580.49781407549
 20
8461.728689936515
 30
0.0
 10
2581.425234956352
 20
8458.482570917145
 30
0.0
  0
LINE
  5
186
330
1F
100
AcDbEntity
  8
0
  6
Continuous
 62
     7
370
    25
100
AcDbLine
 10
2581.4252349564
 20
8532.6445557881
 30
0.0
 11
2820.1719626826
 21
8532.6445557881
 31
0.0
  0
SPLINE
  5
187
330
1F
100
AcDbEntity
  8
0
  6
Continuous
 62
     7
370
    25
100
AcDbSpline
210
0.0
220
0.0
230
1.0
 70
     8
 71
     3
 72
    13
 73
     9
 74
     0
 42
0.00000001
 43
0.00000001
 40
0.0
 40
0.0
 40
0.0
 40
0.0
 40
0.1402043522264109
 40
0.2801592047750251
 40
0.4957927827627616
 40
0.7121031047555746
 40
0.855909457445892
 40
1.0
 40
1.0
 40
1.0
 40
1.0
 10
2820.171962682621
 20
8458.48257091714
 30
0.0
 10
2821.076056915544
 20
8461.639700577483
 30
0.0
 10
2822.8826365068
 20
8467.94834165009
 30
0.0
 10
2825.066146546644
 20
8480.023635578818
 30
0.0
 10
2826.21892602682
 20
8495.234984215838
 30
0.0
 10
2825.136222492851
 20
8510.596399857779
 30
0.0
 10
2822.95239617244
 20
8522.912601052483
 30
0.0
 10
2821.099383563482
 20
8529.398436768732
 30
0.0
 10
2820.171962682622
 20
8532.644555788105
 30
0.0
  0
ARC
  5
188
330
1F
100
AcDbEntity
  8
0
  6
Continuous
 62
     7
370
    25
100
AcDbCircle
 10
2700.7985988195
 20
8495.5635633526
 30
0.0
 40
125.0000000000041
100
AcDbArc
 50
17.2563813775
 51
162.7436186225
  0
LINE
  5
189
330
1F
100
AcDbEntity
  8
0
  6
Continuous
 62
     7
370
    25
100
AcDbLine
 10
4193.2985988195
 20
6984.3224916963
 30
0.0
 11
4193.2985988195
 21
6995.5724916963
 31
0.0
  0
LINE
  5
18A
330
1F
100
AcDbEntity
  8
0
  6
Continuous
 62
     7
370
    25
100
AcDbLine
 10
4193.2985988195
 20
6984.3224916963
 30
0.0
 11
1208.2985988195
 21
6984.3224916963
 31
0.0
  0
LINE
  5
18B
330
1F
100
AcDbEntity
  8
0
  6
Continuous
 62
     7
370
    25
100
AcDbLine
 10
1208.2985988195
 20
6984.3224916963
 30
0.0
 11
1208.2985988195
 21
6995.5724916963
 31
0.0
  0
LINE
  5
18C
330
1F
100
AcDbEntity
  8
0
  6
Continuous
 62
     7
370
    25
100
AcDbLine
 10
4193.2985988195
 20
6918.5724916963
 30
0.0
 11
4193.2985988195
 21
6984.3224916963
 31
0.0
  0
LINE
  5
18D
330
1F
100
AcDbEntity
  8
0
  6
Continuous
 62
     7
370
    25
100
AcDbLine
 10
4193.2985988195
 20
6918.5724916963
 30
0.0
 11
1208.2985988195
 21
6918.5724916963
 31
0.0
  0
LINE
  5
18E
330
1F
100
AcDbEntity
  8
0
  6
Continuous
 62
     7
370
    25
100
AcDbLine
 10
1208.2985988195
 20
6918.5724916963
 30
0.0
 11
1208.2985988195
 21
6984.3224916963
 31
0.0
  0
LINE
  5
18F
330
1F
100
AcDbEntity
  8
0
  6
Continuous
 62
     7
370
    25
100
AcDbLine
 10
4193.2985988195
 20
6474.6110739294
 30
0.0
 11
1208.2985988195
 21
6474.6110739294
 31
0.0
  0
LINE
  5
190
330
1F
100
AcDbEntity
  8
0
  6
Continuous
 62
     7
370
    25
100
AcDbLine
 10
4193.2985988195
 20
6467.7167828129
 30
0.0
 11
1208.2985988195
 21
6467.7167828129
 31
0.0
  0
LINE
  5
191
330
1F
100
AcDbEntity
  8
0
  6
Continuous
 62
     7
370
    25
100
AcDbLine
 10
1208.2985988195
 20
6474.6110739294
 30
0.0
 11
1208.2985988195
 21
6467.7167828129
 31
0.0
  0
LINE
  5
192
330
1F
100
AcDbEntity
  8
0
  6
Continuous
 62
     7
370
    25
100
AcDbLine
 10
4193.2985988195
 20
6474.6110739294
 30
0.0
 11
4193.2985988195
 21
6467.7167828129
 31
0.0
  0
LINE
  5
193
330
1F
100
AcDbEntity
  8
0
  6
Continuous
 62
     7
370
    25
100
AcDbLine
 10
1208.2985988195
 20
6918.5724916963
 30
0.0
 11
1208.2985988195
 21
6474.6110739294
 31
0.0
  0
LINE
  5
194
330
1F
100
AcDbEntity
  8
0
  6
Continuous
 62
     7
370
    25
100
AcDbLine
 10
4193.2985988195
 20
6918.5724916963
 30
0.0
 11
4193.2985988195
 21
6474.6110739294
 31
0.0
  0
LINE
  5
195
330
1F
100
AcDbEntity
  8
0
  6
Continuous
 62
     7
370
    25
100
AcDbLine
 10
4193.2985988195
 20
6298.4192722361
 30
0.0
 11
1208.2985988195
 21
6298.4192722361
 31
0.0
  0
LINE
  5
196
330
1F
100
AcDbEntity
  8
0
  6
Continuous
 62
     7
370
    25
100
AcDbLine
 10
1208.2985988195
 20
6467.7167828129
 30
0.0
 11
1208.2985988195
 21
6298.4192722361
 31
0.0
  0
LINE
  5
197
330
1F
100
AcDbEntity
  8
0
  6
Continuous
 62
     7
370
    25
100
AcDbLine
 10
4193.2985988195
 20
6467.7167828129
 30
0.0
 11
4193.2985988195
 21
6298.4192722361
 31
0.0
  0
LINE
  5
198
330
1F
100
AcDbEntity
  8
0
  6
Continuous
 62
     7
370
    25
100
AcDbLine
 10
4193.2985988195
 20
6295.5635633526
 30
0.0
 11
1208.2985988195
 21
6295.5635633526
 31
0.0
  0
LINE
  5
199
330
1F
100
AcDbEntity
  8
0
  6
Continuous
 62
     7
370
    25
100
AcDbLine
 10
1208.2985988195
 20
6298.4192722361
 30
0.0
 11
1208.2985988195
 21
6295.5635633526
 31
0.0
  0
LINE
  5
19A
330
1F
100
AcDbEntity
  8
0
  6
Continuous
 62
     7
370
    25
100
AcDbLine
 10
4193.2985988195
 20
6298.4192722361
 30
0.0
 11
4193.2985988195
 21
6295.5635633526
 31
0.0
  0
LINE
  5
19B
330
1F
100
AcDbEntity
  8
0
  6
Continuous
 62
     7
370
    25
100
AcDbLine
 10
4193.2985988195
 20
8812.2104681989
 30
0.0
 11
1208.2985988195
 21
8812.2104681989
 31
0.0
  0
LINE
  5
19C
330
1F
100
AcDbEntity
  8
0
  6
Continuous
 62
     7
370
    25
100
AcDbLine
 10
4193.2985988195
 20
8821.3724712515
 30
0.0
 11
1208.2985988195
 21
8821.3724712515
 31
0.0
  0
LINE
  5
19D
330
1F
100
AcDbEntity
  8
0
  6
Continuous
 62
     7
370
    25
100
AcDbLine
 10
4193.2985988195
 20
8899.8074491263
 30
0.0
 11
1208.2985988195
 21
8899.8074491263
 31
0.0
  0
LINE
  5
19E
330
1F
100
AcDbEntity
  8
0
  6
Continuous
 62
     7
370
    25
100
AcDbLine
 10
1208.2985988195
 20
8821.3724712515
 30
0.0
 11
1208.2985988195
 21
8899.8074491263
 31
0.0
  0
LINE
  5
19F
330
1F
100
AcDbEntity
  8
0
  6
Continuous
 62
     7
370
    25
100
AcDbLine
 10
4193.2985988195
 20
8821.3724712515
 30
0.0
 11
4193.2985988195
 21
8899.8074491263
 31
0.0
  0
LINE
  5
1A0
330
1F
100
AcDbEntity
  8
0
  6
Continuous
 62
     7
370
    25
100
AcDbLine
 10
1208.2985988195
 20
8899.8074491263
 30
0.0
 11
1208.2985988195
 21
8900.3954460736
 31
0.0
  0
LINE
  5
1A1
330
1F
100
AcDbEntity
  8
0
  6
Continuous
 62
     7
370
    25
100
AcDbLine
 10
4193.2985988195
 20
8899.8074491263
 30
0.0
 11
4193.2985988195
 21
8900.3954460736
 31
0.0
  0
LINE
  5
1A2
330
1F
100
AcDbEntity
  8
0
  6
Continuous
 62
     7
370
    25
100
AcDbLine
 10
1200.7985988195
 20
6474.6110739294
 30
0.0
 11
1208.2985988195
 21
6474.6110739294
 31
0.0
  0
LINE
  5
1A3
330
1F
100
AcDbEntity
  8
0
  6
Continuous
 62
     7
370
    25
100
AcDbLine
 10
1200.7985988195
 20
6474.6110739294
 30
0.0
 11
1200.7985988195
 21
8261.8158214152
 31
0.0
  0
LINE
  5
1A4
330
1F
100
AcDbEntity
  8
0
  6
Continuous
 62
     7
370
    25
100
AcDbLine
 10
1200.7985988195
 20
8261.8158214152
 30
0.0
 11
1208.2985988195
 21
8261.8158214152
 31
0.0
  0
LINE
  5
1A5
330
1F
100
AcDbEntity
  8
0
  6
Continuous
 62
     7
370
    25
100
AcDbLine
 10
1208.2985988195
 20
6995.5724916963
 30
0.0
 11
1208.2985988195
 21
8261.8158214152
 31
0.0
  0
LINE
  5
1A6
330
1F
100
AcDbEntity
  8
0
  6
Continuous
 62
     7
370
    25
100
AcDbLine
 10
1200.7985988195
 20
6467.7167828129
 30
0.0
 11
1208.2985988195
 21
6467.7167828129
 31
0.0
  0
LINE
  5
1A7
330
1F
100
AcDbEntity
  8
0
  6
Continuous
 62
     7
370
    25
100
AcDbLine
 10
1200.7985988195
 20
6467.7167828129
 30
0.0
 11
1200.7985988195
 21
6474.6110739294
 31
0.0
  0
LINE
  5
1A8
330
1F
100
AcDbEntity
  8
0
  6
Continuous
 62
     7
370
    25
100
AcDbLine
 10
1200.7985988195
 20
8496.7389766117
 30
0.0
 11
1208.2985988195
 21
8496.7389766117
 31
0.0
  0
LINE
  5
1A9
330
1F
100
AcDbEntity
  8
0
  6
Continuous
 62
     7
370
    25
100
AcDbLine
 10
1208.2985988195
 20
8261.8158214152
 30
0.0
 11
1208.2985988195
 21
8496.7389766117
 31
0.0
  0
LINE
  5
1AA
330
1F
100
AcDbEntity
  8
0
  6
Continuous
 62
     7
370
    25
100
AcDbLine
 10
1200.7985988195
 20
8261.8158214152
 30
0.0
 11
1200.7985988195
 21
8496.7389766117
 31
0.0
  0
LINE
  5
1AB
330
1F
100
AcDbEntity
  8
0
  6
Continuous
 62
     7
370
    25
100
AcDbLine
 10
1200.7985988195
 20
6298.4192722361
 30
0.0
 11
1208.2985988195
 21
6298.4192722361
 31
0.0
  0
LINE
  5
1AC
330
1F
100
AcDbEntity
  8
0
  6
Continuous
 62
     7
370
    25
100
AcDbLine
 10
1200.7985988195
 20
6298.4192722361
 30
0.0
 11
1200.7985988195
 21
6467.7167828129
 31
0.0
  0
LINE
  5
1AD
330
1F
100
AcDbEntity
  8
0
  6
Continuous
 62
     7
370
    25
100
AcDbLine
 10
1200.7985988195
 20
8899.8074491263
 30
0.0
 11
1208.2985988195
 21
8899.8074491263
 31
0.0
  0
LINE
  5
1AE
330
1F
100
AcDbEntity
  8
0
  6
Continuous
 62
     7
370
    25
100
AcDbLine
 10
1208.2985988195
 20
8496.7389766117
 30
0.0
 11
1208.2985988195
 21
8899.8074491263
 31
0.0
  0
LINE
  5
1AF
330
1F
100
AcDbEntity
  8
0
  6
Continuous
 62
     7
370
    25
100
AcDbLine
 10
1200.7985988195
 20
8496.7389766117
 30
0.0
 11
1200.7985988195
 21
8899.8074491263
 31
0.0
  0
LINE
  5
1B0
330
1F
100
AcDbEntity
  8
0
  6
Continuous
 62
     7
370
    25
100
AcDbLine
 10
1200.7985988195
 20
6295.5635633526
 30
0.0
 11
1208.2985988195
 21
6295.5635633526
 31
0.0
  0
LINE
  5
1B1
330
1F
100
AcDbEntity
  8
0
  6
Continuous
 62
     7
370
    25
100
AcDbLine
 10
1200.7985988195
 20
6295.5635633526
 30
0.0
 11
1200.7985988195
 21
6298.4192722361
 31
0.0
  0
LINE
  5
1B2
330
1F
100
AcDbEntity
  8
0
  6
Continuous
 62
     7
370
    25
100
AcDbLine
 10
1200.7985988195
 20
8899.8074491263
 30
0.0
 11
1200.7985988195
 21
8900.3954460736
 31
0.0
  0
LINE
  5
1B3
330
1F
100
AcDbEntity
  8
0
  6
Continuous
 62
     7
370
    25
100
AcDbLine
 10
3282.0485988195
 20
4895.5635633526
 30
0.0
 11
3282.0485988195
 21
6295.5635633526
 31
0.0
  0
LINE
  5
1B4
330
1F
100
AcDbEntity
  8
0
  6
Continuous
 62
     7
370
    25
100
AcDbLine
 10
2119.5485988195
 20
4895.5635633526
 30
0.0
 11
2119.5485988195
 21
6295.5635633526
 31
0.0
  0
LINE
  5
1B5
330
1F
100
AcDbEntity
  8
0
  6
Continuous
 62
     7
370
    25
100
AcDbLine
 10
2119.5485988195
 20
4895.5635633526
 30
0.0
 11
3282.0485988195
 21
4895.5635633526
 31
0.0
  0
LINE
  5
1B6
330
1F
100
AcDbEntity
  8
0
  6
Continuous
 62
     7
370
    25
100
AcDbLine
 10
3288.2985988195
 20
4895.5635633526
 30
0.0
 11
3288.2985988195
 21
6295.5635633526
 31
0.0
  0
LINE
  5
1B7
330
1F
100
AcDbEntity
  8
0
  6
Continuous
 62
     7
370
    25
100
AcDbLine
 10
3282.0485988195
 20
4895.5635633526
 30
0.0
 11
3288.2985988195
 21
4895.5635633526
 31
0.0
  0
LINE
  5
1B8
330
1F
100
AcDbEntity
  8
0
  6
Continuous
 62
     7
370
    25
100
AcDbLine
 10
2113.2985988195
 20
4895.5635633526
 30
0.0
 11
2119.5485988195
 21
4895.5635633526
 31
0.0
  0
LINE
  5
1B9
330
1F
100
AcDbEntity
  8
0
  6
Continuous
 62
     7
370
    25
100
AcDbLine
 10
2113.2985988195
 20
4895.5635633526
 30
0.0
 11
2113.2985988195
 21
6295.5635633526
 31
0.0
  0
LINE
  5
1BA
330
1F
100
AcDbEntity
  8
0
  6
Continuous
 62
     7
370
    25
100
AcDbLine
 10
3290.5485988195
 20
4895.5635633526
 30
0.0
 11
3290.5485988195
 21
6295.5635633526
 31
0.0
  0
LINE
  5
1BB
330
1F
100
AcDbEntity
  8
0
  6
Continuous
 62
     7
370
    25
100
AcDbLine
 10
3288.2985988195
 20
4895.5635633526
 30
0.0
 11
3290.5485988195
 21
4895.5635633526
 31
0.0
  0
LINE
  5
1BC
330
1F
100
AcDbEntity
  8
0
  6
Continuous
 62
     7
370
    25
100
AcDbLine
 10
2111.0485988195
 20
4895.5635633526
 30
0.0
 11
2111.0485988195
 21
6295.5635633526
 31
0.0
  0
LINE
  5
1BD
330
1F
100
AcDbEntity
  8
0
  6
Continuous
 62
     7
370
    25
100
AcDbLine
 10
2111.0485988195
 20
4895.5635633526
 30
0.0
 11
2113.2985988195
 21
4895.5635633526
 31
0.0
  0
LINE
  5
1BE
330
1F
100
AcDbEntity
  8
0
  6
Continuous
 62
     7
370
    25
100
AcDbLine
 10
1962.2985988195
 20
4895.5635633526
 30
0.0
 11
2111.0485988195
 21
4895.5635633526
 31
0.0
  0
CIRCLE
  5
1BF
330
1F
100
AcDbEntity
  8
0
  6
Continuous
 62
     7
370
    25
100
AcDbCircle
 10
2039.2985988195
 20
5045.5635633526
 30
0.0
 40
14.99999999999955
  0
CIRCLE
  5
1C0
330
1F
100
AcDbEntity
  8
0
  6
Continuous
 62
     7
370
    25
100
AcDbCircle
 10
2039.2985988195
 20
6145.5635633526
 30
0.0
 40
15.0
  0
LINE
  5
1C1
330
1F
100
AcDbEntity
  8
0
  6
Continuous
 62
     7
370
    25
100
AcDbLine
 10
1962.2985988195
 20
4895.5635633526
 30
0.0
 11
1962.2985988195
 21
6295.5635633526
 31
0.0
  0
LINE
  5
1C2
330
1F
100
AcDbEntity
  8
0
  6
Continuous
 62
     7
370
    25
100
AcDbLine
 10
3439.2985988195
 20
4895.5635633526
 30
0.0
 11
3439.2985988195
 21
6295.5635633526
 31
0.0
  0
LINE
  5
1C3
330
1F
100
AcDbEntity
  8
0
  6
Continuous
 62
     7
370
    25
100
AcDbLine
 10
3290.5485988195
 20
4895.5635633526
 30
0.0
 11
3439.2985988195
 21
4895.5635633526
 31
0.0
  0
CIRCLE
  5
1C4
330
1F
100
AcDbEntity
  8
0
  6
Continuous
 62
     7
370
    25
100
AcDbCircle
 10
3362.2985988195
 20
6145.5635633526
 30
0.0
 40
15.00000000000045
  0
CIRCLE
  5
1C5
330
1F
100
AcDbEntity
  8
0
  6
Continuous
 62
     7
370
    25
100
AcDbCircle
 10
3362.2985988195
 20
5045.5635633526
 30
0.0
 40
15.00000000000045
  0
LINE
  5
1C6
330
1F
100
AcDbEntity
  8
0
  6
Continuous
 62
     7
370
    25
100
AcDbLine
 10
4200.7985988195
 20
6474.6110739294
 30
0.0
 11
4193.2985988195
 21
6474.6110739294
 31
0.0
  0
LINE
  5
1C7
330
1F
100
AcDbEntity
  8
0
  6
Continuous
 62
     7
370
    25
100
AcDbLine
 10
4200.7985988195
 20
6467.7167828129
 30
0.0
 11
4200.7985988195
 21
6474.6110739294
 31
0.0
  0
LINE
  5
1C8
330
1F
100
AcDbEntity
  8
0
  6
Continuous
 62
     7
370
    25
100
AcDbLine
 10
4200.7985988195
 20
6467.7167828129
 30
0.0
 11
4193.2985988195
 21
6467.7167828129
 31
0.0
  0
LINE
  5
1C9
330
1F
100
AcDbEntity
  8
0
  6
Continuous
 62
     7
370
    25
100
AcDbLine
 10
4200.7985988195
 20
8261.8158214152
 30
0.0
 11
4193.2985988195
 21
8261.8158214152
 31
0.0
  0
LINE
  5
1CA
330
1F
100
AcDbEntity
  8
0
  6
Continuous
 62
     7
370
    25
100
AcDbLine
 10
4200.7985988195
 20
6474.6110739294
 30
0.0
 11
4200.7985988195
 21
8261.8158214152
 31
0.0
  0
LINE
  5
1CB
330
1F
100
AcDbEntity
  8
0
  6
Continuous
 62
     7
370
    25
100
AcDbLine
 10
4193.2985988195
 20
6995.5724916963
 30
0.0
 11
4193.2985988195
 21
8261.8158214152
 31
0.0
  0
LINE
  5
1CC
330
1F
100
AcDbEntity
  8
0
  6
Continuous
 62
     7
370
    25
100
AcDbLine
 10
4200.7985988195
 20
8496.7389766117
 30
0.0
 11
4193.2985988195
 21
8496.7389766117
 31
0.0
  0
LINE
  5
1CD
330
1F
100
AcDbEntity
  8
0
  6
Continuous
 62
     7
370
    25
100
AcDbLine
 10
4200.7985988195
 20
8261.8158214152
 30
0.0
 11
4200.7985988195
 21
8496.7389766117
 31
0.0
  0
LINE
  5
1CE
330
1F
100
AcDbEntity
  8
0
  6
Continuous
 62
     7
370
    25
100
AcDbLine
 10
4193.2985988195
 20
8261.8158214152
 30
0.0
 11
4193.2985988195
 21
8496.7389766117
 31
0.0
  0
LINE
  5
1CF
330
1F
100
AcDbEntity
  8
0
  6
Continuous
 62
     7
370
    25
100
AcDbLine
 10
4200.7985988195
 20
6298.4192722361
 30
0.0
 11
4193.2985988195
 21
6298.4192722361
 31
0.0
  0
LINE
  5
1D0
330
1F
100
AcDbEntity
  8
0
  6
Continuous
 62
     7
370
    25
100
AcDbLine
 10
4200.7985988195
 20
6298.4192722361
 30
0.0
 11
4200.7985988195
 21
6467.7167828129
 31
0.0
  0
LINE
  5
1D1
330
1F
100
AcDbEntity
  8
0
  6
Continuous
 62
     7
370
    25
100
AcDbLine
 10
4200.7985988195
 20
8899.8074491263
 30
0.0
 11
4193.2985988195
 21
8899.8074491263
 31
0.0
  0
LINE
  5
1D2
330
1F
100
AcDbEntity
  8
0
  6
Continuous
 62
     7
370
    25
100
AcDbLine
 10
4200.7985988195
 20
8496.7389766117
 30
0.0
 11
4200.7985988195
 21
8899.8074491263
 31
0.0
  0
LINE
  5
1D3
330
1F
100
AcDbEntity
  8
0
  6
Continuous
 62
     7
370
    25
100
AcDbLine
 10
4193.2985988195
 20
8496.7389766117
 30
0.0
 11
4193.2985988195
 21
8899.8074491263
 31
0.0
  0
LINE
  5
1D4
330
1F
100
AcDbEntity
  8
0
  6
Continuous
 62
     7
370
    25
100
AcDbLine
 10
4200.7985988195
 20
6295.5635633526
 30
0.0
 11
4193.2985988195
 21
6295.5635633526
 31
0.0
  0
LINE
  5
1D5
330
1F
100
AcDbEntity
  8
0
  6
Continuous
 62
     7
370
    25
100
AcDbLine
 10
4200.7985988195
 20
6295.5635633526
 30
0.0
 11
4200.7985988195
 21
6298.4192722361
 31
0.0
  0
LINE
  5
1D6
330
1F
100
AcDbEntity
  8
0
  6
Continuous
 62
     7
370
    25
100
AcDbLine
 10
4200.7985988195
 20
8899.8074491263
 30
0.0
 11
4200.7985988195
 21
8900.3954460736
 31
0.0
  0
ARC
  5
1D7
330
1F
100
AcDbEntity
  8
0
  6
Continuous
 62
     7
370
    25
100
AcDbCircle
 10
5653.330530395
 20
7497.2135633526
 30
0.0
 40
19.99999999999948
100
AcDbArc
 50
160.7881902018
 51
199.2118097982
  0
LINE
  5
1D8
330
1F
100
AcDbEntity
  8
0
  6
Continuous
 62
     7
370
    25
100
AcDbLine
 10
6818.356558453
 20
6368.7763969641
 30
0.0
 11
6818.0030050624
 21
6369.1299503547
 31
0.0
  0
LINE
  5
1D9
330
1F
100
AcDbEntity
  8
0
  6
Continuous
 62
     7
370
    25
100
AcDbLine
 10
6818.356558453
 20
6368.7763969641
 30
0.0
 11
6800.6788889233
 21
6351.0987274344
 31
0.0
  0
LINE
  5
1DA
330
1F
100
AcDbEntity
  8
0
  6
Continuous
 62
     7
370
    25
100
AcDbLine
 10
6800.6788889233
 20
6351.0987274344
 30
0.0
 11
6800.3253355327
 21
6351.452280825
 31
0.0
  0
LINE
  5
1DB
330
1F
100
AcDbEntity
  8
0
  6
Continuous
 62
     7
370
    25
100
AcDbLine
 10
6813.0886129331
 20
6363.4377407662
 30
0.0
 11
6813.0532575941
 21
6363.4730961052
 31
0.0
  0
LINE
  5
1DC
330
1F
100
AcDbEntity
  8
0
  6
Continuous
 62
     7
370
    25
100
AcDbLine
 10
6806.0175451213
 20
6356.3666729543
 30
0.0
 11
6813.0886129331
 21
6363.4377407662
 31
0.0
  0
LINE
  5
1DD
330
1F
100
AcDbEntity
  8
0
  6
Continuous
 62
     7
370
    25
100
AcDbLine
 10
6806.0175451213
 20
6356.3666729543
 30
0.0
 11
6805.9821897822
 21
6356.4020282933
 31
0.0
  0
LINE
  5
1DE
330
1F
100
AcDbEntity
  8
0
  6
Continuous
 62
     7
370
    25
100
AcDbLine
 10
6813.2699223642
 20
6363.6190501972
 30
0.0
 11
6813.2345670251
 21
6363.6544055363
 31
0.0
  0
LINE
  5
1DF
330
1F
100
AcDbEntity
  8
0
  6
Continuous
 62
     7
370
    25
100
AcDbLine
 10
6805.0203432504
 20
6355.3694710834
 30
0.0
 11
6806.0175451213
 21
6356.3666729543
 31
0.0
  0
LINE
  5
1E0
330
1F
100
AcDbEntity
  8
0
  6
Continuous
 62
     7
370
    25
100
AcDbLine
 10
6813.0886129331
 20
6363.4377407662
 30
0.0
 11
6813.2699223642
 21
6363.6190501972
 31
0.0
  0
LINE
  5
1E1
330
1F
100
AcDbEntity
  8
0
  6
Continuous
 62
     7
370
    25
100
AcDbLine
 10
6805.0203432504
 20
6355.3694710834
 30
0.0
 11
6804.9849879113
 21
6355.4048264224
 31
0.0
  0
LINE
  5
1E2
330
1F
100
AcDbEntity
  8
0
  6
Continuous
 62
     7
370
    25
100
AcDbLine
 10
5634.4443591105
 20
8795.5698891393
 30
0.0
 11
5634.70752613
 21
8795.5698891393
 31
0.0
  0
LINE
  5
1E3
330
1F
100
AcDbEntity
  8
0
  6
Continuous
 62
     7
370
    25
100
AcDbLine
 10
5634.4443591105
 20
8805.5698891393
 30
0.0
 11
5634.4443591105
 21
8795.5698891393
 31
0.0
  0
LINE
  5
1E4
330
1F
100
AcDbEntity
  8
0
  6
Continuous
 62
     7
370
    25
100
AcDbLine
 10
5641.9443591105
 20
8805.5698891393
 30
0.0
 11
5641.9443591105
 21
8795.5698891393
 31
0.0
  0
LINE
  5
1E5
330
1F
100
AcDbEntity
  8
0
  6
Continuous
 62
     7
370
    25
100
AcDbLine
 10
6934.4455464039
 20
6984.3224916963
 30
0.0
 11
6926.9455464039
 21
6984.3224916963
 31
0.0
  0
LINE
  5
1E6
330
1F
100
AcDbEntity
  8
0
  6
Continuous
 62
     7
370
    25
100
AcDbLine
 10
6934.4455464039
 20
6918.5724916963
 30
0.0
 11
6934.4455464039
 21
6984.3224916963
 31
0.0
  0
LINE
  5
1E7
330
1F
100
AcDbEntity
  8
0
  6
Continuous
 62
     7
370
    25
100
AcDbLine
 10
6926.9455464039
 20
6918.5724916963
 30
0.0
 11
6934.4455464039
 21
6918.5724916963
 31
0.0
  0
LINE
  5
1E8
330
1F
100
AcDbEntity
  8
0
  6
Continuous
 62
     7
370
    25
100
AcDbLine
 10
6926.9455464039
 20
6918.5724916963
 30
0.0
 11
6926.9455464039
 21
6984.3224916963
 31
0.0
  0
ARC
  5
1E9
330
1F
100
AcDbEntity
  8
0
  6
Continuous
 62
     7
370
    25
100
AcDbCircle
 10
6923.1955464039
 20
6984.3224916963
 30
0.0
 40
3.749999999993634
100
AcDbArc
 50
0.0
 51
180.0
  0
ARC
  5
1EA
330
1F
100
AcDbEntity
  8
0
  6
Continuous
 62
     7
370
    25
100
AcDbCircle
 10
6923.1955464039
 20
6984.3224916963
 30
0.0
 40
11.24999999999381
100
AcDbArc
 50
0.0
 51
109.4712206344
  0
LINE
  5
1EB
330
1F
100
AcDbEntity
  8
0
  6
Continuous
 62
     7
370
    25
100
AcDbLine
 10
5644.1943591105
 20
6295.5635633526
 30
0.0
 11
5634.4443591105
 21
6295.5635633526
 31
0.0
  0
LINE
  5
1EC
330
1F
100
AcDbEntity
  8
0
  6
Continuous
 62
     7
370
    25
100
AcDbLine
 10
5634.4443591105
 20
6295.5635633526
 30
0.0
 11
5634.4443591105
 21
8795.5698891393
 31
0.0
  0
LINE
  5
1ED
330
1F
100
AcDbEntity
  8
0
  6
Continuous
 62
     7
370
    25
100
AcDbLine
 10
5634.70752613
 20
8795.5698891393
 30
0.0
 11
5644.1943591105
 21
8795.5698891393
 31
0.0
  0
LINE
  5
1EE
330
1F
100
AcDbEntity
  8
0
  6
Continuous
 62
     7
370
    25
100
AcDbLine
 10
5644.1943591105
 20
8795.5698891393
 30
0.0
 11
5644.1943591105
 21
6295.5635633526
 31
0.0
  0
LINE
  5
1EF
330
1F
100
AcDbEntity
  8
0
  6
Continuous
 62
     7
370
    25
100
AcDbLine
 10
6747.2923269437
 20
6298.4192722361
 30
0.0
 11
6916.5898375205
 21
6467.7167828129
 31
0.0
  0
ARC
  5
1F0
330
1F
100
AcDbEntity
  8
0
  6
Continuous
 62
     7
370
    25
100
AcDbCircle
 10
6740.3980358272
 20
6305.3135633526
 30
0.0
 40
9.75
100
AcDbArc
 50
270.0
 51
315.0
  0
LINE
  5
1F1
330
1F
100
AcDbEntity
  8
0
  6
Continuous
 62
     7
370
    25
100
AcDbLine
 10
5644.1943591105
 20
6295.5635633526
 30
0.0
 11
6740.3980358272
 21
6295.5635633526
 31
0.0
  0
LINE
  5
1F2
330
1F
100
AcDbEntity
  8
0
  6
Continuous
 62
     7
370
    25
100
AcDbLine
 10
5649.1943591105
 20
8805.5698891393
 30
0.0
 11
5649.1943591105
 21
8795.5698891393
 31
0.0
  0
LINE
  5
1F3
330
1F
100
AcDbEntity
  8
0
  6
Continuous
 62
     7
370
    25
100
AcDbLine
 10
5634.4443591105
 20
8805.5698891393
 30
0.0
 11
5649.1943591105
 21
8805.5698891393
 31
0.0
  0
LINE
  5
1F4
330
1F
100
AcDbEntity
  8
0
  6
Continuous
 62
     7
370
    25
100
AcDbLine
 10
5634.4443591105
 20
8890.6454460736
 30
0.0
 11
5634.4443591105
 21
8805.5698891393
 31
0.0
  0
ARC
  5
1F5
330
1F
100
AcDbEntity
  8
0
  6
Continuous
 62
     7
370
    25
100
AcDbCircle
 10
5644.1943591105
 20
8890.6454460736
 30
0.0
 40
9.750000000000586
100
AcDbArc
 50
70.0
 51
180.0
  0
LINE
  5
1F6
330
1F
100
AcDbEntity
  8
0
  6
Continuous
 62
     7
370
    25
100
AcDbLine
 10
6754.9505822354
 20
8496.7389766117
 30
0.0
 11
5647.5290555079
 21
8899.8074491263
 31
0.0
  0
ARC
  5
1F7
330
1F
100
AcDbEntity
  8
0
  6
Continuous
 62
     7
370
    25
100
AcDbCircle
 10
6669.4455464039
 20
8261.8158214152
 30
0.0
 40
250.0
100
AcDbArc
 50
0.0
 51
70.0
  0
LINE
  5
1F8
330
1F
100
AcDbEntity
  8
0
  6
Continuous
 62
     7
370
    25
100
AcDbLine
 10
6919.4455464039
 20
6474.6110739294
 30
0.0
 11
6919.4455464039
 21
8261.8158214152
 31
0.0
  0
ARC
  5
1F9
330
1F
100
AcDbEntity
  8
0
  6
Continuous
 62
     7
370
    25
100
AcDbCircle
 10
6909.6955464039
 20
6474.6110739294
 30
0.0
 40
9.75
100
AcDbArc
 50
315.0
 51
0.0
  0
LINE
  5
1FA
330
1F
100
AcDbEntity
  8
0
  6
Continuous
 62
     7
370
    25
100
AcDbLine
 10
5649.1943591105
 20
8795.5698891393
 30
0.0
 11
5644.1943591105
 21
8795.5698891393
 31
0.0
  0
LINE
  5
1FB
330
1F
100
AcDbEntity
  8
0
  6
Continuous
 62
     7
370
    25
100
AcDbLine
 10
5638.4443591105
 20
4895.5635633526
 30
0.0
 11
5638.4443591105
 21
6295.5635633526
 31
0.0
  0
LINE
  5
1FC
330
1F
100
AcDbEntity
  8
0
  6
Continuous
 62
     7
370
    25
100
AcDbLine
 10
5634.4443591105
 20
4895.5635633526
 30
0.0
 11
5634.4443591105
 21
6295.5635633526
 31
0.0
  0
LINE
  5
1FD
330
1F
100
AcDbEntity
  8
0
  6
Continuous
 62
     7
370
    25
100
AcDbLine
 10
5634.4443591105
 20
4895.5635633526
 30
0.0
 11
5638.4443591105
 21
4895.5635633526
 31
0.0
  0
LINE
  5
1FE
330
1F
100
AcDbEntity
  8
0
  6
Continuous
 62
     7
370
    25
100
AcDbLine
 10
5640.6943591105
 20
4895.5635633526
 30
0.0
 11
5640.6943591105
 21
6295.5635633526
 31
0.0
  0
LINE
  5
1FF
330
1F
100
AcDbEntity
  8
0
  6
Continuous
 62
     7
370
    25
100
AcDbLine
 10
5638.4443591105
 20
4895.5635633526
 30
0.0
 11
5640.6943591105
 21
4895.5635633526
 31
0.0
  0
LINE
  5
200
330
1F
100
AcDbEntity
  8
0
  6
Continuous
 62
     7
370
    25
100
AcDbLine
 10
6713.1943591105
 20
4895.5635633526
 30
0.0
 11
6713.1943591105
 21
6295.5635633526
 31
0.0
  0
LINE
  5
201
330
1F
100
AcDbEntity
  8
0
  6
Continuous
 62
     7
370
    25
100
AcDbLine
 10
5640.6943591105
 20
4895.5635633526
 30
0.0
 11
6713.1943591105
 21
4895.5635633526
 31
0.0
  0
LINE
  5
202
330
1F
100
AcDbEntity
  8
0
  6
Continuous
 62
     7
370
    25
100
AcDbLine
 10
6719.4443591105
 20
4895.5635633526
 30
0.0
 11
6719.4443591105
 21
6295.5635633526
 31
0.0
  0
LINE
  5
203
330
1F
100
AcDbEntity
  8
0
  6
Continuous
 62
     7
370
    25
100
AcDbLine
 10
6713.1943591105
 20
4895.5635633526
 30
0.0
 11
6719.4443591105
 21
4895.5635633526
 31
0.0
  0
CIRCLE
  5
204
330
1F
100
AcDbEntity
  8
0
  6
Continuous
 62
     7
100
AcDbCircle
 10
2700.7985988195
 20
2954.2619901325
 30
0.0
 40
125.0000000000082
  0
LINE
  5
205
330
1F
100
AcDbEntity
  8
0
  6
Continuous
 62
     7
370
    25
100
AcDbLine
 10
2575.7985988195
 20
3475.5136595264
 30
0.0
 11
2575.7985988195
 21
3459.4698574509
 31
0.0
  0
LINE
  5
206
330
1F
100
AcDbEntity
  8
0
  6
Continuous
 62
     7
370
    25
100
AcDbLine
 10
2825.7985988195
 20
3459.4698574509
 30
0.0
 11
2825.7985988195
 21
3475.5136595264
 31
0.0
  0
ARC
  5
207
330
1F
100
AcDbEntity
  8
0
  6
Continuous
 62
     7
370
    25
100
AcDbCircle
 10
2700.7985988195
 20
2954.2619901325
 30
0.0
 40
75.00000000000004
100
AcDbArc
 50
301.7964814724
 51
334.0923625016
  0
LWPOLYLINE
  5
208
330
1F
100
AcDbEntity
  8
0
  6
Continuous
 62
     7
370
    25
100
AcDbPolyline
 90
        4
 70
   128
 43
0.0
 10
2773.4327893783
 20
2935.5731067558
 10
2774.4267228193
 20
2939.9826569452
 10
2775.7435623983
 20
2951.3892851058
 10
2775.7436682443
 20
2951.3920478149
  0
ARC
  5
209
330
1F
100
AcDbEntity
  8
0
  6
Continuous
 62
     7
370
    25
100
AcDbCircle
 10
2700.7985988195
 20
2954.2619901325
 30
0.0
 40
74.99999999999999
100
AcDbArc
 50
31.7964814724
 51
87.8069901514
  0
ARC
  5
20A
330
1F
100
AcDbEntity
  8
0
  6
Continuous
 62
     7
370
    25
100
AcDbCircle
 10
2700.7985988195
 20
2954.2619901325
 30
0.0
 40
75.00000000000026
100
AcDbArc
 50
121.7964814724
 51
177.8069901514
  0
LINE
  5
20B
330
1F
100
AcDbEntity
  8
0
  6
Continuous
 62
     7
370
    25
100
AcDbLine
 10
2637.0542199433
 20
2914.7442199311
 30
0.0
 11
2638.6884693075
 21
2912.2223444157
 31
0.0
  0
ARC
  5
20C
330
1F
100
AcDbEntity
  8
0
  6
Continuous
 62
     7
370
    25
100
AcDbCircle
 10
2700.7985988195
 20
2954.2619901325
 30
0.0
 40
75.00000000000026
100
AcDbArc
 50
225.5707034561
 51
267.8069901514
  0
LINE
  5
20D
330
1F
100
AcDbEntity
  8
0
  6
Continuous
 62
     7
370
    25
100
AcDbLine
 10
2789.4631452401
 20
2913.7052618619
 30
0.0
 11
2751.725896191
 21
2927.5662904333
 31
0.0
  0
LINE
  5
20E
330
1F
100
AcDbEntity
  8
0
  6
Continuous
 62
     7
370
    25
100
AcDbLine
 10
2628.6246366588
 20
2903.8280874058
 30
0.0
 11
2645.2023128075
 21
2917.6555504685
 31
0.0
  0
LINE
  5
20F
330
1F
100
AcDbEntity
  8
0
  6
Continuous
 62
     7
370
    25
100
AcDbLine
 10
2757.533571041
 20
2941.4129473692
 30
0.0
 11
2794.5290715555
 21
2927.8243657273
 31
0.0
  0
LINE
  5
210
330
1F
100
AcDbEntity
  8
0
  6
Continuous
 62
     7
370
    25
100
AcDbLine
 10
2661.8237824824
 20
2911.9865399104
 30
0.0
 11
2631.2277848768
 21
2886.466375144
 31
0.0
  0
ARC
  5
211
330
1F
100
AcDbEntity
  8
0
  6
Continuous
 62
     7
370
    25
100
AcDbCircle
 10
2700.7985988195
 20
2954.2619901325
 30
0.0
 40
26.25000000000011
100
AcDbArc
 50
278.2132107017
 51
81.7867892983
  0
LINE
  5
212
330
1F
100
AcDbEntity
  8
0
  6
Continuous
 62
     7
370
    25
100
AcDbLine
 10
2704.5485988195
 20
2928.281228019
 30
0.0
 11
2704.5485988195
 21
2980.2427522461
 31
0.0
  0
ARC
  5
213
330
1F
100
AcDbEntity
  8
0
  6
Continuous
 62
     7
370
    25
100
AcDbCircle
 10
2700.7985988195
 20
2954.2619901325
 30
0.0
 40
26.25000000000018
100
AcDbArc
 50
98.2132107017
 51
261.7867892983
  0
LINE
  5
214
330
1F
100
AcDbEntity
  8
0
  6
Continuous
 62
     7
370
    25
100
AcDbLine
 10
2697.0485988195
 20
2980.2427522461
 30
0.0
 11
2697.0485988195
 21
2928.281228019
 31
0.0
  0
ARC
  5
215
330
1F
100
AcDbEntity
  8
0
  6
Continuous
 62
     7
370
    25
100
AcDbCircle
 10
2700.7985988195
 20
2954.2619901325
 30
0.0
 40
26.25000000000018
100
AcDbArc
 50
81.7867892983
 51
98.2132107017
  0
ARC
  5
216
330
1F
100
AcDbEntity
  8
0
  6
Continuous
 62
     7
370
    25
100
AcDbCircle
 10
2700.7985988195
 20
2954.2619901325
 30
0.0
 40
26.24999999999973
100
AcDbArc
 50
261.7867892983
 51
278.2132107017
  0
CIRCLE
  5
217
330
1F
100
AcDbEntity
  8
0
  6
Continuous
 62
     7
370
    25
100
AcDbCircle
 10
2700.7985988195
 20
2954.2619901325
 30
0.0
 40
122.5000000000002
  0
CIRCLE
  5
218
330
1F
100
AcDbEntity
  8
0
  6
Continuous
 62
     7
370
    25
100
AcDbCircle
 10
2700.7985988195
 20
2954.2619901325
 30
0.0
 40
175.0000000000001
  0
CIRCLE
  5
219
330
1F
100
AcDbEntity
  8
0
  6
Continuous
 62
     7
370
    25
100
AcDbCircle
 10
2700.7985988195
 20
2954.2619901325
 30
0.0
 40
112.5000000000003
  0
CIRCLE
  5
21A
330
1F
100
AcDbEntity
  8
0
  6
Continuous
 62
     7
370
    25
100
AcDbCircle
 10
2700.7985988195
 20
2954.2619901325
 30
0.0
 40
107.4999999999999
  0
CIRCLE
  5
21B
330
1F
100
AcDbEntity
  8
0
  6
Continuous
 62
     7
370
    25
100
AcDbCircle
 10
2700.7985988195
 20
2954.2619901325
 30
0.0
 40
97.7649496228161
  0
CIRCLE
  5
21C
330
1F
100
AcDbEntity
  8
0
  6
Continuous
 62
     7
370
    25
100
AcDbCircle
 10
2700.7985988195
 20
2954.2619901325
 30
0.0
 40
30.9102540378447
  0
ARC
  5
21D
330
1F
100
AcDbEntity
  8
0
  6
Continuous
 62
     7
370
    25
100
AcDbCircle
 10
2700.7985988195
 20
2954.2619901325
 30
0.0
 40
97.5000000000002
100
AcDbArc
 50
136.7514308722
 51
162.8520407516
  0
ARC
  5
21E
330
1F
100
AcDbEntity
  8
0
  6
Continuous
 62
     7
370
    25
100
AcDbCircle
 10
2626.7437408473
 20
2977.112110717
 30
0.0
 40
20.00000000000025
100
AcDbArc
 50
162.8520407516
 51
342.8520407516
  0
ARC
  5
21F
330
1F
100
AcDbEntity
  8
0
  6
Continuous
 62
     7
370
    25
100
AcDbCircle
 10
2700.7985988195
 20
2954.2619901325
 30
0.0
 40
57.50000000000045
100
AcDbArc
 50
136.7514308722
 51
162.8520407516
  0
ARC
  5
220
330
1F
100
AcDbEntity
  8
0
  6
Continuous
 62
     7
370
    25
100
AcDbCircle
 10
2644.34852254
 20
3007.3622621473
 30
0.0
 40
20.0000000000003
100
AcDbArc
 50
316.7514308722
 51
136.7514308722
  0
ARC
  5
221
330
1F
100
AcDbEntity
  8
0
  6
Continuous
 62
     7
370
    25
100
AcDbCircle
 10
2700.7985988195
 20
2954.2619901325
 30
0.0
 40
97.4999999999999
100
AcDbArc
 50
226.7514308722
 51
252.8520407516
  0
ARC
  5
222
330
1F
100
AcDbEntity
  8
0
  6
Continuous
 62
     7
370
    25
100
AcDbCircle
 10
2677.948478235
 20
2880.2071321604
 30
0.0
 40
19.99999999999981
100
AcDbArc
 50
252.8520407516
 51
72.8520407516
  0
ARC
  5
223
330
1F
100
AcDbEntity
  8
0
  6
Continuous
 62
     7
370
    25
100
AcDbCircle
 10
2700.7985988195
 20
2954.2619901325
 30
0.0
 40
57.50000000000021
100
AcDbArc
 50
226.7514308722
 51
252.8520407516
  0
ARC
  5
224
330
1F
100
AcDbEntity
  8
0
  6
Continuous
 62
     7
370
    25
100
AcDbCircle
 10
2647.6983268048
 20
2897.811913853
 30
0.0
 40
20.00000000000001
100
AcDbArc
 50
46.7514308722
 51
226.7514308722
  0
ARC
  5
225
330
1F
100
AcDbEntity
  8
0
  6
Continuous
 62
     7
370
    25
100
AcDbCircle
 10
2700.7985988195
 20
2954.2619901325
 30
0.0
 40
97.50000000000007
100
AcDbArc
 50
316.7514308722
 51
342.8520407516
  0
ARC
  5
226
330
1F
100
AcDbEntity
  8
0
  6
Continuous
 62
     7
370
    25
100
AcDbCircle
 10
2774.8534567916
 20
2931.4118695481
 30
0.0
 40
20.00000000000025
100
AcDbArc
 50
342.8520407516
 51
162.8520407516
  0
ARC
  5
227
330
1F
100
AcDbEntity
  8
0
  6
Continuous
 62
     7
370
    25
100
AcDbCircle
 10
2700.7985988195
 20
2954.2619901325
 30
0.0
 40
57.50000000000001
100
AcDbArc
 50
316.7514308722
 51
342.8520407516
  0
ARC
  5
228
330
1F
100
AcDbEntity
  8
0
  6
Continuous
 62
     7
370
    25
100
AcDbCircle
 10
2757.248675099
 20
2901.1617181178
 30
0.0
 40
20.00000000000032
100
AcDbArc
 50
136.7514308722
 51
316.7514308722
  0
ARC
  5
229
330
1F
100
AcDbEntity
  8
0
  6
Continuous
 62
     7
370
    25
100
AcDbCircle
 10
2700.7985988195
 20
2954.2619901325
 30
0.0
 40
97.50000000000007
100
AcDbArc
 50
46.7514308722
 51
72.8520407516
  0
ARC
  5
22A
330
1F
100
AcDbEntity
  8
0
  6
Continuous
 62
     7
370
    25
100
AcDbCircle
 10
2723.6487194039
 20
3028.3168481047
 30
0.0
 40
20.00000000000038
100
AcDbArc
 50
72.8520407516
 51
252.8520407516
  0
ARC
  5
22B
330
1F
100
AcDbEntity
  8
0
  6
Continuous
 62
     7
370
    25
100
AcDbCircle
 10
2700.7985988195
 20
2954.2619901325
 30
0.0
 40
57.50000000000023
100
AcDbArc
 50
46.7514308722
 51
72.8520407516
  0
ARC
  5
22C
330
1F
100
AcDbEntity
  8
0
  6
Continuous
 62
     7
370
    25
100
AcDbCircle
 10
2753.8988708342
 20
3010.7120664121
 30
0.0
 40
19.99999999999999
100
AcDbArc
 50
226.7514308722
 51
46.7514308722
  0
CIRCLE
  5
22D
330
1F
100
AcDbEntity
  8
0
  6
Continuous
 62
     7
370
    25
100
AcDbCircle
 10
2700.7985988195
 20
2954.2619901325
 30
0.0
 40
28.41025403784476
  0
ARC
  5
22E
330
1F
100
AcDbEntity
  8
0
  6
Continuous
 62
     7
370
    25
100
AcDbCircle
 10
2700.7985988195
 20
3510.5136595264
 30
0.0
 40
135.0000000000026
100
AcDbArc
 50
207.8409840211
 51
332.1590159789
  0
LINE
  5
22F
330
1F
100
AcDbEntity
  8
0
  6
Continuous
 62
     7
370
    25
100
AcDbLine
 10
2820.1719626826
 20
3447.4660584618
 30
0.0
 11
2581.4252349564
 21
3447.4660584618
 31
0.0
  0
SPLINE
  5
230
330
1F
100
AcDbEntity
  8
0
  6
Continuous
 62
     7
370
    25
100
AcDbSpline
210
0.0
220
0.0
230
1.0
 70
     8
 71
     3
 72
    11
 73
     7
 74
     0
 42
0.00000001
 43
0.00000001
 40
0.0
 40
0.0
 40
0.0
 40
0.0
 40
0.2781513190331529
 40
0.5602358888177039
 40
0.9914515063396137
 40
1.0
 40
1.0
 40
1.0
 40
1.0
 10
2581.425234956354
 20
3447.466058461795
 30
0.0
 10
2580.520475310633
 20
3449.240971450231
 30
0.0
 10
2578.698162096195
 20
3452.81589591619
 30
0.0
 10
2576.643546198487
 20
3457.438497395382
 30
0.0
 10
2575.427907182307
 20
3460.405424885664
 30
0.0
 10
2575.813625121886
 20
3459.487696994594
 30
0.0
 10
2575.821123021959
 20
3459.46985745094
 30
0.0
  0
SPLINE
  5
231
330
1F
100
AcDbEntity
  8
0
  6
Continuous
 62
     7
370
    25
100
AcDbSpline
210
0.0
220
0.0
230
1.0
 70
     8
 71
     3
 72
    10
 73
     6
 74
     0
 42
0.00000001
 43
0.00000001
 40
0.0
 40
0.0
 40
0.0
 40
0.0
 40
0.4241338390595612
 40
0.7093173307648982
 40
1.0
 40
1.0
 40
1.0
 40
1.0
 10
2825.776074617016
 20
3459.46985745094
 30
0.0
 10
2825.55782902192
 20
3458.927038895606
 30
0.0
 10
2825.192837199274
 20
3458.019234393109
 30
0.0
 10
2822.943789467185
 20
3452.894577342234
 30
0.0
 10
2821.101768344272
 20
3449.287048004691
 30
0.0
 10
2820.171962682622
 20
3447.466058461793
 30
0.0
  0
LINE
  5
232
330
1F
100
AcDbEntity
  8
0
  6
Continuous
 62
     7
370
    25
100
AcDbLine
 10
4193.2985988195
 20
3710.5119901325
 30
0.0
 11
1208.2985988195
 21
3710.5119901325
 31
0.0
  0
LINE
  5
233
330
1F
100
AcDbEntity
  8
0
  6
Continuous
 62
     7
370
    25
100
AcDbLine
 10
4193.2985988195
 20
3697.4272937351
 30
0.0
 11
1208.2985988195
 21
3697.4272937351
 31
0.0
  0
LINE
  5
234
330
1F
100
AcDbEntity
  8
0
  6
Continuous
 62
     7
370
    25
100
AcDbLine
 10
1208.2985988195
 20
3697.4272937351
 30
0.0
 11
1208.2985988195
 21
3710.5119901325
 31
0.0
  0
LINE
  5
235
330
1F
100
AcDbEntity
  8
0
  6
Continuous
 62
     7
370
    25
100
AcDbLine
 10
4193.2985988195
 20
3697.4272937351
 30
0.0
 11
4193.2985988195
 21
3710.5119901325
 31
0.0
  0
LINE
  5
236
330
1F
100
AcDbEntity
  8
0
  6
Continuous
 62
     7
370
    25
100
AcDbLine
 10
4193.2985988195
 20
3481.928963129
 30
0.0
 11
1208.2985988195
 21
3481.928963129
 31
0.0
  0
LINE
  5
237
330
1F
100
AcDbEntity
  8
0
  6
Continuous
 62
     7
370
    25
100
AcDbLine
 10
4193.2985988195
 20
3481.928963129
 30
0.0
 11
4193.2985988195
 21
3697.4272937351
 31
0.0
  0
LINE
  5
238
330
1F
100
AcDbEntity
  8
0
  6
Continuous
 62
     7
370
    25
100
AcDbLine
 10
1208.2985988195
 20
3481.928963129
 30
0.0
 11
1208.2985988195
 21
3697.4272937351
 31
0.0
  0
LINE
  5
239
330
1F
100
AcDbEntity
  8
0
  6
Continuous
 62
     7
370
    25
100
AcDbLine
 10
4193.2985988195
 20
3475.5136595264
 30
0.0
 11
1208.2985988195
 21
3475.5136595264
 31
0.0
  0
LINE
  5
23A
330
1F
100
AcDbEntity
  8
0
  6
Continuous
 62
     7
370
    25
100
AcDbLine
 10
4193.2985988195
 20
2433.0108028391
 30
0.0
 11
1208.2985988195
 21
2433.0108028391
 31
0.0
  0
LINE
  5
23B
330
1F
100
AcDbEntity
  8
0
  6
Continuous
 62
     7
370
    25
100
AcDbLine
 10
4193.2985988195
 20
2410.5108028391
 30
0.0
 11
4193.2985988195
 21
2425.5108028391
 31
0.0
  0
LINE
  5
23C
330
1F
100
AcDbEntity
  8
0
  6
Continuous
 62
     7
370
    25
100
AcDbLine
 10
4193.2985988195
 20
2410.5108028391
 30
0.0
 11
1208.2985988195
 21
2410.5108028391
 31
0.0
  0
LINE
  5
23D
330
1F
100
AcDbEntity
  8
0
  6
Continuous
 62
     7
370
    25
100
AcDbLine
 10
1208.2985988195
 20
2410.5108028391
 30
0.0
 11
1208.2985988195
 21
2425.5108028391
 31
0.0
  0
LINE
  5
23E
330
1F
100
AcDbEntity
  8
0
  6
Continuous
 62
     7
370
    25
100
AcDbLine
 10
4193.2985988195
 20
2433.6698125814
 30
0.0
 11
1208.2985988195
 21
2433.6698125814
 31
0.0
  0
LINE
  5
23F
330
1F
100
AcDbEntity
  8
0
  6
Continuous
 62
     7
370
    25
100
AcDbLine
 10
4193.2985988195
 20
3305.5571392072
 30
0.0
 11
1208.2985988195
 21
3305.5571392072
 31
0.0
  0
LINE
  5
240
330
1F
100
AcDbEntity
  8
0
  6
Continuous
 62
     7
370
    25
100
AcDbLine
 10
4193.2985988195
 20
2602.9673231582
 30
0.0
 11
1208.2985988195
 21
2602.9673231582
 31
0.0
  0
LINE
  5
241
330
1F
100
AcDbEntity
  8
0
  6
Continuous
 62
     7
370
    25
100
AcDbLine
 10
4193.2985988195
 20
3303.9661489496
 30
0.0
 11
1208.2985988195
 21
3303.9661489496
 31
0.0
  0
LINE
  5
242
330
1F
100
AcDbEntity
  8
0
  6
Continuous
 62
     7
370
    25
100
AcDbLine
 10
4193.2985988195
 20
2604.5583134158
 30
0.0
 11
1208.2985988195
 21
2604.5583134158
 31
0.0
  0
LINE
  5
243
330
1F
100
AcDbEntity
  8
0
  6
Continuous
 62
     7
370
    25
100
AcDbLine
 10
1200.7985988195
 20
3697.4272937351
 30
0.0
 11
1208.2985988195
 21
3697.4272937351
 31
0.0
  0
LINE
  5
244
330
1F
100
AcDbEntity
  8
0
  6
Continuous
 62
     7
370
    25
100
AcDbLine
 10
1200.7985988195
 20
3710.5119901325
 30
0.0
 11
1208.2985988195
 21
3710.5119901325
 31
0.0
  0
LINE
  5
245
330
1F
100
AcDbEntity
  8
0
  6
Continuous
 62
     7
370
    25
100
AcDbLine
 10
1200.7985988195
 20
3697.4272937351
 30
0.0
 11
1200.7985988195
 21
3710.5119901325
 31
0.0
  0
LINE
  5
246
330
1F
100
AcDbEntity
  8
0
  6
Continuous
 62
     7
370
    25
100
AcDbLine
 10
1200.7985988195
 20
2590.0057670076
 30
0.0
 11
1208.2985988195
 21
2590.0057670076
 31
0.0
  0
LINE
  5
247
330
1F
100
AcDbEntity
  8
0
  6
Continuous
 62
     7
370
    25
100
AcDbLine
 10
1208.2985988195
 20
2590.0057670076
 30
0.0
 11
1208.2985988195
 21
3697.4272937351
 31
0.0
  0
LINE
  5
248
330
1F
100
AcDbEntity
  8
0
  6
Continuous
 62
     7
370
    25
100
AcDbLine
 10
1200.7985988195
 20
2590.0057670076
 30
0.0
 11
1200.7985988195
 21
3697.4272937351
 31
0.0
  0
LINE
  5
249
330
1F
100
AcDbEntity
  8
0
  6
Continuous
 62
     7
370
    25
100
AcDbLine
 10
1200.7985988195
 20
2425.5108028391
 30
0.0
 11
1208.2985988195
 21
2425.5108028391
 31
0.0
  0
LINE
  5
24A
330
1F
100
AcDbEntity
  8
0
  6
Continuous
 62
     7
370
    25
100
AcDbLine
 10
1208.2985988195
 20
2425.5108028391
 30
0.0
 11
1208.2985988195
 21
2590.0057670076
 31
0.0
  0
LINE
  5
24B
330
1F
100
AcDbEntity
  8
0
  6
Continuous
 62
     7
370
    25
100
AcDbLine
 10
1200.7985988195
 20
2425.5108028391
 30
0.0
 11
1200.7985988195
 21
2590.0057670076
 31
0.0
  0
LINE
  5
24C
330
1F
100
AcDbEntity
  8
0
  6
Continuous
 62
     7
370
    25
100
AcDbLine
 10
4200.7985988195
 20
3710.5119901325
 30
0.0
 11
4193.2985988195
 21
3710.5119901325
 31
0.0
  0
LINE
  5
24D
330
1F
100
AcDbEntity
  8
0
  6
Continuous
 62
     7
370
    25
100
AcDbLine
 10
4200.7985988195
 20
3697.4272937351
 30
0.0
 11
4193.2985988195
 21
3697.4272937351
 31
0.0
  0
LINE
  5
24E
330
1F
100
AcDbEntity
  8
0
  6
Continuous
 62
     7
370
    25
100
AcDbLine
 10
4200.7985988195
 20
3697.4272937351
 30
0.0
 11
4200.7985988195
 21
3710.5119901325
 31
0.0
  0
LINE
  5
24F
330
1F
100
AcDbEntity
  8
0
  6
Continuous
 62
     7
370
    25
100
AcDbLine
 10
4200.7985988195
 20
2590.0057670076
 30
0.0
 11
4193.2985988195
 21
2590.0057670076
 31
0.0
  0
LINE
  5
250
330
1F
100
AcDbEntity
  8
0
  6
Continuous
 62
     7
370
    25
100
AcDbLine
 10
4200.7985988195
 20
2590.0057670076
 30
0.0
 11
4200.7985988195
 21
3697.4272937351
 31
0.0
  0
LINE
  5
251
330
1F
100
AcDbEntity
  8
0
  6
Continuous
 62
     7
370
    25
100
AcDbLine
 10
4193.2985988195
 20
2590.0057670076
 30
0.0
 11
4193.2985988195
 21
3697.4272937351
 31
0.0
  0
LINE
  5
252
330
1F
100
AcDbEntity
  8
0
  6
Continuous
 62
     7
370
    25
100
AcDbLine
 10
4200.7985988195
 20
2425.5108028391
 30
0.0
 11
4193.2985988195
 21
2425.5108028391
 31
0.0
  0
LINE
  5
253
330
1F
100
AcDbEntity
  8
0
  6
Continuous
 62
     7
370
    25
100
AcDbLine
 10
4200.7985988195
 20
2425.5108028391
 30
0.0
 11
4200.7985988195
 21
2590.0057670076
 31
0.0
  0
LINE
  5
254
330
1F
100
AcDbEntity
  8
0
  6
Continuous
 62
     7
370
    25
100
AcDbLine
 10
4193.2985988195
 20
2425.5108028391
 30
0.0
 11
4193.2985988195
 21
2590.0057670076
 31
0.0
  0
LINE
  5
255
330
1F
100
AcDbEntity
  8
0
  6
Continuous
 62
     8
370
    25
100
AcDbLine
 10
2754.7728665452
 20
2934.4370456568
 30
0.0
 11
2792.320183224
 21
2920.6457799345
 31
0.0
  0
LINE
  5
256
330
1F
100
AcDbEntity
  8
0
  6
Continuous
 62
     8
370
    25
100
AcDbLine
 10
2628.1354086571
 20
2893.653520708
 30
0.0
 11
2655.2995272692
 21
2916.3111503643
 31
0.0
  0
LINE
  5
257
330
1F
100
AcDbEntity
  8
0
  6
Continuous
 62
     8
370
    25
100
AcDbLine
 10
4193.2985988195
 20
3474.8546497841
 30
0.0
 11
2825.7985988195
 21
3474.8546497841
 31
0.0
  0
LINE
  5
258
330
1F
100
AcDbEntity
  8
0
  6
Continuous
 62
     8
370
    25
100
AcDbLine
 10
2575.7985988195
 20
3474.8546497841
 30
0.0
 11
1208.2985988195
 21
3474.8546497841
 31
0.0
  0
ENDSEC
  0
SECTION
  2
OBJECTS
  0
DICTIONARY
  5
C
330
0
100
AcDbDictionary
281
     1
  3
ACAD_GROUP
350
D
  3
ACAD_LAYOUT
350
1A
  3
ACAD_MLINESTYLE
350
17
  3
ACAD_PLOTSETTINGS
350
19
  3
ACAD_PLOTSTYLENAME
350
E
  3
ACAD_SCALELIST
350
47
  3
DWGPROPS
350
259
  0
DICTIONARY
  5
D
102
{ACAD_REACTORS
330
C
102
}
330
C
100
AcDbDictionary
281
     1
  0
DICTIONARY
  5
1A
102
{ACAD_REACTORS
330
C
102
}
330
C
100
AcDbDictionary
281
     1
  3
Layout1
350
1E
  3
Layout2
350
26
  3
Model
350
22
  0
DICTIONARY
  5
17
102
{ACAD_REACTORS
330
C
102
}
330
C
100
AcDbDictionary
281
     1
  3
Standard
350
18
  0
DICTIONARY
  5
19
102
{ACAD_REACTORS
330
C
102
}
330
C
100
AcDbDictionary
281
     1
  0
ACDBDICTIONARYWDFLT
  5
E
102
{ACAD_REACTORS
330
C
102
}
330
C
100
AcDbDictionary
281
     1
  3
Normal
350
F
100
AcDbDictionaryWithDefault
340
F
  0
DICTIONARY
  5
47
102
{ACAD_REACTORS
330
C
102
}
330
C
100
AcDbDictionary
281
     1
  3
A0
350
48
  3
A1
350
49
  3
A2
350
4A
  3
A3
350
4B
  3
A4
350
4C
  3
A5
350
4D
  3
A6
350
4E
  3
A7
350
4F
  3
A8
350
50
  3
A9
350
51
  3
B0
350
52
  3
B1
350
53
  3
B2
350
54
  3
B3
350
55
  3
B4
350
56
  3
B5
350
57
  3
B6
350
58
  3
B7
350
59
  3
B8
350
5A
  3
B9
350
5B
  3
C0
350
5C
  3
C1
350
5D
  3
C2
350
5E
  3
C3
350
5F
  3
C4
350
60
  3
C5
350
61
  3
C6
350
62
  3
C7
350
63
  3
C8
350
64
  3
C9
350
65
  3
D0
350
66
  3
D1
350
67
  3
D2
350
68
  0
XRECORD
  5
259
102
{ACAD_REACTORS
330
C
102
}
330
C
100
AcDbXrecord
280
     1
  1
DWGPROPS COOKIE
  2

  3

  4

  6

  7

  8
radek.stransky
  9

300
=
301
=
302
=
303
=
304
=
305
=
306
=
307
=
308
=
309
=
 40
0.0
 41
2459094.19706191
 42
2459094.197062489
  1

 90
        0
  0
LAYOUT
  5
1E
102
{ACAD_REACTORS
330
1A
102
}
330
1A
100
AcDbPlotSettings
  1

  2
none_device
  4

  6

 40
0.0
 41
0.0
 42
0.0
 43
0.0
 44
0.0
 45
0.0
 46
0.0
 47
0.0
 48
0.0
 49
0.0
140
0.0
141
0.0
142
1.0
143
1.0
 70
   688
 72
     1
 73
     0
 74
     5
  7

 75
    16
147
1.0
148
0.0
149
0.0
100
AcDbLayout
  1
Layout1
 70
     1
 71
     1
 10
0.0
 20
0.0
 11
420.0
 21
297.0
 12
0.0
 22
0.0
 32
0.0
 14
1.0000000000E+20
 24
1.0000000000E+20
 34
1.0000000000E+20
 15
-1.0000000000E+20
 25
-1.0000000000E+20
 35
-1.0000000000E+20
146
0.0
 13
0.0
 23
0.0
 33
0.0
 16
1.0
 26
0.0
 36
0.0
 17
0.0
 27
1.0
 37
0.0
 76
     0
330
1B
  0
LAYOUT
  5
26
102
{ACAD_REACTORS
330
1A
102
}
330
1A
100
AcDbPlotSettings
  1

  2
none_device
  4

  6

 40
0.0
 41
0.0
 42
0.0
 43
0.0
 44
0.0
 45
0.0
 46
0.0
 47
0.0
 48
0.0
 49
0.0
140
0.0
141
0.0
142
1.0
143
1.0
 70
   688
 72
     1
 73
     0
 74
     5
  7

 75
    16
147
1.0
148
0.0
149
0.0
100
AcDbLayout
  1
Layout2
 70
     1
 71
     2
 10
0.0
 20
0.0
 11
0.0
 21
0.0
 12
0.0
 22
0.0
 32
0.0
 14
0.0
 24
0.0
 34
0.0
 15
0.0
 25
0.0
 35
0.0
146
0.0
 13
0.0
 23
0.0
 33
0.0
 16
1.0
 26
0.0
 36
0.0
 17
0.0
 27
1.0
 37
0.0
 76
     0
330
23
  0
LAYOUT
  5
22
102
{ACAD_REACTORS
330
1A
102
}
330
1A
100
AcDbPlotSettings
  1

  2
none_device
  4
Letter_(8.50_x_11.00_Inches)
  6

 40
6.35
 41
6.35
 42
6.35000508
 43
6.35000508
 44
215.9
 45
279.4
 46
0.0
 47
0.0
 48
0.0
 49
0.0
140
0.0
141
0.0
142
1.0
143
1.0
 70
  1712
 72
     1
 73
     0
 74
     0
  7

 75
     0
147
1.0
148
0.0
149
0.0
100
AcDbLayout
  1
Model
 70
     1
 71
     0
 10
0.0
 20
0.0
 11
20000.0
 21
10000.0
 12
0.0
 22
0.0
 32
0.0
 14
0.0
 24
0.0
 34
0.0
 15
20000.0
 25
10000.0
 35
0.0
146
0.0
 13
0.0
 23
0.0
 33
0.0
 16
1.0
 26
0.0
 36
0.0
 17
0.0
 27
1.0
 37
0.0
 76
     0
330
1F
331
29
  0
MLINESTYLE
  5
18
102
{ACAD_REACTORS
330
17
102
}
330
17
100
AcDbMlineStyle
  2
Standard
 70
     0
  3

 62
   256
 51
90.0
 52
90.0
 71
     2
 49
0.5
 62
   256
  6
BYLAYER
 49
-0.5
 62
   256
  6
BYLAYER
  0
ACDBPLACEHOLDER
  5
F
102
{ACAD_REACTORS
330
E
102
}
330
E
  0
SCALE
  5
48
102
{ACAD_REACTORS
330
47
102
}
330
47
100
AcDbScale
 70
     0
300
1:1
140
1.0
141
1.0
290
     1
  0
SCALE
  5
49
102
{ACAD_REACTORS
330
47
102
}
330
47
100
AcDbScale
 70
     0
300
1:2
140
1.0
141
2.0
290
     0
  0
SCALE
  5
4A
102
{ACAD_REACTORS
330
47
102
}
330
47
100
AcDbScale
 70
     0
300
1:4
140
1.0
141
4.0
290
     0
  0
SCALE
  5
4B
102
{ACAD_REACTORS
330
47
102
}
330
47
100
AcDbScale
 70
     0
300
1:5
140
1.0
141
5.0
290
     0
  0
SCALE
  5
4C
102
{ACAD_REACTORS
330
47
102
}
330
47
100
AcDbScale
 70
     0
300
1:8
140
1.0
141
8.0
290
     0
  0
SCALE
  5
4D
102
{ACAD_REACTORS
330
47
102
}
330
47
100
AcDbScale
 70
     0
300
1:10
140
1.0
141
10.0
290
     0
  0
SCALE
  5
4E
102
{ACAD_REACTORS
330
47
102
}
330
47
100
AcDbScale
 70
     0
300
1:16
140
1.0
141
16.0
290
     0
  0
SCALE
  5
4F
102
{ACAD_REACTORS
330
47
102
}
330
47
100
AcDbScale
 70
     0
300
1:20
140
1.0
141
20.0
290
     0
  0
SCALE
  5
50
102
{ACAD_REACTORS
330
47
102
}
330
47
100
AcDbScale
 70
     0
300
1:30
140
1.0
141
30.0
290
     0
  0
SCALE
  5
51
102
{ACAD_REACTORS
330
47
102
}
330
47
100
AcDbScale
 70
     0
300
1:40
140
1.0
141
40.0
290
     0
  0
SCALE
  5
52
102
{ACAD_REACTORS
330
47
102
}
330
47
100
AcDbScale
 70
     0
300
1:50
140
1.0
141
50.0
290
     0
  0
SCALE
  5
53
102
{ACAD_REACTORS
330
47
102
}
330
47
100
AcDbScale
 70
     0
300
1:100
140
1.0
141
100.0
290
     0
  0
SCALE
  5
54
102
{ACAD_REACTORS
330
47
102
}
330
47
100
AcDbScale
 70
     0
300
2:1
140
2.0
141
1.0
290
     0
  0
SCALE
  5
55
102
{ACAD_REACTORS
330
47
102
}
330
47
100
AcDbScale
 70
     0
300
4:1
140
4.0
141
1.0
290
     0
  0
SCALE
  5
56
102
{ACAD_REACTORS
330
47
102
}
330
47
100
AcDbScale
 70
     0
300
8:1
140
8.0
141
1.0
290
     0
  0
SCALE
  5
57
102
{ACAD_REACTORS
330
47
102
}
330
47
100
AcDbScale
 70
     0
300
10:1
140
10.0
141
1.0
290
     0
  0
SCALE
  5
58
102
{ACAD_REACTORS
330
47
102
}
330
47
100
AcDbScale
 70
     0
300
100:1
140
100.0
141
1.0
290
     0
  0
SCALE
  5
59
102
{ACAD_REACTORS
330
47
102
}
330
47
100
AcDbScale
 70
     0
300
1/128" = 1'-0"
140
0.0078125
141
12.0
290
     0
  0
SCALE
  5
5A
102
{ACAD_REACTORS
330
47
102
}
330
47
100
AcDbScale
 70
     0
300
1/64" = 1'-0"
140
0.015625
141
12.0
290
     0
  0
SCALE
  5
5B
102
{ACAD_REACTORS
330
47
102
}
330
47
100
AcDbScale
 70
     0
300
1/32" = 1'-0"
140
0.03125
141
12.0
290
     0
  0
SCALE
  5
5C
102
{ACAD_REACTORS
330
47
102
}
330
47
100
AcDbScale
 70
     0
300
1/16" = 1'-0"
140
0.0625
141
12.0
290
     0
  0
SCALE
  5
5D
102
{ACAD_REACTORS
330
47
102
}
330
47
100
AcDbScale
 70
     0
300
3/32" = 1'-0"
140
0.09375
141
12.0
290
     0
  0
SCALE
  5
5E
102
{ACAD_REACTORS
330
47
102
}
330
47
100
AcDbScale
 70
     0
300
1/8" = 1'-0"
140
0.125
141
12.0
290
     0
  0
SCALE
  5
5F
102
{ACAD_REACTORS
330
47
102
}
330
47
100
AcDbScale
 70
     0
300
3/16" = 1'-0"
140
0.1875
141
12.0
290
     0
  0
SCALE
  5
60
102
{ACAD_REACTORS
330
47
102
}
330
47
100
AcDbScale
 70
     0
300
1/4" = 1'-0"
140
0.25
141
12.0
290
     0
  0
SCALE
  5
61
102
{ACAD_REACTORS
330
47
102
}
330
47
100
AcDbScale
 70
     0
300
3/8" = 1'-0"
140
0.375
141
12.0
290
     0
  0
SCALE
  5
62
102
{ACAD_REACTORS
330
47
102
}
330
47
100
AcDbScale
 70
     0
300
1/2" = 1'-0"
140
0.5
141
12.0
290
     0
  0
SCALE
  5
63
102
{ACAD_REACTORS
330
47
102
}
330
47
100
AcDbScale
 70
     0
300
3/4" = 1'-0"
140
0.75
141
12.0
290
     0
  0
SCALE
  5
64
102
{ACAD_REACTORS
330
47
102
}
330
47
100
AcDbScale
 70
     0
300
1" = 1'-0"
140
1.0
141
12.0
290
     0
  0
SCALE
  5
65
102
{ACAD_REACTORS
330
47
102
}
330
47
100
AcDbScale
 70
     0
300
1-1/2" = 1'-0"
140
1.5
141
12.0
290
     0
  0
SCALE
  5
66
102
{ACAD_REACTORS
330
47
102
}
330
47
100
AcDbScale
 70
     0
300
3" = 1'-0"
140
3.0
141
12.0
290
     0
  0
SCALE
  5
67
102
{ACAD_REACTORS
330
47
102
}
330
47
100
AcDbScale
 70
     0
300
6" = 1'-0"
140
6.0
141
12.0
290
     0
  0
SCALE
  5
68
102
{ACAD_REACTORS
330
47
102
}
330
47
100
AcDbScale
 70
     0
300
1'-0" = 1'-0"
140
12.0
141
12.0
290
     0
  0
ENDSEC
  0
EOF
