  0
SECTION
  2
HEADER
  9
$ACADVER
  1
AC1015
  9
$ACADMAINTVER
 70
     6
  9
$DWGCODEPAGE
  3
ANSI_1250
  9
$INSBASE
 10
0.0
 20
0.0
 30
0.0
  9
$EXTMIN
 10
0.0
 20
0.0
 30
0.0
  9
$EXTMAX
 10
20000.0
 20
10000.0
 30
0.0
  9
$LIMMIN
 10
0.0
 20
0.0
  9
$LIMMAX
 10
20000.0
 20
10000.0
  9
$ORTHOMODE
 70
     0
  9
$REGENMODE
 70
     1
  9
$FILLMODE
 70
     1
  9
$QTEXTMODE
 70
     0
  9
$MIRRTEXT
 70
     1
  9
$LTSCALE
 40
1.0
  9
$ATTMODE
 70
     1
  9
$TEXTSIZE
 40
2.0
  9
$TRACEWID
 40
1.0
  9
$TEXTSTYLE
  7
Standard
  9
$CLAYER
  8
0
  9
$CELTYPE
  6
ByLayer
  9
$CECOLOR
 62
   256
  9
$CELTSCALE
 40
1.0
  9
$DISPSILH
 70
     0
  9
$DIMSCALE
 40
1.0
  9
$DIMASZ
 40
2.0
  9
$DIMEXO
 40
1.0
  9
$DIMDLI
 40
3.75
  9
$DIMRND
 40
0.0
  9
$DIMDLE
 40
0.0
  9
$DIMEXE
 40
1.0
  9
$DIMTP
 40
0.0
  9
$DIMTM
 40
0.0
  9
$DIMTXT
 40
2.0
  9
$DIMCEN
 40
2.5
  9
$DIMTSZ
 40
0.0
  9
$DIMTOL
 70
     0
  9
$DIMLIM
 70
     0
  9
$DIMTIH
 70
     1
  9
$DIMTOH
 70
     1
  9
$DIMSE1
 70
     0
  9
$DIMSE2
 70
     0
  9
$DIMTAD
 70
     1
  9
$DIMZIN
 70
     0
  9
$DIMBLK
  1

  9
$DIMASO
 70
     1
  9
$DIMSHO
 70
     1
  9
$DIMPOST
  1

  9
$DIMAPOST
  1

  9
$DIMALT
 70
     0
  9
$DIMALTD
 70
     3
  9
$DIMALTF
 40
0.0393700787
  9
$DIMLFAC
 40
1.0
  9
$DIMTOFL
 70
     1
  9
$DIMTVP
 40
0.0
  9
$DIMTIX
 70
     0
  9
$DIMSOXD
 70
     0
  9
$DIMSAH
 70
     0
  9
$DIMBLK1
  1

  9
$DIMBLK2
  1

  9
$DIMSTYLE
  2
ISO-25
  9
$DIMCLRD
 70
     0
  9
$DIMCLRE
 70
     0
  9
$DIMCLRT
 70
     0
  9
$DIMTFAC
 40
1.0
  9
$DIMGAP
 40
1.524
  9
$DIMJUST
 70
     0
  9
$DIMSD1
 70
     0
  9
$DIMSD2
 70
     0
  9
$DIMTOLJ
 70
     0
  9
$DIMTZIN
 70
     0
  9
$DIMALTZ
 70
     0
  9
$DIMALTTZ
 70
     0
  9
$DIMUPT
 70
     0
  9
$DIMDEC
 70
     2
  9
$DIMTDEC
 70
     0
  9
$DIMALTU
 70
     2
  9
$DIMALTTD
 70
     3
  9
$DIMTXSTY
  7
Standard
  9
$DIMAUNIT
 70
     0
  9
$DIMADEC
 70
     2
  9
$DIMALTRND
 40
0.0
  9
$DIMAZIN
 70
     0
  9
$DIMDSEP
 70
    44
  9
$DIMATFIT
 70
     3
  9
$DIMFRAC
 70
     0
  9
$DIMLDRBLK
  1

  9
$DIMLUNIT
 70
     2
  9
$DIMLWD
 70
    -2
  9
$DIMLWE
 70
    -2
  9
$DIMTMOVE
 70
     0
  9
$LUNITS
 70
     2
  9
$LUPREC
 70
     3
  9
$SKETCHINC
 40
1.0
  9
$FILLETRAD
 40
10.0
  9
$AUNITS
 70
     0
  9
$AUPREC
 70
     2
  9
$MENU
  1
.
  9
$ELEVATION
 40
0.0
  9
$PELEVATION
 40
0.0
  9
$THICKNESS
 40
0.0
  9
$LIMCHECK
 70
     0
  9
$CHAMFERA
 40
0.0
  9
$CHAMFERB
 40
0.0
  9
$CHAMFERC
 40
0.0
  9
$CHAMFERD
 40
0.0
  9
$SKPOLY
 70
     0
  9
$TDCREATE
 40
2458673.552395984
  9
$TDUCREATE
 40
2458673.469062651
  9
$TDUPDATE
 40
2458673.552396157
  9
$TDUUPDATE
 40
2458673.469062824
  9
$TDINDWG
 40
0.0000000116
  9
$TDUSRTIMER
 40
0.0000000116
  9
$USRTIMER
 70
     1
  9
$ANGBASE
 50
0.0
  9
$ANGDIR
 70
     0
  9
$PDMODE
 70
     0
  9
$PDSIZE
 40
-1.0
  9
$PLINEWID
 40
0.0
  9
$SPLFRAME
 70
     0
  9
$SPLINETYPE
 70
     6
  9
$SPLINESEGS
 70
     8
  9
$HANDSEED
  5
23C
  9
$SURFTAB1
 70
     6
  9
$SURFTAB2
 70
     6
  9
$SURFTYPE
 70
     6
  9
$SURFU
 70
     6
  9
$SURFV
 70
     6
  9
$UCSBASE
  2

  9
$UCSNAME
  2

  9
$UCSORG
 10
0.0
 20
0.0
 30
0.0
  9
$UCSXDIR
 10
1.0
 20
0.0
 30
0.0
  9
$UCSYDIR
 10
0.0
 20
1.0
 30
0.0
  9
$UCSORTHOREF
  2

  9
$UCSORTHOVIEW
 70
     0
  9
$UCSORGTOP
 10
0.0
 20
0.0
 30
0.0
  9
$UCSORGBOTTOM
 10
0.0
 20
0.0
 30
0.0
  9
$UCSORGLEFT
 10
0.0
 20
0.0
 30
0.0
  9
$UCSORGRIGHT
 10
0.0
 20
0.0
 30
0.0
  9
$UCSORGFRONT
 10
0.0
 20
0.0
 30
0.0
  9
$UCSORGBACK
 10
0.0
 20
0.0
 30
0.0
  9
$PUCSBASE
  2

  9
$PUCSNAME
  2

  9
$PUCSORG
 10
0.0
 20
0.0
 30
0.0
  9
$PUCSXDIR
 10
1.0
 20
0.0
 30
0.0
  9
$PUCSYDIR
 10
0.0
 20
1.0
 30
0.0
  9
$PUCSORTHOREF
  2

  9
$PUCSORTHOVIEW
 70
     0
  9
$PUCSORGTOP
 10
0.0
 20
0.0
 30
0.0
  9
$PUCSORGBOTTOM
 10
0.0
 20
0.0
 30
0.0
  9
$PUCSORGLEFT
 10
0.0
 20
0.0
 30
0.0
  9
$PUCSORGRIGHT
 10
0.0
 20
0.0
 30
0.0
  9
$PUCSORGFRONT
 10
0.0
 20
0.0
 30
0.0
  9
$PUCSORGBACK
 10
0.0
 20
0.0
 30
0.0
  9
$USERI1
 70
     0
  9
$USERI2
 70
     0
  9
$USERI3
 70
     0
  9
$USERI4
 70
     0
  9
$USERI5
 70
     0
  9
$USERR1
 40
0.0
  9
$USERR2
 40
0.0
  9
$USERR3
 40
0.0
  9
$USERR4
 40
0.0
  9
$USERR5
 40
0.0
  9
$WORLDVIEW
 70
     1
  9
$SHADEDGE
 70
     3
  9
$SHADEDIF
 70
    70
  9
$TILEMODE
 70
     1
  9
$MAXACTVP
 70
    64
  9
$PINSBASE
 10
0.0
 20
0.0
 30
0.0
  9
$PLIMCHECK
 70
     0
  9
$PEXTMIN
 10
1.0000000000E+20
 20
1.0000000000E+20
 30
1.0000000000E+20
  9
$PEXTMAX
 10
-1.0000000000E+20
 20
-1.0000000000E+20
 30
-1.0000000000E+20
  9
$PLIMMIN
 10
0.0
 20
0.0
  9
$PLIMMAX
 10
420.0
 20
297.0
  9
$UNITMODE
 70
     0
  9
$VISRETAIN
 70
     1
  9
$PLINEGEN
 70
     0
  9
$PSLTSCALE
 70
     1
  9
$TREEDEPTH
 70
  3020
  9
$CMLSTYLE
  2
Standard
  9
$CMLJUST
 70
     0
  9
$CMLSCALE
 40
20.0
  9
$PROXYGRAPHICS
 70
     1
  9
$MEASUREMENT
 70
     1
  9
$CELWEIGHT
370
    -1
  9
$ENDCAPS
280
     0
  9
$JOINSTYLE
280
     0
  9
$LWDISPLAY
290
     1
  9
$INSUNITS
 70
     4
  9
$HYPERLINKBASE
  1

  9
$STYLESHEET
  1

  9
$XEDIT
290
     1
  9
$CEPSNTYPE
380
     0
  9
$PSTYLEMODE
290
     1
  9
$FINGERPRINTGUID
  2
{E70197B6-1F14-41A5-A89F-4D3F2A167143}
  9
$VERSIONGUID
  2
{FAEB1C32-E019-11D5-929B-00C0DF256EC4}
  9
$EXTNAMES
290
     1
  9
$PSVPSCALE
 40
0.0
  9
$OLESTARTUP
290
     0
  0
ENDSEC
  0
SECTION
  2
CLASSES
  0
CLASS
  1
ACDBDICTIONARYWDFLT
  2
AcDbDictionaryWithDefault
  3
ObjectDBX Classes
 90
        0
280
     0
281
     0
  0
CLASS
  1
VISUALSTYLE
  2
AcDbVisualStyle
  3
ObjectDBX Classes
 90
     4095
280
     0
281
     0
  0
CLASS
  1
MATERIAL
  2
AcDbMaterial
  3
ObjectDBX Classes
 90
     1153
280
     0
281
     0
  0
CLASS
  1
SCALE
  2
AcDbScale
  3
ObjectDBX Classes
 90
     1153
280
     0
281
     0
  0
CLASS
  1
TABLESTYLE
  2
AcDbTableStyle
  3
ObjectDBX Classes
 90
     4095
280
     0
281
     0
  0
CLASS
  1
MLEADERSTYLE
  2
AcDbMLeaderStyle
  3
ACDB_MLEADERSTYLE_CLASS
 90
     4095
280
     0
281
     0
  0
CLASS
  1
SUN
  2
AcDbSun
  3
SCENEOE
 90
     1153
280
     0
281
     0
  0
CLASS
  1
ACDBPLACEHOLDER
  2
AcDbPlaceHolder
  3
ObjectDBX Classes
 90
        0
280
     0
281
     0
  0
CLASS
  1
LAYOUT
  2
AcDbLayout
  3
ObjectDBX Classes
 90
        0
280
     0
281
     0
  0
ENDSEC
  0
SECTION
  2
TABLES
  0
TABLE
  2
VPORT
  5
8
330
0
100
AcDbSymbolTable
 70
     1
  0
VPORT
  5
29
330
8
100
AcDbSymbolTableRecord
100
AcDbViewportTableRecord
  2
*Active
 70
     0
 10
0.0
 20
0.0
 11
1.0
 21
1.0
 12
10000.0
 22
5000.0
 13
0.0
 23
0.0
 14
10.0
 24
10.0
 15
10.0
 25
10.0
 16
0.0
 26
0.0
 36
1.0
 17
0.0
 27
0.0
 37
0.0
 40
10000.0
 41
2.0
 42
50.0
 43
0.0
 44
0.0
 50
0.0
 51
0.0
 71
     0
 72
  2000
 73
     1
 74
     3
 75
     0
 76
     0
 77
     0
 78
     0
281
     0
 65
     1
110
0.0
120
0.0
130
0.0
111
1.0
121
0.0
131
0.0
112
0.0
122
1.0
132
0.0
 79
     0
146
0.0
  0
ENDTAB
  0
TABLE
  2
LTYPE
  5
5
330
0
100
AcDbSymbolTable
 70
     6
  0
LTYPE
  5
14
330
5
100
AcDbSymbolTableRecord
100
AcDbLinetypeTableRecord
  2
ByBlock
 70
     0
  3

 72
    65
 73
     0
 40
0.0
  0
LTYPE
  5
15
330
5
100
AcDbSymbolTableRecord
100
AcDbLinetypeTableRecord
  2
ByLayer
 70
     0
  3

 72
    65
 73
     0
 40
0.0
  0
LTYPE
  5
16
330
5
100
AcDbSymbolTableRecord
100
AcDbLinetypeTableRecord
  2
Continuous
 70
     0
  3
Solid line
 72
    65
 73
     0
 40
0.0
  0
LTYPE
  5
6E
330
5
100
AcDbSymbolTableRecord
100
AcDbLinetypeTableRecord
  2
HIDDEN
 70
     0
  3
Hidden __ __ __ __ __ __ __ __ __ __ __ __ __ __
 72
    65
 73
     2
 40
1.905
 49
1.27
 74
     0
 49
-0.635
 74
     0
  0
LTYPE
  5
6F
330
5
100
AcDbSymbolTableRecord
100
AcDbLinetypeTableRecord
  2
PHANTOM
 70
     0
  3
Phantom ______  __  __  ______  __  __  ______
 72
    65
 73
     6
 40
12.7
 49
6.35
 74
     0
 49
-1.27
 74
     0
 49
1.27
 74
     0
 49
-1.27
 74
     0
 49
1.27
 74
     0
 49
-1.27
 74
     0
  0
LTYPE
  5
70
330
5
100
AcDbSymbolTableRecord
100
AcDbLinetypeTableRecord
  2
CENTER
 70
     0
  3
Center ____ _ ____ _ ____ _ ____ _ ____ _ ____
 72
    65
 73
     4
 40
10.16
 49
6.35
 74
     0
 49
-1.27
 74
     0
 49
1.27
 74
     0
 49
-1.27
 74
     0
  0
LTYPE
  5
71
330
5
100
AcDbSymbolTableRecord
100
AcDbLinetypeTableRecord
  2
CENTERX2
 70
     0
  3
Center (2x) ________  __  ________  __  _____
 72
    65
 73
     4
 40
20.32
 49
12.7
 74
     0
 49
-2.54
 74
     0
 49
2.54
 74
     0
 49
-2.54
 74
     0
  0
LTYPE
  5
72
330
5
100
AcDbSymbolTableRecord
100
AcDbLinetypeTableRecord
  2
DOT2
 70
     0
  3
Dot (.5x) ........................................
 72
    65
 73
     2
 40
0.635
 49
0.0
 74
     0
 49
-0.635
 74
     0
  0
ENDTAB
  0
TABLE
  2
LAYER
  5
2
330
0
100
AcDbSymbolTable
 70
    13
  0
LAYER
  5
10
330
2
100
AcDbSymbolTableRecord
100
AcDbLayerTableRecord
  2
0
 70
     0
 62
     7
  6
Continuous
370
    -3
390
F
  0
LAYER
  5
73
330
2
100
AcDbSymbolTableRecord
100
AcDbLayerTableRecord
  2
FORMAT
 70
     0
 62
     7
  6
Continuous
370
    -3
390
F
  0
LAYER
  5
74
330
2
100
AcDbSymbolTableRecord
100
AcDbLayerTableRecord
  2
OSA
 70
     0
 62
     7
  6
CENTER
370
    -3
390
F
  0
LAYER
  5
75
330
2
100
AcDbSymbolTableRecord
100
AcDbLayerTableRecord
  2
0_35
 70
     0
 62
     7
  6
Continuous
370
    35
390
F
  0
LAYER
  5
76
330
2
100
AcDbSymbolTableRecord
100
AcDbLayerTableRecord
  2
0_5
 70
     0
 62
     7
  6
Continuous
370
    50
390
F
  0
LAYER
  5
77
330
2
100
AcDbSymbolTableRecord
100
AcDbLayerTableRecord
  2
0_25
 70
     0
 62
     7
  6
Continuous
370
    25
390
F
  0
LAYER
  5
78
330
2
100
AcDbSymbolTableRecord
100
AcDbLayerTableRecord
  2
0_18
 70
     0
 62
     7
  6
Continuous
370
    -3
390
F
  0
LAYER
  5
79
330
2
100
AcDbSymbolTableRecord
100
AcDbLayerTableRecord
  2
SLD-0
 70
     0
 62
   179
  6
Continuous
370
    -3
390
F
  0
LAYER
  5
7A
330
2
100
AcDbSymbolTableRecord
100
AcDbLayerTableRecord
  2
KOTY
 70
     0
 62
     7
  6
Continuous
370
    -3
390
F
  0
LAYER
  5
7B
330
2
100
AcDbSymbolTableRecord
100
AcDbLayerTableRecord
  2
SILNA
 70
     0
 62
   179
  6
Continuous
370
    -3
390
F
  0
LAYER
  5
7C
330
2
100
AcDbSymbolTableRecord
100
AcDbLayerTableRecord
  2
0_18_1
 70
     0
 62
   179
  6
Continuous
370
    -3
390
F
  0
LAYER
  5
7D
330
2
100
AcDbSymbolTableRecord
100
AcDbLayerTableRecord
  2
0_35_1
 70
     0
 62
   179
  6
Continuous
370
    35
390
F
  0
LAYER
  5
7E
330
2
100
AcDbSymbolTableRecord
100
AcDbLayerTableRecord
  2
0_5_1
 70
     0
 62
   179
  6
Continuous
370
    50
390
F
  0
ENDTAB
  0
TABLE
  2
STYLE
  5
3
330
0
100
AcDbSymbolTable
 70
     1
  0
STYLE
  5
11
330
3
100
AcDbSymbolTableRecord
100
AcDbTextStyleTableRecord
  2
Standard
 70
     0
 40
0.0
 41
1.0
 50
0.0
 71
     0
 42
2.0
  3
txt
  4

  0
ENDTAB
  0
TABLE
  2
VIEW
  5
6
330
0
100
AcDbSymbolTable
 70
     0
  0
ENDTAB
  0
TABLE
  2
UCS
  5
7
330
0
100
AcDbSymbolTable
 70
     0
  0
ENDTAB
  0
TABLE
  2
APPID
  5
9
330
0
100
AcDbSymbolTable
 70
     1
  0
APPID
  5
12
330
9
100
AcDbSymbolTableRecord
100
AcDbRegAppTableRecord
  2
ACAD
 70
     0
  0
ENDTAB
  0
TABLE
  2
DIMSTYLE
  5
A
330
0
100
AcDbSymbolTable
 70
     1
100
AcDbDimStyleTable
  0
DIMSTYLE
105
27
330
A
100
AcDbSymbolTableRecord
100
AcDbDimStyleTableRecord
  2
ISO-25
 70
     0
 41
2.5
 42
0.625
 43
3.75
 44
1.25
 73
     0
 74
     0
 77
     1
 78
     8
140
2.5
141
2.5
143
0.0393700787
147
0.625
171
     3
172
     1
178
     0
271
     2
272
     2
274
     3
278
    44
283
     0
284
     8
340
11
  0
ENDTAB
  0
TABLE
  2
BLOCK_RECORD
  5
1
330
0
100
AcDbSymbolTable
 70
     1
  0
BLOCK_RECORD
  5
1F
330
1
100
AcDbSymbolTableRecord
100
AcDbBlockTableRecord
  2
*Model_Space
340
22
  0
BLOCK_RECORD
  5
1B
330
1
100
AcDbSymbolTableRecord
100
AcDbBlockTableRecord
  2
*Paper_Space
340
1E
  0
BLOCK_RECORD
  5
23
330
1
100
AcDbSymbolTableRecord
100
AcDbBlockTableRecord
  2
*Paper_Space0
340
26
  0
ENDTAB
  0
ENDSEC
  0
SECTION
  2
BLOCKS
  0
BLOCK
  5
20
330
1F
100
AcDbEntity
  8
0
100
AcDbBlockBegin
  2
*Model_Space
 70
     0
 10
0.0
 20
0.0
 30
0.0
  3
*Model_Space
  1

  0
ENDBLK
  5
21
330
1F
100
AcDbEntity
  8
0
100
AcDbBlockEnd
  0
BLOCK
  5
1C
330
1B
100
AcDbEntity
 67
     1
  8
0
100
AcDbBlockBegin
  2
*Paper_Space
 70
     0
 10
0.0
 20
0.0
 30
0.0
  3
*Paper_Space
  1

  0
ENDBLK
  5
1D
330
1B
100
AcDbEntity
 67
     1
  8
0
100
AcDbBlockEnd
  0
BLOCK
  5
24
330
23
100
AcDbEntity
  8
0
100
AcDbBlockBegin
  2
*Paper_Space0
 70
     0
 10
0.0
 20
0.0
 30
0.0
  3
*Paper_Space0
  1

  0
ENDBLK
  5
25
330
23
100
AcDbEntity
  8
0
100
AcDbBlockEnd
  0
ENDSEC
  0
SECTION
  2
ENTITIES
  0
LINE
  5
7F
330
1F
100
AcDbEntity
  8
0
  6
Continuous
 62
     7
370
    25
100
AcDbLine
 10
6163.1594152236
 20
5245.1467057843
 30
0.0
 11
6147.759415307
 21
5245.1467057843
 31
0.0
  0
LINE
  5
80
330
1F
100
AcDbEntity
  8
0
  6
Continuous
 62
     7
370
    25
100
AcDbLine
 10
6147.759415307
 20
5199.1467056949
 30
0.0
 11
6163.1594152236
 21
5199.1467056949
 31
0.0
  0
ARC
  5
81
330
1F
100
AcDbEntity
  8
0
  6
Continuous
 62
     7
370
    25
100
AcDbCircle
 10
6147.7594157242
 20
5240.1467057396
 30
0.0
 40
5.0
100
AcDbArc
 50
90.0
 51
180.0
  0
ARC
  5
82
330
1F
100
AcDbEntity
  8
0
  6
Continuous
 62
     7
370
    25
100
AcDbCircle
 10
6147.7594157242
 20
5204.1467057396
 30
0.0
 40
5.0
100
AcDbArc
 50
180.0
 51
270.0
  0
LINE
  5
83
330
1F
100
AcDbEntity
  8
0
  6
Continuous
 62
     7
370
    25
100
AcDbLine
 10
6163.2594169163
 20
5242.1467052925
 30
0.0
 11
6163.1594152236
 21
5242.1467052925
 31
0.0
  0
LINE
  5
84
330
1F
100
AcDbEntity
  8
0
  6
Continuous
 62
     7
370
    25
100
AcDbLine
 10
6163.1594152236
 20
5202.1467061866
 30
0.0
 11
6163.2594169163
 21
5202.1467061866
 31
0.0
  0
LINE
  5
85
330
1F
100
AcDbEntity
  8
0
  6
Continuous
 62
     7
370
    25
100
AcDbLine
 10
6338.6300728702
 20
5245.496706121
 30
0.0
 11
6338.6300728702
 21
5245.4979559559
 31
0.0
  0
LINE
  5
86
330
1F
100
AcDbEntity
  8
0
  6
Continuous
 62
     7
370
    25
100
AcDbLine
 10
6163.2594169163
 20
5217.5020957518
 30
0.0
 11
6163.1594152236
 21
5217.3930858415
 31
0.0
  0
LINE
  5
87
330
1F
100
AcDbEntity
  8
0
  6
Continuous
 62
     7
370
    25
100
AcDbLine
 10
6270.7594159105
 20
5166.896705531
 30
0.0
 11
6270.7594159105
 21
5181.896706127
 31
0.0
  0
LINE
  5
88
330
1F
100
AcDbEntity
  8
0
  6
Continuous
 62
     7
370
    25
100
AcDbLine
 10
6245.759415538
 20
5181.896706127
 30
0.0
 11
6245.759415538
 21
5166.896705531
 31
0.0
  0
LINE
  5
89
330
1F
100
AcDbEntity
  8
0
  6
Continuous
 62
     7
370
    25
100
AcDbLine
 10
6248.2594159478
 20
5166.896705531
 30
0.0
 11
6248.2594159478
 21
5161.896706574
 31
0.0
  0
LINE
  5
8A
330
1F
100
AcDbEntity
  8
0
  6
Continuous
 62
     7
370
    25
100
AcDbLine
 10
6268.2594155007
 20
5161.896706574
 30
0.0
 11
6268.2594155007
 21
5166.896705531
 31
0.0
  0
LINE
  5
8B
330
1F
100
AcDbEntity
  8
0
  6
Continuous
 62
     7
370
    25
100
AcDbLine
 10
6270.7594159105
 20
5183.8967064548
 30
0.0
 11
6270.7594159105
 21
5198.8967051882
 31
0.0
  0
LINE
  5
8C
330
1F
100
AcDbEntity
  8
0
  6
Continuous
 62
     7
370
    25
100
AcDbLine
 10
6245.759415538
 20
5198.8967051882
 30
0.0
 11
6245.759415538
 21
5183.8967064548
 31
0.0
  0
ARC
  5
8D
330
1F
100
AcDbEntity
  8
0
  6
Continuous
 62
     7
370
    25
100
AcDbCircle
 10
6403.5115750435
 20
5229.6945464203
 30
0.0
 40
0.7521593192820855
100
AcDbArc
 50
15.3083338787
 51
70.7612320047
  0
ARC
  5
8E
330
1F
100
AcDbEntity
  8
0
  6
Continuous
 62
     7
370
    25
100
AcDbCircle
 10
6403.5115750435
 20
5214.5988650589
 30
0.0
 40
0.7521593192820428
100
AcDbArc
 50
289.2387679954
 51
344.6916661213
  0
ARC
  5
8F
330
1F
100
AcDbEntity
  8
0
  6
Continuous
 62
     7
370
    25
100
AcDbCircle
 10
6375.9370752242
 20
5222.1467057396
 30
0.0
 40
29.34101972379746
100
AcDbArc
 50
344.6916661213
 51
15.3083338787
  0
ARC
  5
90
330
1F
100
AcDbEntity
  8
0
  6
Continuous
 62
     7
370
    25
100
AcDbCircle
 10
6369.7594157242
 20
5344.1467057396
 30
0.0
 40
145.0000000000011
100
AcDbArc
 50
270.0
 51
280.9400051668
  0
LWPOLYLINE
  5
91
330
1F
100
AcDbEntity
  8
0
  6
Continuous
 62
     7
370
    25
100
AcDbPolyline
 90
        3
 70
   128
 43
0.0
 10
6397.2776682162
 20
5242.5115397353
 10
6393.8722760462
 20
5243.1277195145
 10
6390.7594085717
 20
5243.6179565419
  0
LWPOLYLINE
  5
92
330
1F
100
AcDbEntity
  8
0
  6
Continuous
 62
     7
370
    25
100
AcDbPolyline
 90
        3
 70
   128
 43
0.0
 10
6376.073144474
 20
5245.009181105
 10
6373.2198552274
 20
5245.105407216
 10
6369.759418168
 20
5245.1467057843
  0
ARC
  5
93
330
1F
100
AcDbEntity
  8
0
  6
Continuous
 62
     7
370
    25
100
AcDbCircle
 10
6354.2594157242
 20
5199.5467057396
 30
0.0
 40
0.5000000000009095
100
AcDbArc
 50
180.0
 51
270.0
  0
ARC
  5
94
330
1F
100
AcDbEntity
  8
0
  6
Continuous
 62
     7
370
    25
100
AcDbCircle
 10
6354.2594157242
 20
5244.7467057396
 30
0.0
 40
0.5000000000009095
100
AcDbArc
 50
90.0
 51
180.0
  0
LINE
  5
95
330
1F
100
AcDbEntity
  8
0
  6
Continuous
 62
     7
370
    25
100
AcDbLine
 10
6364.7594154858
 20
5245.2467056144
 30
0.0
 11
6354.2594165587
 21
5245.2467056144
 31
0.0
  0
LINE
  5
96
330
1F
100
AcDbEntity
  8
0
  6
Continuous
 62
     7
370
    25
100
AcDbLine
 10
6354.2594165587
 20
5199.0467058647
 30
0.0
 11
6364.7594154858
 21
5199.0467058647
 31
0.0
  0
LINE
  5
97
330
1F
100
AcDbEntity
  8
0
  6
Continuous
 62
     7
370
    25
100
AcDbLine
 10
6369.759418168
 20
5245.1467057843
 30
0.0
 11
6364.7594154858
 21
5245.1467057843
 31
0.0
  0
LINE
  5
98
330
1F
100
AcDbEntity
  8
0
  6
Continuous
 62
     7
370
    25
100
AcDbLine
 10
6364.7594154858
 20
5199.1467056949
 30
0.0
 11
6369.759418168
 21
5199.1467056949
 31
0.0
  0
ARC
  5
99
330
1F
100
AcDbEntity
  8
0
  6
Continuous
 62
     7
370
    25
100
AcDbCircle
 10
6395.7594157242
 20
5234.6569283994
 30
0.0
 40
8.0
100
AcDbArc
 50
0.0
 51
79.0599948332
  0
ARC
  5
9A
330
1F
100
AcDbEntity
  8
0
  6
Continuous
 62
     7
370
    25
100
AcDbCircle
 10
6395.7594157242
 20
5209.6364830797
 30
0.0
 40
8.0
100
AcDbArc
 50
280.9400051668
 51
0.0
  0
SPLINE
  5
9B
330
1F
100
AcDbEntity
  8
0
  6
Continuous
 62
     7
370
    25
100
AcDbSpline
210
0.0
220
0.0
230
1.0
 70
     8
 71
     3
 72
    14
 73
    10
 74
     0
 42
0.000000001
 43
0.00000001
 40
0.0
 40
0.0
 40
0.0
 40
0.0
 40
0.0124071921984196
 40
0.1573206672631182
 40
0.2976824200029892
 40
0.4554889871618563
 40
0.6402613990691123
 40
0.8355411681113311
 40
1.0
 40
1.0
 40
1.0
 40
1.0
 10
6390.751004316766
 20
5244.50218399652
 30
0.0
 10
6390.753715288722
 20
5244.517524198654
 30
0.0
 10
6390.788089860366
 20
5244.712034833875
 30
0.0
 10
6390.654617992871
 20
5245.082284015099
 30
0.0
 10
6390.383243881604
 20
5245.538032595837
 30
0.0
 10
6389.94238216813
 20
5245.939935490129
 30
0.0
 10
6389.335480941828
 20
5246.285595614286
 30
0.0
 10
6388.609481364905
 20
5246.543192900042
 30
0.0
 10
6388.091252399747
 20
5246.606468098714
 30
0.0
 10
6387.854337789971
 20
5246.635395117483
 30
0.0
  0
SPLINE
  5
9C
330
1F
100
AcDbEntity
  8
0
  6
Continuous
 62
     7
370
    25
100
AcDbSpline
210
0.0
220
0.0
230
1.0
 70
     8
 71
     3
 72
    13
 73
     9
 74
     0
 42
0.000000001
 43
0.00000001
 40
0.0
 40
0.0
 40
0.0
 40
0.0
 40
0.1007088084106551
 40
0.2966730296313328
 40
0.4970648825362446
 40
0.7104260050342648
 40
0.8654825321995255
 40
1.0
 40
1.0
 40
1.0
 40
1.0
 10
6378.593973913152
 20
5246.293826975308
 30
0.0
 10
6378.451106443834
 20
5246.273027182595
 30
0.0
 10
6378.030240328675
 20
5246.21175411605
 30
0.0
 10
6377.359114362049
 20
5245.959366133837
 30
0.0
 10
6376.642727626618
 20
5245.561001873076
 30
0.0
 10
6376.133679561459
 20
5245.081994482526
 30
0.0
 10
6375.815424602852
 20
5244.553608327567
 30
0.0
 10
6375.781703602128
 20
5244.193184502918
 30
0.0
 10
6375.766038992364
 20
5244.025754757605
 30
0.0
  0
SPLINE
  5
9D
330
1F
100
AcDbEntity
  8
0
  6
Continuous
 62
     7
370
    25
100
AcDbSpline
210
0.0
220
0.0
230
1.0
 70
     8
 71
     3
 72
    11
 73
     7
 74
     0
 42
0.000000001
 43
0.00000001
 40
0.0
 40
0.0
 40
0.0
 40
0.0
 40
0.1574001815603377
 40
0.4533196039918202
 40
0.7493180504987311
 40
1.0
 40
1.0
 40
1.0
 40
1.0
 10
6387.854307987649
 20
5246.644516490779
 30
0.0
 10
6387.368381564273
 20
5246.684810988493
 30
0.0
 10
6385.968891604154
 20
5246.800860954677
 30
0.0
 10
6383.643113272103
 20
5246.826028606473
 30
0.0
 10
6381.032387190627
 20
5246.675474108758
 30
0.0
 10
6379.359920156163
 20
5246.426050605699
 30
0.0
 10
6378.593005337674
 20
5246.311676703773
 30
0.0
  0
LINE
  5
9E
330
1F
100
AcDbEntity
  8
0
  6
Continuous
 62
     7
370
    25
100
AcDbLine
 10
6353.2594145321
 20
5204.6467056651
 30
0.0
 11
6353.7594155454
 21
5204.6467056651
 31
0.0
  0
LINE
  5
9F
330
1F
100
AcDbEntity
  8
0
  6
Continuous
 62
     7
370
    25
100
AcDbLine
 10
6353.7594155454
 20
5239.6467058141
 30
0.0
 11
6353.2594145321
 21
5239.6467058141
 31
0.0
  0
LINE
  5
A0
330
1F
100
AcDbEntity
  8
0
  6
Continuous
 62
     7
370
    25
100
AcDbLine
 10
6163.1594152236
 20
5245.1463500191
 30
0.0
 11
6163.1594152236
 21
5199.1467056949
 31
0.0
  0
LINE
  5
A1
330
1F
100
AcDbEntity
  8
0
  6
Continuous
 62
     7
370
    25
100
AcDbLine
 10
6142.7594126248
 20
5240.1464274306
 30
0.0
 11
6142.7594126248
 21
5204.1467065144
 31
0.0
  0
LINE
  5
A2
330
1F
100
AcDbEntity
  8
0
  6
Continuous
 62
     7
370
    25
100
AcDbLine
 10
6325.2594173932
 20
5245.496706121
 30
0.0
 11
6348.2594193005
 21
5245.496706121
 31
0.0
  0
LINE
  5
A3
330
1F
100
AcDbEntity
  8
0
  6
Continuous
 62
     7
370
    25
100
AcDbLine
 10
6325.2594173932
 20
5245.496706121
 30
0.0
 11
6325.2594173932
 21
5245.3967062909
 31
0.0
  0
LINE
  5
A4
330
1F
100
AcDbEntity
  8
0
  6
Continuous
 62
     7
370
    25
100
AcDbLine
 10
6348.2594193005
 20
5245.496706121
 30
0.0
 11
6348.2594193005
 21
5245.3967062909
 31
0.0
  0
SPLINE
  5
A5
330
1F
100
AcDbEntity
  8
0
  6
Continuous
 62
     7
370
    25
100
AcDbSpline
210
0.0
220
0.0
230
1.0
 70
    11
 71
     3
 72
    46
 73
    42
 74
     0
 42
0.000000001
 43
0.00000001
 40
0.0
 40
0.0
 40
0.0
 40
0.0
 40
0.0250263837298469
 40
0.0500587425835187
 40
0.0750195006648866
 40
0.0999894447974551
 40
0.1262897601200342
 40
0.1525909810533875
 40
0.1805394117837175
 40
0.2084705193426206
 40
0.2348673483484049
 40
0.2612569350442968
 40
0.2850949326135502
 40
0.3089422245264461
 40
0.3333350855558506
 40
0.3577358969874669
 40
0.3846897343824189
 40
0.4116392831244673
 40
0.4394884462550059
 40
0.4673227946332085
 40
0.4931123583186272
 40
0.5188999402786314
 40
0.5430669085259975
 40
0.5672415299004304
 40
0.592163620943057
 40
0.6170929978087966
 40
0.6441546854454032
 40
0.6712114988911388
 40
0.6990524250581758
 40
0.7268742459420657
 40
0.7522324546125371
 40
0.7775916406754476
 40
0.8012244697951246
 40
0.8248674600349225
 40
0.8500621400548929
 40
0.8752619123349403
 40
0.9028800926776104
 40
0.9304885233478428
 40
0.9578569658722274
 40
0.9852131221952486
 40
1.0
 40
1.0
 40
1.0
 40
1.0
 10
6219.259414919574
 20
5222.146705739579
 30
0.0
 10
6219.23172213179
 20
5222.731563907117
 30
0.0
 10
6219.176329944487
 20
5223.901419878827
 30
0.0
 10
6218.748332020135
 20
5225.602317801073
 30
0.0
 10
6218.079685693385
 20
5227.199856088882
 30
0.0
 10
6217.161770142205
 20
5228.687895008491
 30
0.0
 10
6216.004324201515
 20
5230.024492977622
 30
0.0
 10
6214.597293887326
 20
5231.202007320917
 30
0.0
 10
6212.968380749227
 20
5232.147312118551
 30
0.0
 10
6211.181778940615
 20
5232.809117524937
 30
0.0
 10
6209.324498515295
 20
5233.144296902896
 30
0.0
 10
6207.525038496554
 20
5233.170614475993
 30
0.0
 10
6205.812138639694
 20
5232.912152471465
 30
0.0
 10
6204.21312198227
 20
5232.421614887139
 30
0.0
 10
6202.710989388122
 20
5231.69245201587
 30
0.0
 10
6201.285818763454
 20
5230.714613194496
 30
0.0
 10
6199.99637372719
 20
5229.482670569474
 30
0.0
 10
6198.874800719459
 20
5227.98911678044
 30
0.0
 10
6198.011902298455
 20
5226.290906004915
 30
0.0
 10
6197.453361570446
 20
5224.478045986182
 30
0.0
 10
6197.222987035332
 20
5222.631599247306
 30
0.0
 10
6197.287561218828
 20
5220.855016897861
 30
0.0
 10
6197.630471105699
 20
5219.157826546103
 30
0.0
 10
6198.211657965563
 20
5217.561770067291
 30
0.0
 10
6199.036427043725
 20
5216.073711667076
 30
0.0
 10
6200.110885101402
 20
5214.685621099831
 30
0.0
 10
6201.429576042522
 20
5213.46015330015
 30
0.0
 10
6202.991964296667
 20
5212.427410826695
 30
0.0
 10
6204.742524704367
 20
5211.667327384302
 30
0.0
 10
6206.578983273387
 20
5211.221147434033
 30
0.0
 10
6208.417637028352
 20
5211.102367404159
 30
0.0
 10
6210.153324581415
 20
5211.264735917051
 30
0.0
 10
6211.789544833008
 20
5211.687170782546
 30
0.0
 10
6213.329266074451
 20
5212.335832264849
 30
0.0
 10
6214.769573475753
 20
5213.226036522762
 30
0.0
 10
6216.11950632198
 20
5214.380145774485
 30
0.0
 10
6217.297975266738
 20
5215.786466330448
 30
0.0
 10
6218.256762691116
 20
5217.424519259203
 30
0.0
 10
6218.913781535851
 20
5219.217207367264
 30
0.0
 10
6219.222043596467
 20
5220.817256855829
 30
0.0
 10
6219.249708156126
 20
5221.801396963852
 30
0.0
 10
6219.259414919574
 20
5222.146705739579
 30
0.0
  0
LINE
  5
A6
330
1F
100
AcDbEntity
  8
0
  6
Continuous
 62
     7
370
    25
100
AcDbLine
 10
6245.759415538
 20
5166.896705531
 30
0.0
 11
6270.7594159105
 21
5166.896705531
 31
0.0
  0
LINE
  5
A7
330
1F
100
AcDbEntity
  8
0
  6
Continuous
 62
     7
370
    25
100
AcDbLine
 10
6245.759415538
 20
5183.8967064548
 30
0.0
 11
6245.759415538
 21
5181.896706127
 31
0.0
  0
LINE
  5
A8
330
1F
100
AcDbEntity
  8
0
  6
Continuous
 62
     7
370
    25
100
AcDbLine
 10
6270.7594159105
 20
5183.8967064548
 30
0.0
 11
6245.759415538
 21
5183.8967064548
 31
0.0
  0
LINE
  5
A9
330
1F
100
AcDbEntity
  8
0
  6
Continuous
 62
     7
370
    25
100
AcDbLine
 10
6270.7594159105
 20
5183.8967064548
 30
0.0
 11
6270.7594159105
 21
5181.896706127
 31
0.0
  0
LINE
  5
AA
330
1F
100
AcDbEntity
  8
0
  6
Continuous
 62
     7
370
    25
100
AcDbLine
 10
6250.7594158919
 20
5188.8967054118
 30
0.0
 11
6265.7594155566
 21
5188.8967054118
 31
0.0
  0
ARC
  5
AB
330
1F
100
AcDbEntity
  8
0
  6
Continuous
 62
     7
370
    25
100
AcDbCircle
 10
6265.7594157242
 20
5183.8967057396
 30
0.0
 40
5.0
100
AcDbArc
 50
0.0
 51
90.0
  0
ARC
  5
AC
330
1F
100
AcDbEntity
  8
0
  6
Continuous
 62
     7
370
    25
100
AcDbCircle
 10
6250.7594157242
 20
5183.8967057396
 30
0.0
 40
5.0
100
AcDbArc
 50
90.0
 51
180.0
  0
LINE
  5
AD
330
1F
100
AcDbEntity
  8
0
  6
Continuous
 62
     7
370
    25
100
AcDbLine
 10
6268.2594155007
 20
5161.896706574
 30
0.0
 11
6248.2594159478
 21
5161.896706574
 31
0.0
  0
SPLINE
  5
AE
330
1F
100
AcDbEntity
  8
0
  6
Continuous
 62
     7
370
    25
100
AcDbSpline
210
0.0
220
0.0
230
1.0
 70
     8
 71
     3
 72
    12
 73
     8
 74
     0
 42
0.000000001
 43
0.00000001
 40
0.0
 40
0.0
 40
0.0
 40
0.0
 40
0.2149533225381026
 40
0.4298537241552478
 40
0.6459257030925484
 40
0.861527029169967
 40
1.0
 40
1.0
 40
1.0
 40
1.0
 10
6378.759414055306
 20
5240.895156763873
 30
0.0
 10
6378.421578559439
 20
5240.932534361837
 30
0.0
 10
6377.745990741882
 20
5241.007280355503
 30
0.0
 10
6376.847016315656
 20
5241.338467505259
 30
0.0
 10
6376.167414492946
 20
5241.77238279116
 30
0.0
 10
6375.809565648008
 20
5242.20761179416
 30
0.0
 10
6375.773514479552
 20
5242.464022692677
 30
0.0
 10
6375.759415426213
 20
5242.564301021776
 30
0.0
  0
SPLINE
  5
AF
330
1F
100
AcDbEntity
  8
0
  6
Continuous
 62
     7
370
    25
100
AcDbSpline
210
0.0
220
0.0
230
1.0
 70
     8
 71
     3
 72
     9
 73
     5
 74
     0
 42
0.000000001
 43
0.00000001
 40
0.0
 40
0.0
 40
0.0
 40
0.0
 40
0.4887436373162171
 40
1.0
 40
1.0
 40
1.0
 40
1.0
 10
6387.759417393167
 20
5240.136741675816
 30
0.0
 10
6386.296492291565
 20
5240.291437014366
 30
0.0
 10
6383.303256185959
 20
5240.607953336502
 30
0.0
 10
6380.296590842572
 20
5240.79799616078
 30
0.0
 10
6378.759414055306
 20
5240.895156763873
 30
0.0
  0
SPLINE
  5
B0
330
1F
100
AcDbEntity
  8
0
  6
Continuous
 62
     7
370
    25
100
AcDbSpline
210
0.0
220
0.0
230
1.0
 70
     8
 71
     3
 72
    12
 73
     8
 74
     0
 42
0.000000001
 43
0.00000001
 40
0.0
 40
0.0
 40
0.0
 40
0.0
 40
0.2142844088831392
 40
0.4285731353330801
 40
0.6427022447808862
 40
0.8563170291080452
 40
1.0
 40
1.0
 40
1.0
 40
1.0
 10
6390.759408571679
 20
5241.310675643764
 30
0.0
 10
6390.726266186907
 20
5241.158712928448
 30
0.0
 10
6390.659980749587
 20
5240.854784435956
 30
0.0
 10
6390.143090512215
 20
5240.457128118868
 30
0.0
 10
6389.383513111287
 20
5240.181877619578
 30
0.0
 10
6388.539908747478
 20
5240.077549069681
 30
0.0
 10
6387.983264959945
 20
5240.119765035675
 30
0.0
 10
6387.759417393167
 20
5240.136741675816
 30
0.0
  0
SPLINE
  5
B1
330
1F
100
AcDbEntity
  8
0
  6
Continuous
 62
     7
370
    25
100
AcDbSpline
210
0.0
220
0.0
230
1.0
 70
     8
 71
     3
 72
    27
 73
    23
 74
     0
 42
0.000000001
 43
0.00000001
 40
0.0
 40
0.0
 40
0.0
 40
0.0
 40
0.0739312295707529
 40
0.1479541354020905
 40
0.2217152990064214
 40
0.2638822766422447
 40
0.3060222122449386
 40
0.3485954213826133
 40
0.3910613045689881
 40
0.4367584472599478
 40
0.4599546990595859
 40
0.4831101103938944
 40
0.5225762744207134
 40
0.5570532768106482
 40
0.5824704585803184
 40
0.6079319973354936
 40
0.6477642395259045
 40
0.6876846791076876
 40
0.7597528604341048
 40
0.8319988941757125
 40
0.9159691656914705
 40
1.0
 40
1.0
 40
1.0
 40
1.0
 10
6397.277668216188
 20
5205.149651520333
 30
0.0
 10
6395.892298519574
 20
5204.971912896824
 30
0.0
 10
6393.119841239144
 20
5204.616215250219
 30
0.0
 10
6388.969025096236
 20
5204.44370668783
 30
0.0
 10
6385.456809635066
 20
5204.596920821577
 30
0.0
 10
6382.606837895131
 20
5204.980698894081
 30
0.0
 10
6380.389690505529
 20
5205.479572410311
 30
0.0
 10
6378.278872866716
 20
5206.210752404342
 30
0.0
 10
6376.308650847695
 20
5207.274017772424
 30
0.0
 10
6374.92192583987
 20
5208.531527300435
 30
0.0
 10
6374.144978492683
 20
5209.831571863944
 30
0.0
 10
6373.704967411966
 20
5211.186244212718
 30
0.0
 10
6373.758500161009
 20
5212.892261477045
 30
0.0
 10
6374.452553662452
 20
5214.573609395514
 30
0.0
 10
6375.361214422147
 20
5215.880933662307
 30
0.0
 10
6376.530797756847
 20
5217.134198645757
 30
0.0
 10
6378.105515380501
 20
5218.38514136587
 30
0.0
 10
6380.601294001925
 20
5219.865735627385
 30
0.0
 10
6383.863341708077
 20
5221.212473875387
 30
0.0
 10
6388.059922666524
 20
5222.306643391161
 30
0.0
 10
6392.55358930991
 20
5223.005463965032
 30
0.0
 10
6395.702596851722
 20
5223.13536118182
 30
0.0
 10
6397.277668216188
 20
5223.200333203568
 30
0.0
  0
LINE
  5
B2
330
1F
100
AcDbEntity
  8
0
  6
Continuous
 62
     7
370
    25
100
AcDbLine
 10
6353.7594155454
 20
5211.9548637573
 30
0.0
 11
6353.7594155454
 21
5244.7467064638
 31
0.0
  0
LINE
  5
B3
330
1F
100
AcDbEntity
  8
0
  6
Continuous
 62
     7
370
    25
100
AcDbLine
 10
6353.7594155454
 20
5199.5467050154
 30
0.0
 11
6353.7594155454
 21
5211.9548637573
 31
0.0
  0
LINE
  5
B4
330
1F
100
AcDbEntity
  8
0
  6
Continuous
 62
     7
370
    25
100
AcDbLine
 10
6364.7594154858
 20
5245.2467056144
 30
0.0
 11
6364.7594154858
 21
5199.0467058647
 31
0.0
  0
SPLINE
  5
B5
330
1F
100
AcDbEntity
  8
0
  6
Continuous
 62
     7
370
    25
100
AcDbSpline
210
0.0
220
0.0
230
1.0
 70
     8
 71
     3
 72
    20
 73
    16
 74
     0
 42
0.000000001
 43
0.00000001
 40
0.0
 40
0.0
 40
0.0
 40
0.0
 40
0.0755643168414109
 40
0.1510784631653817
 40
0.2274415710538612
 40
0.2845752155688553
 40
0.3418215928641548
 40
0.4209666381936987
 40
0.5002155310728355
 40
0.605751127176473
 40
0.7108114863656944
 40
0.8010035522862112
 40
0.8918563406042691
 40
0.9732969073222789
 40
0.9999999999999999
 40
0.9999999999999999
 40
0.9999999999999999
 40
0.9999999999999999
 10
6397.277668216188
 20
5223.200333203568
 30
0.0
 10
6397.935755195236
 20
5223.165748048685
 30
0.0
 10
6399.251492220063
 20
5223.096600701544
 30
0.0
 10
6400.893722746459
 20
5222.360706060102
 30
0.0
 10
6401.984306184897
 20
5221.327549940184
 30
0.0
 10
6402.641177012822
 20
5220.159484268611
 30
0.0
 10
6403.070780985416
 20
5218.84475698809
 30
0.0
 10
6403.31759984054
 20
5217.252913305007
 30
0.0
 10
6403.390662113562
 20
5215.190574195836
 30
0.0
 10
6403.289466712637
 20
5212.808309757068
 30
0.0
 10
6402.785976711697
 20
5210.262166451913
 30
0.0
 10
6401.730498919395
 20
5207.927156816244
 30
0.0
 10
6400.093866466392
 20
5206.170958376367
 30
0.0
 10
6398.455451410097
 20
5205.364754103926
 30
0.0
 10
6397.510899297378
 20
5205.192247312494
 30
0.0
 10
6397.277668216188
 20
5205.149651520333
 30
0.0
  0
LINE
  5
B6
330
1F
100
AcDbEntity
  8
0
  6
Continuous
 62
     7
370
    25
100
AcDbLine
 10
6403.7594200158
 20
5234.6569281224
 30
0.0
 11
6403.7594200158
 21
5209.6364833567
 31
0.0
  0
ARC
  5
B7
330
1F
100
AcDbEntity
  8
0
  6
Continuous
 62
     7
370
    25
100
AcDbCircle
 10
6384.4868273588
 20
5209.3012337355
 30
0.0
 40
35.59216131864435
100
AcDbArc
 50
84.5526658655
 51
99.563334042
  0
ARC
  5
B8
330
1F
100
AcDbEntity
  8
0
  6
Continuous
 62
     7
370
    25
100
AcDbCircle
 10
6373.2937363661
 20
5245.2154249125
 30
0.0
 40
14.57987650015148
100
AcDbArc
 50
352.824221516
 51
358.1024772237
  0
ARC
  5
B9
330
1F
100
AcDbEntity
  8
0
  6
Continuous
 62
     7
370
    25
100
AcDbCircle
 10
6384.486806099
 20
5209.0760213425
 30
0.0
 40
34.47386203744806
100
AcDbArc
 50
84.5526964604
 51
99.5633050011
  0
ARC
  5
BA
330
1F
100
AcDbEntity
  8
0
  6
Continuous
 62
     7
370
    25
100
AcDbCircle
 10
6386.8653629068
 20
5244.8818207123
 30
0.0
 40
8.305795995467077
100
AcDbArc
 50
183.3342080579
 51
192.5942016585
  0
SPLINE
  5
BB
330
1F
100
AcDbEntity
  8
0
  6
Continuous
 62
     7
370
    25
100
AcDbSpline
210
0.0
220
0.0
230
1.0
 70
     8
 71
     3
 72
    12
 73
     8
 74
     0
 42
0.000000001
 43
0.00000001
 40
0.0
 40
0.0
 40
0.0
 40
0.0
 40
0.1501055164983271
 40
0.3683233517211119
 40
0.5818917943504206
 40
0.791620420892352
 40
0.9999999999999999
 40
0.9999999999999999
 40
0.9999999999999999
 40
0.9999999999999999
 10
6387.865617968995
 20
5244.732656531415
 30
0.0
 10
6388.024660191209
 20
5244.7216131635
 30
0.0
 10
6388.41491210012
 20
5244.694515356708
 30
0.0
 10
6388.995809527588
 20
5244.73564453696
 30
0.0
 10
6389.512072799487
 20
5244.869166761214
 30
0.0
 10
6389.862735878847
 20
5245.084846365658
 30
0.0
 10
6389.907961719408
 20
5245.279455627209
 30
0.0
 10
6389.930501677949
 20
5245.376446299634
 30
0.0
  0
ARC
  5
BC
330
1F
100
AcDbEntity
  8
0
  6
Continuous
 62
     7
370
    25
100
AcDbCircle
 10
6389.8317317025
 20
5244.4529901085
 30
0.0
 40
0.9287232337533553
100
AcDbArc
 50
2.7200493002
 51
83.89503249
  0
SPLINE
  5
BD
330
1F
100
AcDbEntity
  8
0
  6
Continuous
 62
     7
370
    25
100
AcDbSpline
210
0.0
220
0.0
230
1.0
 70
     8
 71
     3
 72
    12
 73
     8
 74
     0
 42
0.000000001
 43
0.00000001
 40
0.0
 40
0.0
 40
0.0
 40
0.0
 40
0.21208818755248
 40
0.4238000147894204
 40
0.6368173355399984
 40
0.8523152564553198
 40
1.0
 40
1.0
 40
1.0
 40
1.0
 10
6390.759408571679
 20
5244.497063585005
 30
0.0
 10
6390.726906217713
 20
5244.349896022887
 30
0.0
 10
6390.661959186717
 20
5244.055822054312
 30
0.0
 10
6390.155480407842
 20
5243.70436864476
 30
0.0
 10
6389.405934975218
 20
5243.465674442647
 30
0.0
 10
6388.559062481729
 20
5243.365961905301
 30
0.0
 10
6387.990583793647
 20
5243.386034608176
 30
0.0
 10
6387.759417393167
 20
5243.394196980081
 30
0.0
  0
SPLINE
  5
BE
330
1F
100
AcDbEntity
  8
0
  6
Continuous
 62
     7
370
    25
100
AcDbSpline
210
0.0
220
0.0
230
1.0
 70
     8
 71
     3
 72
    12
 73
     8
 74
     0
 42
0.000000001
 43
0.00000001
 40
0.0
 40
0.0
 40
0.0
 40
0.0
 40
0.1225114246054295
 40
0.335085122487174
 40
0.5543844579312328
 40
0.7764731826615412
 40
1.0
 40
1.0
 40
1.0
 40
1.0
 10
6376.508742668588
 20
5244.888315923891
 30
0.0
 10
6376.516777645112
 20
5244.830857775569
 30
0.0
 10
6376.538754379946
 20
5244.673702059436
 30
0.0
 10
6376.772426302336
 20
5244.473492054195
 30
0.0
 10
6377.240553604177
 20
5244.339557376262
 30
0.0
 10
6377.866473516455
 20
5244.305838402217
 30
0.0
 10
6378.337402162786
 20
5244.367716261014
 30
0.0
 10
6378.573626377542
 20
5244.398755036674
 30
0.0
  0
SPLINE
  5
BF
330
1F
100
AcDbEntity
  8
0
  6
Continuous
 62
     7
370
    25
100
AcDbSpline
210
0.0
220
0.0
230
1.0
 70
     8
 71
     3
 72
    12
 73
     8
 74
     0
 42
0.000000001
 43
0.00000001
 40
0.0
 40
0.0
 40
0.0
 40
0.0
 40
0.2194073426513958
 40
0.4389035598831795
 40
0.6586420229395881
 40
0.8747007740928405
 40
1.0
 40
1.0
 40
1.0
 40
1.0
 10
6378.759414055306
 20
5243.070787765465
 30
0.0
 10
6378.415848125947
 20
5243.046225291339
 30
0.0
 10
6377.728577100156
 20
5242.997090393653
 30
0.0
 10
6376.816765995511
 20
5243.116174671044
 30
0.0
 10
6376.138591292749
 20
5243.372277484867
 30
0.0
 10
6375.802777973311
 20
5243.699824827092
 30
0.0
 10
6375.771058434292
 20
5243.93715677296
 30
0.0
 10
6375.759415426213
 20
5244.024272092066
 30
0.0
  0
ARC
  5
C0
330
1F
100
AcDbEntity
  8
0
  6
Continuous
 62
     7
370
    25
100
AcDbCircle
 10
6376.6763961469
 20
5243.9859787743
 30
0.0
 40
0.9177799410889549
100
AcDbArc
 50
100.5254846745
 51
177.6087050001
  0
LINE
  5
C1
330
1F
100
AcDbEntity
  8
0
  6
Continuous
 62
     7
370
    25
100
AcDbLine
 10
6378.7594140553
 20
5243.0707877655
 30
0.0
 11
6378.7594140553
 21
5240.8951567639
 31
0.0
  0
LINE
  5
C2
330
1F
100
AcDbEntity
  8
0
  6
Continuous
 62
     7
370
    25
100
AcDbLine
 10
6387.7594173932
 20
5240.1367416758
 30
0.0
 11
6387.7594173932
 21
5243.3941969801
 31
0.0
  0
LINE
  5
C3
330
1F
100
AcDbEntity
  8
0
  6
Continuous
 62
     7
370
    25
100
AcDbLine
 10
6390.7594085717
 20
5244.497063585
 30
0.0
 11
6390.7594085717
 21
5241.3106756438
 31
0.0
  0
LINE
  5
C4
330
1F
100
AcDbEntity
  8
0
  6
Continuous
 62
     7
370
    25
100
AcDbLine
 10
6375.7594154262
 20
5242.5643010218
 30
0.0
 11
6375.7594154262
 21
5244.0242720921
 31
0.0
  0
SPLINE
  5
C5
330
1F
100
AcDbEntity
  8
0
  6
Continuous
 62
     7
370
    25
100
AcDbSpline
210
0.0
220
0.0
230
1.0
 70
     8
 71
     3
 72
    12
 73
     8
 74
     0
 42
0.000000001
 43
0.00000001
 40
0.0
 40
0.0
 40
0.0
 40
0.0
 40
0.1601792384691511
 40
0.3791696939435144
 40
0.5901551622057621
 40
0.7957092740823707
 40
1.0
 40
1.0
 40
1.0
 40
1.0
 10
6378.573626377542
 20
5246.20262069293
 30
0.0
 10
6378.404694833304
 20
5246.167997592987
 30
0.0
 10
6378.00480704174
 20
5246.086039217272
 30
0.0
 10
6377.42209654037
 20
5245.856285677856
 30
0.0
 10
6376.91674855857
 20
5245.544955857445
 30
0.0
 10
6376.574926414396
 20
5245.202192526468
 30
0.0
 10
6376.530758533282
 20
5244.992726224773
 30
0.0
 10
6376.508742668588
 20
5244.888315923891
 30
0.0
  0
ARC
  5
C6
330
1F
100
AcDbEntity
  8
0
  6
Continuous
 62
     7
370
    25
100
AcDbCircle
 10
6384.4868273588
 20
5211.1050993917
 30
0.0
 40
35.59216131864418
100
AcDbArc
 50
84.5526658655
 51
99.563334042
  0
SPLINE
  5
C7
330
1F
100
AcDbEntity
  8
0
  6
Continuous
 62
     7
370
    25
100
AcDbSpline
210
0.0
220
0.0
230
1.0
 70
     8
 71
     3
 72
    12
 73
     8
 74
     0
 42
0.000000001
 43
0.00000001
 40
0.0
 40
0.0
 40
0.0
 40
0.0
 40
0.1328133364913733
 40
0.3455380824585434
 40
0.5619148537161601
 40
0.7802451830394245
 40
1.0
 40
1.0
 40
1.0
 40
1.0
 10
6389.930501677949
 20
5245.376446299634
 30
0.0
 10
6389.921226992466
 20
5245.441732885974
 30
0.0
 10
6389.897097209107
 20
5245.611587830139
 30
0.0
 10
6389.65336086132
 20
5245.90329810863
 30
0.0
 10
6389.185018700429
 20
5246.200482572429
 30
0.0
 10
6388.564421183879
 20
5246.435612323921
 30
0.0
 10
6388.099056770463
 20
5246.502812729632
 30
0.0
 10
6387.865617968995
 20
5246.536522187672
 30
0.0
  0
ARC
  5
C8
330
1F
100
AcDbEntity
  8
0
  6
Continuous
 62
     7
370
    25
100
AcDbCircle
 10
6387.6951087445
 20
5246.5740093603
 30
0.0
 40
0.1745814530391537
100
AcDbArc
 50
347.6005486541
 51
23.7751840629
  0
LWPOLYLINE
  5
C9
330
1F
100
AcDbEntity
  8
0
  6
Continuous
 62
     7
370
    25
100
AcDbPolyline
 90
        4
 70
   128
 43
0.0
 10
6378.5929680848
 20
5246.3116692532
 10
6378.5877675795
 20
5246.3084412891
 10
6378.5771952056
 20
5246.2737495232
 10
6378.5736263775
 20
5246.2026206929
  0
ARC
  5
CA
330
1F
100
AcDbEntity
  8
0
  6
Continuous
 62
     7
370
    25
100
AcDbCircle
 10
6333.2594157242
 20
5222.1467057396
 30
0.0
 40
35.00000000000015
100
AcDbArc
 50
221.6275506519
 51
318.7001272083
  0
ARC
  5
CB
330
1F
100
AcDbEntity
  8
0
  6
Continuous
 62
     7
370
    25
100
AcDbCircle
 10
6333.2594157242
 20
5222.1467057396
 30
0.0
 40
35.00000000000015
100
AcDbArc
 50
41.2998727917
 51
138.3724493481
  0
ARC
  5
CC
330
1F
100
AcDbEntity
  8
0
  6
Continuous
 62
     7
370
    25
100
AcDbCircle
 10
6183.2594157242
 20
5222.1467057396
 30
0.0
 40
35.00000000000082
100
AcDbArc
 50
270.0
 51
318.3724493481
  0
ARC
  5
CD
330
1F
100
AcDbEntity
  8
0
  6
Continuous
 62
     7
370
    25
100
AcDbCircle
 10
6183.2594157242
 20
5222.1467057396
 30
0.0
 40
35.00000000000082
100
AcDbArc
 50
41.6275506519
 51
138.9176668595
  0
ARC
  5
CE
330
1F
100
AcDbEntity
  8
0
  6
Continuous
 62
     7
370
    25
100
AcDbCircle
 10
6183.2594157242
 20
5222.1467057396
 30
0.0
 40
35.00000000000087
100
AcDbArc
 50
221.0823331405
 51
270.0
  0
LINE
  5
CF
330
1F
100
AcDbEntity
  8
0
  6
Continuous
 62
     7
370
    25
100
AcDbLine
 10
6163.2594169163
 20
5198.8967051882
 30
0.0
 11
6353.2594145321
 21
5198.8967051882
 31
0.0
  0
LINE
  5
D0
330
1F
100
AcDbEntity
  8
0
  6
Continuous
 62
     7
370
    25
100
AcDbLine
 10
6163.2594169163
 20
5245.3967062909
 30
0.0
 11
6353.2594145321
 21
5245.3967062909
 31
0.0
  0
LINE
  5
D1
330
1F
100
AcDbEntity
  8
0
  6
Continuous
 62
     7
370
    25
100
AcDbLine
 10
6353.2594145321
 20
5198.8967051882
 30
0.0
 11
6353.2594145321
 21
5245.3967062909
 31
0.0
  0
LINE
  5
D2
330
1F
100
AcDbEntity
  8
0
  6
Continuous
 62
     7
370
    25
100
AcDbLine
 10
6163.2594169163
 20
5198.8967051882
 30
0.0
 11
6163.2594169163
 21
5245.3967062909
 31
0.0
  0
LINE
  5
D3
330
1F
100
AcDbEntity
  8
0
  6
Continuous
 62
     8
370
    25
100
AcDbLine
 10
6147.759415307
 20
5245.1463500191
 30
0.0
 11
6147.759415307
 21
5199.1467056949
 31
0.0
  0
LINE
  5
D4
330
1F
100
AcDbEntity
  8
0
  6
Continuous
 62
     8
370
    25
100
AcDbLine
 10
6404.2370469355
 20
5229.8931265403
 30
0.0
 11
6404.2370469355
 21
5214.4002849389
 31
0.0
  0
LINE
  5
D5
330
1F
100
AcDbEntity
  8
0
  6
Continuous
 62
     8
370
    25
100
AcDbLine
 10
6369.759418168
 20
5245.1467057843
 30
0.0
 11
6369.759418168
 21
5199.1467056949
 31
0.0
  0
LINE
  5
D6
330
1F
100
AcDbEntity
  8
0
  6
Continuous
 62
     8
370
    25
100
AcDbLine
 10
6397.2776682162
 20
5242.5115397353
 30
0.0
 11
6397.2776682162
 21
5223.2003332036
 31
0.0
  0
LINE
  5
D7
330
1F
100
AcDbEntity
  8
0
  6
Continuous
 62
     8
370
    25
100
AcDbLine
 10
6397.2776682162
 20
5205.1496515203
 30
0.0
 11
6397.2776682162
 21
5201.7818717439
 31
0.0
  0
LINE
  5
D8
330
1F
100
AcDbEntity
  8
0
  6
Continuous
 62
     8
370
    25
100
AcDbLine
 10
6354.2594165587
 20
5211.7293803174
 30
0.0
 11
6354.2594165587
 21
5199.0467058647
 31
0.0
  0
LINE
  5
D9
330
1F
100
AcDbEntity
  8
0
  6
Continuous
 62
     8
370
    25
100
AcDbLine
 10
6354.2594165587
 20
5245.2467056144
 30
0.0
 11
6354.2594165587
 21
5211.7293803174
 31
0.0
  0
ARC
  5
DA
330
1F
100
AcDbEntity
  8
0
  6
Continuous
 62
     8
370
    25
100
AcDbCircle
 10
6333.2594157242
 20
5222.1467057396
 30
0.0
 40
34.80620935801819
100
AcDbArc
 50
221.9116790099
 51
318.4192690706
  0
ARC
  5
DB
330
1F
100
AcDbEntity
  8
0
  6
Continuous
 62
     8
370
    25
100
AcDbCircle
 10
6333.2594157242
 20
5222.1467057396
 30
0.0
 40
34.80620935801819
100
AcDbArc
 50
41.5807309294
 51
138.0883209901
  0
ARC
  5
DC
330
1F
100
AcDbEntity
  8
0
  6
Continuous
 62
     8
370
    25
100
AcDbCircle
 10
6183.2594157242
 20
5222.1467057396
 30
0.0
 40
34.80620935801835
100
AcDbArc
 50
270.0
 51
318.0883209901
  0
ARC
  5
DD
330
1F
100
AcDbEntity
  8
0
  6
Continuous
 62
     8
370
    25
100
AcDbCircle
 10
6183.2594157242
 20
5222.1467057396
 30
0.0
 40
34.80620935801819
100
AcDbArc
 50
41.9116790099
 51
138.6389613921
  0
ARC
  5
DE
330
1F
100
AcDbEntity
  8
0
  6
Continuous
 62
     8
370
    25
100
AcDbCircle
 10
6183.2594157242
 20
5222.1467057396
 30
0.0
 40
34.80620935801846
100
AcDbArc
 50
221.3610386079
 51
270.0
  0
LINE
  5
DF
330
1F
100
AcDbEntity
  8
0
  6
Continuous
 62
     7
370
    25
100
AcDbLine
 10
6715.806747353
 20
5211.1467057992
 30
0.0
 11
6716.6590658336
 21
5211.1467057992
 31
0.0
  0
LINE
  5
E0
330
1F
100
AcDbEntity
  8
0
  6
Continuous
 62
     7
370
    25
100
AcDbLine
 10
6716.6744270682
 20
5233.14670568
 30
0.0
 11
6715.806747353
 21
5233.14670568
 31
0.0
  0
ARC
  5
E1
330
1F
100
AcDbEntity
  8
0
  6
Continuous
 62
     7
370
    25
100
AcDbCircle
 10
6675.073521769
 20
5181.8967057396
 30
0.0
 40
5.0
100
AcDbArc
 50
180.0
 51
270.0
  0
LINE
  5
E2
330
1F
100
AcDbEntity
  8
0
  6
Continuous
 62
     7
370
    25
100
AcDbLine
 10
6695.0735217571
 20
5188.8967054118
 30
0.0
 11
6695.0735217571
 21
5198.8967051882
 31
0.0
  0
LINE
  5
E3
330
1F
100
AcDbEntity
  8
0
  6
Continuous
 62
     7
370
    25
100
AcDbLine
 10
6670.0735208898
 20
5198.8967051882
 30
0.0
 11
6670.0735208898
 21
5181.896706127
 31
0.0
  0
LINE
  5
E4
330
1F
100
AcDbEntity
  8
0
  6
Continuous
 62
     7
370
    25
100
AcDbLine
 10
6865.0735267758
 20
5166.896705531
 30
0.0
 11
6865.0735267758
 21
5183.8967064548
 31
0.0
  0
LINE
  5
E5
330
1F
100
AcDbEntity
  8
0
  6
Continuous
 62
     7
370
    25
100
AcDbLine
 10
6840.0735208153
 20
5176.8967071701
 30
0.0
 11
6840.0735208153
 21
5166.896705531
 31
0.0
  0
ARC
  5
E6
330
1F
100
AcDbEntity
  8
0
  6
Continuous
 62
     7
370
    25
100
AcDbCircle
 10
6860.073521769
 20
5183.8967057396
 30
0.0
 40
5.0
100
AcDbArc
 50
0.0
 51
90.0
  0
LINE
  5
E7
330
1F
100
AcDbEntity
  8
0
  6
Continuous
 62
     7
370
    25
100
AcDbLine
 10
6842.5735184311
 20
5166.896705531
 30
0.0
 11
6842.5735184311
 21
5161.896706574
 31
0.0
  0
LINE
  5
E8
330
1F
100
AcDbEntity
  8
0
  6
Continuous
 62
     7
370
    25
100
AcDbLine
 10
6862.57352916
 20
5161.896706574
 30
0.0
 11
6862.57352916
 21
5166.896705531
 31
0.0
  0
LINE
  5
E9
330
1F
100
AcDbEntity
  8
0
  6
Continuous
 62
     7
370
    25
100
AcDbLine
 10
6709.0572784975
 20
5244.8932742853
 30
0.0
 11
6705.487114875
 21
5246.6971399415
 31
0.0
  0
ARC
  5
EA
330
1F
100
AcDbEntity
  8
0
  6
Continuous
 62
     7
370
    25
100
AcDbCircle
 10
6705.0361484977
 20
5245.8045987313
 30
0.0
 40
1.000000000000676
100
AcDbArc
 50
63.1942913497
 51
153.1942913498
  0
ARC
  5
EB
330
1F
100
AcDbEntity
  8
0
  6
Continuous
 62
     7
370
    25
100
AcDbCircle
 10
6708.6063120615
 20
5244.0007328472
 30
0.0
 40
0.9999999999998561
100
AcDbArc
 50
333.1942913498
 51
63.1942913498
  0
LINE
  5
EC
330
1F
100
AcDbEntity
  8
0
  6
Continuous
 62
     7
370
    25
100
AcDbLine
 10
6615.5735203385
 20
5257.1467058886
 30
0.0
 11
6609.073522067
 21
5257.1467058886
 31
0.0
  0
LINE
  5
ED
330
1F
100
AcDbEntity
  8
0
  6
Continuous
 62
     7
370
    25
100
AcDbLine
 10
6609.073522067
 20
5187.1467055906
 30
0.0
 11
6615.5735203385
 21
5187.1467055906
 31
0.0
  0
ARC
  5
EE
330
1F
100
AcDbEntity
  8
0
  6
Continuous
 62
     7
370
    25
100
AcDbCircle
 10
6615.573521769
 20
5255.1467057396
 30
0.0
 40
2.000000000000365
100
AcDbArc
 50
64.5692127594
 51
90.0
  0
ARC
  5
EF
330
1F
100
AcDbEntity
  8
0
  6
Continuous
 62
     7
370
    25
100
AcDbCircle
 10
6615.573521769
 20
5189.1467057396
 30
0.0
 40
1.999999999999544
100
AcDbArc
 50
270.0
 51
295.4307872406
  0
ARC
  5
F0
330
1F
100
AcDbEntity
  8
0
  6
Continuous
 62
     7
370
    25
100
AcDbCircle
 10
6599.2555439667
 20
5223.4646835419
 30
0.0
 40
40.0000000000009
100
AcDbArc
 50
295.4307872406
 51
334.5692127594
  0
ARC
  5
F1
330
1F
100
AcDbEntity
  8
0
  6
Continuous
 62
     7
370
    25
100
AcDbCircle
 10
6599.2555439667
 20
5220.8287279372
 30
0.0
 40
40.0000000000005
100
AcDbArc
 50
25.4307872406
 51
64.5692127594
  0
ARC
  5
F2
330
1F
100
AcDbEntity
  8
0
  6
Continuous
 62
     7
370
    25
100
AcDbCircle
 10
6633.573521769
 20
5237.1467057396
 30
0.0
 40
2.000000000000365
100
AcDbArc
 50
0.0
 51
25.4307872406
  0
ARC
  5
F3
330
1F
100
AcDbEntity
  8
0
  6
Continuous
 62
     7
370
    25
100
AcDbCircle
 10
6633.573521769
 20
5207.1467057396
 30
0.0
 40
2.0
100
AcDbArc
 50
334.5692127594
 51
0.0
  0
LINE
  5
F4
330
1F
100
AcDbEntity
  8
0
  6
Continuous
 62
     7
370
    25
100
AcDbLine
 10
6635.5735236167
 20
5207.1467060749
 30
0.0
 11
6635.5735236167
 21
5207.29670582
 31
0.0
  0
LINE
  5
F5
330
1F
100
AcDbEntity
  8
0
  6
Continuous
 62
     7
370
    25
100
AcDbLine
 10
6635.5735236167
 20
5212.8891870532
 30
0.0
 11
6635.5735236167
 21
5216.5542245064
 31
0.0
  0
LINE
  5
F6
330
1F
100
AcDbEntity
  8
0
  6
Continuous
 62
     7
370
    25
100
AcDbLine
 10
6635.5735236167
 20
5227.7391869728
 30
0.0
 11
6635.5735236167
 21
5231.4042244259
 31
0.0
  0
LINE
  5
F7
330
1F
100
AcDbEntity
  8
0
  6
Continuous
 62
     7
370
    25
100
AcDbLine
 10
6635.5735236167
 20
5236.9967056591
 30
0.0
 11
6635.5735236167
 21
5237.1467054043
 31
0.0
  0
LINE
  5
F8
330
1F
100
AcDbEntity
  8
0
  6
Continuous
 62
     7
370
    25
100
AcDbLine
 10
6657.5735234975
 20
5235.84670575
 30
0.0
 11
6647.5735218584
 21
5235.84670575
 31
0.0
  0
LINE
  5
F9
330
1F
100
AcDbEntity
  8
0
  6
Continuous
 62
     7
370
    25
100
AcDbLine
 10
6647.5735218584
 20
5208.4467057291
 30
0.0
 11
6657.5735234975
 21
5208.4467057291
 31
0.0
  0
LINE
  5
FA
330
1F
100
AcDbEntity
  8
0
  6
Continuous
 62
     7
370
    25
100
AcDbLine
 10
6609.073522067
 20
5222.0467057421
 30
0.0
 11
6603.2735207438
 21
5222.0467057421
 31
0.0
  0
LINE
  5
FB
330
1F
100
AcDbEntity
  8
0
  6
Continuous
 62
     7
370
    25
100
AcDbLine
 10
6603.2735207438
 20
5201.5467053432
 30
0.0
 11
6609.073522067
 21
5201.5467053432
 31
0.0
  0
LINE
  5
FC
330
1F
100
AcDbEntity
  8
0
  6
Continuous
 62
     7
370
    25
100
AcDbLine
 10
6603.2735207438
 20
5222.0467057421
 30
0.0
 11
6602.2735187172
 21
5221.0467057455
 31
0.0
  0
LINE
  5
FD
330
1F
100
AcDbEntity
  8
0
  6
Continuous
 62
     7
370
    25
100
AcDbLine
 10
6602.2735187172
 20
5202.5467055071
 30
0.0
 11
6603.2735207438
 21
5201.5467053432
 31
0.0
  0
CIRCLE
  5
FE
330
1F
100
AcDbEntity
  8
0
  6
Continuous
 62
     7
370
    25
100
AcDbCircle
 10
6695.323521769
 20
5222.1467057396
 30
0.0
 40
17.99999999999919
  0
CIRCLE
  5
FF
330
1F
100
AcDbEntity
  8
0
  6
Continuous
 62
     7
370
    25
100
AcDbCircle
 10
6695.323521769
 20
5222.1467057396
 30
0.0
 40
22.99999999999957
  0
LINE
  5
100
330
1F
100
AcDbEntity
  8
0
  6
Continuous
 62
     7
370
    25
100
AcDbLine
 10
6676.783552891
 20
5245.496706121
 30
0.0
 11
6676.783552891
 21
5245.3967062909
 31
0.0
  0
LINE
  5
101
330
1F
100
AcDbEntity
  8
0
  6
Continuous
 62
     7
370
    25
100
AcDbLine
 10
6669.5735217392
 20
5245.496706121
 30
0.0
 11
6676.783552891
 21
5245.496706121
 31
0.0
  0
LINE
  5
102
330
1F
100
AcDbEntity
  8
0
  6
Continuous
 62
     7
370
    25
100
AcDbLine
 10
6669.5735217392
 20
5245.496706121
 30
0.0
 11
6669.5735217392
 21
5245.3967062909
 31
0.0
  0
SPLINE
  5
103
330
1F
100
AcDbEntity
  8
0
  6
Continuous
 62
     7
370
    25
100
AcDbSpline
210
0.0
220
0.0
230
1.0
 70
     8
 71
     3
 72
    27
 73
    23
 74
     0
 42
0.000000001
 43
0.00000001
 40
0.0
 40
0.0
 40
0.0
 40
0.0
 40
0.0225268385442046
 40
0.0695555277689739
 40
0.117898323839447
 40
0.1661150675526929
 40
0.2154837081805522
 40
0.2686672925871232
 40
0.3232887811299996
 40
0.3780549076469715
 40
0.4346582979484311
 40
0.4853986877806147
 40
0.5378160785421872
 40
0.5855033716322179
 40
0.6344996405273434
 40
0.6837413647074535
 40
0.73420094110155
 40
0.787590352034479
 40
0.8424361542254715
 40
0.8971544761596555
 40
0.9537649171206423
 40
1.0
 40
1.0
 40
1.0
 40
1.0
 10
6716.674427068184
 20
5233.107482098422
 30
0.0
 10
6716.669469818184
 20
5233.11713223612
 30
0.0
 10
6716.654163447545
 20
5233.146928712857
 30
0.0
 10
6716.778394831151
 20
5232.90523303992
 30
0.0
 10
6717.012735143734
 20
5232.428896930694
 30
0.0
 10
6717.348283272308
 20
5231.696054459031
 30
0.0
 10
6717.748917295137
 20
5230.723401358679
 30
0.0
 10
6718.187719784567
 20
5229.490008981838
 30
0.0
 10
6718.617069938326
 20
5228.004409147397
 30
0.0
 10
6718.984348861053
 20
5226.302401917229
 30
0.0
 10
6719.232026908075
 20
5224.49784236455
 30
0.0
 10
6719.341301660661
 20
5222.641889301458
 30
0.0
 10
6719.310964504986
 20
5220.872321903737
 30
0.0
 10
6719.156343688557
 20
5219.164648498907
 30
0.0
 10
6718.901709899662
 20
5217.57515389919
 30
0.0
 10
6718.559496041183
 20
5216.078760978261
 30
0.0
 10
6718.152094376836
 20
5214.697305934914
 30
0.0
 10
6717.709350429093
 20
5213.46448976446
 30
0.0
 10
6717.278713019213
 20
5212.436547733187
 30
0.0
 10
6716.921291869098
 20
5211.673045713627
 30
0.0
 10
6716.691763552457
 20
5211.218960141596
 30
0.0
 10
6716.669206533847
 20
5211.175596436369
 30
0.0
 10
6716.659065833638
 20
5211.156101912639
 30
0.0
  0
LINE
  5
104
330
1F
100
AcDbEntity
  8
0
  6
Continuous
 62
     7
370
    25
100
AcDbLine
 10
6682.5735220074
 20
5176.8967071701
 30
0.0
 11
6682.5735220074
 21
5181.896706127
 31
0.0
  0
LINE
  5
105
330
1F
100
AcDbEntity
  8
0
  6
Continuous
 62
     7
370
    25
100
AcDbLine
 10
6682.5735220074
 20
5176.8967071701
 30
0.0
 11
6675.0735217094
 21
5176.8967071701
 31
0.0
  0
SPLINE
  5
106
330
1F
100
AcDbEntity
  8
0
  6
Continuous
 62
     7
370
    25
100
AcDbSpline
210
0.0
220
0.0
230
1.0
 70
     8
 71
     3
 72
    14
 73
    10
 74
     0
 42
0.000000001
 43
0.00000001
 40
0.0
 40
0.0
 40
0.0
 40
0.0
 40
0.0017522323020406
 40
0.1153909999886413
 40
0.3165487575392795
 40
0.5174858628983512
 40
0.6594294260085819
 40
0.8011443876598098
 40
1.0
 40
1.0
 40
1.0
 40
1.0
 10
6682.573522007416
 20
5183.896706454835
 30
0.0
 10
6682.579821463061
 20
5183.900690027206
 30
0.0
 10
6682.994663995937
 20
5184.163023051754
 30
0.0
 10
6684.133055173729
 20
5184.882842054563
 30
0.0
 10
6685.978089538992
 20
5186.032923302889
 30
0.0
 10
6687.888711679644
 20
5187.151057807306
 30
0.0
 10
6689.520608701029
 20
5187.993498825026
 30
0.0
 10
6691.08531616528
 20
5188.686124615313
 30
0.0
 10
6692.024905407688
 20
5188.819076304594
 30
0.0
 10
6692.573521783898
 20
5188.896705411754
 30
0.0
  0
LINE
  5
107
330
1F
100
AcDbEntity
  8
0
  6
Continuous
 62
     7
370
    25
100
AcDbLine
 10
6682.5735220074
 20
5183.8967064548
 30
0.0
 11
6682.5735220074
 21
5181.896706127
 31
0.0
  0
LINE
  5
108
330
1F
100
AcDbEntity
  8
0
  6
Continuous
 62
     7
370
    25
100
AcDbLine
 10
6842.5735184311
 20
5176.8967071701
 30
0.0
 11
6682.5735220074
 21
5176.8967071701
 31
0.0
  0
LINE
  5
109
330
1F
100
AcDbEntity
  8
0
  6
Continuous
 62
     7
370
    25
100
AcDbLine
 10
6682.5735220074
 20
5181.896706127
 30
0.0
 11
6852.5735237956
 21
5181.896706127
 31
0.0
  0
SPLINE
  5
10A
330
1F
100
AcDbEntity
  8
0
  6
Continuous
 62
     7
370
    25
100
AcDbSpline
210
0.0
220
0.0
230
1.0
 70
     8
 71
     3
 72
    14
 73
    10
 74
     0
 42
0.000000001
 43
0.00000001
 40
0.0
 40
0.0
 40
0.0
 40
0.0
 40
0.0017521457723311
 40
0.1153914897628642
 40
0.3138678318389358
 40
0.5174844969807866
 40
0.6576110835489547
 40
0.801143943146959
 40
1.0
 40
1.0
 40
1.0
 40
1.0
 10
6852.573523795555
 20
5181.89670612701
 30
0.0
 10
6852.567225586986
 20
5181.892721305577
 30
0.0
 10
6852.152442935284
 20
5181.63029195248
 30
0.0
 10
6851.023672637157
 20
5180.916568534082
 30
0.0
 10
6849.177986769267
 20
5179.767502312052
 30
0.0
 10
6847.274052116223
 20
5178.650315010432
 30
0.0
 10
6845.631889681895
 20
5177.803544496361
 30
0.0
 10
6844.067033894134
 20
5177.107912892235
 30
0.0
 10
6843.122243334775
 20
5176.974305187923
 30
0.0
 10
6842.573518431137
 20
5176.896707170091
 30
0.0
  0
LINE
  5
10B
330
1F
100
AcDbEntity
  8
0
  6
Continuous
 62
     7
370
    25
100
AcDbLine
 10
6692.5735217839
 20
5188.8967054118
 30
0.0
 11
6852.5735237956
 21
5188.8967054118
 31
0.0
  0
LINE
  5
10C
330
1F
100
AcDbEntity
  8
0
  6
Continuous
 62
     7
370
    25
100
AcDbLine
 10
6852.5735237956
 20
5188.8967054118
 30
0.0
 11
6852.5735237956
 21
5183.8967064548
 31
0.0
  0
LINE
  5
10D
330
1F
100
AcDbEntity
  8
0
  6
Continuous
 62
     7
370
    25
100
AcDbLine
 10
6852.5735237956
 20
5183.8967064548
 30
0.0
 11
6682.5735220074
 21
5183.8967064548
 31
0.0
  0
LINE
  5
10E
330
1F
100
AcDbEntity
  8
0
  6
Continuous
 62
     7
370
    25
100
AcDbLine
 10
6852.5735237956
 20
5183.8967064548
 30
0.0
 11
6852.5735237956
 21
5181.896706127
 31
0.0
  0
LINE
  5
10F
330
1F
100
AcDbEntity
  8
0
  6
Continuous
 62
     7
370
    25
100
AcDbLine
 10
6852.5735237956
 20
5166.896705531
 30
0.0
 11
6865.0735267758
 21
5166.896705531
 31
0.0
  0
LINE
  5
110
330
1F
100
AcDbEntity
  8
0
  6
Continuous
 62
     7
370
    25
100
AcDbLine
 10
6840.0735208153
 20
5166.896705531
 30
0.0
 11
6852.5735237956
 21
5166.896705531
 31
0.0
  0
LINE
  5
111
330
1F
100
AcDbEntity
  8
0
  6
Continuous
 62
     7
370
    25
100
AcDbLine
 10
6852.5735237956
 20
5188.8967054118
 30
0.0
 11
6860.073516643
 21
5188.8967054118
 31
0.0
  0
LINE
  5
112
330
1F
100
AcDbEntity
  8
0
  6
Continuous
 62
     7
370
    25
100
AcDbLine
 10
6862.57352916
 20
5161.896706574
 30
0.0
 11
6842.5735184311
 21
5161.896706574
 31
0.0
  0
LINE
  5
113
330
1F
100
AcDbEntity
  8
0
  6
Continuous
 62
     7
370
    25
100
AcDbLine
 10
6703.0432191997
 20
5244.0777057935
 30
0.0
 11
6703.9015977963
 21
5245.7765853185
 31
0.0
  0
SPLINE
  5
114
330
1F
100
AcDbEntity
  8
0
  6
Continuous
 62
     7
370
    25
100
AcDbSpline
210
0.0
220
0.0
230
1.0
 70
     8
 71
     3
 72
    12
 73
     8
 74
     0
 42
0.000000001
 43
0.00000001
 40
0.0
 40
0.0
 40
0.0
 40
0.0
 40
0.2087378293320501
 40
0.416658359157692
 40
0.6270236551484114
 40
0.8428168644776325
 40
1.0
 40
1.0
 40
1.0
 40
1.0
 10
6706.37741175885
 20
5244.024272092066
 30
0.0
 10
6706.08566410396
 20
5244.177855960967
 30
0.0
 10
6705.503311113305
 20
5244.484422351038
 30
0.0
 10
6704.753451558668
 20
5244.95663542145
 30
0.0
 10
6704.197379727273
 20
5245.367856187149
 30
0.0
 10
6703.906998144726
 20
5245.653786529538
 30
0.0
 10
6703.903198906421
 20
5245.740177597066
 30
0.0
 10
6703.901597796331
 20
5245.776585318527
 30
0.0
  0
SPLINE
  5
115
330
1F
100
AcDbEntity
  8
0
  6
Continuous
 62
     7
370
    25
100
AcDbSpline
210
0.0
220
0.0
230
1.0
 70
     8
 71
     3
 72
    12
 73
     8
 74
     0
 42
0.000000001
 43
0.00000001
 40
0.0
 40
0.0
 40
0.0
 40
0.0
 40
0.1601792384691511
 40
0.3791696939435144
 40
0.5901551622057621
 40
0.7957092740823707
 40
1.0
 40
1.0
 40
1.0
 40
1.0
 10
6705.237254066716
 20
5246.20262069293
 30
0.0
 10
6705.233073960973
 20
5246.167997592987
 30
0.0
 10
6705.223178986878
 20
5246.086039217272
 30
0.0
 10
6705.394708821908
 20
5245.856285677856
 30
0.0
 10
6705.74467438625
 20
5245.544955857445
 30
0.0
 10
6706.231029167308
 20
5245.202192526468
 30
0.0
 10
6706.620062440042
 20
5244.992726224773
 30
0.0
 10
6706.813979460249
 20
5244.888315923891
 30
0.0
  0
LWPOLYLINE
  5
116
330
1F
100
AcDbEntity
  8
0
  6
Continuous
 62
     7
370
    25
100
AcDbPolyline
 90
        9
 70
   128
 43
0.0
 10
6706.8139794602
 20
5244.8883159239
 10
6706.7895415559
 20
5244.8399486173
 10
6706.753951995
 20
5244.7695108283
 10
6706.7081746965
 20
5244.678908043
 10
6706.6534473881
 20
5244.5705933649
 10
6706.5912508726
 20
5244.4474967349
 10
6706.5232689812
 20
5244.3129485626
 10
6706.4513410761
 20
5244.1705903191
 10
6706.3774117589
 20
5244.0242720921
  0
ARC
  5
117
330
1F
100
AcDbEntity
  8
0
  6
Continuous
 62
     7
370
    25
100
AcDbCircle
 10
6704.782475462
 20
5245.3216750392
 30
0.0
 40
0.9914074964706173
100
AcDbArc
 50
62.695447487
 51
152.6868831816
  0
SPLINE
  5
118
330
1F
100
AcDbEntity
  8
0
  6
Continuous
 62
     7
370
    25
100
AcDbSpline
210
0.0
220
0.0
230
1.0
 70
     8
 71
     3
 72
    12
 73
     8
 74
     0
 42
0.000000001
 43
0.00000001
 40
0.0
 40
0.0
 40
0.0
 40
0.0
 40
0.2194073426513958
 40
0.4389035598831795
 40
0.6586420229395881
 40
0.8747007740928405
 40
1.0
 40
1.0
 40
1.0
 40
1.0
 10
6709.256843230079
 20
5243.070787765465
 30
0.0
 10
6709.205842842598
 20
5243.046225291339
 30
0.0
 10
6709.103821409085
 20
5242.997090393653
 30
0.0
 10
6708.563168487706
 20
5243.116174671044
 30
0.0
 10
6707.812189970818
 20
5243.372277484867
 30
0.0
 10
6707.036158884952
 20
5243.699824827092
 30
0.0
 10
6706.554287856432
 20
5243.93715677296
 30
0.0
 10
6706.37741175885
 20
5244.024272092066
 30
0.0
  0
LINE
  5
119
330
1F
100
AcDbEntity
  8
0
  6
Continuous
 62
     7
370
    25
100
AcDbLine
 10
6709.2568432301
 20
5243.0707877655
 30
0.0
 11
6708.3984646335
 21
5241.3719063778
 31
0.0
  0
SPLINE
  5
11A
330
1F
100
AcDbEntity
  8
0
  6
Continuous
 62
     7
370
    25
100
AcDbSpline
210
0.0
220
0.0
230
1.0
 70
     8
 71
     3
 72
    12
 73
     8
 74
     0
 42
0.000000001
 43
0.00000001
 40
0.0
 40
0.0
 40
0.0
 40
0.0
 40
0.1225114246054295
 40
0.335085122487174
 40
0.5543844579312328
 40
0.7764731826615412
 40
1.0
 40
1.0
 40
1.0
 40
1.0
 10
6706.813979460249
 20
5244.888315923891
 30
0.0
 10
6706.932314816194
 20
5244.830857775569
 30
0.0
 10
6707.255977832675
 20
5244.673702059436
 30
0.0
 10
6707.785553162573
 20
5244.473492054195
 30
0.0
 10
6708.303250625116
 20
5244.339557376262
 30
0.0
 10
6708.683817208741
 20
5244.305838402217
 30
0.0
 10
6708.766128983406
 20
5244.367716261014
 30
0.0
 10
6708.807417689214
 20
5244.398755036674
 30
0.0
  0
ARC
  5
11B
330
1F
100
AcDbEntity
  8
0
  6
Continuous
 62
     7
370
    25
100
AcDbCircle
 10
6708.3680440972
 20
5243.5100238647
 30
0.0
 40
0.9914092240290963
100
AcDbArc
 50
333.7018544123
 51
63.6929906989
  0
LWPOLYLINE
  5
11C
330
1F
100
AcDbEntity
  8
0
  6
Continuous
 62
     7
370
    25
100
AcDbPolyline
 90
        7
 70
   128
 43
0.0
 10
6703.9015977963
 20
5245.7765853185
 10
6703.9870727196
 20
5245.9457563389
 10
6704.0540804475
 20
5246.0783748109
 10
6704.1025297105
 20
5246.1742637832
 10
6704.1323553159
 20
5246.2332947332
 10
6704.1435181483
 20
5246.25538943
 10
6704.1436075553
 20
5246.2555645187
  0
LWPOLYLINE
  5
11D
330
1F
100
AcDbEntity
  8
0
  6
Continuous
 62
     7
370
    25
100
AcDbPolyline
 90
        7
 70
   128
 43
0.0
 10
6709.498852989
 20
5243.5497669656
 10
6709.4987635821
 20
5243.5495900143
 10
6709.4876007497
 20
5243.5274971802
 10
6709.4577751442
 20
5243.4684662301
 10
6709.4093258813
 20
5243.3725753952
 10
6709.3423181533
 20
5243.2399569232
 10
6709.2568432301
 20
5243.0707877655
  0
LINE
  5
11E
330
1F
100
AcDbEntity
  8
0
  6
Continuous
 62
     7
370
    25
100
AcDbLine
 10
6609.073522067
 20
5257.1467058886
 30
0.0
 11
6609.073522067
 21
5187.1467055906
 31
0.0
  0
LINE
  5
11F
330
1F
100
AcDbEntity
  8
0
  6
Continuous
 62
     7
370
    25
100
AcDbLine
 10
6657.5735234975
 20
5238.3967051435
 30
0.0
 11
6657.5735234975
 21
5205.8967063356
 31
0.0
  0
LINE
  5
120
330
1F
100
AcDbEntity
  8
0
  6
Continuous
 62
     7
370
    25
100
AcDbLine
 10
6664.5735209196
 20
5245.3967062909
 30
0.0
 11
6657.5735234975
 21
5238.3967051435
 31
0.0
  0
LINE
  5
121
330
1F
100
AcDbEntity
  8
0
  6
Continuous
 62
     7
370
    25
100
AcDbLine
 10
6695.323521769
 20
5245.3967062909
 30
0.0
 11
6664.5735209196
 21
5245.3967062909
 31
0.0
  0
ARC
  5
122
330
1F
100
AcDbEntity
  8
0
  6
Continuous
 62
     7
370
    25
100
AcDbCircle
 10
6695.323521769
 20
5222.1467057396
 30
0.0
 40
23.25
100
AcDbArc
 50
270.0
 51
90.0
  0
LINE
  5
123
330
1F
100
AcDbEntity
  8
0
  6
Continuous
 62
     7
370
    25
100
AcDbLine
 10
6664.5735209196
 20
5198.8967051882
 30
0.0
 11
6695.323521769
 21
5198.8967051882
 31
0.0
  0
LINE
  5
124
330
1F
100
AcDbEntity
  8
0
  6
Continuous
 62
     7
370
    25
100
AcDbLine
 10
6657.5735234975
 20
5205.8967063356
 30
0.0
 11
6664.5735209196
 21
5198.8967051882
 31
0.0
  0
LINE
  5
125
330
1F
100
AcDbEntity
  8
0
  6
Continuous
 62
     7
370
    25
100
AcDbLine
 10
6635.5735236167
 20
5207.29670582
 30
0.0
 11
6647.5735218584
 21
5207.29670582
 31
0.0
  0
LINE
  5
126
330
1F
100
AcDbEntity
  8
0
  6
Continuous
 62
     7
370
    25
100
AcDbLine
 10
6635.5735236167
 20
5207.29670582
 30
0.0
 11
6635.5735236167
 21
5212.8891870532
 31
0.0
  0
LINE
  5
127
330
1F
100
AcDbEntity
  8
0
  6
Continuous
 62
     7
370
    25
100
AcDbLine
 10
6635.5735236167
 20
5216.5542245064
 30
0.0
 11
6635.5735236167
 21
5222.1467057396
 31
0.0
  0
LINE
  5
128
330
1F
100
AcDbEntity
  8
0
  6
Continuous
 62
     7
370
    25
100
AcDbLine
 10
6635.5735236167
 20
5222.1467057396
 30
0.0
 11
6647.5735218584
 21
5222.1467057396
 31
0.0
  0
LINE
  5
129
330
1F
100
AcDbEntity
  8
0
  6
Continuous
 62
     7
370
    25
100
AcDbLine
 10
6647.5735218584
 20
5207.29670582
 30
0.0
 11
6647.5735218584
 21
5222.1467057396
 31
0.0
  0
LINE
  5
12A
330
1F
100
AcDbEntity
  8
0
  6
Continuous
 62
     7
370
    25
100
AcDbLine
 10
6635.5735236167
 20
5236.9967056591
 30
0.0
 11
6647.5735218584
 21
5236.9967056591
 31
0.0
  0
LINE
  5
12B
330
1F
100
AcDbEntity
  8
0
  6
Continuous
 62
     7
370
    25
100
AcDbLine
 10
6647.5735218584
 20
5222.1467057396
 30
0.0
 11
6647.5735218584
 21
5236.9967056591
 31
0.0
  0
LINE
  5
12C
330
1F
100
AcDbEntity
  8
0
  6
Continuous
 62
     7
370
    25
100
AcDbLine
 10
6635.5735236167
 20
5222.1467057396
 30
0.0
 11
6635.5735236167
 21
5227.7391869728
 31
0.0
  0
LINE
  5
12D
330
1F
100
AcDbEntity
  8
0
  6
Continuous
 62
     7
370
    25
100
AcDbLine
 10
6635.5735236167
 20
5231.4042244259
 30
0.0
 11
6635.5735236167
 21
5236.9967056591
 31
0.0
  0
LINE
  5
12E
330
1F
100
AcDbEntity
  8
0
  6
Continuous
 62
     7
370
    25
100
AcDbLine
 10
6603.2735207438
 20
5222.0467057421
 30
0.0
 11
6603.2735207438
 21
5201.5467053432
 31
0.0
  0
LINE
  5
12F
330
1F
100
AcDbEntity
  8
0
  6
Continuous
 62
     7
370
    25
100
AcDbLine
 10
6602.2735187172
 20
5202.5467055071
 30
0.0
 11
6602.2735187172
 21
5221.0467057455
 31
0.0
  0
LINE
  5
130
330
1F
100
AcDbEntity
  8
0
  6
Continuous
 62
     8
370
    25
100
AcDbLine
 10
6670.0735208898
 20
5181.896706127
 30
0.0
 11
6682.5735220074
 21
5181.896706127
 31
0.0
  0
LINE
  5
131
330
1F
100
AcDbEntity
  8
0
  6
Continuous
 62
     8
370
    25
100
AcDbLine
 10
6865.0735267758
 20
5183.8967064548
 30
0.0
 11
6852.5735237956
 21
5183.8967064548
 31
0.0
  0
LINE
  5
132
330
1F
100
AcDbEntity
  8
0
  6
Continuous
 62
     8
370
    25
100
AcDbLine
 10
6705.8084919437
 20
5242.8982807476
 30
0.0
 11
6706.3774117589
 21
5244.0242720921
 31
0.0
  0
LWPOLYLINE
  5
133
330
1F
100
AcDbEntity
  8
0
  6
Continuous
 62
     8
370
    25
100
AcDbPolyline
 90
        7
 70
   128
 43
0.0
 10
6705.487114875
 20
5246.6971399415
 10
6705.487022674
 20
5246.6969574023
 10
6705.4754975572
 20
5246.6741474498
 10
6705.4447043076
 20
5246.6132017005
 10
6705.3946829721
 20
5246.5142002482
 10
6705.3255015373
 20
5246.3772790659
 10
6705.2372540667
 20
5246.2026206929
  0
LWPOLYLINE
  5
134
330
1F
100
AcDbEntity
  8
0
  6
Continuous
 62
     8
370
    25
100
AcDbPolyline
 90
        7
 70
   128
 43
0.0
 10
6708.8074176892
 20
5244.3987550367
 10
6708.8956651598
 20
5244.5734134097
 10
6708.9648465946
 20
5244.7103345919
 10
6709.0148679301
 20
5244.8093360443
 10
6709.0456611797
 20
5244.8702817936
 10
6709.0571862965
 20
5244.8930917461
 10
6709.0572784975
 20
5244.8932742853
  0
LINE
  5
135
330
1F
100
AcDbEntity
  8
0
  6
Continuous
 62
     8
370
    25
100
AcDbLine
 10
6615.5735203385
 20
5257.1467058886
 30
0.0
 11
6615.5735203385
 21
5187.1467055906
 31
0.0
  0
LINE
  5
136
330
1F
100
AcDbEntity
  8
0
  6
Continuous
 62
     8
370
    25
100
AcDbLine
 10
6616.4323636651
 20
5256.9529162873
 30
0.0
 11
6616.4323636651
 21
5187.3404951919
 31
0.0
  0
LINE
  5
137
330
1F
100
AcDbEntity
  8
0
  6
Continuous
 62
     8
370
    25
100
AcDbLine
 10
6635.3797302901
 20
5238.0055459369
 30
0.0
 11
6635.3797302901
 21
5206.2878655423
 31
0.0
  0
ARC
  5
138
330
1F
100
AcDbEntity
  8
0
  6
Continuous
 62
     7
370
    25
100
AcDbCircle
 10
6147.7594157242
 20
4895.6213975147
 30
0.0
 40
5.0
100
AcDbArc
 50
90.0
 51
180.0
  0
ARC
  5
139
330
1F
100
AcDbEntity
  8
0
  6
Continuous
 62
     7
370
    25
100
AcDbCircle
 10
6147.7594157242
 20
4859.6213975147
 30
0.0
 40
5.000000000000909
100
AcDbArc
 50
180.0
 51
270.0
  0
LINE
  5
13A
330
1F
100
AcDbEntity
  8
0
  6
Continuous
 62
     7
370
    25
100
AcDbLine
 10
6163.1594152236
 20
4900.6213975594
 30
0.0
 11
6147.759415307
 21
4900.6213975594
 31
0.0
  0
LINE
  5
13B
330
1F
100
AcDbEntity
  8
0
  6
Continuous
 62
     7
370
    25
100
AcDbLine
 10
6147.759415307
 20
4854.62139747
 30
0.0
 11
6163.1594152236
 21
4854.62139747
 31
0.0
  0
LINE
  5
13C
330
1F
100
AcDbEntity
  8
0
  6
Continuous
 62
     7
370
    25
100
AcDbLine
 10
6163.2594169163
 20
4897.6213970676
 30
0.0
 11
6163.1594152236
 21
4897.6213970676
 31
0.0
  0
LINE
  5
13D
330
1F
100
AcDbEntity
  8
0
  6
Continuous
 62
     7
370
    25
100
AcDbLine
 10
6163.1594152236
 20
4857.6213979617
 30
0.0
 11
6163.2594169163
 21
4857.6213979617
 31
0.0
  0
LINE
  5
13E
330
1F
100
AcDbEntity
  8
0
  6
Continuous
 62
     7
370
    25
100
AcDbLine
 10
6197.2594150388
 20
4854.3713969633
 30
0.0
 11
6197.2594150388
 21
4853.621397306
 31
0.0
  0
LINE
  5
13F
330
1F
100
AcDbEntity
  8
0
  6
Continuous
 62
     7
370
    25
100
AcDbLine
 10
6219.2594149196
 20
4853.621397306
 30
0.0
 11
6219.2594149196
 21
4854.3713969633
 31
0.0
  0
LINE
  5
140
330
1F
100
AcDbEntity
  8
0
  6
Continuous
 62
     7
370
    25
100
AcDbLine
 10
6197.2594150388
 20
4853.621397306
 30
0.0
 11
6219.2594149196
 21
4853.621397306
 31
0.0
  0
LINE
  5
141
330
1F
100
AcDbEntity
  8
0
  6
Continuous
 62
     7
370
    25
100
AcDbLine
 10
6163.2594169163
 20
4865.6516588748
 30
0.0
 11
6163.1594152236
 21
4865.4826983333
 31
0.0
  0
ARC
  5
142
330
1F
100
AcDbEntity
  8
0
  6
Continuous
 62
     7
370
    25
100
AcDbCircle
 10
6403.5115750435
 20
4885.1692381954
 30
0.0
 40
0.7521593192820855
100
AcDbArc
 50
15.3083338787
 51
70.7612320047
  0
ARC
  5
143
330
1F
100
AcDbEntity
  8
0
  6
Continuous
 62
     7
370
    25
100
AcDbCircle
 10
6403.5115750435
 20
4870.0735568339
 30
0.0
 40
0.7521593192820428
100
AcDbArc
 50
289.2387679954
 51
344.6916661213
  0
ARC
  5
144
330
1F
100
AcDbEntity
  8
0
  6
Continuous
 62
     7
370
    25
100
AcDbCircle
 10
6375.9370752242
 20
4877.6213975147
 30
0.0
 40
29.34101972379746
100
AcDbArc
 50
344.6916661213
 51
15.3083338787
  0
ARC
  5
145
330
1F
100
AcDbEntity
  8
0
  6
Continuous
 62
     7
370
    25
100
AcDbCircle
 10
6369.7594157242
 20
4999.6213975147
 30
0.0
 40
145.0000000000009
100
AcDbArc
 50
270.0
 51
277.0919222236
  0
ARC
  5
146
330
1F
100
AcDbEntity
  8
0
  6
Continuous
 62
     7
370
    25
100
AcDbCircle
 10
6369.7594157242
 20
4755.6213975147
 30
0.0
 40
144.9999999999993
100
AcDbArc
 50
82.8891326649
 51
90.0
  0
ARC
  5
147
330
1F
100
AcDbEntity
  8
0
  6
Continuous
 62
     7
370
    25
100
AcDbCircle
 10
6354.2594157242
 20
4855.0213975147
 30
0.0
 40
0.5000000000009095
100
AcDbArc
 50
180.0
 51
270.0
  0
ARC
  5
148
330
1F
100
AcDbEntity
  8
0
  6
Continuous
 62
     7
370
    25
100
AcDbCircle
 10
6354.2594157242
 20
4900.2213975147
 30
0.0
 40
0.5000000000009095
100
AcDbArc
 50
90.0
 51
180.0
  0
LINE
  5
149
330
1F
100
AcDbEntity
  8
0
  6
Continuous
 62
     7
370
    25
100
AcDbLine
 10
6364.7594154858
 20
4900.7213973895
 30
0.0
 11
6354.2594165587
 21
4900.7213973895
 31
0.0
  0
LINE
  5
14A
330
1F
100
AcDbEntity
  8
0
  6
Continuous
 62
     7
370
    25
100
AcDbLine
 10
6354.2594165587
 20
4854.5213976398
 30
0.0
 11
6364.7594154858
 21
4854.5213976398
 31
0.0
  0
LINE
  5
14B
330
1F
100
AcDbEntity
  8
0
  6
Continuous
 62
     7
370
    25
100
AcDbLine
 10
6369.759418168
 20
4900.6213975594
 30
0.0
 11
6364.7594154858
 21
4900.6213975594
 31
0.0
  0
LINE
  5
14C
330
1F
100
AcDbEntity
  8
0
  6
Continuous
 62
     7
370
    25
100
AcDbLine
 10
6364.7594154858
 20
4854.62139747
 30
0.0
 11
6369.759418168
 21
4854.62139747
 31
0.0
  0
ARC
  5
14D
330
1F
100
AcDbEntity
  8
0
  6
Continuous
 62
     7
370
    25
100
AcDbCircle
 10
6395.7594157242
 20
4890.1316201745
 30
0.0
 40
8.0
100
AcDbArc
 50
0.0
 51
27.0525693734
  0
LINE
  5
14E
330
1F
100
AcDbEntity
  8
0
  6
Continuous
 62
     7
370
    25
100
AcDbLine
 10
6401.5026987576
 20
4895.7007118955
 30
0.0
 11
6401.0146857285
 21
4896.1633873627
 31
0.0
  0
ARC
  5
14F
330
1F
100
AcDbEntity
  8
0
  6
Continuous
 62
     7
370
    25
100
AcDbCircle
 10
6395.7594157242
 20
4865.1111748548
 30
0.0
 40
8.0
100
AcDbArc
 50
310.8518325814
 51
0.0
  0
SPLINE
  5
150
330
1F
100
AcDbEntity
  8
0
  6
Continuous
 62
     7
370
    25
100
AcDbSpline
210
0.0
220
0.0
230
1.0
 70
     8
 71
     3
 72
    13
 73
     9
 74
     0
 42
0.000000001
 43
0.00000001
 40
0.0
 40
0.0
 40
0.0
 40
0.0
 40
0.0804850819582998
 40
0.2638042024344889
 40
0.4484031677892294
 40
0.634169168021912
 40
0.8195719080363918
 40
1.0
 40
1.0
 40
1.0
 40
1.0
 10
6387.807160713632
 20
4863.446119380013
 30
0.0
 10
6387.931263917902
 20
4863.44575113092
 30
0.0
 10
6388.338034291064
 20
4863.444544128878
 30
0.0
 10
6389.006241306524
 20
4863.681270038534
 30
0.0
 10
6389.735866406955
 20
4864.129686949794
 30
0.0
 10
6390.306397609462
 20
4864.766254421504
 30
0.0
 10
6390.687350818519
 20
4865.519834906681
 30
0.0
 10
6390.734290785101
 20
4866.061580227576
 30
0.0
 10
6390.757441618402
 20
4866.328769502059
 30
0.0
  0
SPLINE
  5
151
330
1F
100
AcDbEntity
  8
0
  6
Continuous
 62
     7
370
    25
100
AcDbSpline
210
0.0
220
0.0
230
1.0
 70
     8
 71
     3
 72
    14
 73
    10
 74
     0
 42
0.000000001
 43
0.00000001
 40
0.0
 40
0.0
 40
0.0
 40
0.0
 40
0.0553379886393688
 40
0.2314405430519379
 40
0.4097972426426098
 40
0.5925720871069025
 40
0.7799247761512689
 40
0.9705201644517802
 40
1.0
 40
1.0
 40
1.0
 40
1.0
 10
6375.78509012695
 20
4866.490963985041
 30
0.0
 10
6375.780448778406
 20
4866.411071475275
 30
0.0
 10
6375.761037226707
 20
4866.076936348562
 30
0.0
 10
6375.956926543427
 20
4865.489220964078
 30
0.0
 10
6376.35524245264
 20
4864.795995741341
 30
0.0
 10
6376.954291026271
 20
4864.207555399707
 30
0.0
 10
6377.698188017422
 20
4863.793786449673
 30
0.0
 10
6378.300773801119
 20
4863.59743198342
 30
0.0
 10
6378.630943032755
 20
4863.596023714322
 30
0.0
 10
6378.675170340497
 20
4863.595835071817
 30
0.0
  0
SPLINE
  5
152
330
1F
100
AcDbEntity
  8
0
  6
Continuous
 62
     7
370
    25
100
AcDbSpline
210
0.0
220
0.0
230
1.0
 70
     8
 71
     3
 72
    11
 73
     7
 74
     0
 42
0.000000001
 43
0.00000001
 40
0.0
 40
0.0
 40
0.0
 40
0.0
 40
0.1574178030336884
 40
0.4563529589736471
 40
0.7553078915133588
 40
1.0
 40
1.0
 40
1.0
 40
1.0
 10
6378.67445508476
 20
4863.584232655183
 30
0.0
 10
6379.148694265911
 20
4863.5468362465
 30
0.0
 10
6380.523509880215
 20
4863.438424355162
 30
0.0
 10
6382.82591533811
 20
4863.342473864346
 30
0.0
 10
6385.405343812495
 20
4863.325472076149
 30
0.0
 10
6387.061908852465
 20
4863.389534615743
 30
0.0
 10
6387.8075183415
 20
4863.418368761257
 30
0.0
  0
LINE
  5
153
330
1F
100
AcDbEntity
  8
0
  6
Continuous
 62
     7
370
    25
100
AcDbLine
 10
6368.2594151282
 20
4957.3713989452
 30
0.0
 11
6368.2594151282
 21
4963.8713972166
 31
0.0
  0
LINE
  5
154
330
1F
100
AcDbEntity
  8
0
  6
Continuous
 62
     7
370
    25
100
AcDbLine
 10
6298.2594148302
 20
4963.8713972166
 30
0.0
 11
6298.2594148302
 21
4957.3713989452
 31
0.0
  0
ARC
  5
155
330
1F
100
AcDbEntity
  8
0
  6
Continuous
 62
     7
370
    25
100
AcDbCircle
 10
6366.2594157242
 20
4957.3713975147
 30
0.0
 40
2.0
100
AcDbArc
 50
334.5692127594
 51
0.0
  0
ARC
  5
156
330
1F
100
AcDbEntity
  8
0
  6
Continuous
 62
     7
370
    25
100
AcDbCircle
 10
6300.2594157242
 20
4957.3713975147
 30
0.0
 40
1.999999999999153
100
AcDbArc
 50
180.0
 51
205.4307872406
  0
ARC
  5
157
330
1F
100
AcDbEntity
  8
0
  6
Continuous
 62
     7
370
    25
100
AcDbCircle
 10
6334.5773935266
 20
4973.689375317
 30
0.0
 40
40.00000000000007
100
AcDbArc
 50
205.4307872406
 51
244.5692127594
  0
ARC
  5
158
330
1F
100
AcDbEntity
  8
0
  6
Continuous
 62
     7
370
    25
100
AcDbCircle
 10
6331.9414379219
 20
4973.689375317
 30
0.0
 40
40.00000000000007
100
AcDbArc
 50
295.4307872406
 51
334.5692127594
  0
ARC
  5
159
330
1F
100
AcDbEntity
  8
0
  6
Continuous
 62
     7
370
    25
100
AcDbCircle
 10
6348.2594157242
 20
4939.3713975147
 30
0.0
 40
2.000000000000365
100
AcDbArc
 50
270.0
 51
295.4307872406
  0
ARC
  5
15A
330
1F
100
AcDbEntity
  8
0
  6
Continuous
 62
     7
370
    25
100
AcDbCircle
 10
6318.2594157242
 20
4939.3713975147
 30
0.0
 40
2.0
100
AcDbArc
 50
244.5692127594
 51
270.0
  0
LINE
  5
15B
330
1F
100
AcDbEntity
  8
0
  6
Continuous
 62
     7
370
    25
100
AcDbLine
 10
6319.340933212
 20
4937.3713956669
 30
0.0
 11
6321.4569465303
 21
4937.3713956669
 31
0.0
  0
LINE
  5
15C
330
1F
100
AcDbEntity
  8
0
  6
Continuous
 62
     7
370
    25
100
AcDbLine
 10
6331.1434016609
 20
4937.3713956669
 30
0.0
 11
6335.3754282975
 21
4937.3713956669
 31
0.0
  0
LINE
  5
15D
330
1F
100
AcDbEntity
  8
0
  6
Continuous
 62
     7
370
    25
100
AcDbLine
 10
6345.0618908786
 20
4937.3713956669
 30
0.0
 11
6347.1779004716
 21
4937.3713956669
 31
0.0
  0
LINE
  5
15E
330
1F
100
AcDbEntity
  8
0
  6
Continuous
 62
     7
370
    25
100
AcDbLine
 10
6218.2594166183
 20
4957.3713989452
 30
0.0
 11
6218.2594166183
 21
4963.8713972166
 31
0.0
  0
LINE
  5
15F
330
1F
100
AcDbEntity
  8
0
  6
Continuous
 62
     7
370
    25
100
AcDbLine
 10
6148.2594163203
 20
4963.8713972166
 30
0.0
 11
6148.2594163203
 21
4957.3713989452
 31
0.0
  0
ARC
  5
160
330
1F
100
AcDbEntity
  8
0
  6
Continuous
 62
     7
370
    25
100
AcDbCircle
 10
6216.2594157242
 20
4957.3713975147
 30
0.0
 40
2.0
100
AcDbArc
 50
334.5692127594
 51
0.0
  0
ARC
  5
161
330
1F
100
AcDbEntity
  8
0
  6
Continuous
 62
     7
370
    25
100
AcDbCircle
 10
6150.2594157242
 20
4957.3713975147
 30
0.0
 40
2.0
100
AcDbArc
 50
180.0
 51
205.4307872406
  0
ARC
  5
162
330
1F
100
AcDbEntity
  8
0
  6
Continuous
 62
     7
370
    25
100
AcDbCircle
 10
6184.5773935266
 20
4973.689375317
 30
0.0
 40
40.00000000000007
100
AcDbArc
 50
205.4307872406
 51
244.5692127594
  0
ARC
  5
163
330
1F
100
AcDbEntity
  8
0
  6
Continuous
 62
     7
370
    25
100
AcDbCircle
 10
6181.9414379219
 20
4973.689375317
 30
0.0
 40
40.0000000000009
100
AcDbArc
 50
295.4307872406
 51
334.5692127594
  0
ARC
  5
164
330
1F
100
AcDbEntity
  8
0
  6
Continuous
 62
     7
370
    25
100
AcDbCircle
 10
6198.2594157242
 20
4939.3713975147
 30
0.0
 40
2.000000000000365
100
AcDbArc
 50
270.0
 51
295.4307872406
  0
ARC
  5
165
330
1F
100
AcDbEntity
  8
0
  6
Continuous
 62
     7
370
    25
100
AcDbCircle
 10
6168.2594157242
 20
4939.3713975147
 30
0.0
 40
2.000000000000365
100
AcDbArc
 50
244.5692127594
 51
270.0
  0
LINE
  5
166
330
1F
100
AcDbEntity
  8
0
  6
Continuous
 62
     7
370
    25
100
AcDbLine
 10
6169.3409309768
 20
4937.3713956669
 30
0.0
 11
6171.4569405698
 21
4937.3713956669
 31
0.0
  0
LINE
  5
167
330
1F
100
AcDbEntity
  8
0
  6
Continuous
 62
     7
370
    25
100
AcDbLine
 10
6181.143403151
 20
4937.3713956669
 30
0.0
 11
6185.3754297876
 21
4937.3713956669
 31
0.0
  0
LINE
  5
168
330
1F
100
AcDbEntity
  8
0
  6
Continuous
 62
     7
370
    25
100
AcDbLine
 10
6195.0618849182
 20
4937.3713956669
 30
0.0
 11
6197.1778982365
 21
4937.3713956669
 31
0.0
  0
LINE
  5
169
330
1F
100
AcDbEntity
  8
0
  6
Continuous
 62
     7
370
    25
100
AcDbLine
 10
6219.2594149196
 20
4854.3713969633
 30
0.0
 11
6353.2594145321
 21
4854.3713969633
 31
0.0
  0
LINE
  5
16A
330
1F
100
AcDbEntity
  8
0
  6
Continuous
 62
     7
370
    25
100
AcDbLine
 10
6163.2594169163
 20
4854.3713969633
 30
0.0
 11
6197.2594150388
 21
4854.3713969633
 31
0.0
  0
LINE
  5
16B
330
1F
100
AcDbEntity
  8
0
  6
Continuous
 62
     7
370
    25
100
AcDbLine
 10
6353.2594145321
 20
4860.1213974402
 30
0.0
 11
6353.7594155454
 21
4860.1213974402
 31
0.0
  0
LINE
  5
16C
330
1F
100
AcDbEntity
  8
0
  6
Continuous
 62
     7
370
    25
100
AcDbLine
 10
6353.7594155454
 20
4895.1213975892
 30
0.0
 11
6353.2594145321
 21
4895.1213975892
 31
0.0
  0
LINE
  5
16D
330
1F
100
AcDbEntity
  8
0
  6
Continuous
 62
     7
370
    25
100
AcDbLine
 10
6196.959417411
 20
4915.3713957861
 30
0.0
 11
6196.959417411
 21
4925.3713974252
 31
0.0
  0
LINE
  5
16E
330
1F
100
AcDbEntity
  8
0
  6
Continuous
 62
     7
370
    25
100
AcDbLine
 10
6169.5594192528
 20
4925.3713974252
 30
0.0
 11
6169.5594192528
 21
4915.3713957861
 31
0.0
  0
LINE
  5
16F
330
1F
100
AcDbEntity
  8
0
  6
Continuous
 62
     7
370
    25
100
AcDbLine
 10
6346.9594121956
 20
4915.3713957861
 30
0.0
 11
6346.9594121956
 21
4925.3713974252
 31
0.0
  0
LINE
  5
170
330
1F
100
AcDbEntity
  8
0
  6
Continuous
 62
     7
370
    25
100
AcDbLine
 10
6319.5594140374
 20
4925.3713974252
 30
0.0
 11
6319.5594140374
 21
4915.3713957861
 31
0.0
  0
LINE
  5
171
330
1F
100
AcDbEntity
  8
0
  6
Continuous
 62
     7
370
    25
100
AcDbLine
 10
6343.5094133997
 20
4963.8713972166
 30
0.0
 11
6343.5094133997
 21
4969.6713985399
 31
0.0
  0
LINE
  5
172
330
1F
100
AcDbEntity
  8
0
  6
Continuous
 62
     7
370
    25
100
AcDbLine
 10
6323.0094165587
 20
4969.6713985399
 30
0.0
 11
6323.0094165587
 21
4963.8713972166
 31
0.0
  0
LINE
  5
173
330
1F
100
AcDbEntity
  8
0
  6
Continuous
 62
     7
370
    25
100
AcDbLine
 10
6343.5094133997
 20
4969.6713985399
 30
0.0
 11
6342.5094188237
 21
4970.6714005664
 31
0.0
  0
LINE
  5
174
330
1F
100
AcDbEntity
  8
0
  6
Continuous
 62
     7
370
    25
100
AcDbLine
 10
6324.0094185853
 20
4970.6714005664
 30
0.0
 11
6323.0094165587
 21
4969.6713985399
 31
0.0
  0
LINE
  5
175
330
1F
100
AcDbEntity
  8
0
  6
Continuous
 62
     7
370
    25
100
AcDbLine
 10
6193.5094148898
 20
4963.8713972166
 30
0.0
 11
6193.5094148898
 21
4969.6713985399
 31
0.0
  0
LINE
  5
176
330
1F
100
AcDbEntity
  8
0
  6
Continuous
 62
     7
370
    25
100
AcDbLine
 10
6173.0094180488
 20
4969.6713985399
 30
0.0
 11
6173.0094180488
 21
4963.8713972166
 31
0.0
  0
LINE
  5
177
330
1F
100
AcDbEntity
  8
0
  6
Continuous
 62
     7
370
    25
100
AcDbLine
 10
6193.5094148898
 20
4969.6713985399
 30
0.0
 11
6192.5094128632
 21
4970.6714005664
 31
0.0
  0
LINE
  5
178
330
1F
100
AcDbEntity
  8
0
  6
Continuous
 62
     7
370
    25
100
AcDbLine
 10
6174.0094126248
 20
4970.6714005664
 30
0.0
 11
6173.0094180488
 21
4969.6713985399
 31
0.0
  0
LINE
  5
179
330
1F
100
AcDbEntity
  8
0
  6
Continuous
 62
     7
370
    25
100
AcDbLine
 10
6142.7594126248
 20
4877.521169023
 30
0.0
 11
6142.7594126248
 21
4859.6213982895
 31
0.0
  0
LINE
  5
17A
330
1F
100
AcDbEntity
  8
0
  6
Continuous
 62
     7
370
    25
100
AcDbLine
 10
6142.7594126248
 20
4895.6213967398
 30
0.0
 11
6142.7594126248
 21
4877.521169023
 31
0.0
  0
LINE
  5
17B
330
1F
100
AcDbEntity
  8
0
  6
Continuous
 62
     7
370
    25
100
AcDbLine
 10
6163.1594152236
 20
4877.4933277677
 30
0.0
 11
6163.1594152236
 21
4854.62139747
 31
0.0
  0
LINE
  5
17C
330
1F
100
AcDbEntity
  8
0
  6
Continuous
 62
     7
370
    25
100
AcDbLine
 10
6163.1594152236
 20
4900.6213975594
 30
0.0
 11
6163.1594152236
 21
4877.4933277677
 31
0.0
  0
LINE
  5
17D
330
1F
100
AcDbEntity
  8
0
  6
Continuous
 62
     7
370
    25
100
AcDbLine
 10
6244.2594152921
 20
4915.4713974789
 30
0.0
 11
6244.2594152921
 21
4915.3713957861
 31
0.0
  0
LINE
  5
17E
330
1F
100
AcDbEntity
  8
0
  6
Continuous
 62
     7
370
    25
100
AcDbLine
 10
6244.2594152921
 20
4915.4713974789
 30
0.0
 11
6272.2594161564
 21
4915.4713974789
 31
0.0
  0
LINE
  5
17F
330
1F
100
AcDbEntity
  8
0
  6
Continuous
 62
     7
370
    25
100
AcDbLine
 10
6272.2594161564
 20
4915.4713974789
 30
0.0
 11
6272.2594161564
 21
4915.3713957861
 31
0.0
  0
LINE
  5
180
330
1F
100
AcDbEntity
  8
0
  6
Continuous
 62
     7
370
    25
100
AcDbLine
 10
6332.1087286853
 20
4897.8359160468
 30
0.0
 11
6332.1087286853
 21
4901.1306521937
 31
0.0
  0
SPLINE
  5
181
330
1F
100
AcDbEntity
  8
0
  6
Continuous
 62
     7
370
    25
100
AcDbSpline
210
0.0
220
0.0
230
1.0
 70
     8
 71
     3
 72
    10
 73
     6
 74
     0
 42
0.000000001
 43
0.00000001
 40
0.0
 40
0.0
 40
0.0
 40
0.0
 40
0.2808219219652549
 40
0.5611317666279843
 40
1.0
 40
1.0
 40
1.0
 40
1.0
 10
6332.192637124021
 20
4897.757256542161
 30
0.0
 10
6332.181700811001
 20
4897.760371814732
 30
0.0
 10
6332.159848127271
 20
4897.766596679188
 30
0.0
 10
6332.125333064515
 20
4897.790725008248
 30
0.0
 10
6332.115021295991
 20
4897.81878986536
 30
0.0
 10
6332.108728685338
 20
4897.835916046814
 30
0.0
  0
LINE
  5
182
330
1F
100
AcDbEntity
  8
0
  6
Continuous
 62
     7
370
    25
100
AcDbLine
 10
6333.6991668725
 20
4897.7572565422
 30
0.0
 11
6332.192637124
 21
4897.7572565422
 31
0.0
  0
LINE
  5
183
330
1F
100
AcDbEntity
  8
0
  6
Continuous
 62
     7
370
    25
100
AcDbLine
 10
6333.7336258077
 20
4897.7737372264
 30
0.0
 11
6333.6991668725
 21
4897.7572565422
 31
0.0
  0
SPLINE
  5
184
330
1F
100
AcDbEntity
  8
0
  6
Continuous
 62
     7
370
    25
100
AcDbSpline
210
0.0
220
0.0
230
1.0
 70
     8
 71
     3
 72
     9
 73
     5
 74
     0
 42
0.000000001
 43
0.00000001
 40
0.0
 40
0.0
 40
0.0
 40
0.0
 40
0.5592595579823648
 40
1.0
 40
1.0
 40
1.0
 40
1.0
 10
6333.778575160462
 20
4897.874122624115
 30
0.0
 10
6333.77620745382
 20
4897.852521409376
 30
0.0
 10
6333.771973808445
 20
4897.813896741405
 30
0.0
 10
6333.74535693867
 20
4897.786022522155
 30
0.0
 10
6333.733625807721
 20
4897.773737226442
 30
0.0
  0
SPLINE
  5
185
330
1F
100
AcDbEntity
  8
0
  6
Continuous
 62
     7
370
    25
100
AcDbSpline
210
0.0
220
0.0
230
1.0
 70
     8
 71
     3
 72
     9
 73
     5
 74
     0
 42
0.000000001
 43
0.00000001
 40
0.0
 40
0.0
 40
0.0
 40
0.0
 40
0.5603522146427085
 40
1.0
 40
1.0
 40
1.0
 40
1.0
 10
6333.774075009782
 20
4897.89135395439
 30
0.0
 10
6333.775539922274
 20
4897.888287714718
 30
0.0
 10
6333.778154193184
 20
4897.882815728364
 30
0.0
 10
6333.778446603093
 20
4897.876777373471
 30
0.0
 10
6333.778575160462
 20
4897.874122624115
 30
0.0
  0
SPLINE
  5
186
330
1F
100
AcDbEntity
  8
0
  6
Continuous
 62
     7
370
    25
100
AcDbSpline
210
0.0
220
0.0
230
1.0
 70
     8
 71
     3
 72
     9
 73
     5
 74
     0
 42
0.000000001
 43
0.00000001
 40
0.0
 40
0.0
 40
0.0
 40
0.0
 40
0.5587450940876487
 40
1.0
 40
1.0
 40
1.0
 40
1.0
 10
6333.774075009782
 20
4897.90783463867
 30
0.0
 10
6333.774476546543
 20
4897.904760855716
 30
0.0
 10
6333.77519518688
 20
4897.899259629868
 30
0.0
 10
6333.774417963438
 20
4897.893774357661
 30
0.0
 10
6333.774075009782
 20
4897.89135395439
 30
0.0
  0
SPLINE
  5
187
330
1F
100
AcDbEntity
  8
0
  6
Continuous
 62
     7
370
    25
100
AcDbSpline
210
0.0
220
0.0
230
1.0
 70
     8
 71
     3
 72
    10
 73
     6
 74
     0
 42
0.000000001
 43
0.00000001
 40
0.0
 40
0.0
 40
0.0
 40
0.0
 40
0.2800697342648589
 40
0.5608248490666894
 40
1.0
 40
1.0
 40
1.0
 40
1.0
 10
6333.69091907974
 20
4897.996982698158
 30
0.0
 10
6333.701987571541
 20
4897.992601659391
 30
0.0
 10
6333.724151641718
 20
4897.983828860677
 30
0.0
 10
6333.755427833272
 20
4897.953605538061
 30
0.0
 10
6333.767009753731
 20
4897.925176841854
 30
0.0
 10
6333.774075009782
 20
4897.90783463867
 30
0.0
  0
LINE
  5
188
330
1F
100
AcDbEntity
  8
0
  6
Continuous
 62
     7
370
    25
100
AcDbLine
 10
6332.3484585666
 20
4897.9969826982
 30
0.0
 11
6333.6909190797
 21
4897.9969826982
 31
0.0
  0
LINE
  5
189
330
1F
100
AcDbEntity
  8
0
  6
Continuous
 62
     7
370
    25
100
AcDbLine
 10
6332.3484585666
 20
4901.1358955398
 30
0.0
 11
6332.3484585666
 21
4897.9969826982
 31
0.0
  0
LINE
  5
18A
330
1F
100
AcDbEntity
  8
0
  6
Continuous
 62
     7
370
    25
100
AcDbLine
 10
6332.3319778823
 20
4901.1703563377
 30
0.0
 11
6332.3484585666
 21
4901.1358955398
 31
0.0
  0
SPLINE
  5
18B
330
1F
100
AcDbEntity
  8
0
  6
Continuous
 62
     7
370
    25
100
AcDbSpline
210
0.0
220
0.0
230
1.0
 70
     8
 71
     3
 72
     9
 73
     5
 74
     0
 42
0.000000001
 43
0.00000001
 40
0.0
 40
0.0
 40
0.0
 40
0.0
 40
0.5607635957056407
 40
1.0
 40
1.0
 40
1.0
 40
1.0
 10
6332.201622524221
 20
4901.209311698392
 30
0.0
 10
6332.228099954253
 20
4901.208550269319
 30
0.0
 10
6332.275316696271
 20
4901.207192426051
 30
0.0
 10
6332.314685618503
 20
4901.181598237215
 30
0.0
 10
6332.331977882344
 20
4901.170356337741
 30
0.0
  0
SPLINE
  5
18C
330
1F
100
AcDbEntity
  8
0
  6
Continuous
 62
     7
370
    25
100
AcDbSpline
210
0.0
220
0.0
230
1.0
 70
     8
 71
     3
 72
    10
 73
     6
 74
     0
 42
0.000000001
 43
0.00000001
 40
0.0
 40
0.0
 40
0.0
 40
0.0
 40
0.2802435547911969
 40
0.5607276610643601
 40
1.0
 40
1.0
 40
1.0
 40
1.0
 10
6332.108728685338
 20
4901.13065219374
 30
0.0
 10
6332.112828629258
 20
4901.142046995896
 30
0.0
 10
6332.121032036352
 20
4901.164846381116
 30
0.0
 10
6332.152904836318
 20
4901.196136256298
 30
0.0
 10
6332.183158502442
 20
4901.204318200954
 30
0.0
 10
6332.201622524221
 20
4901.209311698392
 30
0.0
  0
SPLINE
  5
18D
330
1F
100
AcDbEntity
  8
0
  6
Continuous
 62
     7
370
    25
100
AcDbSpline
210
0.0
220
0.0
230
1.0
 70
     8
 71
     3
 72
    10
 73
     6
 74
     0
 42
0.000000001
 43
0.00000001
 40
0.0
 40
0.0
 40
0.0
 40
0.0
 40
0.2807618688241241
 40
0.5612472776196418
 40
1.0
 40
1.0
 40
1.0
 40
1.0
 10
6334.649823703725
 20
4899.335703019813
 30
0.0
 10
6334.661475896154
 20
4899.414614330422
 30
0.0
 10
6334.684768807355
 20
4899.572359249408
 30
0.0
 10
6334.819593107331
 20
4899.831888968939
 30
0.0
 10
6334.992397399887
 20
4899.946661114909
 30
0.0
 10
6335.097812213857
 20
4900.016674910501
 30
0.0
  0
LINE
  5
18E
330
1F
100
AcDbEntity
  8
0
  6
Continuous
 62
     7
370
    25
100
AcDbLine
 10
6334.6498237037
 20
4898.5745721951
 30
0.0
 11
6334.6498237037
 21
4899.3357030198
 31
0.0
  0
SPLINE
  5
18F
330
1F
100
AcDbEntity
  8
0
  6
Continuous
 62
     7
370
    25
100
AcDbSpline
210
0.0
220
0.0
230
1.0
 70
     8
 71
     3
 72
     9
 73
     5
 74
     0
 42
0.000000001
 43
0.00000001
 40
0.0
 40
0.0
 40
0.0
 40
0.0
 40
0.559034746504865
 40
1.0
 40
1.0
 40
1.0
 40
1.0
 10
6334.913522102792
 20
4897.943044219926
 30
0.0
 10
6334.828540579078
 20
4898.046789643227
 30
0.0
 10
6334.676525835371
 20
4898.232369205052
 30
0.0
 10
6334.657995109816
 20
4898.469850982802
 30
0.0
 10
6334.649823703725
 20
4898.574572195128
 30
0.0
  0
SPLINE
  5
190
330
1F
100
AcDbEntity
  8
0
  6
Continuous
 62
     7
370
    25
100
AcDbSpline
210
0.0
220
0.0
230
1.0
 70
     8
 71
     3
 72
     9
 73
     5
 74
     0
 42
0.000000001
 43
0.00000001
 40
0.0
 40
0.0
 40
0.0
 40
0.0
 40
0.5593993005792615
 40
1.0
 40
1.0
 40
1.0
 40
1.0
 10
6335.501603879888
 20
4897.70931205602
 30
0.0
 10
6335.378361037234
 20
4897.720989264149
 30
0.0
 10
6335.158048207871
 20
4897.74186381318
 30
0.0
 10
6334.988309219699
 20
4897.881514173497
 30
0.0
 10
6334.913522102792
 20
4897.943044219926
 30
0.0
  0
SPLINE
  5
191
330
1F
100
AcDbEntity
  8
0
  6
Continuous
 62
     7
370
    25
100
AcDbSpline
210
0.0
220
0.0
230
1.0
 70
     8
 71
     3
 72
     9
 73
     5
 74
     0
 42
0.000000001
 43
0.00000001
 40
0.0
 40
0.0
 40
0.0
 40
0.0
 40
0.5599590705092508
 40
1.0
 40
1.0
 40
1.0
 40
1.0
 10
6335.805006422956
 20
4897.769242663697
 30
0.0
 10
6335.749808494712
 20
4897.750343227951
 30
0.0
 10
6335.651233561024
 20
4897.716591768712
 30
0.0
 10
6335.547327013596
 20
4897.711536556361
 30
0.0
 10
6335.501603879888
 20
4897.70931205602
 30
0.0
  0
SPLINE
  5
192
330
1F
100
AcDbEntity
  8
0
  6
Continuous
 62
     7
370
    25
100
AcDbSpline
210
0.0
220
0.0
230
1.0
 70
     8
 71
     3
 72
    10
 73
     6
 74
     0
 42
0.000000001
 43
0.00000001
 40
0.0
 40
0.0
 40
0.0
 40
0.0
 40
0.2803170085759063
 40
0.5611571831915189
 40
0.9999999999999999
 40
0.9999999999999999
 40
0.9999999999999999
 40
0.9999999999999999
 10
6336.327910520989
 20
4898.47044101806
 30
0.0
 10
6336.317066070185
 20
4898.384268344036
 30
0.0
 10
6336.295356929178
 20
4898.211762168728
 30
0.0
 10
6336.117295374779
 20
4897.947140501562
 30
0.0
 10
6335.923299655875
 20
4897.836629326745
 30
0.0
 10
6335.805006422956
 20
4897.769242663697
 30
0.0
  0
LINE
  5
193
330
1F
100
AcDbEntity
  8
0
  6
Continuous
 62
     7
370
    25
100
AcDbLine
 10
6336.327910521
 20
4899.2757705495
 30
0.0
 11
6336.327910521
 21
4898.4704410181
 31
0.0
  0
SPLINE
  5
194
330
1F
100
AcDbEntity
  8
0
  6
Continuous
 62
     7
370
    25
100
AcDbSpline
210
0.0
220
0.0
230
1.0
 70
     8
 71
     3
 72
     9
 73
     5
 74
     0
 42
0.000000001
 43
0.00000001
 40
0.0
 40
0.0
 40
0.0
 40
0.0
 40
0.560143263207788
 40
0.9999999999999999
 40
0.9999999999999999
 40
0.9999999999999999
 40
0.9999999999999999
 10
6336.263485350568
 20
4899.589661647395
 30
0.0
 10
6336.28299155247
 20
4899.532505607429
 30
0.0
 10
6336.317815147047
 20
4899.430467354503
 30
0.0
 10
6336.324826520945
 20
4899.323028328758
 30
0.0
 10
6336.327910520989
 20
4899.275770549491
 30
0.0
  0
SPLINE
  5
195
330
1F
100
AcDbEntity
  8
0
  6
Continuous
 62
     7
370
    25
100
AcDbSpline
210
0.0
220
0.0
230
1.0
 70
     8
 71
     3
 72
    11
 73
     7
 74
     0
 42
0.000000001
 43
0.00000001
 40
0.0
 40
0.0
 40
0.0
 40
0.0
 40
0.2798479872901969
 40
0.5597930854605729
 40
0.779916995366008
 40
1.0
 40
1.0
 40
1.0
 40
1.0
 10
6335.486620762307
 20
4900.106571753338
 30
0.0
 10
6335.579384090012
 20
4900.098049335669
 30
0.0
 10
6335.764942935501
 20
4900.081001542943
 30
0.0
 10
6335.994748080279
 20
4899.953414140058
 30
0.0
 10
6336.171867766876
 20
4899.789338977375
 30
0.0
 10
6336.232948047921
 20
4899.656216634019
 30
0.0
 10
6336.263485350568
 20
4899.589661647395
 30
0.0
  0
SPLINE
  5
196
330
1F
100
AcDbEntity
  8
0
  6
Continuous
 62
     7
370
    25
100
AcDbSpline
210
0.0
220
0.0
230
1.0
 70
     8
 71
     3
 72
     9
 73
     5
 74
     0
 42
0.000000001
 43
0.00000001
 40
0.0
 40
0.0
 40
0.0
 40
0.0
 40
0.55959597933485
 40
1.0
 40
1.0
 40
1.0
 40
1.0
 10
6335.097812213857
 20
4900.016674910501
 30
0.0
 10
6335.16755737795
 20
4900.046324386354
 30
0.0
 10
6335.292192233577
 20
4900.099308104873
 30
0.0
 10
6335.427174173325
 20
4900.104350890342
 30
0.0
 10
6335.486620762307
 20
4900.106571753338
 30
0.0
  0
SPLINE
  5
197
330
1F
100
AcDbEntity
  8
0
  6
Continuous
 62
     7
370
    25
100
AcDbSpline
210
0.0
220
0.0
230
1.0
 70
     8
 71
     3
 72
    10
 73
     6
 74
     0
 42
0.000000001
 43
0.00000001
 40
0.0
 40
0.0
 40
0.0
 40
0.0
 40
0.2807594431592215
 40
0.5612483086374033
 40
1.0
 40
1.0
 40
1.0
 40
1.0
 10
6339.732021191079
 20
4899.335703019813
 30
0.0
 10
6339.743669744502
 20
4899.414614758077
 30
0.0
 10
6339.766955625231
 20
4899.572362184607
 30
0.0
 10
6339.901793787855
 20
4899.831886309149
 30
0.0
 10
6340.074596471771
 20
4899.946660355988
 30
0.0
 10
6340.180009701211
 20
4900.016674910501
 30
0.0
  0
LINE
  5
198
330
1F
100
AcDbEntity
  8
0
  6
Continuous
 62
     7
370
    25
100
AcDbLine
 10
6339.7320211911
 20
4898.5745721951
 30
0.0
 11
6339.7320211911
 21
4899.3357030198
 31
0.0
  0
SPLINE
  5
199
330
1F
100
AcDbEntity
  8
0
  6
Continuous
 62
     7
370
    25
100
AcDbSpline
210
0.0
220
0.0
230
1.0
 70
     8
 71
     3
 72
     9
 73
     5
 74
     0
 42
0.000000001
 43
0.00000001
 40
0.0
 40
0.0
 40
0.0
 40
0.0
 40
0.5590382869601586
 40
1.0
 40
1.0
 40
1.0
 40
1.0
 10
6339.995719590146
 20
4897.943044219926
 30
0.0
 10
6339.91073400619
 20
4898.04678909314
 30
0.0
 10
6339.758712962303
 20
4898.232366495678
 30
0.0
 10
6339.740189381154
 20
4898.469850737176
 30
0.0
 10
6339.732021191079
 20
4898.574572195128
 30
0.0
  0
SPLINE
  5
19A
330
1F
100
AcDbEntity
  8
0
  6
Continuous
 62
     7
370
    25
100
AcDbSpline
210
0.0
220
0.0
230
1.0
 70
     8
 71
     3
 72
     9
 73
     5
 74
     0
 42
0.000000001
 43
0.00000001
 40
0.0
 40
0.0
 40
0.0
 40
0.0
 40
0.559404614120053
 40
1.0
 40
1.0
 40
1.0
 40
1.0
 10
6340.583793916661
 20
4897.70931205602
 30
0.0
 10
6340.46055073955
 20
4897.720988734241
 30
0.0
 10
6340.240239404963
 20
4897.741862137726
 30
0.0
 10
6340.070504157153
 20
4897.881514176162
 30
0.0
 10
6339.995719590146
 20
4897.943044219926
 30
0.0
  0
SPLINE
  5
19B
330
1F
100
AcDbEntity
  8
0
  6
Continuous
 62
     7
370
    25
100
AcDbSpline
210
0.0
220
0.0
230
1.0
 70
     8
 71
     3
 72
     9
 73
     5
 74
     0
 42
0.000000001
 43
0.00000001
 40
0.0
 40
0.0
 40
0.0
 40
0.0
 40
0.5599590705092508
 40
1.0
 40
1.0
 40
1.0
 40
1.0
 10
6340.887196459729
 20
4897.769242663697
 30
0.0
 10
6340.831998531486
 20
4897.750343227951
 30
0.0
 10
6340.733423597797
 20
4897.716591768712
 30
0.0
 10
6340.62951705037
 20
4897.711536556361
 30
0.0
 10
6340.583793916661
 20
4897.70931205602
 30
0.0
  0
SPLINE
  5
19C
330
1F
100
AcDbEntity
  8
0
  6
Continuous
 62
     7
370
    25
100
AcDbSpline
210
0.0
220
0.0
230
1.0
 70
     8
 71
     3
 72
    10
 73
     6
 74
     0
 42
0.000000001
 43
0.00000001
 40
0.0
 40
0.0
 40
0.0
 40
0.0
 40
0.2803170085759063
 40
0.5611571831915189
 40
0.9999999999999999
 40
0.9999999999999999
 40
0.9999999999999999
 40
0.9999999999999999
 10
6341.410100557763
 20
4898.47044101806
 30
0.0
 10
6341.399256106959
 20
4898.384268344036
 30
0.0
 10
6341.377546965951
 20
4898.211762168728
 30
0.0
 10
6341.199485411553
 20
4897.947140501562
 30
0.0
 10
6341.005489692649
 20
4897.836629326745
 30
0.0
 10
6340.887196459729
 20
4897.769242663697
 30
0.0
  0
LINE
  5
19D
330
1F
100
AcDbEntity
  8
0
  6
Continuous
 62
     7
370
    25
100
AcDbLine
 10
6341.4101005578
 20
4899.2757705495
 30
0.0
 11
6341.4101005578
 21
4898.4704410181
 31
0.0
  0
SPLINE
  5
19E
330
1F
100
AcDbEntity
  8
0
  6
Continuous
 62
     7
370
    25
100
AcDbSpline
210
0.0
220
0.0
230
1.0
 70
     8
 71
     3
 72
     9
 73
     5
 74
     0
 42
0.000000001
 43
0.00000001
 40
0.0
 40
0.0
 40
0.0
 40
0.0
 40
0.560143263207788
 40
0.9999999999999999
 40
0.9999999999999999
 40
0.9999999999999999
 40
0.9999999999999999
 10
6341.345675387342
 20
4899.589661647395
 30
0.0
 10
6341.365181589244
 20
4899.532505607429
 30
0.0
 10
6341.400005183821
 20
4899.430467354503
 30
0.0
 10
6341.407016557719
 20
4899.323028328758
 30
0.0
 10
6341.410100557763
 20
4899.275770549491
 30
0.0
  0
SPLINE
  5
19F
330
1F
100
AcDbEntity
  8
0
  6
Continuous
 62
     7
370
    25
100
AcDbSpline
210
0.0
220
0.0
230
1.0
 70
     8
 71
     3
 72
    11
 73
     7
 74
     0
 42
0.000000001
 43
0.00000001
 40
0.0
 40
0.0
 40
0.0
 40
0.0
 40
0.2798479872901969
 40
0.5597930854605729
 40
0.779916995366008
 40
1.0
 40
1.0
 40
1.0
 40
1.0
 10
6340.568810799081
 20
4900.106571753338
 30
0.0
 10
6340.661574126786
 20
4900.098049335669
 30
0.0
 10
6340.847132972275
 20
4900.081001542943
 30
0.0
 10
6341.076938117053
 20
4899.953414140058
 30
0.0
 10
6341.25405780365
 20
4899.789338977375
 30
0.0
 10
6341.315138084695
 20
4899.656216634019
 30
0.0
 10
6341.345675387342
 20
4899.589661647395
 30
0.0
  0
SPLINE
  5
1A0
330
1F
100
AcDbEntity
  8
0
  6
Continuous
 62
     7
370
    25
100
AcDbSpline
210
0.0
220
0.0
230
1.0
 70
     8
 71
     3
 72
     9
 73
     5
 74
     0
 42
0.000000001
 43
0.00000001
 40
0.0
 40
0.0
 40
0.0
 40
0.0
 40
0.5595882707457623
 40
1.0
 40
1.0
 40
1.0
 40
1.0
 10
6340.180009701211
 20
4900.016674910501
 30
0.0
 10
6340.249752355384
 20
4900.046324376583
 30
0.0
 10
6340.374384442618
 20
4900.099308807513
 30
0.0
 10
6340.509364151901
 20
4900.104351078189
 30
0.0
 10
6340.568810799081
 20
4900.106571753338
 30
0.0
  0
LINE
  5
1A1
330
1F
100
AcDbEntity
  8
0
  6
Continuous
 62
     7
370
    25
100
AcDbLine
 10
6325.2594173932
 20
4896.1613663927
 30
0.0
 11
6348.2594193005
 21
4896.1613663927
 31
0.0
  0
SPLINE
  5
1A2
330
1F
100
AcDbEntity
  8
0
  6
Continuous
 62
     7
370
    25
100
AcDbSpline
210
0.0
220
0.0
230
1.0
 70
     8
 71
     3
 72
    10
 73
     6
 74
     0
 42
0.000000001
 43
0.00000001
 40
0.0
 40
0.0
 40
0.0
 40
0.0
 40
0.2803431255683413
 40
0.5613769432593105
 40
0.9999999999999999
 40
0.9999999999999999
 40
0.9999999999999999
 40
0.9999999999999999
 10
6337.190926172692
 20
4899.432342638091
 30
0.0
 10
6337.201743625043
 20
4899.510977906615
 30
0.0
 10
6337.22340518112
 20
4899.668442180397
 30
0.0
 10
6337.388562841781
 20
4899.909410912491
 30
0.0
 10
6337.569709481838
 20
4900.004448604478
 30
0.0
 10
6337.680116393525
 20
4900.062373046592
 30
0.0
  0
LINE
  5
1A3
330
1F
100
AcDbEntity
  8
0
  6
Continuous
 62
     7
370
    25
100
AcDbLine
 10
6337.1909261727
 20
4898.5483517394
 30
0.0
 11
6337.1909261727
 21
4899.4323426381
 31
0.0
  0
SPLINE
  5
1A4
330
1F
100
AcDbEntity
  8
0
  6
Continuous
 62
     7
370
    25
100
AcDbSpline
210
0.0
220
0.0
230
1.0
 70
     8
 71
     3
 72
     9
 73
     5
 74
     0
 42
0.000000001
 43
0.00000001
 40
0.0
 40
0.0
 40
0.0
 40
0.0
 40
0.5598539953255182
 40
1.0
 40
1.0
 40
1.0
 40
1.0
 10
6337.205901839692
 20
4898.343086381272
 30
0.0
 10
6337.200861507795
 20
4898.381239750869
 30
0.0
 10
6337.191858567853
 20
4898.449388535939
 30
0.0
 10
6337.191211136858
 20
4898.518106015349
 30
0.0
 10
6337.190926172692
 20
4898.548351739362
 30
0.0
  0
SPLINE
  5
1A5
330
1F
100
AcDbEntity
  8
0
  6
Continuous
 62
     7
370
    25
100
AcDbSpline
210
0.0
220
0.0
230
1.0
 70
     8
 71
     3
 72
     9
 73
     5
 74
     0
 42
0.000000001
 43
0.00000001
 40
0.0
 40
0.0
 40
0.0
 40
0.0
 40
0.5597747987758234
 40
1.0
 40
1.0
 40
1.0
 40
1.0
 10
6337.432146170098
 20
4897.943044219926
 30
0.0
 10
6337.37234070692
 20
4898.008185102297
 30
0.0
 10
6337.265502272412
 20
4898.12455490407
 30
0.0
 10
6337.224119554856
 20
4898.276289144671
 30
0.0
 10
6337.205901839692
 20
4898.343086381272
 30
0.0
  0
SPLINE
  5
1A6
330
1F
100
AcDbEntity
  8
0
  6
Continuous
 62
     7
370
    25
100
AcDbSpline
210
0.0
220
0.0
230
1.0
 70
     8
 71
     3
 72
     9
 73
     5
 74
     0
 42
0.000000001
 43
0.00000001
 40
0.0
 40
0.0
 40
0.0
 40
0.0
 40
0.5584387410056417
 40
1.0
 40
1.0
 40
1.0
 40
1.0
 10
6337.856158711869
 20
4897.757256542161
 30
0.0
 10
6337.767090359904
 20
4897.77005222287
 30
0.0
 10
6337.607595064494
 20
4897.79296553416
 30
0.0
 10
6337.485887510756
 20
4897.89707396856
 30
0.0
 10
6337.432146170098
 20
4897.943044219926
 30
0.0
  0
LINE
  5
1A7
330
1F
100
AcDbEntity
  8
0
  6
Continuous
 62
     7
370
    25
100
AcDbLine
 10
6338.6292756581
 20
4897.7572565422
 30
0.0
 11
6337.8561587119
 21
4897.7572565422
 31
0.0
  0
LINE
  5
1A8
330
1F
100
AcDbEntity
  8
0
  6
Continuous
 62
     7
370
    25
100
AcDbLine
 10
6338.6300281667
 20
4897.6883349463
 30
0.0
 11
6338.6292756581
 21
4897.7572565422
 31
0.0
  0
SPLINE
  5
1A9
330
1F
100
AcDbEntity
  8
0
  6
Continuous
 62
     7
370
    25
100
AcDbSpline
210
0.0
220
0.0
230
1.0
 70
     8
 71
     3
 72
     9
 73
     5
 74
     0
 42
0.000000001
 43
0.00000001
 40
0.0
 40
0.0
 40
0.0
 40
0.0
 40
0.5600003342410208
 40
1.0
 40
1.0
 40
1.0
 40
1.0
 10
6338.62927565809
 20
4897.579709206537
 30
0.0
 10
6338.629596728484
 20
4897.599984906332
 30
0.0
 10
6338.630170068133
 20
4897.6361914915
 30
0.0
 10
6338.630071525469
 20
4897.67240223244
 30
0.0
 10
6338.63002816673
 20
4897.68833494635
 30
0.0
  0
LINE
  5
1AA
330
1F
100
AcDbEntity
  8
0
  6
Continuous
 62
     7
370
    25
100
AcDbLine
 10
6338.6292756581
 20
4897.4710834667
 30
0.0
 11
6338.6292756581
 21
4897.5797092065
 31
0.0
  0
SPLINE
  5
1AB
330
1F
100
AcDbEntity
  8
0
  6
Continuous
 62
     7
370
    25
100
AcDbSpline
210
0.0
220
0.0
230
1.0
 70
     8
 71
     3
 72
     9
 73
     5
 74
     0
 42
0.000000001
 43
0.00000001
 40
0.0
 40
0.0
 40
0.0
 40
0.0
 40
0.5595749251195442
 40
1.0
 40
1.0
 40
1.0
 40
1.0
 10
6338.594816722829
 20
4897.234354306773
 30
0.0
 10
6338.60669014506
 20
4897.277774052811
 30
0.0
 10
6338.627908791035
 20
4897.355368212396
 30
0.0
 10
6338.628857724151
 20
4897.435702314006
 30
0.0
 10
6338.62927565809
 20
4897.471083466724
 30
0.0
  0
SPLINE
  5
1AC
330
1F
100
AcDbEntity
  8
0
  6
Continuous
 62
     7
370
    25
100
AcDbSpline
210
0.0
220
0.0
230
1.0
 70
     8
 71
     3
 72
    10
 73
     6
 74
     0
 42
0.000000001
 43
0.00000001
 40
0.0
 40
0.0
 40
0.0
 40
0.0
 40
0.2806250419528464
 40
0.5616680288854602
 40
1.0
 40
1.0
 40
1.0
 40
1.0
 10
6338.163308896977
 20
4896.894242753104
 30
0.0
 10
6338.216119239064
 20
4896.905367887753
 30
0.0
 10
6338.321818575582
 20
4896.927634726115
 30
0.0
 10
6338.485655573464
 20
4897.038202953262
 30
0.0
 10
6338.553486036655
 20
4897.160087316349
 30
0.0
 10
6338.594816722829
 20
4897.234354306773
 30
0.0
  0
LINE
  5
1AD
330
1F
100
AcDbEntity
  8
0
  6
Continuous
 62
     7
370
    25
100
AcDbLine
 10
6337.4628649139
 20
4896.8942427531
 30
0.0
 11
6338.163308897
 21
4896.8942427531
 31
0.0
  0
LINE
  5
1AE
330
1F
100
AcDbEntity
  8
0
  6
Continuous
 62
     7
370
    25
100
AcDbLine
 10
6337.4283985281
 20
4896.8777620688
 30
0.0
 11
6337.4628649139
 21
4896.8942427531
 31
0.0
  0
SPLINE
  5
1AF
330
1F
100
AcDbEntity
  8
0
  6
Continuous
 62
     7
370
    25
100
AcDbSpline
210
0.0
220
0.0
230
1.0
 70
     8
 71
     3
 72
    10
 73
     6
 74
     0
 42
0.000000001
 43
0.00000001
 40
0.0
 40
0.0
 40
0.0
 40
0.0
 40
0.5591732035495148
 40
0.7799958907261978
 40
1.0
 40
1.0
 40
1.0
 40
1.0
 10
6337.374463775117
 20
4896.74741043599
 30
0.0
 10
6337.375727709516
 20
4896.775271142811
 30
0.0
 10
6337.377490783339
 20
4896.814134301302
 30
0.0
 10
6337.401033655224
 20
4896.859294885549
 30
0.0
 10
6337.419288202827
 20
4896.871613966227
 30
0.0
 10
6337.428398528058
 20
4896.877762068823
 30
0.0
  0
SPLINE
  5
1B0
330
1F
100
AcDbEntity
  8
0
  6
Continuous
 62
     7
370
    25
100
AcDbSpline
210
0.0
220
0.0
230
1.0
 70
     8
 71
     3
 72
    10
 73
     6
 74
     0
 42
0.000000001
 43
0.00000001
 40
0.0
 40
0.0
 40
0.0
 40
0.0
 40
0.2806159973719771
 40
0.5621931538727003
 40
1.0
 40
1.0
 40
1.0
 40
1.0
 10
6337.459117271859
 20
4896.654516597107
 30
0.0
 10
6337.446516450227
 20
4896.65714703405
 30
0.0
 10
6337.421271646935
 20
4896.662416917645
 30
0.0
 10
6337.386195407538
 20
4896.695173955758
 30
0.0
 10
6337.378902272877
 20
4896.727647500008
 30
0.0
 10
6337.374463775117
 20
4896.74741043599
 30
0.0
  0
LINE
  5
1B1
330
1F
100
AcDbEntity
  8
0
  6
Continuous
 62
     7
370
    25
100
AcDbLine
 10
6338.0591795826
 20
4896.6545165971
 30
0.0
 11
6337.4591172719
 21
4896.6545165971
 31
0.0
  0
SPLINE
  5
1B2
330
1F
100
AcDbEntity
  8
0
  6
Continuous
 62
     7
370
    25
100
AcDbSpline
210
0.0
220
0.0
230
1.0
 70
     8
 71
     3
 72
     9
 73
     5
 74
     0
 42
0.000000001
 43
0.00000001
 40
0.0
 40
0.0
 40
0.0
 40
0.0
 40
0.5594605557488268
 40
1.0
 40
1.0
 40
1.0
 40
1.0
 10
6338.349096574742
 20
4896.688977395013
 30
0.0
 10
6338.295659144822
 20
4896.676841423538
 30
0.0
 10
6338.200143152907
 20
4896.655149149883
 30
0.0
 10
6338.102288442357
 20
4896.654710041617
 30
0.0
 10
6338.059179582555
 20
4896.654516597107
 30
0.0
  0
SPLINE
  5
1B3
330
1F
100
AcDbEntity
  8
0
  6
Continuous
 62
     7
370
    25
100
AcDbSpline
210
0.0
220
0.0
230
1.0
 70
     8
 71
     3
 72
    10
 73
     6
 74
     0
 42
0.000000001
 43
0.00000001
 40
0.0
 40
0.0
 40
0.0
 40
0.0
 40
0.2802636046454083
 40
0.5617050851646214
 40
0.9999999999999999
 40
0.9999999999999999
 40
0.9999999999999999
 40
0.9999999999999999
 10
6338.869005539376
 20
4897.319007803515
 30
0.0
 10
6338.856696884171
 20
4897.238393270633
 30
0.0
 10
6338.83202784365
 20
4897.076825402713
 30
0.0
 10
6338.653370675141
 20
4896.835311650221
 30
0.0
 10
6338.464259083516
 20
4896.744362391394
 30
0.0
 10
6338.349096574742
 20
4896.688977395013
 30
0.0
  0
LINE
  5
1B4
330
1F
100
AcDbEntity
  8
0
  6
Continuous
 62
     7
370
    25
100
AcDbLine
 10
6338.8690055394
 20
4900.0324068114
 30
0.0
 11
6338.8690055394
 21
4897.3190078035
 31
0.0
  0
SPLINE
  5
1B5
330
1F
100
AcDbEntity
  8
0
  6
Continuous
 62
     7
370
    25
100
AcDbSpline
210
0.0
220
0.0
230
1.0
 70
     8
 71
     3
 72
    10
 73
     6
 74
     0
 42
0.000000001
 43
0.00000001
 40
0.0
 40
0.0
 40
0.0
 40
0.0
 40
0.2808296706749811
 40
0.5616163346432261
 40
1.0
 40
1.0
 40
1.0
 40
1.0
 10
6338.788844742734
 20
4900.106571753338
 30
0.0
 10
6338.799519561774
 20
4900.104229504486
 30
0.0
 10
6338.820867565098
 20
4900.099545365478
 30
0.0
 10
6338.853878656735
 20
4900.075917229307
 30
0.0
 10
6338.86327675412
 20
4900.048884882051
 30
0.0
 10
6338.869005539376
 20
4900.032406811431
 30
0.0
  0
LINE
  5
1B6
330
1F
100
AcDbEntity
  8
0
  6
Continuous
 62
     7
370
    25
100
AcDbLine
 10
6337.925084033
 20
4900.1065717533
 30
0.0
 11
6338.7888447427
 21
4900.1065717533
 31
0.0
  0
SPLINE
  5
1B7
330
1F
100
AcDbEntity
  8
0
  6
Continuous
 62
     7
370
    25
100
AcDbSpline
210
0.0
220
0.0
230
1.0
 70
     8
 71
     3
 72
     9
 73
     5
 74
     0
 42
0.000000001
 43
0.00000001
 40
0.0
 40
0.0
 40
0.0
 40
0.0
 40
0.5599972466398934
 40
1.0
 40
1.0
 40
1.0
 40
1.0
 10
6337.680116393525
 20
4900.062373046592
 30
0.0
 10
6337.724969107838
 20
4900.075741780456
 30
0.0
 10
6337.805063634342
 20
4900.099614636874
 30
0.0
 10
6337.888410974025
 20
4900.104445958515
 30
0.0
 10
6337.925084032971
 20
4900.106571753338
 30
0.0
  0
LINE
  5
1B8
330
1F
100
AcDbEntity
  8
0
  6
Continuous
 62
     7
370
    25
100
AcDbLine
 10
6348.2594193005
 20
4896.1613663927
 30
0.0
 11
6348.2594193005
 21
4903.3713975445
 31
0.0
  0
LINE
  5
1B9
330
1F
100
AcDbEntity
  8
0
  6
Continuous
 62
     7
370
    25
100
AcDbLine
 10
6325.2594173932
 20
4903.3713975445
 30
0.0
 11
6325.2594173932
 21
4896.1613663927
 31
0.0
  0
LINE
  5
1BA
330
1F
100
AcDbEntity
  8
0
  6
Continuous
 62
     7
370
    25
100
AcDbLine
 10
6348.2594193005
 20
4903.3713975445
 30
0.0
 11
6325.2594173932
 21
4903.3713975445
 31
0.0
  0
SPLINE
  5
1BB
330
1F
100
AcDbEntity
  8
0
  6
Continuous
 62
     7
370
    25
100
AcDbSpline
210
0.0
220
0.0
230
1.0
 70
     8
 71
     3
 72
     9
 73
     5
 74
     0
 42
0.000000001
 43
0.00000001
 40
0.0
 40
0.0
 40
0.0
 40
0.0
 40
0.5601741638109627
 40
1.0
 40
1.0
 40
1.0
 40
1.0
 10
6337.430648603398
 20
4898.4771837935
 30
0.0
 10
6337.436632911957
 20
4898.43888354617
 30
0.0
 10
6337.447315854773
 20
4898.370511511535
 30
0.0
 10
6337.472681730693
 20
4898.306198813632
 30
0.0
 10
6337.48383829828
 20
4898.2779124275
 30
0.0
  0
LINE
  5
1BC
330
1F
100
AcDbEntity
  8
0
  6
Continuous
 62
     7
370
    25
100
AcDbLine
 10
6338.6292756581
 20
4897.9969826982
 30
0.0
 11
6338.6292756581
 21
4899.8668455973
 31
0.0
  0
LINE
  5
1BD
330
1F
100
AcDbEntity
  8
0
  6
Continuous
 62
     7
370
    25
100
AcDbLine
 10
6337.8801346802
 20
4897.9969826982
 30
0.0
 11
6338.6292756581
 21
4897.9969826982
 31
0.0
  0
SPLINE
  5
1BE
330
1F
100
AcDbEntity
  8
0
  6
Continuous
 62
     7
370
    25
100
AcDbSpline
210
0.0
220
0.0
230
1.0
 70
     8
 71
     3
 72
     9
 73
     5
 74
     0
 42
0.000000001
 43
0.00000001
 40
0.0
 40
0.0
 40
0.0
 40
0.0
 40
0.5588560921795899
 40
1.0
 40
1.0
 40
1.0
 40
1.0
 10
6337.48383829828
 20
4898.2779124275
 30
0.0
 10
6337.538395300928
 20
4898.196500714304
 30
0.0
 10
6337.636017932964
 20
4898.050825084502
 30
0.0
 10
6337.805408891036
 20
4898.013464217172
 30
0.0
 10
6337.88013468023
 20
4897.996982698158
 30
0.0
  0
SPLINE
  5
1BF
330
1F
100
AcDbEntity
  8
0
  6
Continuous
 62
     7
370
    25
100
AcDbSpline
210
0.0
220
0.0
230
1.0
 70
     8
 71
     3
 72
     9
 73
     5
 74
     0
 42
0.000000001
 43
0.00000001
 40
0.0
 40
0.0
 40
0.0
 40
0.0
 40
0.5588188963170475
 40
1.0
 40
1.0
 40
1.0
 40
1.0
 10
6337.683111526925
 20
4899.800172214225
 30
0.0
 10
6337.610628903632
 20
4899.745134464751
 30
0.0
 10
6337.480922081313
 20
4899.646645043872
 30
0.0
 10
6337.446038555719
 20
4899.489108164758
 30
0.0
 10
6337.430648603398
 20
4899.41960587056
 30
0.0
  0
LINE
  5
1C0
330
1F
100
AcDbEntity
  8
0
  6
Continuous
 62
     7
370
    25
100
AcDbLine
 10
6338.6292756581
 20
4899.8668455973
 30
0.0
 11
6337.910853424
 21
4899.8668455973
 31
0.0
  0
SPLINE
  5
1C1
330
1F
100
AcDbEntity
  8
0
  6
Continuous
 62
     7
370
    25
100
AcDbSpline
210
0.0
220
0.0
230
1.0
 70
     8
 71
     3
 72
     9
 73
     5
 74
     0
 42
0.000000001
 43
0.00000001
 40
0.0
 40
0.0
 40
0.0
 40
0.0
 40
0.5594808724733674
 40
1.0
 40
1.0
 40
1.0
 40
1.0
 10
6337.910853424031
 20
4899.866845597342
 30
0.0
 10
6337.865898555219
 20
4899.862423681263
 30
0.0
 10
6337.785547517278
 20
4899.854520075804
 30
0.0
 10
6337.714437048562
 20
4899.816792106393
 30
0.0
 10
6337.683111526925
 20
4899.800172214225
 30
0.0
  0
LINE
  5
1C2
330
1F
100
AcDbEntity
  8
0
  6
Continuous
 62
     7
370
    25
100
AcDbLine
 10
6337.4306486034
 20
4899.4196058706
 30
0.0
 11
6337.4306486034
 21
4898.4771837935
 31
0.0
  0
SPLINE
  5
1C3
330
1F
100
AcDbEntity
  8
0
  6
Continuous
 62
     7
370
    25
100
AcDbSpline
210
0.0
220
0.0
230
1.0
 70
     8
 71
     3
 72
    11
 73
     7
 74
     0
 42
0.000000001
 43
0.00000001
 40
0.0
 40
0.0
 40
0.0
 40
0.0
 40
0.2794961332364527
 40
0.5593831969575714
 40
0.7796947057319474
 40
1.0
 40
1.0
 40
1.0
 40
1.0
 10
6335.486620762307
 20
4897.949038212017
 30
0.0
 10
6335.568467254857
 20
4897.958674762605
 30
0.0
 10
6335.732274718424
 20
4897.9779613424
 30
0.0
 10
6335.918968055104
 20
4898.119667371619
 30
0.0
 10
6336.047055527043
 20
4898.289924193999
 30
0.0
 10
6336.074472397713
 20
4898.41626332943
 30
0.0
 10
6336.088180639703
 20
4898.479432006196
 30
0.0
  0
SPLINE
  5
1C4
330
1F
100
AcDbEntity
  8
0
  6
Continuous
 62
     7
370
    25
100
AcDbSpline
210
0.0
220
0.0
230
1.0
 70
     8
 71
     3
 72
     9
 73
     5
 74
     0
 42
0.000000001
 43
0.00000001
 40
0.0
 40
0.0
 40
0.0
 40
0.0
 40
0.5595396358496313
 40
1.0
 40
1.0
 40
1.0
 40
1.0
 10
6335.161492326219
 20
4898.050921176389
 30
0.0
 10
6335.218095663671
 20
4898.018137337063
 30
0.0
 10
6335.319256213927
 20
4897.959546600634
 30
0.0
 10
6335.435444449678
 20
4897.952251440781
 30
0.0
 10
6335.486620762307
 20
4897.949038212017
 30
0.0
  0
SPLINE
  5
1C5
330
1F
100
AcDbEntity
  8
0
  6
Continuous
 62
     7
370
    25
100
AcDbSpline
210
0.0
220
0.0
230
1.0
 70
     8
 71
     3
 72
    10
 73
     6
 74
     0
 42
0.000000001
 43
0.00000001
 40
0.0
 40
0.0
 40
0.0
 40
0.0
 40
0.2801336423189824
 40
0.5602070422437976
 40
1.0
 40
1.0
 40
1.0
 40
1.0
 10
6334.889553585012
 20
4898.513890941456
 30
0.0
 10
6334.89424625348
 20
4898.461692559002
 30
0.0
 10
6334.903630581265
 20
4898.35730701929
 30
0.0
 10
6334.994444513482
 20
4898.189248054039
 30
0.0
 10
6335.09814057224
 20
4898.103380709847
 30
0.0
 10
6335.161492326219
 20
4898.050921176389
 30
0.0
  0
LINE
  5
1C6
330
1F
100
AcDbEntity
  8
0
  6
Continuous
 62
     7
370
    25
100
AcDbLine
 10
6334.889553585
 20
4899.3267120317
 30
0.0
 11
6334.889553585
 21
4898.5138909415
 31
0.0
  0
SPLINE
  5
1C7
330
1F
100
AcDbEntity
  8
0
  6
Continuous
 62
     7
370
    25
100
AcDbSpline
210
0.0
220
0.0
230
1.0
 70
     8
 71
     3
 72
    10
 73
     6
 74
     0
 42
0.000000001
 43
0.00000001
 40
0.0
 40
0.0
 40
0.0
 40
0.0
 40
0.2809452665269802
 40
0.5614544840474219
 40
1.0
 40
1.0
 40
1.0
 40
1.0
 10
6335.248395898301
 20
4899.818150465206
 30
0.0
 10
6335.195722952917
 20
4899.789909668542
 30
0.0
 10
6335.090458814675
 20
4899.73347190714
 30
0.0
 10
6334.941553037776
 20
4899.572029649925
 30
0.0
 10
6334.909253068363
 20
4899.419648208496
 30
0.0
 10
6334.889553585012
 20
4899.326712031678
 30
0.0
  0
SPLINE
  5
1C8
330
1F
100
AcDbEntity
  8
0
  6
Continuous
 62
     7
370
    25
100
AcDbSpline
210
0.0
220
0.0
230
1.0
 70
     8
 71
     3
 72
     9
 73
     5
 74
     0
 42
0.000000001
 43
0.00000001
 40
0.0
 40
0.0
 40
0.0
 40
0.0
 40
0.5597888566496299
 40
0.9999999999999999
 40
0.9999999999999999
 40
0.9999999999999999
 40
0.9999999999999999
 10
6335.481375553567
 20
4899.866845597342
 30
0.0
 10
6335.436373242902
 20
4899.864623597116
 30
0.0
 10
6335.355981662879
 20
4899.86065424296
 30
0.0
 10
6335.281280279631
 20
4899.831142057923
 30
0.0
 10
6335.248395898301
 20
4899.818150465206
 30
0.0
  0
SPLINE
  5
1C9
330
1F
100
AcDbEntity
  8
0
  6
Continuous
 62
     7
370
    25
100
AcDbSpline
210
0.0
220
0.0
230
1.0
 70
     8
 71
     3
 72
     9
 73
     5
 74
     0
 42
0.000000001
 43
0.00000001
 40
0.0
 40
0.0
 40
0.0
 40
0.0
 40
0.5592009659390057
 40
1.0
 40
1.0
 40
1.0
 40
1.0
 10
6335.908390679318
 20
4899.696789820508
 30
0.0
 10
6335.8373245079
 20
4899.751463391758
 30
0.0
 10
6335.710239299279
 20
4899.849234273036
 30
0.0
 10
6335.551394283214
 20
4899.861457576834
 30
0.0
 10
6335.481375553567
 20
4899.866845597342
 30
0.0
  0
SPLINE
  5
1CA
330
1F
100
AcDbEntity
  8
0
  6
Continuous
 62
     7
370
    25
100
AcDbSpline
210
0.0
220
0.0
230
1.0
 70
     8
 71
     3
 72
     9
 73
     5
 74
     0
 42
0.000000001
 43
0.00000001
 40
0.0
 40
0.0
 40
0.0
 40
0.0
 40
0.5598965154677926
 40
0.9999999999999999
 40
0.9999999999999999
 40
0.9999999999999999
 40
0.9999999999999999
 10
6336.088180639703
 20
4899.331208457068
 30
0.0
 10
6336.071845712198
 20
4899.408364860495
 30
0.0
 10
6336.042670807458
 20
4899.546169617794
 30
0.0
 10
6335.949427419339
 20
4899.650759464517
 30
0.0
 10
6335.908390679318
 20
4899.696789820508
 30
0.0
  0
LINE
  5
1CB
330
1F
100
AcDbEntity
  8
0
  6
Continuous
 62
     7
370
    25
100
AcDbLine
 10
6336.0881806397
 20
4898.4794320062
 30
0.0
 11
6336.0881806397
 21
4899.3312084571
 31
0.0
  0
SPLINE
  5
1CC
330
1F
100
AcDbEntity
  8
0
  6
Continuous
 62
     7
370
    25
100
AcDbSpline
210
0.0
220
0.0
230
1.0
 70
     8
 71
     3
 72
    11
 73
     7
 74
     0
 42
0.000000001
 43
0.00000001
 40
0.0
 40
0.0
 40
0.0
 40
0.0
 40
0.2794947502302833
 40
0.5593804290108256
 40
0.7796957958492869
 40
1.0
 40
1.0
 40
1.0
 40
1.0
 10
6340.568810799081
 20
4897.949038212017
 30
0.0
 10
6340.650657513974
 20
4897.958674605098
 30
0.0
 10
6340.814465422541
 20
4897.97796086966
 30
0.0
 10
6341.001156840122
 20
4898.119669996991
 30
0.0
 10
6341.1292541848
 20
4898.289921695531
 30
0.0
 10
6341.156670377826
 20
4898.416262969554
 30
0.0
 10
6341.170378127057
 20
4898.479432006196
 30
0.0
  0
SPLINE
  5
1CD
330
1F
100
AcDbEntity
  8
0
  6
Continuous
 62
     7
370
    25
100
AcDbSpline
210
0.0
220
0.0
230
1.0
 70
     8
 71
     3
 72
     9
 73
     5
 74
     0
 42
0.000000001
 43
0.00000001
 40
0.0
 40
0.0
 40
0.0
 40
0.0
 40
0.5595396358496313
 40
1.0
 40
1.0
 40
1.0
 40
1.0
 10
6340.243682362992
 20
4898.050921176389
 30
0.0
 10
6340.300285700445
 20
4898.018137337063
 30
0.0
 10
6340.401446250701
 20
4897.959546600634
 30
0.0
 10
6340.517634486452
 20
4897.952251440781
 30
0.0
 10
6340.568810799081
 20
4897.949038212017
 30
0.0
  0
SPLINE
  5
1CE
330
1F
100
AcDbEntity
  8
0
  6
Continuous
 62
     7
370
    25
100
AcDbSpline
210
0.0
220
0.0
230
1.0
 70
     8
 71
     3
 72
    10
 73
     6
 74
     0
 42
0.000000001
 43
0.00000001
 40
0.0
 40
0.0
 40
0.0
 40
0.0
 40
0.2801336423189824
 40
0.5602070422437976
 40
1.0
 40
1.0
 40
1.0
 40
1.0
 10
6339.971743621785
 20
4898.513890941456
 30
0.0
 10
6339.976436290253
 20
4898.461692559002
 30
0.0
 10
6339.985820618039
 20
4898.35730701929
 30
0.0
 10
6340.076634550256
 20
4898.189248054039
 30
0.0
 10
6340.180330609014
 20
4898.103380709847
 30
0.0
 10
6340.243682362992
 20
4898.050921176389
 30
0.0
  0
LINE
  5
1CF
330
1F
100
AcDbEntity
  8
0
  6
Continuous
 62
     7
370
    25
100
AcDbLine
 10
6339.9717436218
 20
4899.3267120317
 30
0.0
 11
6339.9717436218
 21
4898.5138909415
 31
0.0
  0
SPLINE
  5
1D0
330
1F
100
AcDbEntity
  8
0
  6
Continuous
 62
     7
370
    25
100
AcDbSpline
210
0.0
220
0.0
230
1.0
 70
     8
 71
     3
 72
     9
 73
     5
 74
     0
 42
0.000000001
 43
0.00000001
 40
0.0
 40
0.0
 40
0.0
 40
0.0
 40
0.5597888566496299
 40
0.9999999999999999
 40
0.9999999999999999
 40
0.9999999999999999
 40
0.9999999999999999
 10
6340.563565590341
 20
4899.866845597342
 30
0.0
 10
6340.518563279676
 20
4899.864623597116
 30
0.0
 10
6340.438171699653
 20
4899.86065424296
 30
0.0
 10
6340.363470316404
 20
4899.831142057923
 30
0.0
 10
6340.330585935075
 20
4899.818150465206
 30
0.0
  0
SPLINE
  5
1D1
330
1F
100
AcDbEntity
  8
0
  6
Continuous
 62
     7
370
    25
100
AcDbSpline
210
0.0
220
0.0
230
1.0
 70
     8
 71
     3
 72
     9
 73
     5
 74
     0
 42
0.000000001
 43
0.00000001
 40
0.0
 40
0.0
 40
0.0
 40
0.0
 40
0.5592009659390057
 40
1.0
 40
1.0
 40
1.0
 40
1.0
 10
6340.990580716092
 20
4899.696789820508
 30
0.0
 10
6340.919514544674
 20
4899.751463391758
 30
0.0
 10
6340.792429336053
 20
4899.849234273036
 30
0.0
 10
6340.633584319988
 20
4899.861457576834
 30
0.0
 10
6340.563565590341
 20
4899.866845597342
 30
0.0
  0
SPLINE
  5
1D2
330
1F
100
AcDbEntity
  8
0
  6
Continuous
 62
     7
370
    25
100
AcDbSpline
210
0.0
220
0.0
230
1.0
 70
     8
 71
     3
 72
     9
 73
     5
 74
     0
 42
0.000000001
 43
0.00000001
 40
0.0
 40
0.0
 40
0.0
 40
0.0
 40
0.559898880285529
 40
1.0
 40
1.0
 40
1.0
 40
1.0
 10
6341.170378127057
 20
4899.331208457068
 30
0.0
 10
6341.154040175165
 20
4899.408364710494
 30
0.0
 10
6341.124859991982
 20
4899.546168617846
 30
0.0
 10
6341.031617042544
 20
4899.650759330678
 30
0.0
 10
6340.990580716092
 20
4899.696789820508
 30
0.0
  0
SPLINE
  5
1D3
330
1F
100
AcDbEntity
  8
0
  6
Continuous
 62
     7
370
    25
100
AcDbSpline
210
0.0
220
0.0
230
1.0
 70
     8
 71
     3
 72
    10
 73
     6
 74
     0
 42
0.000000001
 43
0.00000001
 40
0.0
 40
0.0
 40
0.0
 40
0.0
 40
0.2809452665269802
 40
0.5614544840474219
 40
1.0
 40
1.0
 40
1.0
 40
1.0
 10
6340.330585935075
 20
4899.818150465206
 30
0.0
 10
6340.277912989691
 20
4899.789909668542
 30
0.0
 10
6340.172648851449
 20
4899.73347190714
 30
0.0
 10
6340.023743074549
 20
4899.572029649925
 30
0.0
 10
6339.991443105137
 20
4899.419648208496
 30
0.0
 10
6339.971743621785
 20
4899.326712031678
 30
0.0
  0
LINE
  5
1D4
330
1F
100
AcDbEntity
  8
0
  6
Continuous
 62
     7
370
    25
100
AcDbLine
 10
6341.1703781271
 20
4898.4794320062
 30
0.0
 11
6341.1703781271
 21
4899.3312084571
 31
0.0
  0
SPLINE
  5
1D5
330
1F
100
AcDbEntity
  8
0
  6
Continuous
 62
     7
370
    25
100
AcDbSpline
210
0.0
220
0.0
230
1.0
 70
     8
 71
     3
 72
    27
 73
    23
 74
     0
 42
0.000000001
 43
0.00000001
 40
0.0
 40
0.0
 40
0.0
 40
0.0
 40
0.0493031099724178
 40
0.1001208890180211
 40
0.1494031289258256
 40
0.1999828391463195
 40
0.2519173182918011
 40
0.3051852159335001
 40
0.3601821018640269
 40
0.4169466727166953
 40
0.4688157154622048
 40
0.5225265763682029
 40
0.5695558926497832
 40
0.617899333298705
 40
0.6661167199096811
 40
0.7154860187940827
 40
0.7686703123237314
 40
0.8232925291619735
 40
0.878059385902841
 40
0.9346635309253444
 40
0.985404597304282
 40
1.0
 40
1.0
 40
1.0
 40
1.0
 10
6219.259414919574
 20
4853.62139730604
 30
0.0
 10
6219.233126570394
 20
4853.633504003958
 30
0.0
 10
6219.179742252607
 20
4853.658089336596
 30
0.0
 10
6218.752690044085
 20
4853.851071733577
 30
0.0
 10
6218.084460253469
 20
4854.140204681105
 30
0.0
 10
6217.169954585112
 20
4854.510894502751
 30
0.0
 10
6216.010781157646
 20
4854.936466161773
 30
0.0
 10
6214.61115349099
 20
4855.380767247638
 30
0.0
 10
6212.979163898035
 20
4855.796849541642
 30
0.0
 10
6211.201710522353
 20
4856.114306396657
 30
0.0
 10
6209.33606428096
 20
4856.290217453475
 30
0.0
 10
6207.543417808934
 20
4856.303150562603
 30
0.0
 10
6205.819150475834
 20
4856.171858599802
 30
0.0
 10
6204.226408693178
 20
4855.930745883409
 30
0.0
 10
6202.716023406824
 20
4855.59702259102
 30
0.0
 10
6201.297776927408
 20
4855.195918626922
 30
0.0
 10
6200.000543453849
 20
4854.757098893934
 30
0.0
 10
6198.886939991904
 20
4854.328353299746
 30
0.0
 10
6198.009404207961
 20
4853.958627905298
 30
0.0
 10
6197.47464114696
 20
4853.720090343612
 30
0.0
 10
6197.240617763176
 20
4853.612803845731
 30
0.0
 10
6197.281162291125
 20
4853.631344572526
 30
0.0
 10
6197.290219464261
 20
4853.635486353949
 30
0.0
  0
LINE
  5
1D6
330
1F
100
AcDbEntity
  8
0
  6
Continuous
 62
     7
370
    25
100
AcDbLine
 10
6270.7594159105
 20
4854.3713969633
 30
0.0
 11
6270.7594159105
 21
4720.3713954881
 31
0.0
  0
LINE
  5
1D7
330
1F
100
AcDbEntity
  8
0
  6
Continuous
 62
     7
370
    25
100
AcDbLine
 10
6270.7594159105
 20
4720.3713954881
 30
0.0
 11
6265.7594155566
 21
4720.3713954881
 31
0.0
  0
LINE
  5
1D8
330
1F
100
AcDbEntity
  8
0
  6
Continuous
 62
     7
370
    25
100
AcDbLine
 10
6250.7594158919
 20
4720.3713954881
 30
0.0
 11
6245.759415538
 21
4720.3713954881
 31
0.0
  0
LINE
  5
1D9
330
1F
100
AcDbEntity
  8
0
  6
Continuous
 62
     7
370
    25
100
AcDbLine
 10
6245.759415538
 20
4720.3713954881
 30
0.0
 11
6245.759415538
 21
4854.3713969633
 31
0.0
  0
ARC
  5
1DA
330
1F
100
AcDbEntity
  8
0
  6
Continuous
 62
     7
370
    25
100
AcDbCircle
 10
6258.2594157242
 20
4720.3713975147
 30
0.0
 40
7.500000000000909
100
AcDbArc
 50
180.0
 51
0.0
  0
ARC
  5
1DB
330
1F
100
AcDbEntity
  8
0
  6
Continuous
 62
     7
370
    25
100
AcDbCircle
 10
6258.2594157242
 20
4720.3713975147
 30
0.0
 40
12.50000000000091
100
AcDbArc
 50
180.0
 51
0.0
  0
SPLINE
  5
1DC
330
1F
100
AcDbEntity
  8
0
  6
Continuous
 62
     7
370
    25
100
AcDbSpline
210
0.0
220
0.0
230
1.0
 70
     8
 71
     3
 72
     9
 73
     5
 74
     0
 42
0.000000001
 43
0.00000001
 40
0.0
 40
0.0
 40
0.0
 40
0.0
 40
0.4887436454589078
 40
1.0
 40
1.0
 40
1.0
 40
1.0
 10
6387.759417393167
 20
4870.525781669483
 30
0.0
 10
6386.296492303277
 20
4870.447619946524
 30
0.0
 10
6383.303256271501
 20
4870.287696183455
 30
0.0
 10
6380.296590855311
 20
4870.191674899709
 30
0.0
 10
6378.759414055306
 20
4870.142583408222
 30
0.0
  0
SPLINE
  5
1DD
330
1F
100
AcDbEntity
  8
0
  6
Continuous
 62
     7
370
    25
100
AcDbSpline
210
0.0
220
0.0
230
1.0
 70
     8
 71
     3
 72
    12
 73
     8
 74
     0
 42
0.000000001
 43
0.00000001
 40
0.0
 40
0.0
 40
0.0
 40
0.0
 40
0.2120537413688998
 40
0.4240419873296286
 40
0.6378160228424613
 40
0.8538099392461901
 40
1.0
 40
1.0
 40
1.0
 40
1.0
 10
6375.759415426213
 20
4867.305174608544
 30
0.0
 10
6375.792017353132
 20
4867.606042324163
 30
0.0
 10
6375.857211137465
 20
4868.207684828707
 30
0.0
 10
6376.3649382848
 20
4869.041810551492
 30
0.0
 10
6377.11584506905
 20
4869.696330743023
 30
0.0
 10
6377.962554426274
 20
4870.068807704237
 30
0.0
 10
6378.530265930317
 20
4870.12136817329
 30
0.0
 10
6378.759414055306
 20
4870.142583408222
 30
0.0
  0
SPLINE
  5
1DE
330
1F
100
AcDbEntity
  8
0
  6
Continuous
 62
     7
370
    25
100
AcDbSpline
210
0.0
220
0.0
230
1.0
 70
     8
 71
     3
 72
    12
 73
     8
 74
     0
 42
0.000000001
 43
0.00000001
 40
0.0
 40
0.0
 40
0.0
 40
0.0
 40
0.2144708635491533
 40
0.4289913426528744
 40
0.6425348638244222
 40
0.8562992584408529
 40
1.0
 40
1.0
 40
1.0
 40
1.0
 10
6387.759417393167
 20
4870.525781669483
 30
0.0
 10
6388.094761161015
 20
4870.513933415361
 30
0.0
 10
6388.765526274929
 20
4870.490234166151
 30
0.0
 10
6389.664047148632
 20
4870.057551704432
 30
0.0
 10
6390.343066820722
 20
4869.39177492732
 30
0.0
 10
6390.706764314611
 20
4868.640171197742
 30
0.0
 10
6390.744313731596
 20
4868.139751358831
 30
0.0
 10
6390.759408571679
 20
4867.938582924024
 30
0.0
  0
SPLINE
  5
1DF
330
1F
100
AcDbEntity
  8
0
  6
Continuous
 62
     7
370
    25
100
AcDbSpline
210
0.0
220
0.0
230
1.0
 70
     8
 71
     3
 72
    27
 73
    23
 74
     0
 42
0.000000001
 43
0.00000001
 40
0.0
 40
0.0
 40
0.0
 40
0.0
 40
0.1098061993287905
 40
0.165764202852533
 40
0.2216962682209816
 40
0.2636734497436296
 40
0.3060053443444674
 40
0.3480347239308144
 40
0.3910444540102323
 40
0.4367432424746802
 40
0.459482234945129
 40
0.483101955634834
 40
0.5225695410276862
 40
0.5570477850999919
 40
0.5821350957420784
 40
0.6079297949567113
 40
0.647289090939213
 40
0.6876841040441999
 40
0.7589587063495802
 40
0.8319956704128788
 40
0.9155602933862935
 40
1.0
 40
1.0
 40
1.0
 40
1.0
 10
6397.277668216188
 20
4888.838644278065
 30
0.0
 10
6395.217621333756
 20
4889.141317949832
 30
0.0
 10
6392.107760220336
 20
4889.598236231604
 30
0.0
 10
6387.973197253747
 20
4890.507873869118
 30
0.0
 10
6385.138683623176
 20
4891.263468697239
 30
0.0
 10
6382.610546480842
 20
4892.075794486957
 30
0.0
 10
6380.402099321338
 20
4892.913966974685
 30
0.0
 10
6378.288554279854
 20
4893.878790096464
 30
0.0
 10
6376.314745067516
 20
4894.999497947334
 30
0.0
 10
6374.929021808486
 20
4896.069711898306
 30
0.0
 10
6374.145794357664
 20
4896.976156071339
 30
0.0
 10
6373.705960290366
 20
4897.804387789109
 30
0.0
 10
6373.758072853391
 20
4898.65293619506
 30
0.0
 10
6374.45052665599
 20
4899.274655049012
 30
0.0
 10
6375.356589126048
 20
4899.64877294207
 30
0.0
 10
6376.519887144931
 20
4899.919635310839
 30
0.0
 10
6378.098261109636
 20
4900.083957508127
 30
0.0
 10
6380.579495650875
 20
4900.126936493901
 30
0.0
 10
6383.849998620509
 20
4899.945266421121
 30
0.0
 10
6388.037368432242
 20
4899.491240756517
 30
0.0
 10
6392.545990903458
 20
4898.83803197178
 30
0.0
 10
6395.694975077183
 20
4898.252997611115
 30
0.0
 10
6397.277668216188
 20
4897.958956797436
 30
0.0
  0
LINE
  5
1E0
330
1F
100
AcDbEntity
  8
0
  6
Continuous
 62
     7
370
    25
100
AcDbLine
 10
6397.2776682162
 20
4888.8386442781
 30
0.0
 11
6397.2776682162
 21
4857.2838382319
 31
0.0
  0
SPLINE
  5
1E1
330
1F
100
AcDbEntity
  8
0
  6
Continuous
 62
     7
370
    25
100
AcDbSpline
210
0.0
220
0.0
230
1.0
 70
     8
 71
     3
 72
    10
 73
     6
 74
     0
 42
0.000000001
 43
0.00000001
 40
0.0
 40
0.0
 40
0.0
 40
0.0
 40
0.0205535071505113
 40
0.5077259335918058
 40
1.0
 40
1.0
 40
1.0
 40
1.0
 10
6387.661427357156
 20
4855.734568227843
 30
0.0
 10
6387.725968348401
 20
4855.741335523744
 30
0.0
 10
6389.320301363947
 20
4855.908505613223
 30
0.0
 10
6392.553255434881
 20
4856.417985872915
 30
0.0
 10
6395.697404981693
 20
4856.99422030205
 30
0.0
 10
6397.277668216188
 20
4857.283838231877
 30
0.0
  0
LINE
  5
1E2
330
1F
100
AcDbEntity
  8
0
  6
Continuous
 62
     7
370
    25
100
AcDbLine
 10
6353.7594155454
 20
4855.0213967905
 30
0.0
 11
6353.7594155454
 21
4900.2213982389
 31
0.0
  0
LINE
  5
1E3
330
1F
100
AcDbEntity
  8
0
  6
Continuous
 62
     7
370
    25
100
AcDbLine
 10
6364.7594154858
 20
4898.2390911773
 30
0.0
 11
6364.7594154858
 21
4854.5213976398
 31
0.0
  0
LINE
  5
1E4
330
1F
100
AcDbEntity
  8
0
  6
Continuous
 62
     7
370
    25
100
AcDbLine
 10
6364.7594154858
 20
4900.7213973895
 30
0.0
 11
6364.7594154858
 21
4898.2390911773
 31
0.0
  0
SPLINE
  5
1E5
330
1F
100
AcDbEntity
  8
0
  6
Continuous
 62
     7
370
    25
100
AcDbSpline
210
0.0
220
0.0
230
1.0
 70
     8
 71
     3
 72
    20
 73
    16
 74
     0
 42
0.000000001
 43
0.00000001
 40
0.0
 40
0.0
 40
0.0
 40
0.0
 40
0.0755672212497639
 40
0.1510842700537215
 40
0.2274503130530797
 40
0.2838557046381209
 40
0.3418398223404552
 40
0.420322345975069
 40
0.5002314371493262
 40
0.6038384820709305
 40
0.710800371046061
 40
0.8009959036106312
 40
0.8918521839684284
 40
0.9732958809557523
 40
0.9999999999999999
 40
0.9999999999999999
 40
0.9999999999999999
 40
0.9999999999999999
 10
6397.277668216188
 20
4897.958956797436
 30
0.0
 10
6397.935749780591
 20
4897.781528946877
 30
0.0
 10
6399.251475979721
 20
4897.426791048018
 30
0.0
 10
6400.893787961558
 20
4896.3587565453
 30
0.0
 10
6401.98027469732
 20
4895.216829902286
 30
0.0
 10
6402.639828611303
 20
4894.14556498645
 30
0.0
 10
6403.069122530803
 20
4893.101748114366
 30
0.0
 10
6403.312148836088
 20
4892.023277066476
 30
0.0
 10
6403.394324875389
 20
4890.879701427191
 30
0.0
 10
6403.27855027237
 20
4889.831978749738
 30
0.0
 10
6402.795665586033
 20
4889.045390688367
 30
0.0
 10
6401.729821572489
 20
4888.625601931112
 30
0.0
 10
6400.094032859009
 20
4888.55625723598
 30
0.0
 10
6398.455440642905
 20
4888.689958052315
 30
0.0
 10
6397.510897165201
 20
4888.809200616982
 30
0.0
 10
6397.277668216188
 20
4888.838644278065
 30
0.0
  0
SPLINE
  5
1E6
330
1F
100
AcDbEntity
  8
0
  6
Continuous
 62
     7
370
    25
100
AcDbSpline
210
0.0
220
0.0
230
1.0
 70
     8
 71
     3
 72
    10
 73
     6
 74
     0
 42
0.000000001
 43
0.00000001
 40
0.0
 40
0.0
 40
0.0
 40
0.0
 40
0.4676325240202996
 40
0.9349545659680735
 40
1.0
 40
1.0
 40
1.0
 40
1.0
 10
6397.277668216188
 20
4857.283838231877
 30
0.0
 10
6397.927212178281
 20
4857.463622576092
 30
0.0
 10
6399.225868841287
 20
4857.823071897685
 30
0.0
 10
6400.483921738272
 20
4858.556686225624
 30
0.0
 10
6400.92318219723
 20
4859.022235593754
 30
0.0
 10
6400.976851680238
 20
4859.079117093996
 30
0.0
  0
LINE
  5
1E7
330
1F
100
AcDbEntity
  8
0
  6
Continuous
 62
     7
370
    25
100
AcDbLine
 10
6403.7594200158
 20
4888.7872827694
 30
0.0
 11
6403.7594200158
 21
4865.1111751318
 31
0.0
  0
LINE
  5
1E8
330
1F
100
AcDbEntity
  8
0
  6
Continuous
 62
     7
370
    25
100
AcDbLine
 10
6403.7594200158
 20
4890.1316198975
 30
0.0
 11
6403.7594200158
 21
4888.7872827694
 31
0.0
  0
ARC
  5
1E9
330
1F
100
AcDbEntity
  8
0
  6
Continuous
 62
     7
370
    25
100
AcDbCircle
 10
6384.488901858
 20
4936.6786560867
 30
0.0
 40
67.8775774232764
100
AcDbArc
 50
265.1579511334
 51
272.7617266978
  0
ARC
  5
1EA
330
1F
100
AcDbEntity
  8
0
  6
Continuous
 62
     7
370
    25
100
AcDbCircle
 10
6380.4413725654
 20
4867.6256598296
 30
0.0
 40
7.424751647096475
100
AcDbArc
 50
359.3309187526
 51
9.725551984
  0
ARC
  5
1EB
330
1F
100
AcDbEntity
  8
0
  6
Continuous
 62
     7
370
    25
100
AcDbCircle
 10
6384.4889979004
 20
4937.5375005826
 30
0.0
 40
70.07993669699157
100
AcDbArc
 50
265.157963874
 51
272.7617178762
  0
ARC
  5
1EC
330
1F
100
AcDbEntity
  8
0
  6
Continuous
 62
     7
370
    25
100
AcDbCircle
 10
6382.8740084469
 20
4867.7902383843
 30
0.0
 40
4.301174754648981
100
AcDbArc
 50
163.0620976078
 51
181.1000214875
  0
SPLINE
  5
1ED
330
1F
100
AcDbEntity
  8
0
  6
Continuous
 62
     7
370
    25
100
AcDbSpline
210
0.0
220
0.0
230
1.0
 70
     8
 71
     3
 72
    12
 73
     8
 74
     0
 42
0.000000001
 43
0.00000001
 40
0.0
 40
0.0
 40
0.0
 40
0.0
 40
0.2162890554276705
 40
0.4324857288090195
 40
0.6491949754405286
 40
0.8647242326421042
 40
1.0
 40
1.0
 40
1.0
 40
1.0
 10
6387.759417393167
 20
4868.879915353671
 30
0.0
 10
6388.098916604764
 20
4868.861493204682
 30
0.0
 10
6388.777770020011
 20
4868.824656775229
 30
0.0
 10
6389.681125682564
 20
4868.395872712534
 30
0.0
 10
6390.359981940016
 20
4867.740993971518
 30
0.0
 10
6390.711138162435
 20
4867.006759935576
 30
0.0
 10
6390.74597496813
 20
4866.517348665251
 30
0.0
 10
6390.759408571679
 20
4866.328624215737
 30
0.0
  0
LWPOLYLINE
  5
1EE
330
1F
100
AcDbEntity
  8
0
  6
Continuous
 62
     7
370
    25
100
AcDbPolyline
 90
        9
 70
   128
 43
0.0
 10
6390.7594085717
 20
4866.3286242157
 10
6390.7441646838
 20
4866.2501696021
 10
6390.6988800549
 20
4866.1741084874
 10
6390.6249553942
 20
4866.1027589336
 10
6390.5246258759
 20
4866.0382983729
 10
6390.4009611392
 20
4865.982691896
 10
6390.2577162766
 20
4865.9376354411
 10
6390.0992871308
 20
4865.9045036405
 10
6389.9305016779
 20
4865.8843060479
  0
SPLINE
  5
1EF
330
1F
100
AcDbEntity
  8
0
  6
Continuous
 62
     7
370
    25
100
AcDbSpline
210
0.0
220
0.0
230
1.0
 70
     8
 71
     3
 72
    12
 73
     8
 74
     0
 42
0.000000001
 43
0.00000001
 40
0.0
 40
0.0
 40
0.0
 40
0.0
 40
0.1328133364913733
 40
0.3455380824585434
 40
0.5619148537161601
 40
0.7802451830394245
 40
1.0
 40
1.0
 40
1.0
 40
1.0
 10
6389.930501677949
 20
4865.884306047872
 30
0.0
 10
6389.921226992466
 20
4866.009945027448
 30
0.0
 10
6389.897097209107
 20
4866.336817713822
 30
0.0
 10
6389.65336086132
 20
4866.821340497987
 30
0.0
 10
6389.185018700429
 20
4867.24511802166
 30
0.0
 10
6388.564421183879
 20
4867.515101456859
 30
0.0
 10
6388.099056770463
 20
4867.530988596086
 30
0.0
 10
6387.865617968995
 20
4867.538957995192
 30
0.0
  0
SPLINE
  5
1F0
330
1F
100
AcDbEntity
  8
0
  6
Continuous
 62
     7
370
    25
100
AcDbSpline
210
0.0
220
0.0
230
1.0
 70
     8
 71
     3
 72
    12
 73
     8
 74
     0
 42
0.000000001
 43
0.00000001
 40
0.0
 40
0.0
 40
0.0
 40
0.0
 40
0.1601792384691511
 40
0.3791696939435144
 40
0.5901551622057621
 40
0.7957092740823707
 40
1.0
 40
1.0
 40
1.0
 40
1.0
 10
6378.573626377542
 20
4867.707665216938
 30
0.0
 10
6378.404694833304
 20
4867.71184532268
 30
0.0
 10
6378.00480704174
 20
4867.721740296775
 30
0.0
 10
6377.42209654037
 20
4867.550210461744
 30
0.0
 10
6376.91674855857
 20
4867.200244897404
 30
0.0
 10
6376.574926414396
 20
4866.713890116346
 30
0.0
 10
6376.530758533282
 20
4866.324856843612
 30
0.0
 10
6376.508742668588
 20
4866.130939823404
 30
0.0
  0
LWPOLYLINE
  5
1F1
330
1F
100
AcDbEntity
  8
0
  6
Continuous
 62
     7
370
    25
100
AcDbPolyline
 90
        9
 70
   128
 43
0.0
 10
6376.5087426686
 20
4866.1309398234
 10
6376.353435316
 20
4866.1553777278
 10
6376.2091101193
 20
4866.1909672886
 10
6376.0796786332
 20
4866.2367445871
 10
6375.96863518
 20
4866.2914718956
 10
6375.8789897942
 20
4866.3536684111
 10
6375.8131639146
 20
4866.4216503024
 10
6375.7729456806
 20
4866.4935782075
 10
6375.7594154262
 20
4866.5675075248
  0
SPLINE
  5
1F2
330
1F
100
AcDbEntity
  8
0
  6
Continuous
 62
     7
370
    25
100
AcDbSpline
210
0.0
220
0.0
230
1.0
 70
     8
 71
     3
 72
    12
 73
     8
 74
     0
 42
0.000000001
 43
0.00000001
 40
0.0
 40
0.0
 40
0.0
 40
0.0
 40
0.2087378293320501
 40
0.416658359157692
 40
0.6270236551484114
 40
0.8428168644776325
 40
1.0
 40
1.0
 40
1.0
 40
1.0
 10
6375.759415426213
 20
4866.567507524804
 30
0.0
 10
6375.791119996318
 20
4866.859255179693
 30
0.0
 10
6375.85440499933
 20
4867.441608170348
 30
0.0
 10
6376.347508045054
 20
4868.191467724985
 30
0.0
 10
6377.08118216875
 20
4868.74753955638
 30
0.0
 10
6377.93120029388
 20
4869.037921138926
 30
0.0
 10
6378.513862969788
 20
4869.041720377232
 30
0.0
 10
6378.759414055306
 20
4869.043321487323
 30
0.0
  0
SPLINE
  5
1F3
330
1F
100
AcDbEntity
  8
0
  6
Continuous
 62
     7
370
    25
100
AcDbSpline
210
0.0
220
0.0
230
1.0
 70
     8
 71
     3
 72
    12
 73
     8
 74
     0
 42
0.000000001
 43
0.00000001
 40
0.0
 40
0.0
 40
0.0
 40
0.0
 40
0.1225114246054295
 40
0.335085122487174
 40
0.5543844579312328
 40
0.7764731826615412
 40
1.0
 40
1.0
 40
1.0
 40
1.0
 10
6376.508742668588
 20
4866.130939823404
 30
0.0
 10
6376.516777645112
 20
4866.01260446746
 30
0.0
 10
6376.538754379946
 20
4865.688941450978
 30
0.0
 10
6376.772426302336
 20
4865.15936612108
 30
0.0
 10
6377.240553604177
 20
4864.641668658538
 30
0.0
 10
6377.866473516455
 20
4864.261102074912
 30
0.0
 10
6378.337402162786
 20
4864.178790300248
 30
0.0
 10
6378.573626377542
 20
4864.13750159444
 30
0.0
  0
SPLINE
  5
1F4
330
1F
100
AcDbEntity
  8
0
  6
Continuous
 62
     7
370
    25
100
AcDbSpline
210
0.0
220
0.0
230
1.0
 70
     8
 71
     3
 72
    12
 73
     8
 74
     0
 42
0.000000001
 43
0.00000001
 40
0.0
 40
0.0
 40
0.0
 40
0.0
 40
0.1501055164983271
 40
0.3683233517211119
 40
0.5818917943504206
 40
0.791620420892352
 40
0.9999999999999999
 40
0.9999999999999999
 40
0.9999999999999999
 40
0.9999999999999999
 10
6387.865617968995
 20
4863.968794372693
 30
0.0
 10
6388.024660191209
 20
4863.986209907755
 30
0.0
 10
6388.41491210012
 20
4864.02894350207
 30
0.0
 10
6388.995809527588
 20
4864.283985900435
 30
0.0
 10
6389.512072799487
 20
4864.723158791853
 30
0.0
 10
6389.862735878847
 20
4865.280824014475
 30
0.0
 10
6389.907961719408
 20
4865.683578539406
 30
0.0
 10
6389.930501677949
 20
4865.884306047872
 30
0.0
  0
ARC
  5
1F5
330
1F
100
AcDbEntity
  8
0
  6
Continuous
 62
     7
370
    25
100
AcDbCircle
 10
6384.4889979004
 20
4933.9673369601
 30
0.0
 40
70.07993669699066
100
AcDbArc
 50
265.157963874
 51
272.7617178762
  0
LINE
  5
1F6
330
1F
100
AcDbEntity
  8
0
  6
Continuous
 62
     7
370
    25
100
AcDbLine
 10
6387.7594173932
 20
4868.8799153537
 30
0.0
 11
6387.7594173932
 21
4870.5257816695
 31
0.0
  0
LINE
  5
1F7
330
1F
100
AcDbEntity
  8
0
  6
Continuous
 62
     7
370
    25
100
AcDbLine
 10
6378.7594140553
 20
4870.1425834082
 30
0.0
 11
6378.7594140553
 21
4869.0433214873
 31
0.0
  0
LINE
  5
1F8
330
1F
100
AcDbEntity
  8
0
  6
Continuous
 62
     7
370
    25
100
AcDbLine
 10
6390.7594085717
 20
4866.3286242157
 30
0.0
 11
6390.7594085717
 21
4867.938582924
 31
0.0
  0
LINE
  5
1F9
330
1F
100
AcDbEntity
  8
0
  6
Continuous
 62
     7
370
    25
100
AcDbLine
 10
6375.7594154262
 20
4867.3051746085
 30
0.0
 11
6375.7594154262
 21
4866.5675075248
 31
0.0
  0
LINE
  5
1FA
330
1F
100
AcDbEntity
  8
0
  6
Continuous
 62
     7
370
    25
100
AcDbLine
 10
6299.6411808812
 20
4963.8713972166
 30
0.0
 11
6298.2594148302
 21
4963.8713972166
 31
0.0
  0
LINE
  5
1FB
330
1F
100
AcDbEntity
  8
0
  6
Continuous
 62
     7
370
    25
100
AcDbLine
 10
6368.2594151282
 20
4963.8713972166
 30
0.0
 11
6299.6411808812
 21
4963.8713972166
 31
0.0
  0
LINE
  5
1FC
330
1F
100
AcDbEntity
  8
0
  6
Continuous
 62
     7
370
    25
100
AcDbLine
 10
6218.2594166183
 20
4963.8713972166
 30
0.0
 11
6148.2594163203
 21
4963.8713972166
 31
0.0
  0
LINE
  5
1FD
330
1F
100
AcDbEntity
  8
0
  6
Continuous
 62
     7
370
    25
100
AcDbLine
 10
6163.2594169163
 20
4908.371398364
 30
0.0
 11
6353.2594145321
 21
4908.371398364
 31
0.0
  0
LINE
  5
1FE
330
1F
100
AcDbEntity
  8
0
  6
Continuous
 62
     7
370
    25
100
AcDbLine
 10
6163.2594169163
 20
4915.3713957861
 30
0.0
 11
6353.2594145321
 21
4915.3713957861
 31
0.0
  0
LINE
  5
1FF
330
1F
100
AcDbEntity
  8
0
  6
Continuous
 62
     7
370
    25
100
AcDbLine
 10
6353.2594145321
 20
4908.371398364
 30
0.0
 11
6353.2594145321
 21
4915.3713957861
 31
0.0
  0
LINE
  5
200
330
1F
100
AcDbEntity
  8
0
  6
Continuous
 62
     7
370
    25
100
AcDbLine
 10
6163.2594169163
 20
4908.371398364
 30
0.0
 11
6163.2594169163
 21
4915.3713957861
 31
0.0
  0
LINE
  5
201
330
1F
100
AcDbEntity
  8
0
  6
Continuous
 62
     7
370
    25
100
AcDbLine
 10
6163.2594169163
 20
4877.6213975147
 30
0.0
 11
6353.2594145321
 21
4877.6213975147
 31
0.0
  0
LINE
  5
202
330
1F
100
AcDbEntity
  8
0
  6
Continuous
 62
     7
370
    25
100
AcDbLine
 10
6353.2594145321
 20
4877.6213975147
 30
0.0
 11
6353.2594145321
 21
4908.371398364
 31
0.0
  0
LINE
  5
203
330
1F
100
AcDbEntity
  8
0
  6
Continuous
 62
     7
370
    25
100
AcDbLine
 10
6163.2594169163
 20
4877.6213975147
 30
0.0
 11
6163.2594169163
 21
4908.371398364
 31
0.0
  0
SPLINE
  5
204
330
1F
100
AcDbEntity
  8
0
  6
Continuous
 62
     7
370
    25
100
AcDbSpline
210
0.0
220
0.0
230
1.0
 70
     8
 71
     3
 72
    27
 73
    23
 74
     0
 42
0.000000001
 43
0.00000001
 40
0.0
 40
0.0
 40
0.0
 40
0.0
 40
0.0490765620517118
 40
0.0996659013292534
 40
0.148720660224703
 40
0.1990610125651807
 40
0.2508884061495148
 40
0.3040340100059791
 40
0.3591743917299852
 40
0.4160934516452572
 40
0.4679703281664919
 40
0.5217212028098103
 40
0.5683638612588039
 40
0.6163098854063007
 40
0.6641536261588907
 40
0.7131250607798851
 40
0.7662622605360184
 40
0.8208239375101477
 40
0.8757578384782662
 40
0.9325476272132031
 40
0.9832480659679301
 40
1.0
 40
1.0
 40
1.0
 40
1.0
 10
6197.259415038783
 20
4854.371396963314
 30
0.0
 10
6197.285521714092
 20
4854.383806401556
 30
0.0
 10
6197.338539798829
 20
4854.409007797005
 30
0.0
 10
6197.76250996002
 20
4854.606845776082
 30
0.0
 10
6198.425486562702
 20
4854.903370690369
 30
0.0
 10
6199.332967402516
 20
4855.284207724788
 30
0.0
 10
6200.483880814617
 20
4855.722653395638
 30
0.0
 10
6201.877247041896
 20
4856.182966178995
 30
0.0
 10
6203.506090262024
 20
4856.616744211372
 30
0.0
 10
6205.284404169646
 20
4856.949895167788
 30
0.0
 10
6207.152595482873
 20
4857.136153255507
 30
0.0
 10
6208.943359646735
 20
4857.152166664021
 30
0.0
 10
6210.661414945209
 20
4857.018673889141
 30
0.0
 10
6212.244041580158
 20
4856.772660764303
 30
0.0
 10
6213.745870327865
 20
4856.431382822092
 30
0.0
 10
6215.161668732933
 20
4856.019451510159
 30
0.0
 10
6216.462359193646
 20
4855.566547375957
 30
0.0
 10
6217.586740105425
 20
4855.120726046116
 30
0.0
 10
6218.478137095335
 20
4854.733748399534
 30
0.0
 10
6219.028389413231
 20
4854.480692600042
 30
0.0
 10
6219.273368321043
 20
4854.364815859451
 30
0.0
 10
6219.235437811318
 20
4854.382721161576
 30
0.0
 10
6219.226017692048
 20
4854.387167979792
 30
0.0
  0
LINE
  5
205
330
1F
100
AcDbEntity
  8
0
  6
Continuous
 62
     7
370
    25
100
AcDbLine
 10
6353.2594145321
 20
4854.3713969633
 30
0.0
 11
6353.2594145321
 21
4877.6213975147
 31
0.0
  0
LINE
  5
206
330
1F
100
AcDbEntity
  8
0
  6
Continuous
 62
     7
370
    25
100
AcDbLine
 10
6163.2594169163
 20
4854.3713969633
 30
0.0
 11
6163.2594169163
 21
4877.6213975147
 31
0.0
  0
LINE
  5
207
330
1F
100
AcDbEntity
  8
0
  6
Continuous
 62
     7
370
    25
100
AcDbLine
 10
6166.1121101164
 20
4937.3713956669
 30
0.0
 11
6166.1121101164
 21
4925.3713974252
 31
0.0
  0
LINE
  5
208
330
1F
100
AcDbEntity
  8
0
  6
Continuous
 62
     7
370
    25
100
AcDbLine
 10
6166.1121101164
 20
4937.3713956669
 30
0.0
 11
6169.3409309768
 21
4937.3713956669
 31
0.0
  0
LINE
  5
209
330
1F
100
AcDbEntity
  8
0
  6
Continuous
 62
     7
370
    25
100
AcDbLine
 10
6171.4569405698
 20
4937.3713956669
 30
0.0
 11
6174.6857614302
 21
4937.3713956669
 31
0.0
  0
LINE
  5
20A
330
1F
100
AcDbEntity
  8
0
  6
Continuous
 62
     7
370
    25
100
AcDbLine
 10
6174.6857614302
 20
4937.3713956669
 30
0.0
 11
6174.6857614302
 21
4925.3713974252
 31
0.0
  0
LINE
  5
20B
330
1F
100
AcDbEntity
  8
0
  6
Continuous
 62
     7
370
    25
100
AcDbLine
 10
6166.1121101164
 20
4925.3713974252
 30
0.0
 11
6174.6857614302
 21
4925.3713974252
 31
0.0
  0
LINE
  5
20C
330
1F
100
AcDbEntity
  8
0
  6
Continuous
 62
     7
370
    25
100
AcDbLine
 10
6174.6857614302
 20
4937.3713956669
 30
0.0
 11
6181.143403151
 21
4937.3713956669
 31
0.0
  0
LINE
  5
20D
330
1F
100
AcDbEntity
  8
0
  6
Continuous
 62
     7
370
    25
100
AcDbLine
 10
6185.3754297876
 20
4937.3713956669
 30
0.0
 11
6191.8330640578
 21
4937.3713956669
 31
0.0
  0
LINE
  5
20E
330
1F
100
AcDbEntity
  8
0
  6
Continuous
 62
     7
370
    25
100
AcDbLine
 10
6191.8330640578
 20
4937.3713956669
 30
0.0
 11
6191.8330640578
 21
4925.3713974252
 31
0.0
  0
LINE
  5
20F
330
1F
100
AcDbEntity
  8
0
  6
Continuous
 62
     7
370
    25
100
AcDbLine
 10
6174.6857614302
 20
4925.3713974252
 30
0.0
 11
6191.8330640578
 21
4925.3713974252
 31
0.0
  0
LINE
  5
210
330
1F
100
AcDbEntity
  8
0
  6
Continuous
 62
     7
370
    25
100
AcDbLine
 10
6191.8330640578
 20
4937.3713956669
 30
0.0
 11
6195.0618849182
 21
4937.3713956669
 31
0.0
  0
LINE
  5
211
330
1F
100
AcDbEntity
  8
0
  6
Continuous
 62
     7
370
    25
100
AcDbLine
 10
6197.1778982365
 20
4937.3713956669
 30
0.0
 11
6200.4067190969
 21
4937.3713956669
 31
0.0
  0
LINE
  5
212
330
1F
100
AcDbEntity
  8
0
  6
Continuous
 62
     7
370
    25
100
AcDbLine
 10
6200.4067190969
 20
4937.3713956669
 30
0.0
 11
6200.4067190969
 21
4925.3713974252
 31
0.0
  0
LINE
  5
213
330
1F
100
AcDbEntity
  8
0
  6
Continuous
 62
     7
370
    25
100
AcDbLine
 10
6191.8330640578
 20
4925.3713974252
 30
0.0
 11
6200.4067190969
 21
4925.3713974252
 31
0.0
  0
LINE
  5
214
330
1F
100
AcDbEntity
  8
0
  6
Continuous
 62
     7
370
    25
100
AcDbLine
 10
6341.8330700183
 20
4937.3713956669
 30
0.0
 11
6341.8330700183
 21
4925.3713974252
 31
0.0
  0
LINE
  5
215
330
1F
100
AcDbEntity
  8
0
  6
Continuous
 62
     7
370
    25
100
AcDbLine
 10
6341.8330700183
 20
4937.3713956669
 30
0.0
 11
6345.0618908786
 21
4937.3713956669
 31
0.0
  0
LINE
  5
216
330
1F
100
AcDbEntity
  8
0
  6
Continuous
 62
     7
370
    25
100
AcDbLine
 10
6347.1779004716
 20
4937.3713956669
 30
0.0
 11
6350.406721332
 21
4937.3713956669
 31
0.0
  0
LINE
  5
217
330
1F
100
AcDbEntity
  8
0
  6
Continuous
 62
     7
370
    25
100
AcDbLine
 10
6350.406721332
 20
4937.3713956669
 30
0.0
 11
6350.406721332
 21
4925.3713974252
 31
0.0
  0
LINE
  5
218
330
1F
100
AcDbEntity
  8
0
  6
Continuous
 62
     7
370
    25
100
AcDbLine
 10
6341.8330700183
 20
4925.3713974252
 30
0.0
 11
6350.406721332
 21
4925.3713974252
 31
0.0
  0
LINE
  5
219
330
1F
100
AcDbEntity
  8
0
  6
Continuous
 62
     7
370
    25
100
AcDbLine
 10
6316.1121123516
 20
4937.3713956669
 30
0.0
 11
6316.1121123516
 21
4925.3713974252
 31
0.0
  0
LINE
  5
21A
330
1F
100
AcDbEntity
  8
0
  6
Continuous
 62
     7
370
    25
100
AcDbLine
 10
6316.1121123516
 20
4937.3713956669
 30
0.0
 11
6319.340933212
 21
4937.3713956669
 31
0.0
  0
LINE
  5
21B
330
1F
100
AcDbEntity
  8
0
  6
Continuous
 62
     7
370
    25
100
AcDbLine
 10
6321.4569465303
 20
4937.3713956669
 30
0.0
 11
6324.6857673907
 21
4937.3713956669
 31
0.0
  0
LINE
  5
21C
330
1F
100
AcDbEntity
  8
0
  6
Continuous
 62
     7
370
    25
100
AcDbLine
 10
6324.6857673907
 20
4937.3713956669
 30
0.0
 11
6324.6857673907
 21
4925.3713974252
 31
0.0
  0
LINE
  5
21D
330
1F
100
AcDbEntity
  8
0
  6
Continuous
 62
     7
370
    25
100
AcDbLine
 10
6316.1121123516
 20
4925.3713974252
 30
0.0
 11
6324.6857673907
 21
4925.3713974252
 31
0.0
  0
LINE
  5
21E
330
1F
100
AcDbEntity
  8
0
  6
Continuous
 62
     7
370
    25
100
AcDbLine
 10
6324.6857673907
 20
4925.3713974252
 30
0.0
 11
6341.8330700183
 21
4925.3713974252
 31
0.0
  0
LINE
  5
21F
330
1F
100
AcDbEntity
  8
0
  6
Continuous
 62
     7
370
    25
100
AcDbLine
 10
6324.6857673907
 20
4937.3713956669
 30
0.0
 11
6331.1434016609
 21
4937.3713956669
 31
0.0
  0
LINE
  5
220
330
1F
100
AcDbEntity
  8
0
  6
Continuous
 62
     7
370
    25
100
AcDbLine
 10
6335.3754282975
 20
4937.3713956669
 30
0.0
 11
6341.8330700183
 21
4937.3713956669
 31
0.0
  0
LINE
  5
221
330
1F
100
AcDbEntity
  8
0
  6
Continuous
 62
     7
370
    25
100
AcDbLine
 10
6333.2594187045
 20
4969.6713985399
 30
0.0
 11
6323.0094165587
 21
4969.6713985399
 31
0.0
  0
LINE
  5
222
330
1F
100
AcDbEntity
  8
0
  6
Continuous
 62
     7
370
    25
100
AcDbLine
 10
6343.5094133997
 20
4969.6713985399
 30
0.0
 11
6333.2594187045
 21
4969.6713985399
 31
0.0
  0
LINE
  5
223
330
1F
100
AcDbEntity
  8
0
  6
Continuous
 62
     7
370
    25
100
AcDbLine
 10
6333.2594187045
 20
4970.6714005664
 30
0.0
 11
6342.5094188237
 21
4970.6714005664
 31
0.0
  0
LINE
  5
224
330
1F
100
AcDbEntity
  8
0
  6
Continuous
 62
     7
370
    25
100
AcDbLine
 10
6324.0094185853
 20
4970.6714005664
 30
0.0
 11
6333.2594187045
 21
4970.6714005664
 31
0.0
  0
LINE
  5
225
330
1F
100
AcDbEntity
  8
0
  6
Continuous
 62
     7
370
    25
100
AcDbLine
 10
6183.259412744
 20
4969.6713985399
 30
0.0
 11
6173.0094180488
 21
4969.6713985399
 31
0.0
  0
LINE
  5
226
330
1F
100
AcDbEntity
  8
0
  6
Continuous
 62
     7
370
    25
100
AcDbLine
 10
6193.5094148898
 20
4969.6713985399
 30
0.0
 11
6183.259412744
 21
4969.6713985399
 31
0.0
  0
LINE
  5
227
330
1F
100
AcDbEntity
  8
0
  6
Continuous
 62
     7
370
    25
100
AcDbLine
 10
6183.259412744
 20
4970.6714005664
 30
0.0
 11
6192.5094128632
 21
4970.6714005664
 31
0.0
  0
LINE
  5
228
330
1F
100
AcDbEntity
  8
0
  6
Continuous
 62
     7
370
    25
100
AcDbLine
 10
6174.0094126248
 20
4970.6714005664
 30
0.0
 11
6183.259412744
 21
4970.6714005664
 31
0.0
  0
LINE
  5
229
330
1F
100
AcDbEntity
  8
0
  6
Continuous
 62
     8
370
    25
100
AcDbLine
 10
6147.759415307
 20
4877.4933277677
 30
0.0
 11
6147.759415307
 21
4854.62139747
 31
0.0
  0
LINE
  5
22A
330
1F
100
AcDbEntity
  8
0
  6
Continuous
 62
     8
370
    25
100
AcDbLine
 10
6147.759415307
 20
4900.6213975594
 30
0.0
 11
6147.759415307
 21
4877.4933277677
 31
0.0
  0
LINE
  5
22B
330
1F
100
AcDbEntity
  8
0
  6
Continuous
 62
     8
370
    25
100
AcDbLine
 10
6265.7594155566
 20
4720.3713954881
 30
0.0
 11
6265.7594155566
 21
4854.3713969633
 31
0.0
  0
LINE
  5
22C
330
1F
100
AcDbEntity
  8
0
  6
Continuous
 62
     8
370
    25
100
AcDbLine
 10
6250.7594158919
 20
4854.3713969633
 30
0.0
 11
6250.7594158919
 21
4720.3713954881
 31
0.0
  0
LINE
  5
22D
330
1F
100
AcDbEntity
  8
0
  6
Continuous
 62
     8
370
    25
100
AcDbLine
 10
6404.2370469355
 20
4885.3678183153
 30
0.0
 11
6404.2370469355
 21
4869.874976714
 31
0.0
  0
LINE
  5
22E
330
1F
100
AcDbEntity
  8
0
  6
Continuous
 62
     8
370
    25
100
AcDbLine
 10
6369.759418168
 20
4898.1498388097
 30
0.0
 11
6369.759418168
 21
4854.62139747
 31
0.0
  0
LINE
  5
22F
330
1F
100
AcDbEntity
  8
0
  6
Continuous
 62
     8
370
    25
100
AcDbLine
 10
6369.759418168
 20
4900.6213975594
 30
0.0
 11
6369.759418168
 21
4898.1498388097
 31
0.0
  0
LINE
  5
230
330
1F
100
AcDbEntity
  8
0
  6
Continuous
 62
     8
370
    25
100
AcDbLine
 10
6354.2594165587
 20
4900.7213973895
 30
0.0
 11
6354.2594165587
 21
4854.5213976398
 31
0.0
  0
ARC
  5
231
330
1F
100
AcDbEntity
  8
0
  6
Continuous
 62
     8
370
    25
100
AcDbCircle
 10
6386.6931076355
 20
4863.8123583316
 30
0.0
 40
1.182900129834236
100
AcDbArc
 50
340.5498959325
 51
7.5995084047
  0
ARC
  5
232
330
1F
100
AcDbEntity
  8
0
  6
Continuous
 62
     8
370
    25
100
AcDbCircle
 10
6379.3051443811
 20
4863.984282828
 30
0.0
 40
0.7473918516278222
100
AcDbArc
 50
168.1702317607
 51
212.3558235799
  0
LINE
  5
233
330
1F
100
AcDbEntity
  8
0
  6
Continuous
 62
     8
370
    25
100
AcDbLine
 10
6299.6411808812
 20
4957.3713989452
 30
0.0
 11
6298.2594148302
 21
4957.3713989452
 31
0.0
  0
LINE
  5
234
330
1F
100
AcDbEntity
  8
0
  6
Continuous
 62
     8
370
    25
100
AcDbLine
 10
6368.2594151282
 20
4957.3713989452
 30
0.0
 11
6299.6411808812
 21
4957.3713989452
 31
0.0
  0
LINE
  5
235
330
1F
100
AcDbEntity
  8
0
  6
Continuous
 62
     8
370
    25
100
AcDbLine
 10
6299.8273224616
 20
4956.5125556186
 30
0.0
 11
6298.4532081568
 21
4956.5125556186
 31
0.0
  0
LINE
  5
236
330
1F
100
AcDbEntity
  8
0
  6
Continuous
 62
     8
370
    25
100
AcDbLine
 10
6368.0656255269
 20
4956.5125556186
 30
0.0
 11
6299.8273224616
 21
4956.5125556186
 31
0.0
  0
LINE
  5
237
330
1F
100
AcDbEntity
  8
0
  6
Continuous
 62
     8
370
    25
100
AcDbLine
 10
6318.0266656959
 20
4937.5651889935
 30
0.0
 11
6317.4005747819
 21
4937.5651889935
 31
0.0
  0
LINE
  5
238
330
1F
100
AcDbEntity
  8
0
  6
Continuous
 62
     8
370
    25
100
AcDbLine
 10
6349.1182551765
 20
4937.5651889935
 30
0.0
 11
6318.0266656959
 21
4937.5651889935
 31
0.0
  0
LINE
  5
239
330
1F
100
AcDbEntity
  8
0
  6
Continuous
 62
     8
370
    25
100
AcDbLine
 10
6218.2594166183
 20
4957.3713989452
 30
0.0
 11
6148.2594163203
 21
4957.3713989452
 31
0.0
  0
LINE
  5
23A
330
1F
100
AcDbEntity
  8
0
  6
Continuous
 62
     8
370
    25
100
AcDbLine
 10
6218.0656232917
 20
4956.5125556186
 30
0.0
 11
6148.4532059216
 21
4956.5125556186
 31
0.0
  0
LINE
  5
23B
330
1F
100
AcDbEntity
  8
0
  6
Continuous
 62
     8
370
    25
100
AcDbLine
 10
6199.1182566666
 20
4937.5651889935
 30
0.0
 11
6167.400576272
 21
4937.5651889935
 31
0.0
  0
ENDSEC
  0
SECTION
  2
OBJECTS
  0
DICTIONARY
  5
C
330
0
100
AcDbDictionary
281
     1
  3
ACAD_GROUP
350
D
  3
ACAD_LAYOUT
350
1A
  3
ACAD_MLINESTYLE
350
17
  3
ACAD_PLOTSETTINGS
350
19
  3
ACAD_PLOTSTYLENAME
350
E
  3
ACAD_SCALELIST
350
47
  0
DICTIONARY
  5
D
102
{ACAD_REACTORS
330
C
102
}
330
C
100
AcDbDictionary
281
     1
  0
DICTIONARY
  5
1A
102
{ACAD_REACTORS
330
C
102
}
330
C
100
AcDbDictionary
281
     1
  3
Layout1
350
1E
  3
Layout2
350
26
  3
Model
350
22
  0
DICTIONARY
  5
17
102
{ACAD_REACTORS
330
C
102
}
330
C
100
AcDbDictionary
281
     1
  3
Standard
350
18
  0
DICTIONARY
  5
19
102
{ACAD_REACTORS
330
C
102
}
330
C
100
AcDbDictionary
281
     1
  0
ACDBDICTIONARYWDFLT
  5
E
102
{ACAD_REACTORS
330
C
102
}
330
C
100
AcDbDictionary
281
     1
  3
Normal
350
F
100
AcDbDictionaryWithDefault
340
F
  0
DICTIONARY
  5
47
102
{ACAD_REACTORS
330
C
102
}
330
C
100
AcDbDictionary
281
     1
  3
A0
350
48
  3
A1
350
49
  3
A2
350
4A
  3
A3
350
4B
  3
A4
350
4C
  3
A5
350
4D
  3
A6
350
4E
  3
A7
350
4F
  3
A8
350
50
  3
A9
350
51
  3
B0
350
52
  3
B1
350
53
  3
B2
350
54
  3
B3
350
55
  3
B4
350
56
  3
B5
350
57
  3
B6
350
58
  3
B7
350
59
  3
B8
350
5A
  3
B9
350
5B
  3
C0
350
5C
  3
C1
350
5D
  3
C2
350
5E
  3
C3
350
5F
  3
C4
350
60
  3
C5
350
61
  3
C6
350
62
  3
C7
350
63
  3
C8
350
64
  3
C9
350
65
  3
D0
350
66
  3
D1
350
67
  3
D2
350
68
  0
LAYOUT
  5
1E
102
{ACAD_REACTORS
330
1A
102
}
330
1A
100
AcDbPlotSettings
  1

  2
none_device
  4

  6

 40
0.0
 41
0.0
 42
0.0
 43
0.0
 44
0.0
 45
0.0
 46
0.0
 47
0.0
 48
0.0
 49
0.0
140
0.0
141
0.0
142
1.0
143
1.0
 70
   688
 72
     1
 73
     0
 74
     5
  7

 75
    16
147
1.0
148
0.0
149
0.0
100
AcDbLayout
  1
Layout1
 70
     1
 71
     1
 10
0.0
 20
0.0
 11
420.0
 21
297.0
 12
0.0
 22
0.0
 32
0.0
 14
1.0000000000E+20
 24
1.0000000000E+20
 34
1.0000000000E+20
 15
-1.0000000000E+20
 25
-1.0000000000E+20
 35
-1.0000000000E+20
146
0.0
 13
0.0
 23
0.0
 33
0.0
 16
1.0
 26
0.0
 36
0.0
 17
0.0
 27
1.0
 37
0.0
 76
     0
330
1B
  0
LAYOUT
  5
26
102
{ACAD_REACTORS
330
1A
102
}
330
1A
100
AcDbPlotSettings
  1

  2
none_device
  4

  6

 40
0.0
 41
0.0
 42
0.0
 43
0.0
 44
0.0
 45
0.0
 46
0.0
 47
0.0
 48
0.0
 49
0.0
140
0.0
141
0.0
142
1.0
143
1.0
 70
   688
 72
     1
 73
     0
 74
     5
  7

 75
    16
147
1.0
148
0.0
149
0.0
100
AcDbLayout
  1
Layout2
 70
     1
 71
     2
 10
0.0
 20
0.0
 11
0.0
 21
0.0
 12
0.0
 22
0.0
 32
0.0
 14
0.0
 24
0.0
 34
0.0
 15
0.0
 25
0.0
 35
0.0
146
0.0
 13
0.0
 23
0.0
 33
0.0
 16
1.0
 26
0.0
 36
0.0
 17
0.0
 27
1.0
 37
0.0
 76
     0
330
23
  0
LAYOUT
  5
22
102
{ACAD_REACTORS
330
1A
102
}
330
1A
100
AcDbPlotSettings
  1

  2
none_device
  4
Letter_(8.50_x_11.00_Inches)
  6

 40
6.35
 41
6.35
 42
6.35000508
 43
6.35000508
 44
215.9
 45
279.4
 46
0.0
 47
0.0
 48
0.0
 49
0.0
140
0.0
141
0.0
142
1.0
143
1.0
 70
  1712
 72
     1
 73
     0
 74
     0
  7

 75
     0
147
1.0
148
0.0
149
0.0
100
AcDbLayout
  1
Model
 70
     1
 71
     0
 10
0.0
 20
0.0
 11
20000.0
 21
10000.0
 12
0.0
 22
0.0
 32
0.0
 14
0.0
 24
0.0
 34
0.0
 15
20000.0
 25
10000.0
 35
0.0
146
0.0
 13
0.0
 23
0.0
 33
0.0
 16
1.0
 26
0.0
 36
0.0
 17
0.0
 27
1.0
 37
0.0
 76
     0
330
1F
331
29
  0
MLINESTYLE
  5
18
102
{ACAD_REACTORS
330
17
102
}
330
17
100
AcDbMlineStyle
  2
Standard
 70
     0
  3

 62
   256
 51
90.0
 52
90.0
 71
     2
 49
0.5
 62
   256
  6
BYLAYER
 49
-0.5
 62
   256
  6
BYLAYER
  0
ACDBPLACEHOLDER
  5
F
102
{ACAD_REACTORS
330
E
102
}
330
E
  0
SCALE
  5
48
102
{ACAD_REACTORS
330
47
102
}
330
47
100
AcDbScale
 70
     0
300
1:1
140
1.0
141
1.0
290
     1
  0
SCALE
  5
49
102
{ACAD_REACTORS
330
47
102
}
330
47
100
AcDbScale
 70
     0
300
1:2
140
1.0
141
2.0
290
     0
  0
SCALE
  5
4A
102
{ACAD_REACTORS
330
47
102
}
330
47
100
AcDbScale
 70
     0
300
1:4
140
1.0
141
4.0
290
     0
  0
SCALE
  5
4B
102
{ACAD_REACTORS
330
47
102
}
330
47
100
AcDbScale
 70
     0
300
1:5
140
1.0
141
5.0
290
     0
  0
SCALE
  5
4C
102
{ACAD_REACTORS
330
47
102
}
330
47
100
AcDbScale
 70
     0
300
1:8
140
1.0
141
8.0
290
     0
  0
SCALE
  5
4D
102
{ACAD_REACTORS
330
47
102
}
330
47
100
AcDbScale
 70
     0
300
1:10
140
1.0
141
10.0
290
     0
  0
SCALE
  5
4E
102
{ACAD_REACTORS
330
47
102
}
330
47
100
AcDbScale
 70
     0
300
1:16
140
1.0
141
16.0
290
     0
  0
SCALE
  5
4F
102
{ACAD_REACTORS
330
47
102
}
330
47
100
AcDbScale
 70
     0
300
1:20
140
1.0
141
20.0
290
     0
  0
SCALE
  5
50
102
{ACAD_REACTORS
330
47
102
}
330
47
100
AcDbScale
 70
     0
300
1:30
140
1.0
141
30.0
290
     0
  0
SCALE
  5
51
102
{ACAD_REACTORS
330
47
102
}
330
47
100
AcDbScale
 70
     0
300
1:40
140
1.0
141
40.0
290
     0
  0
SCALE
  5
52
102
{ACAD_REACTORS
330
47
102
}
330
47
100
AcDbScale
 70
     0
300
1:50
140
1.0
141
50.0
290
     0
  0
SCALE
  5
53
102
{ACAD_REACTORS
330
47
102
}
330
47
100
AcDbScale
 70
     0
300
1:100
140
1.0
141
100.0
290
     0
  0
SCALE
  5
54
102
{ACAD_REACTORS
330
47
102
}
330
47
100
AcDbScale
 70
     0
300
2:1
140
2.0
141
1.0
290
     0
  0
SCALE
  5
55
102
{ACAD_REACTORS
330
47
102
}
330
47
100
AcDbScale
 70
     0
300
4:1
140
4.0
141
1.0
290
     0
  0
SCALE
  5
56
102
{ACAD_REACTORS
330
47
102
}
330
47
100
AcDbScale
 70
     0
300
8:1
140
8.0
141
1.0
290
     0
  0
SCALE
  5
57
102
{ACAD_REACTORS
330
47
102
}
330
47
100
AcDbScale
 70
     0
300
10:1
140
10.0
141
1.0
290
     0
  0
SCALE
  5
58
102
{ACAD_REACTORS
330
47
102
}
330
47
100
AcDbScale
 70
     0
300
100:1
140
100.0
141
1.0
290
     0
  0
SCALE
  5
59
102
{ACAD_REACTORS
330
47
102
}
330
47
100
AcDbScale
 70
     0
300
1/128" = 1'-0"
140
0.0078125
141
12.0
290
     0
  0
SCALE
  5
5A
102
{ACAD_REACTORS
330
47
102
}
330
47
100
AcDbScale
 70
     0
300
1/64" = 1'-0"
140
0.015625
141
12.0
290
     0
  0
SCALE
  5
5B
102
{ACAD_REACTORS
330
47
102
}
330
47
100
AcDbScale
 70
     0
300
1/32" = 1'-0"
140
0.03125
141
12.0
290
     0
  0
SCALE
  5
5C
102
{ACAD_REACTORS
330
47
102
}
330
47
100
AcDbScale
 70
     0
300
1/16" = 1'-0"
140
0.0625
141
12.0
290
     0
  0
SCALE
  5
5D
102
{ACAD_REACTORS
330
47
102
}
330
47
100
AcDbScale
 70
     0
300
3/32" = 1'-0"
140
0.09375
141
12.0
290
     0
  0
SCALE
  5
5E
102
{ACAD_REACTORS
330
47
102
}
330
47
100
AcDbScale
 70
     0
300
1/8" = 1'-0"
140
0.125
141
12.0
290
     0
  0
SCALE
  5
5F
102
{ACAD_REACTORS
330
47
102
}
330
47
100
AcDbScale
 70
     0
300
3/16" = 1'-0"
140
0.1875
141
12.0
290
     0
  0
SCALE
  5
60
102
{ACAD_REACTORS
330
47
102
}
330
47
100
AcDbScale
 70
     0
300
1/4" = 1'-0"
140
0.25
141
12.0
290
     0
  0
SCALE
  5
61
102
{ACAD_REACTORS
330
47
102
}
330
47
100
AcDbScale
 70
     0
300
3/8" = 1'-0"
140
0.375
141
12.0
290
     0
  0
SCALE
  5
62
102
{ACAD_REACTORS
330
47
102
}
330
47
100
AcDbScale
 70
     0
300
1/2" = 1'-0"
140
0.5
141
12.0
290
     0
  0
SCALE
  5
63
102
{ACAD_REACTORS
330
47
102
}
330
47
100
AcDbScale
 70
     0
300
3/4" = 1'-0"
140
0.75
141
12.0
290
     0
  0
SCALE
  5
64
102
{ACAD_REACTORS
330
47
102
}
330
47
100
AcDbScale
 70
     0
300
1" = 1'-0"
140
1.0
141
12.0
290
     0
  0
SCALE
  5
65
102
{ACAD_REACTORS
330
47
102
}
330
47
100
AcDbScale
 70
     0
300
1-1/2" = 1'-0"
140
1.5
141
12.0
290
     0
  0
SCALE
  5
66
102
{ACAD_REACTORS
330
47
102
}
330
47
100
AcDbScale
 70
     0
300
3" = 1'-0"
140
3.0
141
12.0
290
     0
  0
SCALE
  5
67
102
{ACAD_REACTORS
330
47
102
}
330
47
100
AcDbScale
 70
     0
300
6" = 1'-0"
140
6.0
141
12.0
290
     0
  0
SCALE
  5
68
102
{ACAD_REACTORS
330
47
102
}
330
47
100
AcDbScale
 70
     0
300
1'-0" = 1'-0"
140
12.0
141
12.0
290
     0
  0
ENDSEC
  0
EOF
