  0
SECTION
  2
HEADER
  9
$ACADVER
  1
AC1015
  9
$ACADMAINTVER
 70
     6
  9
$DWGCODEPAGE
  3
ANSI_1250
  9
$INSBASE
 10
0.0
 20
0.0
 30
0.0
  9
$EXTMIN
 10
0.0
 20
0.0
 30
0.0
  9
$EXTMAX
 10
20000.0
 20
10000.0
 30
0.0
  9
$LIMMIN
 10
0.0
 20
0.0
  9
$LIMMAX
 10
20000.0
 20
10000.0
  9
$ORTHOMODE
 70
     0
  9
$REGENMODE
 70
     1
  9
$FILLMODE
 70
     1
  9
$QTEXTMODE
 70
     0
  9
$MIRRTEXT
 70
     1
  9
$LTSCALE
 40
1.0
  9
$ATTMODE
 70
     1
  9
$TEXTSIZE
 40
2.0
  9
$TRACEWID
 40
1.0
  9
$TEXTSTYLE
  7
STANDARD
  9
$CLAYER
  8
0
  9
$CELTYPE
  6
ByLayer
  9
$CECOLOR
 62
   256
  9
$CELTSCALE
 40
1.0
  9
$DISPSILH
 70
     0
  9
$DIMSCALE
 40
1.0
  9
$DIMASZ
 40
2.0
  9
$DIMEXO
 40
1.0
  9
$DIMDLI
 40
3.75
  9
$DIMRND
 40
0.0
  9
$DIMDLE
 40
0.0
  9
$DIMEXE
 40
1.0
  9
$DIMTP
 40
0.0
  9
$DIMTM
 40
0.0
  9
$DIMTXT
 40
2.0
  9
$DIMCEN
 40
2.5
  9
$DIMTSZ
 40
0.0
  9
$DIMTOL
 70
     0
  9
$DIMLIM
 70
     0
  9
$DIMTIH
 70
     1
  9
$DIMTOH
 70
     1
  9
$DIMSE1
 70
     0
  9
$DIMSE2
 70
     0
  9
$DIMTAD
 70
     1
  9
$DIMZIN
 70
     0
  9
$DIMBLK
  1

  9
$DIMASO
 70
     1
  9
$DIMSHO
 70
     1
  9
$DIMPOST
  1

  9
$DIMAPOST
  1

  9
$DIMALT
 70
     0
  9
$DIMALTD
 70
     3
  9
$DIMALTF
 40
0.0393700787
  9
$DIMLFAC
 40
0.2
  9
$DIMTOFL
 70
     1
  9
$DIMTVP
 40
0.0
  9
$DIMTIX
 70
     0
  9
$DIMSOXD
 70
     0
  9
$DIMSAH
 70
     0
  9
$DIMBLK1
  1

  9
$DIMBLK2
  1

  9
$DIMSTYLE
  2
ISO-25
  9
$DIMCLRD
 70
     0
  9
$DIMCLRE
 70
     0
  9
$DIMCLRT
 70
     0
  9
$DIMTFAC
 40
1.0
  9
$DIMGAP
 40
1.524
  9
$DIMJUST
 70
     0
  9
$DIMSD1
 70
     0
  9
$DIMSD2
 70
     0
  9
$DIMTOLJ
 70
     0
  9
$DIMTZIN
 70
     0
  9
$DIMALTZ
 70
     0
  9
$DIMALTTZ
 70
     0
  9
$DIMUPT
 70
     0
  9
$DIMDEC
 70
     2
  9
$DIMTDEC
 70
     0
  9
$DIMALTU
 70
     2
  9
$DIMALTTD
 70
     3
  9
$DIMTXSTY
  7
STANDARD
  9
$DIMAUNIT
 70
     0
  9
$DIMADEC
 70
     2
  9
$DIMALTRND
 40
0.0
  9
$DIMAZIN
 70
     0
  9
$DIMDSEP
 70
    44
  9
$DIMATFIT
 70
     3
  9
$DIMFRAC
 70
     0
  9
$DIMLDRBLK
  1

  9
$DIMLUNIT
 70
     2
  9
$DIMLWD
 70
    -2
  9
$DIMLWE
 70
    -2
  9
$DIMTMOVE
 70
     0
  9
$LUNITS
 70
     2
  9
$LUPREC
 70
     3
  9
$SKETCHINC
 40
1.0
  9
$FILLETRAD
 40
0.0
  9
$AUNITS
 70
     0
  9
$AUPREC
 70
     2
  9
$MENU
  1
.
  9
$ELEVATION
 40
0.0
  9
$PELEVATION
 40
0.0
  9
$THICKNESS
 40
0.0
  9
$LIMCHECK
 70
     0
  9
$CHAMFERA
 40
0.0
  9
$CHAMFERB
 40
0.0
  9
$CHAMFERC
 40
0.0
  9
$CHAMFERD
 40
0.0
  9
$SKPOLY
 70
     0
  9
$TDCREATE
 40
2461007.319044213
  9
$TDUCREATE
 40
2461007.277377547
  9
$TDUPDATE
 40
2461007.319046285
  9
$TDUUPDATE
 40
2461007.277379618
  9
$TDINDWG
 40
0.0000000116
  9
$TDUSRTIMER
 40
0.0000000116
  9
$USRTIMER
 70
     1
  9
$ANGBASE
 50
0.0
  9
$ANGDIR
 70
     0
  9
$PDMODE
 70
     0
  9
$PDSIZE
 40
-1.0
  9
$PLINEWID
 40
0.0
  9
$SPLFRAME
 70
     0
  9
$SPLINETYPE
 70
     6
  9
$SPLINESEGS
 70
     8
  9
$HANDSEED
  5
159
  9
$SURFTAB1
 70
     6
  9
$SURFTAB2
 70
     6
  9
$SURFTYPE
 70
     6
  9
$SURFU
 70
     6
  9
$SURFV
 70
     6
  9
$UCSBASE
  2

  9
$UCSNAME
  2

  9
$UCSORG
 10
0.0
 20
0.0
 30
0.0
  9
$UCSXDIR
 10
1.0
 20
0.0
 30
0.0
  9
$UCSYDIR
 10
0.0
 20
1.0
 30
0.0
  9
$UCSORTHOREF
  2

  9
$UCSORTHOVIEW
 70
     0
  9
$UCSORGTOP
 10
0.0
 20
0.0
 30
0.0
  9
$UCSORGBOTTOM
 10
0.0
 20
0.0
 30
0.0
  9
$UCSORGLEFT
 10
0.0
 20
0.0
 30
0.0
  9
$UCSORGRIGHT
 10
0.0
 20
0.0
 30
0.0
  9
$UCSORGFRONT
 10
0.0
 20
0.0
 30
0.0
  9
$UCSORGBACK
 10
0.0
 20
0.0
 30
0.0
  9
$PUCSBASE
  2

  9
$PUCSNAME
  2

  9
$PUCSORG
 10
0.0
 20
0.0
 30
0.0
  9
$PUCSXDIR
 10
1.0
 20
0.0
 30
0.0
  9
$PUCSYDIR
 10
0.0
 20
1.0
 30
0.0
  9
$PUCSORTHOREF
  2

  9
$PUCSORTHOVIEW
 70
     0
  9
$PUCSORGTOP
 10
0.0
 20
0.0
 30
0.0
  9
$PUCSORGBOTTOM
 10
0.0
 20
0.0
 30
0.0
  9
$PUCSORGLEFT
 10
0.0
 20
0.0
 30
0.0
  9
$PUCSORGRIGHT
 10
0.0
 20
0.0
 30
0.0
  9
$PUCSORGFRONT
 10
0.0
 20
0.0
 30
0.0
  9
$PUCSORGBACK
 10
0.0
 20
0.0
 30
0.0
  9
$USERI1
 70
     0
  9
$USERI2
 70
     0
  9
$USERI3
 70
     0
  9
$USERI4
 70
     0
  9
$USERI5
 70
     0
  9
$USERR1
 40
0.0
  9
$USERR2
 40
0.0
  9
$USERR3
 40
0.0
  9
$USERR4
 40
0.0
  9
$USERR5
 40
0.0
  9
$WORLDVIEW
 70
     1
  9
$SHADEDGE
 70
     3
  9
$SHADEDIF
 70
    70
  9
$TILEMODE
 70
     1
  9
$MAXACTVP
 70
    64
  9
$PINSBASE
 10
0.0
 20
0.0
 30
0.0
  9
$PLIMCHECK
 70
     0
  9
$PEXTMIN
 10
1.0000000000E+20
 20
1.0000000000E+20
 30
1.0000000000E+20
  9
$PEXTMAX
 10
-1.0000000000E+20
 20
-1.0000000000E+20
 30
-1.0000000000E+20
  9
$PLIMMIN
 10
0.0
 20
0.0
  9
$PLIMMAX
 10
420.0
 20
297.0
  9
$UNITMODE
 70
     0
  9
$VISRETAIN
 70
     1
  9
$PLINEGEN
 70
     0
  9
$PSLTSCALE
 70
     1
  9
$TREEDEPTH
 70
  3020
  9
$CMLSTYLE
  2
Standard
  9
$CMLJUST
 70
     0
  9
$CMLSCALE
 40
20.0
  9
$PROXYGRAPHICS
 70
     1
  9
$MEASUREMENT
 70
     1
  9
$CELWEIGHT
370
    -1
  9
$ENDCAPS
280
     0
  9
$JOINSTYLE
280
     0
  9
$LWDISPLAY
290
     1
  9
$INSUNITS
 70
     4
  9
$HYPERLINKBASE
  1

  9
$STYLESHEET
  1

  9
$XEDIT
290
     1
  9
$CEPSNTYPE
380
     0
  9
$PSTYLEMODE
290
     1
  9
$FINGERPRINTGUID
  2
{da28d332-c0fd-4994-b36b-2ffd59189ed5}
  9
$VERSIONGUID
  2
{FAEB1C32-E019-11D5-929B-00C0DF256EC4}
  9
$EXTNAMES
290
     1
  9
$PSVPSCALE
 40
0.0
  9
$OLESTARTUP
290
     0
  0
ENDSEC
  0
SECTION
  2
CLASSES
  0
CLASS
  1
ACDBDICTIONARYWDFLT
  2
AcDbDictionaryWithDefault
  3
ObjectDBX Classes
 90
        0
280
     0
281
     0
  0
CLASS
  1
VISUALSTYLE
  2
AcDbVisualStyle
  3
ObjectDBX Classes
 90
     4095
280
     0
281
     0
  0
CLASS
  1
MATERIAL
  2
AcDbMaterial
  3
ObjectDBX Classes
 90
     1153
280
     0
281
     0
  0
CLASS
  1
SCALE
  2
AcDbScale
  3
ObjectDBX Classes
 90
     1153
280
     0
281
     0
  0
CLASS
  1
TABLESTYLE
  2
AcDbTableStyle
  3
ObjectDBX Classes
 90
     4095
280
     0
281
     0
  0
CLASS
  1
MLEADERSTYLE
  2
AcDbMLeaderStyle
  3
ACDB_MLEADERSTYLE_CLASS
 90
     4095
280
     0
281
     0
  0
CLASS
  1
SUN
  2
AcDbSun
  3
SCENEOE
 90
     1153
280
     0
281
     0
  0
CLASS
  1
ACDBPLACEHOLDER
  2
AcDbPlaceHolder
  3
ObjectDBX Classes
 90
        0
280
     0
281
     0
  0
CLASS
  1
LAYOUT
  2
AcDbLayout
  3
ObjectDBX Classes
 90
        0
280
     0
281
     0
  0
ENDSEC
  0
SECTION
  2
TABLES
  0
TABLE
  2
VPORT
  5
8
330
0
100
AcDbSymbolTable
 70
     1
  0
VPORT
  5
29
330
8
100
AcDbSymbolTableRecord
100
AcDbViewportTableRecord
  2
*Active
 70
     0
 10
0.0
 20
0.0
 11
1.0
 21
1.0
 12
10000.0
 22
5000.0
 13
0.0
 23
0.0
 14
10.0
 24
10.0
 15
10.0
 25
10.0
 16
0.0
 26
0.0
 36
1.0
 17
0.0
 27
0.0
 37
0.0
 40
10000.0
 41
2.0
 42
50.0
 43
0.0
 44
0.0
 50
0.0
 51
0.0
 71
     0
 72
  2000
 73
     1
 74
     3
 75
     0
 76
     0
 77
     0
 78
     0
281
     0
 65
     1
110
0.0
120
0.0
130
0.0
111
1.0
121
0.0
131
0.0
112
0.0
122
1.0
132
0.0
 79
     0
146
0.0
  0
ENDTAB
  0
TABLE
  2
LTYPE
  5
5
330
0
100
AcDbSymbolTable
 70
    10
  0
LTYPE
  5
14
330
5
100
AcDbSymbolTableRecord
100
AcDbLinetypeTableRecord
  2
ByBlock
 70
     0
  3

 72
    65
 73
     0
 40
0.0
  0
LTYPE
  5
15
330
5
100
AcDbSymbolTableRecord
100
AcDbLinetypeTableRecord
  2
ByLayer
 70
     0
  3

 72
    65
 73
     0
 40
0.0
  0
LTYPE
  5
16
330
5
100
AcDbSymbolTableRecord
100
AcDbLinetypeTableRecord
  2
Continuous
 70
     0
  3
Solid line
 72
    65
 73
     0
 40
0.0
  0
LTYPE
  5
5E
330
5
100
AcDbSymbolTableRecord
100
AcDbLinetypeTableRecord
  2
SLD-Plná
 70
     0
  3
SolidWorks Line Style
 72
    65
 73
     0
 40
0.0
  0
LTYPE
  5
5F
330
5
100
AcDbSymbolTableRecord
100
AcDbLinetypeTableRecord
  2
SLD-Čárkovaná
 70
     0
  3
SolidWorks Line Style
 72
    65
 73
     2
 40
1.905
 49
1.27
 74
     0
 49
-0.635
 74
     0
  0
LTYPE
  5
60
330
5
100
AcDbSymbolTableRecord
100
AcDbLinetypeTableRecord
  2
SLD-Dvojitě-čerchovaná
 70
     0
  3
SolidWorks Line Style
 72
    65
 73
     6
 40
12.7
 49
6.35
 74
     0
 49
-1.27
 74
     0
 49
1.27
 74
     0
 49
-1.27
 74
     0
 49
1.27
 74
     0
 49
-1.27
 74
     0
  0
LTYPE
  5
61
330
5
100
AcDbSymbolTableRecord
100
AcDbLinetypeTableRecord
  2
SLD-Čerchovaná
 70
     0
  3
SolidWorks Line Style
 72
    65
 73
     4
 40
10.16
 49
6.35
 74
     0
 49
-1.27
 74
     0
 49
1.27
 74
     0
 49
-1.27
 74
     0
  0
LTYPE
  5
62
330
5
100
AcDbSymbolTableRecord
100
AcDbLinetypeTableRecord
  2
SLD-Osa
 70
     0
  3
SolidWorks Line Style
 72
    65
 73
     4
 40
19.05
 49
15.24
 74
     0
 49
-1.27
 74
     0
 49
1.27
 74
     0
 49
-1.27
 74
     0
  0
LTYPE
  5
63
330
5
100
AcDbSymbolTableRecord
100
AcDbLinetypeTableRecord
  2
SLD-Tečkovaná
 70
     0
  3
SolidWorks Line Style
 72
    65
 73
     2
 40
0.635
 49
0.0
 74
     0
 49
-0.635
 74
     0
  0
LTYPE
  5
64
330
5
100
AcDbSymbolTableRecord
100
AcDbLinetypeTableRecord
  2
SLD-Hrubá-tenká-čerchovaná
 70
     0
  3
SolidWorks Line Style
 72
    65
 73
     4
 40
10.16
 49
6.35
 74
     0
 49
-1.27
 74
     0
 49
1.27
 74
     0
 49
-1.27
 74
     0
  0
LTYPE
  5
65
330
5
100
AcDbSymbolTableRecord
100
AcDbLinetypeTableRecord
  2
SLD-Řez-1
 70
     0
  3
SolidWorks Line Style
 72
    65
 73
     4
 40
8.128
 49
5.08
 74
     0
 49
-1.016
 74
     0
 49
1.016
 74
     0
 49
-1.016
 74
     0
  0
LTYPE
  5
66
330
5
100
AcDbSymbolTableRecord
100
AcDbLinetypeTableRecord
  2
SLD-Řez-2
 70
     0
  3
SolidWorks Line Style
 72
    65
 73
     2
 40
5080.0
 49
0.0
 74
     0
 49
-5080.0
 74
     0
  0
ENDTAB
  0
TABLE
  2
LAYER
  5
2
330
0
100
AcDbSymbolTable
 70
    13
  0
LAYER
  5
10
330
2
100
AcDbSymbolTableRecord
100
AcDbLayerTableRecord
  2
0
 70
     0
 62
     7
  6
Continuous
370
    -3
390
F
  0
LAYER
  5
67
330
2
100
AcDbSymbolTableRecord
100
AcDbLayerTableRecord
  2
FORMAT
 70
     0
 62
     7
  6
SLD-Plná
370
    -3
390
F
  0
LAYER
  5
68
330
2
100
AcDbSymbolTableRecord
100
AcDbLayerTableRecord
  2
OSA
 70
     0
 62
     7
  6
SLD-Hrubá-tenká-čerchovaná
370
    -3
390
F
  0
LAYER
  5
69
330
2
100
AcDbSymbolTableRecord
100
AcDbLayerTableRecord
  2
0_35
 70
     0
 62
     7
  6
SLD-Plná
370
    35
390
F
  0
LAYER
  5
6A
330
2
100
AcDbSymbolTableRecord
100
AcDbLayerTableRecord
  2
0_5
 70
     0
 62
     7
  6
SLD-Plná
370
    50
390
F
  0
LAYER
  5
6B
330
2
100
AcDbSymbolTableRecord
100
AcDbLayerTableRecord
  2
0_25
 70
     0
 62
     7
  6
SLD-Plná
370
    25
390
F
  0
LAYER
  5
6C
330
2
100
AcDbSymbolTableRecord
100
AcDbLayerTableRecord
  2
0_18
 70
     0
 62
     7
  6
SLD-Plná
370
    -3
390
F
  0
LAYER
  5
6D
330
2
100
AcDbSymbolTableRecord
100
AcDbLayerTableRecord
  2
SLD-0
 70
     0
 62
   179
  6
SLD-Plná
370
    -3
390
F
  0
LAYER
  5
6E
330
2
100
AcDbSymbolTableRecord
100
AcDbLayerTableRecord
  2
KOTY
 70
     0
 62
     7
  6
SLD-Plná
370
    -3
390
F
  0
LAYER
  5
6F
330
2
100
AcDbSymbolTableRecord
100
AcDbLayerTableRecord
  2
SILNA
 70
     0
 62
   179
  6
SLD-Plná
370
    -3
390
F
  0
LAYER
  5
70
330
2
100
AcDbSymbolTableRecord
100
AcDbLayerTableRecord
  2
0_18_1
 70
     0
 62
   179
  6
SLD-Plná
370
    -3
390
F
  0
LAYER
  5
71
330
2
100
AcDbSymbolTableRecord
100
AcDbLayerTableRecord
  2
0_35_1
 70
     0
 62
   179
  6
SLD-Plná
370
    35
390
F
  0
LAYER
  5
72
330
2
100
AcDbSymbolTableRecord
100
AcDbLayerTableRecord
  2
0_5_1
 70
     0
 62
   179
  6
SLD-Plná
370
    50
390
F
  0
ENDTAB
  0
TABLE
  2
STYLE
  5
3
330
0
100
AcDbSymbolTable
 70
     1
  0
STYLE
  5
11
330
3
100
AcDbSymbolTableRecord
100
AcDbTextStyleTableRecord
  2
STANDARD
 70
     0
 40
0.0
 41
1.0
 50
0.0
 71
     0
 42
2.0
  3
SWISOP1.TTF
  4

1001
ACAD
1000
SWISOP1
1071
        2
  0
ENDTAB
  0
TABLE
  2
VIEW
  5
6
330
0
100
AcDbSymbolTable
 70
     0
  0
ENDTAB
  0
TABLE
  2
UCS
  5
7
330
0
100
AcDbSymbolTable
 70
     0
  0
ENDTAB
  0
TABLE
  2
APPID
  5
9
330
0
100
AcDbSymbolTable
 70
     1
  0
APPID
  5
12
330
9
100
AcDbSymbolTableRecord
100
AcDbRegAppTableRecord
  2
ACAD
 70
     0
  0
ENDTAB
  0
TABLE
  2
DIMSTYLE
  5
A
330
0
100
AcDbSymbolTable
 70
     1
100
AcDbDimStyleTable
  0
DIMSTYLE
105
27
330
A
100
AcDbSymbolTableRecord
100
AcDbDimStyleTableRecord
  2
ISO-25
 70
     0
 41
2.5
 42
0.625
 43
3.75
 44
1.25
 73
     0
 74
     0
 77
     1
 78
     8
140
2.5
141
2.5
143
0.0393700787
147
0.625
171
     3
172
     1
178
     0
271
     2
272
     2
274
     3
278
    44
283
     0
284
     8
340
11
  0
ENDTAB
  0
TABLE
  2
BLOCK_RECORD
  5
1
330
0
100
AcDbSymbolTable
 70
     1
  0
BLOCK_RECORD
  5
1F
330
1
100
AcDbSymbolTableRecord
100
AcDbBlockTableRecord
  2
*Model_Space
340
22
  0
BLOCK_RECORD
  5
1B
330
1
100
AcDbSymbolTableRecord
100
AcDbBlockTableRecord
  2
*Paper_Space
340
1E
  0
BLOCK_RECORD
  5
23
330
1
100
AcDbSymbolTableRecord
100
AcDbBlockTableRecord
  2
*Paper_Space0
340
26
  0
ENDTAB
  0
ENDSEC
  0
SECTION
  2
BLOCKS
  0
BLOCK
  5
20
330
1F
100
AcDbEntity
  8
0
100
AcDbBlockBegin
  2
*Model_Space
 70
     0
 10
0.0
 20
0.0
 30
0.0
  3
*Model_Space
  1

  0
ENDBLK
  5
21
330
1F
100
AcDbEntity
  8
0
100
AcDbBlockEnd
  0
BLOCK
  5
1C
330
1B
100
AcDbEntity
 67
     1
  8
0
100
AcDbBlockBegin
  2
*Paper_Space
 70
     0
 10
0.0
 20
0.0
 30
0.0
  3
*Paper_Space
  1

  0
ENDBLK
  5
1D
330
1B
100
AcDbEntity
 67
     1
  8
0
100
AcDbBlockEnd
  0
BLOCK
  5
24
330
23
100
AcDbEntity
  8
0
100
AcDbBlockBegin
  2
*Paper_Space0
 70
     0
 10
0.0
 20
0.0
 30
0.0
  3
*Paper_Space0
  1

  0
ENDBLK
  5
25
330
23
100
AcDbEntity
  8
0
100
AcDbBlockEnd
  0
ENDSEC
  0
SECTION
  2
ENTITIES
  0
SPLINE
  5
73
330
1F
100
AcDbEntity
  8
0
  6
SLD-Plná
 62
     7
370
    25
100
AcDbSpline
210
0.0
220
0.0
230
1.0
 70
     8
 71
     3
 72
    13
 73
     9
 74
     0
 42
0.00000001
 43
0.00000001
 40
0.0
 40
0.0
 40
0.0
 40
0.0
 40
0.0355578052762877
 40
0.3194462712633594
 40
0.6208245019554137
 40
0.7858963606351285
 40
0.9400699254391609
 40
1.0
 40
1.0
 40
1.0
 40
1.0
 10
7314.313323423183
 20
6220.292134545876
 30
0.0
 10
7314.28096704504
 20
6220.56628893965
 30
0.0
 10
7313.990281940348
 20
6223.029253066953
 30
0.0
 10
7313.064884952893
 20
6226.571326683329
 30
0.0
 10
7311.635373012296
 20
6230.323862818329
 30
0.0
 10
7309.451253970358
 20
6232.889409453253
 30
0.0
 10
7307.22240107455
 20
6234.400369931864
 30
0.0
 10
7305.756755612681
 20
6234.327060251316
 30
0.0
 10
7305.346504567578
 20
6234.306540027398
 30
0.0
  0
SPLINE
  5
74
330
1F
100
AcDbEntity
  8
0
  6
SLD-Plná
 62
     7
370
    25
100
AcDbSpline
210
0.0
220
0.0
230
1.0
 70
     8
 71
     3
 72
    13
 73
     9
 74
     0
 42
0.00000001
 43
0.00000001
 40
0.0
 40
0.0
 40
0.0
 40
0.0
 40
0.1063138406297273
 40
0.239569608812383
 40
0.3881097714907674
 40
0.5904200201216422
 40
0.8313249991296585
 40
1.0
 40
1.0
 40
1.0
 40
1.0
 10
7288.545222306773
 20
6085.617917615063
 30
0.0
 10
7289.401820711694
 20
6085.565417539444
 30
0.0
 10
7291.332095674581
 20
6085.44711288124
 30
0.0
 10
7293.755717722363
 20
6086.895654431758
 30
0.0
 10
7295.850556135573
 20
6088.915025205456
 30
0.0
 10
7297.873305616813
 20
6092.029847414797
 30
0.0
 10
7299.794265520423
 20
6095.968917646021
 30
0.0
 10
7301.0344340416
 20
6099.573948982197
 30
0.0
 10
7301.54516561215
 20
6101.058588597514
 30
0.0
  0
LINE
  5
75
330
1F
100
AcDbEntity
  8
0
  6
SLD-Plná
 62
     7
370
    25
100
AcDbLine
 10
7277.6549014617
 20
6086.7044150001
 30
0.0
 11
7288.4625197331
 21
6085.4633243551
 31
0.0
  0
LINE
  5
76
330
1F
100
AcDbEntity
  8
0
  6
SLD-Plná
 62
     7
370
    25
100
AcDbLine
 10
7305.5752755455
 20
6234.4839725502
 30
0.0
 11
7295.2330610954
 21
6235.6716186421
 31
0.0
  0
SPLINE
  5
77
330
1F
100
AcDbEntity
  8
0
  6
SLD-Plná
 62
     7
370
    25
100
AcDbSpline
210
0.0
220
0.0
230
1.0
 70
     8
 71
     3
 72
    13
 73
     9
 74
     0
 42
0.00000001
 43
0.00000001
 40
0.0
 40
0.0
 40
0.0
 40
0.0
 40
0.0349514724715859
 40
0.1788723138036759
 40
0.3214313285252066
 40
0.4951915719498354
 40
0.7419783895891248
 40
1.0
 40
1.0
 40
1.0
 40
1.0
 10
5801.837594981796
 20
6234.364235203301
 30
0.0
 10
5801.577180373418
 20
6234.380151840496
 30
0.0
 10
5800.24444786588
 20
6234.461608944347
 30
0.0
 10
5798.077886338056
 20
6233.102304824988
 30
0.0
 10
5796.192247784189
 20
6231.042572367441
 30
0.0
 10
5794.732356882026
 20
6228.144410424223
 30
0.0
 10
5793.516842702963
 20
6224.162887301908
 30
0.0
 10
5792.933852990764
 20
6220.181577674579
 30
0.0
 10
5792.635870754261
 20
6218.146619729131
 30
0.0
  0
SPLINE
  5
78
330
1F
100
AcDbEntity
  8
0
  6
SLD-Plná
 62
     7
370
    25
100
AcDbSpline
210
0.0
220
0.0
230
1.0
 70
     8
 71
     3
 72
    13
 73
     9
 74
     0
 42
0.00000001
 43
0.00000001
 40
0.0
 40
0.0
 40
0.0
 40
0.0
 40
0.1290486660384988
 40
0.3790936535159944
 40
0.643098374718906
 40
0.7928165029672234
 40
0.9301720784398811
 40
1.0
 40
1.0
 40
1.0
 40
1.0
 10
5805.990278451415
 20
6100.304131407167
 30
0.0
 10
5806.372820316685
 20
6099.19420977186
 30
0.0
 10
5807.496576166162
 20
6095.933701463162
 30
0.0
 10
5809.476502744765
 20
6091.858986554315
 30
0.0
 10
5811.68215482117
 20
6088.495850746322
 30
0.0
 10
5814.247536632561
 20
6086.37693279515
 30
0.0
 10
5816.747352060314
 20
6085.256342688449
 30
0.0
 10
5818.348057615969
 20
6085.554930763836
 30
0.0
 10
5818.887550112147
 20
6085.655565153182
 30
0.0
  0
LINE
  5
79
330
1F
100
AcDbEntity
  8
0
  6
SLD-Plná
 62
     7
370
    25
100
AcDbLine
 10
5812.0396416175
 20
6235.6717071988
 30
0.0
 11
5801.6966560021
 21
6234.4839725502
 31
0.0
  0
LINE
  5
7A
330
1F
100
AcDbEntity
  8
0
  6
SLD-Plná
 62
     7
370
    25
100
AcDbLine
 10
5818.8094118145
 20
6085.4633243551
 30
0.0
 11
5829.6178004372
 21
6086.7045034632
 31
0.0
  0
SPLINE
  5
7B
330
1F
100
AcDbEntity
  8
0
  6
SLD-Plná
 62
     7
370
    25
100
AcDbSpline
210
0.0
220
0.0
230
1.0
 70
     8
 71
     3
 72
    35
 73
    31
 74
     0
 42
0.00000001
 43
0.00000001
 40
0.0
 40
0.0
 40
0.0
 40
0.0
 40
0.0578026740039324
 40
0.1213960736095042
 40
0.1801232513443269
 40
0.2339870641628575
 40
0.2790919007992941
 40
0.3201136345998894
 40
0.3570536237976629
 40
0.3899132060724035
 40
0.4196716512287776
 40
0.4489247010405982
 40
0.5037559536620642
 40
0.5572549035658978
 40
0.5779079513663357
 40
0.5973172683005319
 40
0.6134943449441803
 40
0.6263901734711712
 40
0.6339752005863157
 40
0.6417003463062638
 40
0.6543665843207429
 40
0.6721786381706925
 40
0.6951367974750704
 40
0.7232414803921228
 40
0.7564932944529758
 40
0.7948930960347624
 40
0.8384420399192786
 40
0.8871416042420927
 40
0.9409935772013733
 40
1.0
 40
1.0
 40
1.0
 40
1.0
 10
5749.122513563862
 20
6915.145427054853
 30
0.0
 10
5751.900968671789
 20
6889.536889502072
 30
0.0
 10
5757.736227102565
 20
6835.754327304727
 30
0.0
 10
5766.354258170442
 20
6755.950845528158
 30
0.0
 10
5774.779239087623
 20
6677.895727617663
 30
0.0
 10
5782.32611098266
 20
6608.037415805198
 30
0.0
 10
5789.042004735848
 20
6546.03043885635
 30
0.0
 10
5794.96537006314
 20
6491.528559476753
 30
0.0
 10
5800.320434230297
 20
6442.460066414395
 30
0.0
 10
5805.151760225025
 20
6398.390899787182
 30
0.0
 10
5809.62969264216
 20
6357.739398038543
 30
0.0
 10
5815.207213231874
 20
6307.37023476104
 30
0.0
 10
5822.002143311593
 20
6246.510067301133
 30
0.0
 10
5828.44743616706
 20
6189.470103143623
 30
0.0
 10
5833.174203232717
 20
6148.104567438894
 30
0.0
 10
5836.034153774578
 20
6123.243160971485
 30
0.0
 10
5838.51490313994
 20
6101.813230842554
 30
0.0
 10
5840.400407148547
 20
6085.611849981256
 30
0.0
 10
5841.856647812821
 20
6073.146823839217
 30
0.0
 10
5843.304845786834
 20
6060.786446946883
 30
0.0
 10
5845.289527702717
 20
6043.913017714141
 30
0.0
 10
5848.08156838894
 20
6020.314796833456
 30
0.0
 10
5851.708252194081
 20
5989.903996193132
 30
0.0
 10
5856.191294318731
 20
5952.68234068872
 30
0.0
 10
5861.556605921731
 20
5908.65233253116
 30
0.0
 10
5867.833303000855
 20
5857.816476490959
 30
0.0
 10
5875.05104939695
 20
5800.177192128361
 30
0.0
 10
5883.24176196175
 20
5735.737073532573
 30
0.0
 10
5892.422061401117
 20
5664.496380680463
 30
0.0
 10
5898.95180376646
 20
5614.747332136812
 30
0.0
 10
5902.365787601583
 20
5588.736742738635
 30
0.0
  0
SPLINE
  5
7C
330
1F
100
AcDbEntity
  8
0
  6
SLD-Plná
 62
     7
370
    25
100
AcDbSpline
210
0.0
220
0.0
230
1.0
 70
     8
 71
     3
 72
    36
 73
    32
 74
     0
 42
0.00000001
 43
0.00000001
 40
0.0
 40
0.0
 40
0.0
 40
0.0
 40
0.0590055124646892
 40
0.1128566546113815
 40
0.1615554676114083
 40
0.2051037396353091
 40
0.2435029487958135
 40
0.2767542498568801
 40
0.3048584991824127
 40
0.3278163042941636
 40
0.3456280833439186
 40
0.3559939494544378
 40
0.3631970714259201
 40
0.3684742706950952
 40
0.3747810915008556
 40
0.3822454292527644
 40
0.3908672657989532
 40
0.4067544363471492
 40
0.4253262727788448
 40
0.4446259863376912
 40
0.5510666908507748
 40
0.5823538863585652
 40
0.6143748919560663
 40
0.6502576044569186
 40
0.6908042921761252
 40
0.7382859449881409
 40
0.7908900895320987
 40
0.8486190069640126
 40
0.9044955119803002
 40
0.9644620840589809
 40
1.0
 40
1.0
 40
1.0
 40
1.0
 10
7204.90694278602
 20
5588.736742738635
 30
0.0
 10
7208.320926563685
 20
5614.747331696718
 30
0.0
 10
7214.850668819128
 20
5664.496379398626
 30
0.0
 10
7224.030968122916
 20
5735.737071179027
 30
0.0
 10
7232.221680514504
 20
5800.177188342765
 30
0.0
 10
7239.439426933481
 20
5857.816472891867
 30
0.0
 10
7245.716123497949
 20
5908.652324550542
 30
0.0
 10
7251.081436279936
 20
5952.68234261466
 30
0.0
 10
7255.564474683753
 20
5989.903966631397
 30
0.0
 10
7259.191168514123
 20
6020.31485189203
 30
0.0
 10
7261.862999046002
 20
6042.897061239349
 30
0.0
 10
7263.701918520482
 20
6058.524282509459
 30
0.0
 10
7264.885548452298
 20
6068.616712429968
 30
0.0
 10
7265.856915635234
 20
6076.918882110027
 30
0.0
 10
7266.839692471332
 20
6085.336913773826
 30
0.0
 10
7267.992157657385
 20
6095.233841132385
 30
0.0
 10
7269.6329129235
 20
6109.36587658694
 30
0.0
 10
7271.83403309186
 20
6128.409101725917
 30
0.0
 10
7274.564565413053
 20
6152.174772840841
 30
0.0
 10
7281.849269903119
 20
6215.980572909135
 30
0.0
 10
7289.637376393028
 20
6285.4352545245
 30
0.0
 10
7297.953016194382
 20
6360.541061118643
 30
0.0
 10
7302.785227540333
 20
6404.433175905485
 30
0.0
 10
7308.044223775454
 20
6452.442362156668
 30
0.0
 10
7314.025777612905
 20
6507.3105562294
 30
0.0
 10
7320.786332986917
 20
6569.596680112259
 30
0.0
 10
7328.348110327423
 20
6639.504153257606
 30
0.0
 10
7336.296974364189
 20
6713.138661242613
 30
0.0
 10
7344.599755035901
 20
6790.039168722016
 30
0.0
 10
7351.847943743042
 20
6857.109602787059
 30
0.0
 10
7356.444368737549
 20
6899.421295761032
 30
0.0
 10
7358.154731972526
 20
6915.165785045358
 30
0.0
  0
SPLINE
  5
7D
330
1F
100
AcDbEntity
  8
0
  6
SLD-Plná
 62
     7
370
    25
100
AcDbSpline
210
0.0
220
0.0
230
1.0
 70
     8
 71
     3
 72
    57
 73
    53
 74
     0
 42
0.00000001
 43
0.00000001
 40
0.0
 40
0.0
 40
0.0
 40
0.0
 40
0.0668599644806316
 40
0.1294745473294477
 40
0.187682344690194
 40
0.2411774117371321
 40
0.2898976975792648
 40
0.333952900194939
 40
0.3731348674029188
 40
0.4071622338241839
 40
0.4359428891012618
 40
0.4595091254301514
 40
0.4729078662110493
 40
0.4837358744396008
 40
0.4919814609207786
 40
0.4976397681526975
 40
0.5007788225508083
 40
0.5052565234083549
 40
0.5132938530220377
 40
0.5248918588895215
 40
0.5408584896870555
 40
0.5592208646802312
 40
0.5766006561188135
 40
0.5928694434863802
 40
0.6080271128428263
 40
0.6220749604203157
 40
0.6397181881915238
 40
0.6576868444418564
 40
0.6764229603844798
 40
0.695571765339797
 40
0.7126223086251157
 40
0.7232249821180801
 40
0.7344771302664164
 40
0.7482971677647835
 40
0.764647285564823
 40
0.7803222207666689
 40
0.7921355457477818
 40
0.8006488473522456
 40
0.8115017517024018
 40
0.8262684418153377
 40
0.8429167945428456
 40
0.85703761722644
 40
0.8685111507270448
 40
0.8792444268718984
 40
0.8919407802500817
 40
0.9066033855916259
 40
0.9214989339458226
 40
0.9353297258720336
 40
0.9481314297606805
 40
0.9617282909279246
 40
0.978944726596193
 40
0.9999999999999999
 40
0.9999999999999999
 40
0.9999999999999999
 40
0.9999999999999999
 10
6553.636366166078
 20
7380.992779535463
 30
0.0
 10
6527.531191663838
 20
7380.881585039784
 30
0.0
 10
6476.978432955553
 20
7380.666256522853
 30
0.0
 10
6403.754345411439
 20
7378.036133691067
 30
0.0
 10
6335.912058226057
 20
7373.689081263598
 30
0.0
 10
6273.741566500933
 20
7367.751247531521
 30
0.0
 10
6217.408414653827
 20
7360.537280734809
 30
0.0
 10
6167.016112927457
 20
7352.353369403639
 30
0.0
 10
6122.716264519113
 20
7343.575246664947
 30
0.0
 10
6084.681497686346
 20
7334.65783252988
 30
0.0
 10
6052.933027914385
 20
7326.08250036
 30
0.0
 10
6029.13154383139
 20
7318.84835742698
 30
0.0
 10
6012.051641689407
 20
7313.203630896504
 30
0.0
 10
6000.55482563427
 20
7309.189920371432
 30
0.0
 10
5991.867344307207
 20
7306.022302032597
 30
0.0
 10
5985.915685060703
 20
7303.781917592443
 30
0.0
 10
5981.29350276097
 20
7302.006423416666
 30
0.0
 10
5975.824095837884
 20
7299.868188015882
 30
0.0
 10
5967.453720114505
 20
7296.499122342045
 30
0.0
 10
5955.213360218135
 20
7291.340644016254
 30
0.0
 10
5939.675212192062
 20
7284.350638427139
 30
0.0
 10
5922.576020424581
 20
7275.993292671551
 30
0.0
 10
5905.832297330912
 20
7267.046688955336
 30
0.0
 10
5890.576827186483
 20
7258.156883913472
 30
0.0
 10
5876.804431597512
 20
7249.42956420165
 30
0.0
 10
5863.079745004789
 20
7240.000333179654
 30
0.0
 10
5849.11232689628
 20
7229.491222008079
 30
0.0
 10
5834.5644461485
 20
7217.295111855783
 30
0.0
 10
5820.523050311586
 20
7204.039758190108
 30
0.0
 10
5807.764975397872
 20
7190.302974731983
 30
0.0
 10
5797.832097371362
 20
7178.049397250216
 30
0.0
 10
5790.184769671274
 20
7167.490839797452
 30
0.0
 10
5783.621759417407
 20
7157.522244407274
 30
0.0
 10
5776.680251605525
 20
7145.664490775644
 30
0.0
 10
5769.950887476918
 20
7132.242483818981
 30
0.0
 10
5764.482511788536
 20
7119.159140743267
 30
0.0
 10
5760.615664835022
 20
7108.289108892717
 30
0.0
 10
5757.640059035469
 20
7098.805708993885
 30
0.0
 10
5754.778003143156
 20
7088.460540401397
 30
0.0
 10
5751.79587695891
 20
7075.603291322416
 30
0.0
 10
5749.250895568925
 20
7061.680214314207
 30
0.0
 10
5747.433523004908
 20
7048.709283242653
 30
0.0
 10
5746.2260039618
 20
7037.48748419608
 30
0.0
 10
5745.356432078042
 20
7026.815275188123
 30
0.0
 10
5744.714710255931
 20
7015.478425471281
 30
0.0
 10
5744.339948315828
 20
7003.021423907046
 30
0.0
 10
5744.300556572778
 20
6990.521067846553
 30
0.0
 10
5744.553685848409
 20
6978.875353150704
 30
0.0
 10
5745.11431061296
 20
6968.424113071977
 30
0.0
 10
5745.92606725499
 20
6956.261811312409
 30
0.0
 10
5746.777234402286
 20
6939.4031507527
 30
0.0
 10
5748.00209440998
 20
6926.360782543054
 30
0.0
 10
5748.675954108663
 20
6919.185492096261
 30
0.0
  0
SPLINE
  5
7E
330
1F
100
AcDbEntity
  8
0
  6
SLD-Plná
 62
     7
370
    25
100
AcDbSpline
210
0.0
220
0.0
230
1.0
 70
     8
 71
     3
 72
    44
 73
    40
 74
     0
 42
0.00000001
 43
0.00000001
 40
0.0
 40
0.0
 40
0.0
 40
0.0
 40
0.034596429372424
 40
0.0682292514578394
 40
0.0997217133878503
 40
0.1283453905791741
 40
0.1402526927197365
 40
0.1515562230635508
 40
0.1623016472832578
 40
0.1743368526097103
 40
0.1886115381868081
 40
0.2031991038556779
 40
0.2144272409691693
 40
0.2279033347199441
 40
0.2445813804400372
 40
0.26428955033545
 40
0.2840237367486044
 40
0.3037549201833094
 40
0.3386351650575342
 40
0.3753790174827131
 40
0.4134812263071344
 40
0.4386434295265986
 40
0.4602969281301296
 40
0.4782864029862
 40
0.4929169618151689
 40
0.5068166885679177
 40
0.5203234729636492
 40
0.5337648475733439
 40
0.5505888282392365
 40
0.5725919267803395
 40
0.6003500505987504
 40
0.6335183010039357
 40
0.6719548124765468
 40
0.715346730865788
 40
0.7636343359657204
 40
0.8158854888080296
 40
0.8728623453614996
 40
0.9344330921070535
 40
1.0
 40
1.0
 40
1.0
 40
1.0
 10
7358.595769237683
 20
6919.175499530694
 30
0.0
 10
7359.632518418446
 20
6930.132845818101
 30
0.0
 10
7361.677140416616
 20
6951.742345662902
 30
0.0
 10
7362.980511205581
 20
6980.969545006785
 30
0.0
 10
7363.005945730876
 20
7008.30842774691
 30
0.0
 10
7361.790713175374
 20
7029.956134015118
 30
0.0
 10
7360.190238688446
 20
7045.668578676368
 30
0.0
 10
7358.84556974832
 20
7055.977606352554
 30
0.0
 10
7357.187947858702
 20
7066.353966181282
 30
0.0
 10
7355.005839848512
 20
7077.683323783328
 30
0.0
 10
7352.076750636405
 20
7090.186954606435
 30
0.0
 10
7348.596745369656
 20
7102.386322204909
 30
0.0
 10
7344.604726821724
 20
7114.25723651122
 30
0.0
 10
7339.744422496678
 20
7126.715547849484
 30
0.0
 10
7332.930616157263
 20
7141.394544953753
 30
0.0
 10
7323.812415641933
 20
7157.567456939341
 30
0.0
 10
7312.713725710602
 20
7173.925958806743
 30
0.0
 10
7297.017170811595
 20
7193.54467639935
 30
0.0
 10
7275.095761987361
 20
7215.866424588116
 30
0.0
 10
7245.1322970028
 20
7240.016156606753
 30
0.0
 10
7215.04263025886
 20
7259.528556566254
 30
0.0
 10
7187.972926618613
 20
7274.404692752609
 30
0.0
 10
7166.538195020724
 20
7284.885906857949
 30
0.0
 10
7148.142028789634
 20
7293.059873676654
 30
0.0
 10
7132.128251016396
 20
7299.649804721977
 30
0.0
 10
7117.469189960673
 20
7305.296689787648
 30
0.0
 10
7103.064626366345
 20
7310.508156219652
 30
0.0
 10
7087.479687439737
 20
7315.812188651762
 30
0.0
 10
7068.681777117282
 20
7321.787214123003
 30
0.0
 10
7044.441808067195
 20
7328.84641348467
 30
0.0
 10
7013.849490003803
 20
7336.810075612711
 30
0.0
 10
6976.712663508766
 20
7345.234509703486
 30
0.0
 10
6933.217338820769
 20
7353.595654416741
 30
0.0
 10
6883.504351426488
 20
7361.44285035445
 30
0.0
 10
6828.071759030083
 20
7368.344339166541
 30
0.0
 10
6767.048813664869
 20
7374.015188075657
 30
0.0
 10
6700.612969192179
 20
7378.165894523917
 30
0.0
 10
6628.827825586132
 20
7380.681376285493
 30
0.0
 10
6579.220048818344
 20
7380.886807576482
 30
0.0
 10
6553.636530392147
 20
7380.992751756221
 30
0.0
  0
SPLINE
  5
7F
330
1F
100
AcDbEntity
  8
0
  6
SLD-Plná
 62
     7
370
    25
100
AcDbSpline
210
0.0
220
0.0
230
1.0
 70
     8
 71
     3
 72
    41
 73
    37
 74
     0
 42
0.00000001
 43
0.00000001
 40
0.0
 40
0.0
 40
0.0
 40
0.0
 40
0.029374815483752
 40
0.0547160112114893
 40
0.0762386685633728
 40
0.0939116682872382
 40
0.1077091322773088
 40
0.1162314823973047
 40
0.1220434846476137
 40
0.1257913430539028
 40
0.1324327772290895
 40
0.1407723483168049
 40
0.157667514833124
 40
0.178939509739575
 40
0.2045910947467652
 40
0.2347236347831192
 40
0.2663670543809429
 40
0.3163206260963103
 40
0.3625507812437122
 40
0.4050465378542808
 40
0.4436749310045887
 40
0.4784914087209511
 40
0.5097709996947745
 40
0.5416241566224591
 40
0.5702052186990302
 40
0.5955279804973876
 40
0.6206734170515
 40
0.6508716784179747
 40
0.6861916485200977
 40
0.7144699602154649
 40
0.7482224815279017
 40
0.7874560127872229
 40
0.8322322254703154
 40
0.8827194231259401
 40
0.9385746572330753
 40
1.0
 40
1.0
 40
1.0
 40
1.0
 10
6553.636366715965
 20
6048.355615602307
 30
0.0
 10
6543.126852393016
 20
6048.610724600067
 30
0.0
 10
6523.550943777014
 20
6049.085912156199
 30
0.0
 10
6496.643832954505
 20
6052.393255756951
 30
0.0
 10
6474.273862547406
 20
6056.41290372301
 30
0.0
 10
6456.248733096923
 20
6060.591237423166
 30
0.0
 10
6442.874904027196
 20
6064.216156203411
 30
0.0
 10
6433.592082032274
 20
6066.987287851257
 30
0.0
 10
6427.67839754665
 20
6068.855376887802
 30
0.0
 10
6422.428942073319
 20
6070.57371117363
 30
0.0
 10
6416.403654275868
 20
6072.620450147669
 30
0.0
 10
6406.248327103001
 20
6076.24834552889
 30
0.0
 10
6391.668742614522
 20
6081.880726899839
 30
0.0
 10
6372.141801628515
 20
6090.252475276548
 30
0.0
 10
6349.27839460264
 20
6101.223596104082
 30
0.0
 10
6324.266785179499
 20
6114.667566723979
 30
0.0
 10
6293.52136110525
 20
6132.993143551889
 30
0.0
 10
6260.079748126348
 20
6155.40600479548
 30
0.0
 10
6225.979858864202
 20
6181.277719763102
 30
0.0
 10
6196.507947287547
 20
6206.2391533344
 30
0.0
 10
6171.117622558113
 20
6229.821444116489
 30
0.0
 10
6149.28969133365
 20
6251.74100029705
 30
0.0
 10
6129.747567573598
 20
6272.701469912534
 30
0.0
 10
6112.129153860328
 20
6292.759156462989
 30
0.0
 10
6096.213291309926
 20
6311.859791135509
 30
0.0
 10
6081.956083986366
 20
6329.749374077206
 30
0.0
 10
6067.808603064167
 20
6348.281797043169
 30
0.0
 10
6052.48110586962
 20
6369.376439870583
 30
0.0
 10
6037.323542235249
 20
6391.566328437463
 30
0.0
 10
6022.461231214562
 20
6414.78456430835
 30
0.0
 10
6007.955652224628
 20
6439.056959994604
 30
0.0
 10
5992.352737189161
 20
6467.556254010849
 30
0.0
 10
5976.300075238699
 20
6500.462732097566
 30
0.0
 10
5960.442186214711
 20
6537.755209159223
 30
0.0
 10
5944.941844188477
 20
6579.415179218774
 30
0.0
 10
5935.788218753978
 20
6608.769180046669
 30
0.0
 10
5930.99403548118
 20
6624.143248033821
 30
0.0
  0
SPLINE
  5
80
330
1F
100
AcDbEntity
  8
0
  6
SLD-Plná
 62
     7
370
    25
100
AcDbSpline
210
0.0
220
0.0
230
1.0
 70
     8
 71
     3
 72
    39
 73
    35
 74
     0
 42
0.00000001
 43
0.00000001
 40
0.0
 40
0.0
 40
0.0
 40
0.0
 40
0.0399674932684254
 40
0.0830611349803211
 40
0.1295391298728968
 40
0.1794293098159796
 40
0.212321964854241
 40
0.2450870872132978
 40
0.2742555391413775
 40
0.2997695265585653
 40
0.3216371582579158
 40
0.3398840771335609
 40
0.3545187724336595
 40
0.3655413100511082
 40
0.376024725056178
 40
0.3899098633105094
 40
0.4068616944111987
 40
0.4270757636764092
 40
0.4505237541753511
 40
0.476861848366945
 40
0.5441145938947596
 40
0.6077334846609015
 40
0.667866547458277
 40
0.7252616525908936
 40
0.7532465648436975
 40
0.7807244677770058
 40
0.8077016530577071
 40
0.8350151477406531
 40
0.8560273729421458
 40
0.8796361269057833
 40
0.9058485266727149
 40
0.934664425281151
 40
0.9660513756750186
 40
1.0
 40
1.0
 40
1.0
 40
1.0
 10
7176.275686186012
 20
6624.133176506793
 30
0.0
 10
7173.330142449934
 20
6614.508562196062
 30
0.0
 10
7167.208662571032
 20
6594.506522462723
 30
0.0
 10
7156.346433093614
 20
6562.697442741236
 30
0.0
 10
7143.140093537223
 20
6528.176197052621
 30
0.0
 10
7129.044398313486
 20
6496.045139005879
 30
0.0
 10
7114.821411107391
 20
6467.38999195917
 30
0.0
 10
7102.114519879434
 20
6444.015041210324
 30
0.0
 10
7089.643359054321
 20
6422.730796163697
 30
0.0
 10
7078.154304221955
 20
6404.292019329507
 30
0.0
 10
7067.903090730621
 20
6388.639574980194
 30
0.0
 10
7059.078089601362
 20
6375.694695537792
 30
0.0
 10
7051.828943071876
 20
6365.392315867901
 30
0.0
 10
7045.75433341631
 20
6356.963463314106
 30
0.0
 10
7039.728441552857
 20
6348.764825616019
 30
0.0
 10
7032.587967375779
 20
6339.259917390469
 30
0.0
 10
7023.598132280904
 20
6327.611277640516
 30
0.0
 10
7012.689851266278
 20
6313.914096330735
 30
0.0
 10
6999.775384082493
 20
6298.273631485293
 30
0.0
 10
6977.550499557294
 20
6272.47541430417
 30
0.0
 10
6945.937021304425
 20
6238.781786207276
 30
0.0
 10
6904.100280513235
 20
6199.88010513639
 30
0.0
 10
6860.973486111572
 20
6165.193191164064
 30
0.0
 10
6823.526023691214
 20
6139.271543532027
 30
0.0
 10
6792.873267890532
 20
6120.427015735345
 30
0.0
 10
6769.683538057238
 20
6107.361621784663
 30
0.0
 10
6745.852898365126
 20
6095.216745236144
 30
0.0
 10
6723.099173123311
 20
6084.933878193061
 30
0.0
 10
6700.622973717356
 20
6075.977370929109
 30
0.0
 10
6677.845644889954
 20
6068.061417908735
 30
0.0
 10
6651.768892839456
 20
6060.551197698649
 30
0.0
 10
6622.226068521934
 20
6054.14317908333
 30
0.0
 10
6589.161892108839
 20
6049.358656965063
 30
0.0
 10
6565.783737975912
 20
6048.698589434302
 30
0.0
 10
6553.636356163084
 20
6048.355615721627
 30
0.0
  0
SPLINE
  5
81
330
1F
100
AcDbEntity
  8
0
  6
SLD-Plná
 62
     7
370
    25
100
AcDbSpline
210
0.0
220
0.0
230
1.0
 70
     8
 71
     3
 72
    10
 73
     6
 74
     0
 42
0.00000001
 43
0.00000001
 40
0.0
 40
0.0
 40
0.0
 40
0.0
 40
0.49461752841899
 40
0.7473340517119589
 40
1.0
 40
1.0
 40
1.0
 40
1.0
 10
7078.326179566474
 20
4741.873112478223
 30
0.0
 10
7100.503580251218
 20
4881.320130183234
 30
0.0
 10
7134.012151536881
 20
5092.015260769784
 30
0.0
 10
7175.888095007607
 20
5374.374806663875
 30
0.0
 10
7195.234211704015
 20
5517.287531269336
 30
0.0
 10
7204.906302042835
 20
5588.736742738633
 30
0.0
  0
SPLINE
  5
82
330
1F
100
AcDbEntity
  8
0
  6
SLD-Plná
 62
     7
370
    25
100
AcDbSpline
210
0.0
220
0.0
230
1.0
 70
     8
 71
     3
 72
    10
 73
     6
 74
     0
 42
0.00000001
 43
0.00000001
 40
0.0
 40
0.0
 40
0.0
 40
0.0
 40
0.2526659391683079
 40
0.5053824533378358
 40
1.0
 40
1.0
 40
1.0
 40
1.0
 10
5902.366428344767
 20
5588.736742738633
 30
0.0
 10
5912.038518454402
 20
5517.287532912828
 30
0.0
 10
5931.38463469232
 20
5374.37481159521
 30
0.0
 10
5973.260578636534
 20
5092.015261998093
 30
0.0
 10
6006.769150728804
 20
4881.320126076366
 30
0.0
 10
6028.946552494738
 20
4741.873101398703
 30
0.0
  0
SPLINE
  5
83
330
1F
100
AcDbEntity
  8
0
  6
SLD-Plná
 62
     7
370
    25
100
AcDbSpline
210
0.0
220
0.0
230
1.0
 70
     8
 71
     3
 72
    19
 73
    15
 74
     0
 42
0.00000001
 43
0.00000001
 40
0.0
 40
0.0
 40
0.0
 40
0.0
 40
0.1950462582102847
 40
0.3554414918545236
 40
0.4537854021064261
 40
0.527004259978717
 40
0.5581380596362635
 40
0.5861268627294209
 40
0.624707540084262
 40
0.6753776586173718
 40
0.7381955072489601
 40
0.8132156876070384
 40
0.9004803318310027
 40
1.0
 40
1.0
 40
1.0
 40
1.0
 10
7009.132740056698
 20
4674.6294748331
 30
0.0
 10
7014.210009162727
 20
4676.108879754998
 30
0.0
 10
7023.462543008567
 20
4678.804865298742
 30
0.0
 10
7033.657140983271
 20
4683.221982358196
 30
0.0
 10
7041.2233505576
 20
4687.373041100379
 30
0.0
 10
7046.244741466032
 20
4690.701120626986
 30
0.0
 10
7050.107050914985
 20
4693.65442589614
 30
0.0
 10
7053.372513514744
 20
4696.409460439785
 30
0.0
 10
7057.049592280988
 20
4699.877724389688
 30
0.0
 10
7061.509785841223
 20
4704.738042127596
 30
0.0
 10
7066.436152700977
 20
4711.226155505044
 30
0.0
 10
7071.357950708846
 20
4719.568167207969
 30
0.0
 10
7075.826865060957
 20
4729.893090959366
 30
0.0
 10
7077.46946070227
 20
4737.676715897546
 30
0.0
 10
7078.34464433555
 20
4741.823872374852
 30
0.0
  0
SPLINE
  5
84
330
1F
100
AcDbEntity
  8
0
  6
SLD-Plná
 62
     7
370
    25
100
AcDbSpline
210
0.0
220
0.0
230
1.0
 70
     8
 71
     3
 72
    14
 73
    10
 74
     0
 42
0.00000001
 43
0.00000001
 40
0.0
 40
0.0
 40
0.0
 40
0.0
 40
0.1151863712911185
 40
0.2322570648039002
 40
0.3521007456159405
 40
0.4753908841523595
 40
0.6453018871570816
 40
0.8208308844022889
 40
0.9999999999999999
 40
0.9999999999999999
 40
0.9999999999999999
 40
0.9999999999999999
 10
6028.928015495174
 20
4741.824624479246
 30
0.0
 10
6029.937346024856
 20
4737.222226518961
 30
0.0
 10
6031.972518620476
 20
4727.942140434699
 30
0.0
 10
6037.828008671906
 20
4715.859152704411
 30
0.0
 10
6045.205521711203
 20
4705.278974420523
 30
0.0
 10
6054.991840183792
 20
4695.309817353395
 30
0.0
 10
6067.277300902933
 20
4686.601290035414
 30
0.0
 10
6081.954317706626
 20
4679.447156237712
 30
0.0
 10
6092.708226238717
 20
4676.246246029184
 30
0.0
 10
6098.140361937072
 20
4674.629366123698
 30
0.0
  0
LINE
  5
85
330
1F
100
AcDbEntity
  8
0
  6
SLD-Plná
 62
     7
370
    25
100
AcDbLine
 10
6553.6353004192
 20
4655.0997530562
 30
0.0
 11
6565.5101359796
 21
4655.1102421192
 31
0.0
  0
SPLINE
  5
86
330
1F
100
AcDbEntity
  8
0
  6
SLD-Plná
 62
     7
370
    25
100
AcDbSpline
210
0.0
220
0.0
230
1.0
 70
     8
 71
     3
 72
    22
 73
    18
 74
     0
 42
0.00000001
 43
0.00000001
 40
0.0
 40
0.0
 40
0.0
 40
0.0
 40
0.0440643653227269
 40
0.1221530295279242
 40
0.2002109924114334
 40
0.2779052431929544
 40
0.3550050238475451
 40
0.4312289748811535
 40
0.5044064151403631
 40
0.5786104652313785
 40
0.6534205350136998
 40
0.7282394904526756
 40
0.8020110770132775
 40
0.8655736251658455
 40
0.9229930223467075
 40
0.9724676328622764
 40
1.0
 40
1.0
 40
1.0
 40
1.0
 10
6575.663164210206
 20
4655.069158044266
 30
0.0
 10
6578.798461375084
 20
4655.05329049279
 30
0.0
 10
6587.489975353677
 20
4655.009303260253
 30
0.0
 10
6601.456981563279
 20
4654.816418793594
 30
0.0
 10
6617.376579144642
 20
4654.513158946699
 30
0.0
 10
6632.644070730185
 20
4654.119695903013
 30
0.0
 10
6647.076048540192
 20
4653.653815234761
 30
0.0
 10
6660.373383010834
 20
4653.140456691739
 30
0.0
 10
6672.486197363784
 20
4652.550477889901
 30
0.0
 10
6683.463421284621
 20
4651.881726793286
 30
0.0
 10
6693.340876058205
 20
4651.12869071941
 30
0.0
 10
6701.917813442608
 20
4650.303670217268
 30
0.0
 10
6708.720589510719
 20
4649.468785369317
 30
0.0
 10
6713.695854267155
 20
4648.678905010365
 30
0.0
 10
6716.794398490561
 20
4648.054554454856
 30
0.0
 10
6718.403040776529
 20
4647.607652249798
 30
0.0
 10
6718.408413487429
 20
4647.604140644665
 30
0.0
 10
6718.410334397113
 20
4647.602885137633
 30
0.0
  0
SPLINE
  5
87
330
1F
100
AcDbEntity
  8
0
  6
SLD-Plná
 62
     7
370
    25
100
AcDbSpline
210
0.0
220
0.0
230
1.0
 70
     8
 71
     3
 72
    22
 73
    18
 74
     0
 42
0.00000001
 43
0.00000001
 40
0.0
 40
0.0
 40
0.0
 40
0.0
 40
0.0092323940256033
 40
0.0542838536450801
 40
0.1077344905694845
 40
0.1696749264547055
 40
0.2389609003190418
 40
0.3137039243703408
 40
0.391927630305557
 40
0.4719679608964629
 40
0.5525717880603183
 40
0.6326818369294288
 40
0.7120605129666433
 40
0.7904130974123083
 40
0.872057154161841
 40
0.9548522203309823
 40
1.0
 40
1.0
 40
1.0
 40
1.0
 10
6388.806570483108
 20
4647.575371886129
 30
0.0
 10
6388.780372997385
 20
4647.565043890313
 30
0.0
 10
6388.626339224881
 20
4647.504318209418
 30
0.0
 10
6389.514241631005
 20
4647.798638560634
 30
0.0
 10
6391.572946193684
 20
4648.2715328113
 30
0.0
 10
6395.28269573667
 20
4648.960641525138
 30
0.0
 10
6400.622552409494
 20
4649.729666481964
 30
0.0
 10
6407.670722646664
 20
4650.535279250274
 30
0.0
 10
6416.324411583768
 20
4651.320698189108
 30
0.0
 10
6426.428921505789
 20
4652.052629703197
 30
0.0
 10
6437.781712754762
 20
4652.709679480992
 30
0.0
 10
6450.17211009324
 20
4653.276425509238
 30
0.0
 10
6463.432854246936
 20
4653.764770782493
 30
0.0
 10
6477.537495219798
 20
4654.200533303681
 30
0.0
 10
6492.513375780262
 20
4654.56299412296
 30
0.0
 10
6505.841558418453
 20
4654.819026846729
 30
0.0
 10
6514.222632306863
 20
4654.909166337809
 30
0.0
 10
6517.180100345226
 20
4654.940974274048
 30
0.0
  0
SPLINE
  5
88
330
1F
100
AcDbEntity
  8
0
  6
SLD-Plná
 62
     7
370
    25
100
AcDbSpline
210
0.0
220
0.0
230
1.0
 70
     8
 71
     3
 72
     9
 73
     5
 74
     0
 42
0.00000001
 43
0.00000001
 40
0.0
 40
0.0
 40
0.0
 40
0.0
 40
0.5304419509161236
 40
1.0
 40
1.0
 40
1.0
 40
1.0
 10
6527.780650832176
 20
4655.044775960951
 30
0.0
 10
6532.329384657711
 20
4655.076303141697
 30
0.0
 10
6540.904750572261
 20
4655.135738826769
 30
0.0
 10
6549.568441866977
 20
4655.103590177873
 30
0.0
 10
6553.636547849189
 20
4655.088494521015
 30
0.0
  0
SPLINE
  5
89
330
1F
100
AcDbEntity
  8
0
  6
SLD-Plná
 62
     7
370
    25
100
AcDbSpline
210
0.0
220
0.0
230
1.0
 70
     8
 71
     3
 72
     9
 73
     5
 74
     0
 42
0.00000001
 43
0.00000001
 40
0.0
 40
0.0
 40
0.0
 40
0.0
 40
0.4538170680325802
 40
1.0
 40
1.0
 40
1.0
 40
1.0
 10
7028.543080013603
 20
4660.939244119708
 30
0.0
 10
7033.270782970598
 20
4662.089617048116
 30
0.0
 10
7043.688423227041
 20
4664.624499513862
 30
0.0
 10
7052.36408231427
 20
4670.115336953497
 30
0.0
 10
7057.102579231282
 20
4673.114338645231
 30
0.0
  0
SPLINE
  5
8A
330
1F
100
AcDbEntity
  8
0
  6
SLD-Plná
 62
     7
370
    25
100
AcDbSpline
210
0.0
220
0.0
230
1.0
 70
     8
 71
     3
 72
     9
 73
     5
 74
     0
 42
0.00000001
 43
0.00000001
 40
0.0
 40
0.0
 40
0.0
 40
0.0
 40
0.4887622708202706
 40
1.0
 40
1.0
 40
1.0
 40
1.0
 10
6050.170150535301
 20
4673.114338201896
 30
0.0
 10
6054.926770505386
 20
4670.146306311535
 30
0.0
 10
6064.65874094186
 20
4664.07375925224
 30
0.0
 10
6076.337259334843
 20
4661.304247978952
 30
0.0
 10
6082.307758558258
 20
4659.888369324662
 30
0.0
  0
SPLINE
  5
8B
330
1F
100
AcDbEntity
  8
0
  6
SLD-Plná
 62
     7
370
    25
100
AcDbSpline
210
0.0
220
0.0
230
1.0
 70
     8
 71
     3
 72
    13
 73
     9
 74
     0
 42
0.00000001
 43
0.00000001
 40
0.0
 40
0.0
 40
0.0
 40
0.0
 40
0.1868036210916927
 40
0.3661665917560403
 40
0.5385978489462181
 40
0.7043264870699846
 40
0.8632994369163889
 40
1.0
 40
1.0
 40
1.0
 40
1.0
 10
6553.636365193101
 20
4612.156015725015
 30
0.0
 10
6582.730068160505
 20
4612.549040747935
 30
0.0
 10
6639.758631069938
 20
4613.319436055455
 30
0.0
 10
6723.480015986476
 20
4618.95664540719
 30
0.0
 10
6803.688071381613
 20
4626.917383620598
 30
0.0
 10
6880.475956042833
 20
4636.836117092821
 30
0.0
 10
6951.538279783922
 20
4647.487682178791
 30
0.0
 10
6996.936272955276
 20
4655.167730649945
 30
0.0
 10
7017.925407788129
 20
4658.718494937596
 30
0.0
  0
SPLINE
  5
8C
330
1F
100
AcDbEntity
  8
0
  6
SLD-Plná
 62
     7
370
    25
100
AcDbSpline
210
0.0
220
0.0
230
1.0
 70
     8
 71
     3
 72
    14
 73
    10
 74
     0
 42
0.00000001
 43
0.00000001
 40
0.0
 40
0.0
 40
0.0
 40
0.0
 40
0.1667148568564228
 40
0.3480609014905463
 40
0.5218861404239444
 40
0.6473486138602291
 40
0.768852523385712
 40
0.8864243314563859
 40
1.0
 40
1.0
 40
1.0
 40
1.0
 10
6092.340923519668
 20
4658.238061504616
 30
0.0
 10
6117.776398817999
 20
4653.95553793439
 30
0.0
 10
6170.879611267754
 20
4645.014649026147
 30
0.0
 10
6250.806871797192
 20
4633.491966196319
 30
0.0
 10
6324.653901599424
 20
4624.666109231858
 30
0.0
 10
6389.491838490105
 20
4618.690673637768
 30
0.0
 10
6445.773315871998
 20
4614.930283490726
 30
0.0
 10
6500.297267696529
 20
4612.592855992944
 30
0.0
 10
6536.062729101286
 20
4612.299909357092
 30
0.0
 10
6553.636298362418
 20
4612.155968309148
 30
0.0
  0
SPLINE
  5
8D
330
1F
100
AcDbEntity
  8
0
  6
SLD-Plná
 62
     7
370
    25
100
AcDbSpline
210
0.0
220
0.0
230
1.0
 70
     8
 71
     3
 72
    11
 73
     7
 74
     0
 42
0.00000001
 43
0.00000001
 40
0.0
 40
0.0
 40
0.0
 40
0.0
 40
0.3757365537224099
 40
0.6985443912533812
 40
0.9699051131929782
 40
1.0
 40
1.0
 40
1.0
 40
1.0
 10
7057.102573474045
 20
4673.114336436276
 30
0.0
 10
7059.244705837252
 20
4674.692908216924
 30
0.0
 10
7063.227215744297
 20
4677.627683800076
 30
0.0
 10
7067.484974728754
 20
4681.597509042156
 30
0.0
 10
7069.941974877835
 20
4684.085995901855
 30
0.0
 10
7070.409559603061
 20
4684.744688503012
 30
0.0
 10
7070.456239475553
 20
4684.810447038256
 30
0.0
  0
SPLINE
  5
8E
330
1F
100
AcDbEntity
  8
0
  6
SLD-Plná
 62
     7
370
    25
100
AcDbSpline
210
0.0
220
0.0
230
1.0
 70
     8
 71
     3
 72
    10
 73
     6
 74
     0
 42
0.00000001
 43
0.00000001
 40
0.0
 40
0.0
 40
0.0
 40
0.0
 40
0.0357598133114255
 40
0.4662029781102347
 40
1.0
 40
1.0
 40
1.0
 40
1.0
 10
6038.340817765859
 20
4683.217954992007
 30
0.0
 10
6038.422485489971
 20
4683.125082221212
 30
0.0
 10
6039.487192843558
 20
4681.914293955824
 30
0.0
 10
6043.361369446383
 20
4678.225857231034
 30
0.0
 10
6047.743978840447
 20
4674.93572652924
 30
0.0
 10
6050.170162559972
 20
4673.114331824381
 30
0.0
  0
ARC
  5
8F
330
1F
100
AcDbEntity
  8
0
  6
SLD-Plná
 62
     7
370
    25
100
AcDbCircle
 10
6992.7420665309
 20
6194.3541582353
 30
0.0
 40
322.5072902293773
100
AcDbArc
 50
343.3660046886
 51
4.3726851105
  0
LWPOLYLINE
  5
90
330
1F
100
AcDbEntity
  8
0
  6
SLD-Plná
 62
     7
370
    25
100
AcDbPolyline
 90
       15
 70
   128
 43
0.0
 10
7304.8136780011
 20
6223.5226549915
 10
7304.1086559176
 20
6222.0019886394
 10
7301.9387277289
 20
6216.3257228384
 10
7299.7684344779
 20
6209.1753774667
 10
7297.65398562
 20
6200.7361427135
 10
7295.6501442699
 20
6191.2265903261
 10
7293.8088088659
 20
6180.893012716
 10
7292.1776690277
 20
6170.0030441154
 10
7290.7989704206
 20
6158.8387289909
 10
7289.708420614
 20
6147.6892172398
 10
7288.9342642753
 20
6136.8432753599
 10
7288.4965516469
 20
6126.5818075488
 10
7288.4066192559
 20
6117.1705804327
 10
7288.6667963042
 20
6108.8533398504
 10
7289.2703443427
 20
6101.8454979641
  0
ARC
  5
91
330
1F
100
AcDbEntity
  8
0
  6
SLD-Plná
 62
     7
370
    25
100
AcDbCircle
 10
6118.3856713005
 20
6195.2272192657
 30
0.0
 40
326.4179517714492
100
AcDbArc
 50
176.1797886827
 51
196.719334128
  0
LWPOLYLINE
  5
92
330
1F
100
AcDbEntity
  8
0
  6
SLD-Plná
 62
     7
370
    25
100
AcDbPolyline
 90
       17
 70
   128
 43
0.0
 10
5816.5846290785
 20
6094.4841559054
 10
5817.575596078
 20
6098.8907799274
 10
5818.3455104181
 20
6105.1735458276
 10
5818.7787779144
 20
6112.8610151561
 10
5818.8641771665
 20
6121.7540864954
 10
5818.5994963786
 20
6131.6224339691
 10
5817.991590644
 20
6142.2104725613
 10
5817.0562044021
 20
6153.2439776339
 10
5815.817563665
 20
6164.4371872013
 10
5814.3077485772
 20
6175.5002030153
 10
5812.5658625565
 20
6186.1464987772
 10
5810.6370195359
 20
6196.1003410193
 10
5808.5711755363
 20
6205.1039304559
 10
5806.4218348323
 20
6212.9240788499
 10
5804.244664219
 20
6219.3582484657
 10
5802.0960512718
 20
6224.23979769
 10
5801.8032683069
 20
6224.7869517113
  0
ARC
  5
93
330
1F
100
AcDbEntity
  8
0
  6
SLD-Plná
 62
     7
370
    25
100
AcDbCircle
 10
6553.6361007684
 20
7014.8379332171
 30
0.0
 40
156.1011904761911
100
AcDbArc
 50
221.085212297
 51
319.0075300998
  0
ARC
  5
94
330
1F
100
AcDbEntity
  8
0
  6
SLD-Plná
 62
     7
370
    25
100
AcDbCircle
 10
6553.6361007684
 20
7014.8379332171
 30
0.0
 40
186.101190476191
100
AcDbArc
 50
278.9767941143
 51
324.7057068112
  0
ARC
  5
95
330
1F
100
AcDbEntity
  8
0
  6
SLD-Plná
 62
     7
370
    25
100
AcDbCircle
 10
6553.6361007684
 20
7014.8379332171
 30
0.0
 40
186.1011904761912
100
AcDbArc
 50
215.126361719
 51
261.5955150222
  0
LINE
  5
96
330
1F
100
AcDbEntity
  8
0
  6
SLD-Plná
 62
     7
370
    25
100
AcDbLine
 10
6606.4857265858
 20
6838.3870835995
 30
0.0
 11
6604.7663178085
 21
6842.9618946736
 31
0.0
  0
SPLINE
  5
97
330
1F
100
AcDbEntity
  8
0
  6
SLD-Plná
 62
     7
370
    25
100
AcDbSpline
210
0.0
220
0.0
230
1.0
 70
     8
 71
     3
 72
    11
 73
     7
 74
     0
 42
0.00000001
 43
0.00000001
 40
0.0
 40
0.0
 40
0.0
 40
0.0
 40
0.2803680157453076
 40
0.559713547737759
 40
0.7794772376466649
 40
1.0
 40
1.0
 40
1.0
 40
1.0
 10
6606.485726585815
 20
6838.387083599452
 30
0.0
 10
6597.057671585402
 20
6835.333450104125
 30
0.0
 10
6578.235945082404
 20
6829.237319514425
 30
0.0
 10
6550.522878995226
 20
6827.752983442805
 30
0.0
 10
6525.171685496993
 20
6830.452718022457
 30
0.0
 10
6510.367406121239
 20
6835.190417090827
 30
0.0
 10
6502.95250483182
 20
6837.563350621685
 30
0.0
  0
LINE
  5
98
330
1F
100
AcDbEntity
  8
0
  6
SLD-Plná
 62
     7
370
    25
100
AcDbLine
 10
6502.9525048318
 20
6837.5633506217
 30
0.0
 11
6504.6024536817
 21
6842.1645768523
 31
0.0
  0
SPLINE
  5
99
330
1F
100
AcDbEntity
  8
0
  6
SLD-Plná
 62
     7
370
    25
100
AcDbSpline
210
0.0
220
0.0
230
1.0
 70
     8
 71
     3
 72
    11
 73
     7
 74
     0
 42
0.00000001
 43
0.00000001
 40
0.0
 40
0.0
 40
0.0
 40
0.0
 40
0.280418393174894
 40
0.5597067247330025
 40
0.7794350340598936
 40
1.0
 40
1.0
 40
1.0
 40
1.0
 10
6604.766317808499
 20
6842.961894673615
 30
0.0
 10
6595.643475733599
 20
6840.006786998979
 30
0.0
 10
6577.43455584005
 20
6834.108480475364
 30
0.0
 10
6550.62469470791
 20
6832.672621647587
 30
0.0
 10
6526.100097349446
 20
6835.284234492264
 30
0.0
 10
6511.777407019188
 20
6839.86822585953
 30
0.0
 10
6504.602453681669
 20
6842.164576852349
 30
0.0
  0
SPLINE
  5
9A
330
1F
100
AcDbEntity
  8
0
  6
SLD-Plná
 62
     7
370
    25
100
AcDbSpline
210
0.0
220
0.0
230
1.0
 70
     8
 71
     3
 72
     9
 73
     5
 74
     0
 42
0.00000001
 43
0.00000001
 40
0.0
 40
0.0
 40
0.0
 40
0.0
 40
0.5599900344422974
 40
1.0
 40
1.0
 40
1.0
 40
1.0
 10
6506.137355940778
 20
6844.020507654113
 30
0.0
 10
6506.094875619399
 20
6844.036208246881
 30
0.0
 10
6506.019016552694
 20
6844.064245518625
 30
0.0
 10
6505.943195371938
 20
6844.092382829251
 30
0.0
 10
6505.909833296806
 20
6844.10476352633
 30
0.0
  0
SPLINE
  5
9B
330
1F
100
AcDbEntity
  8
0
  6
SLD-Plná
 62
     7
370
    25
100
AcDbSpline
210
0.0
220
0.0
230
1.0
 70
     8
 71
     3
 72
    11
 73
     7
 74
     0
 42
0.00000001
 43
0.00000001
 40
0.0
 40
0.0
 40
0.0
 40
0.0
 40
0.2804529402545742
 40
0.5597010586727933
 40
0.7794039582765538
 40
1.0
 40
1.0
 40
1.0
 40
1.0
 10
6603.106522643856
 20
6844.765772013449
 30
0.0
 10
6594.270309798248
 20
6841.922572730553
 30
0.0
 10
6576.635844351544
 20
6836.248388508376
 30
0.0
 10
6550.690321664825
 20
6834.873015839587
 30
0.0
 10
6526.955060781858
 20
6837.391688803135
 30
0.0
 10
6513.085968660625
 20
6841.807915279638
 30
0.0
 10
6506.137355940778
 20
6844.020507654113
 30
0.0
  0
SPLINE
  5
9C
330
1F
100
AcDbEntity
  8
0
  6
SLD-Plná
 62
     7
370
    25
100
AcDbSpline
210
0.0
220
0.0
230
1.0
 70
     8
 71
     3
 72
     9
 73
     5
 74
     0
 42
0.00000001
 43
0.00000001
 40
0.0
 40
0.0
 40
0.0
 40
0.0
 40
0.5600139387049105
 40
1.0
 40
1.0
 40
1.0
 40
1.0
 10
6603.403899824598
 20
6844.881150615625
 30
0.0
 10
6603.348406337171
 20
6844.859566599031
 30
0.0
 10
6603.249313290394
 20
6844.821024671578
 30
0.0
 10
6603.150152159341
 20
6844.782654398692
 30
0.0
 10
6603.106522643856
 20
6844.765772013449
 30
0.0
  0
LINE
  5
9D
330
1F
100
AcDbEntity
  8
0
  6
SLD-Plná
 62
     7
370
    25
100
AcDbLine
 10
6604.7663178085
 20
6842.9618946736
 30
0.0
 11
6603.4038998246
 21
6844.8811506156
 31
0.0
  0
LINE
  5
9E
330
1F
100
AcDbEntity
  8
0
  6
SLD-Plná
 62
     7
370
    25
100
AcDbLine
 10
6504.6024536817
 20
6842.1645768523
 30
0.0
 11
6505.9098332968
 21
6844.1047635263
 31
0.0
  0
LINE
  5
9F
330
1F
100
AcDbEntity
  8
0
  6
SLD-Plná
 62
     7
370
    25
100
AcDbLine
 10
6515.1632457751
 20
6863.5520412881
 30
0.0
 11
6506.1373559408
 21
6844.0205076541
 31
0.0
  0
LINE
  5
A0
330
1F
100
AcDbEntity
  8
0
  6
SLD-Plná
 62
     7
370
    25
100
AcDbLine
 10
6603.1065226439
 20
6844.7657720134
 30
0.0
 11
6593.3784321713
 21
6863.8805592245
 31
0.0
  0
LINE
  5
A1
330
1F
100
AcDbEntity
  8
0
  6
SLD-Plná
 62
     7
370
    25
100
AcDbLine
 10
6512.0647562122
 20
6864.3739674982
 30
0.0
 11
6503.6361007684
 21
6847.6609050701
 31
0.0
  0
LINE
  5
A2
330
1F
100
AcDbEntity
  8
0
  6
SLD-Plná
 62
     7
370
    25
100
AcDbLine
 10
6513.7105662447
 20
6863.928909759
 30
0.0
 11
6505.2175537271
 21
6847.088234594
 31
0.0
  0
ARC
  5
A3
330
1F
100
AcDbEntity
  8
0
  6
SLD-Plná
 62
     7
370
    25
100
AcDbCircle
 10
6553.6361007684
 20
6983.267992741
 30
0.0
 40
144.5312500000006
100
AcDbArc
 50
249.7604494846
 51
250.4272187476
  0
LINE
  5
A4
330
1F
100
AcDbEntity
  8
0
  6
SLD-Plná
 62
     7
370
    25
100
AcDbLine
 10
6593.5616352921
 20
6863.928909759
 30
0.0
 11
6602.0546478096
 21
6847.088234594
 31
0.0
  0
LINE
  5
A5
330
1F
100
AcDbEntity
  8
0
  6
SLD-Plná
 62
     7
370
    25
100
AcDbLine
 10
6595.2074453246
 20
6864.3739674982
 30
0.0
 11
6603.6361007684
 21
6847.6609050701
 31
0.0
  0
ARC
  5
A6
330
1F
100
AcDbEntity
  8
0
  6
SLD-Plná
 62
     7
370
    25
100
AcDbCircle
 10
6553.6361007684
 20
6983.267992741
 30
0.0
 40
144.5312500000003
100
AcDbArc
 50
289.5727812524
 51
290.2395505154
  0
ARC
  5
A7
330
1F
100
AcDbEntity
  8
0
  6
SLD-Plná
 62
     7
370
    25
100
AcDbCircle
 10
6553.6361007684
 20
6983.267992741
 30
0.0
 40
144.5312500000001
100
AcDbArc
 50
209.7240305005
 51
249.7604494846
  0
ARC
  5
A8
330
1F
100
AcDbEntity
  8
0
  6
SLD-Plná
 62
     7
370
    25
100
AcDbCircle
 10
6553.6361007684
 20
6983.267992741
 30
0.0
 40
144.5312500000002
100
AcDbArc
 50
290.2395505154
 51
330.3327903795
  0
ARC
  5
A9
330
1F
100
AcDbEntity
  8
0
  6
SLD-Plná
 62
     7
370
    25
100
AcDbCircle
 10
6553.6361007684
 20
6983.267992741
 30
0.0
 40
144.5312500000006
100
AcDbArc
 50
250.4272187476
 51
251.2724891447
  0
LINE
  5
AA
330
1F
100
AcDbEntity
  8
0
  6
SLD-Plná
 62
     7
370
    25
100
AcDbLine
 10
5748.5448203495
 20
6921.618982715
 30
0.0
 11
5749.1517920508
 21
6915.1486007733
 31
0.0
  0
LINE
  5
AB
330
1F
100
AcDbEntity
  8
0
  6
SLD-Plná
 62
     7
370
    25
100
AcDbLine
 10
7358.1217259768
 20
6915.1693684275
 30
0.0
 11
7358.9412039445
 21
6923.897229034
 31
0.0
  0
SPLINE
  5
AC
330
1F
100
AcDbEntity
  8
0
  6
SLD-Plná
 62
     7
370
    25
100
AcDbSpline
210
0.0
220
0.0
230
1.0
 70
     8
 71
     3
 72
    51
 73
    47
 74
     0
 42
0.00000001
 43
0.00000001
 40
0.0
 40
0.0
 40
0.0
 40
0.0
 40
0.0265607733852533
 40
0.0532909504838588
 40
0.080223842537102
 40
0.1072696088641367
 40
0.1344376276461015
 40
0.1572715672592689
 40
0.1800448259465292
 40
0.2026589265197259
 40
0.2195210897603493
 40
0.2361917311120698
 40
0.2525876711544235
 40
0.2686467309753057
 40
0.2843388801416215
 40
0.2997051129358805
 40
0.3148351290089153
 40
0.3299317432270736
 40
0.3451824706190946
 40
0.3605461704284826
 40
0.3759998965458902
 40
0.3915048549740325
 40
0.4225662376080646
 40
0.4535330722602136
 40
0.4843831483907856
 40
0.5150046253813033
 40
0.5455074776110772
 40
0.5759609382235469
 40
0.6064673364491037
 40
0.6370035375339307
 40
0.6675534553695625
 40
0.6979303138381353
 40
0.7283036533312818
 40
0.7585463184590006
 40
0.7827201035463055
 40
0.8068337502879174
 40
0.8309189412653961
 40
0.8550158173651502
 40
0.8791214787620775
 40
0.8992599668091862
 40
0.9193835362857702
 40
0.9395378691661262
 40
0.9546817643824329
 40
0.9698086271403713
 40
0.984919200447287
 40
1.0
 40
1.0
 40
1.0
 40
1.0
 10
6553.636365197084
 20
7365.065903122187
 30
0.0
 10
6530.040856295073
 20
7364.976621901606
 30
0.0
 10
6482.699347134173
 20
7364.797490027842
 30
0.0
 10
6411.485121126674
 20
7362.440830674981
 30
0.0
 10
6340.014963595016
 20
7358.024653041983
 30
0.0
 10
6268.500853999768
 20
7351.095714404532
 30
0.0
 10
6201.157502812853
 20
7341.79984505326
 30
0.0
 10
6138.364770440726
 20
7330.199814655532
 30
0.0
 10
6080.548196124864
 20
7316.517144048131
 30
0.0
 10
6029.210618182526
 20
7301.039442451737
 30
0.0
 10
5984.597376383492
 20
7284.334130170688
 30
0.0
 10
5946.648833134205
 20
7267.151963464352
 30
0.0
 10
5911.595257347005
 20
7247.722801528197
 30
0.0
 10
5880.191070682061
 20
7226.045055594451
 30
0.0
 10
5853.165240049409
 20
7202.209194601127
 30
0.0
 10
5831.142489033688
 20
7176.419038617028
 30
0.0
 10
5814.495264765465
 20
7148.931098471006
 30
0.0
 10
5803.35966604045
 20
7120.060655529576
 30
0.0
 10
5796.439366780703
 20
7090.347995300039
 30
0.0
 10
5792.721216555
 20
7060.069507095997
 30
0.0
 10
5791.500358675372
 20
7029.486603754359
 30
0.0
 10
5792.467296156653
 20
6988.502825564002
 30
0.0
 10
5797.470717559519
 20
6937.329995850997
 30
0.0
 10
5807.391008190752
 20
6876.333897371106
 30
0.0
 10
5819.928537696655
 20
6815.967032269627
 30
0.0
 10
5834.589525203703
 20
6756.248441100107
 30
0.0
 10
5851.955560869151
 20
6697.215154171942
 30
0.0
 10
5872.308574030529
 20
6638.773240962345
 30
0.0
 10
5895.672459943815
 20
6580.879372453225
 30
0.0
 10
5921.734887249698
 20
6523.484533845558
 30
0.0
 10
5950.350484589604
 20
6466.819920425754
 30
0.0
 10
5982.140447502996
 20
6411.206406919331
 30
0.0
 10
6017.556401997071
 20
6357.066447995624
 30
0.0
 10
6054.495944193282
 20
6308.189760470905
 30
0.0
 10
6092.318612051592
 20
6264.606431504441
 30
0.0
 10
6130.223344736807
 20
6226.030401905382
 30
0.0
 10
6171.181614987824
 20
6189.31217938293
 30
0.0
 10
6215.301694151276
 20
6154.699707094823
 30
0.0
 10
6260.124992325759
 20
6124.328469920431
 30
0.0
 10
6305.173647300899
 20
6098.22411252739
 30
0.0
 10
6350.04036701459
 20
6076.362932540767
 30
0.0
 10
6393.656397027485
 20
6059.354828546802
 30
0.0
 10
6435.140894761304
 20
6046.756601744122
 30
0.0
 10
6473.763193824718
 20
6038.115615827775
 30
0.0
 10
6513.395683451552
 20
6032.320064795872
 30
0.0
 10
6540.231625024342
 20
6031.567112871671
 30
0.0
 10
6553.636363442472
 20
6031.191008177971
 30
0.0
  0
SPLINE
  5
AD
330
1F
100
AcDbEntity
  8
0
  6
SLD-Plná
 62
     7
370
    25
100
AcDbSpline
210
0.0
220
0.0
230
1.0
 70
     8
 71
     3
 72
    50
 73
    46
 74
     0
 42
0.00000001
 43
0.00000001
 40
0.0
 40
0.0
 40
0.0
 40
0.0
 40
0.0168886930267992
 40
0.0338125001119791
 40
0.050761694528854
 40
0.0677200534824868
 40
0.0846373508697416
 40
0.1015311367475482
 40
0.1214585684130711
 40
0.1413478786720293
 40
0.1612340140610314
 40
0.1811157007967059
 40
0.2112339471161678
 40
0.2414300239515762
 40
0.2716732843235887
 40
0.3020297445699196
 40
0.3324175422772813
 40
0.362908278957122
 40
0.3995424336484776
 40
0.4361072308257697
 40
0.4726861331531572
 40
0.5093541195878312
 40
0.546338113426646
 40
0.5671372013473535
 40
0.5880006435102682
 40
0.6088768888828245
 40
0.6297007001442145
 40
0.6504137455096448
 40
0.6665524447974844
 40
0.6825271294881007
 40
0.698476966807334
 40
0.714676789060861
 40
0.7312358124301646
 40
0.7473471789750058
 40
0.7638007701163995
 40
0.7805308583503123
 40
0.797451285612857
 40
0.8144668118266075
 40
0.8368810626226917
 40
0.8593913340749667
 40
0.8817590328463935
 40
0.9115471943970315
 40
0.9412197674689776
 40
0.970769036628571
 40
1.0
 40
1.0
 40
1.0
 40
1.0
 10
6553.6363651938
 20
6031.191008192968
 30
0.0
 10
6568.649915340849
 20
6031.663649861368
 30
0.0
 10
6598.708230997527
 20
6032.609915889195
 30
0.0
 10
6642.932087719107
 20
6039.823251819793
 30
0.0
 10
6685.787824705271
 20
6050.447486690156
 30
0.0
 10
6726.964341232686
 20
6064.256528794086
 30
0.0
 10
6766.28668192452
 20
6080.644408519481
 30
0.0
 10
6805.907616552993
 20
6100.381008524661
 30
0.0
 10
6845.521999723816
 20
6123.452078638695
 30
0.0
 10
6884.856330099329
 20
6149.818020503581
 30
0.0
 10
6921.906033730208
 20
6177.911033043068
 30
0.0
 10
6962.752241908046
 20
6212.588194021636
 30
0.0
 10
7006.036009853249
 20
6254.635765757102
 30
0.0
 10
7050.12315089131
 20
6304.679710030975
 30
0.0
 10
7089.679919673884
 20
6357.015787355243
 30
0.0
 10
7125.097833086825
 20
6411.150528472622
 30
0.0
 10
7156.869711798304
 20
6466.722205446583
 30
0.0
 10
7187.379627284659
 20
6527.133003830675
 30
0.0
 10
7216.618581017929
 20
6592.175964458407
 30
0.0
 10
7243.627568934907
 20
6661.840709604387
 30
0.0
 10
7266.246728331058
 20
6732.334218376458
 30
0.0
 10
7284.722644114719
 20
6803.770006872142
 30
0.0
 10
7297.762165917378
 20
6865.418328531282
 30
0.0
 10
7306.555562755013
 20
6917.017484135181
 30
0.0
 10
7311.951614865206
 20
6958.189986693738
 30
0.0
 10
7315.291519442228
 20
6999.4928682196
 30
0.0
 10
7315.857089213362
 20
7040.745397410778
 30
0.0
 10
7312.838015448985
 20
7078.782360794888
 30
0.0
 10
7305.918066035753
 20
7113.251219243798
 30
0.0
 10
7295.211937112612
 20
7143.978415398886
 30
0.0
 10
7278.497669961482
 20
7173.280590402755
 30
0.0
 10
7255.720563844235
 20
7200.700194633797
 30
0.0
 10
7227.824958434526
 20
7225.520191614153
 30
0.0
 10
7195.801848233674
 20
7247.651214436938
 30
0.0
 10
7160.631877041272
 20
7267.152338328701
 30
0.0
 10
7122.547008725732
 20
7284.390132694597
 30
0.0
 10
7082.280062718097
 20
7299.454038104253
 30
0.0
 10
7036.046093857542
 20
7313.837606018828
 30
0.0
 10
6983.852219411164
 20
7326.959712191589
 30
0.0
 10
6926.02657624146
 20
7338.377789926053
 30
0.0
 10
6861.025544317687
 20
7348.33741103797
 30
0.0
 10
6789.075489206056
 20
7356.285713374506
 30
0.0
 10
6710.325743041037
 20
7361.798151462714
 30
0.0
 10
6631.822038585964
 20
7364.730086568445
 30
0.0
 10
6579.603999557386
 20
7364.954349939773
 30
0.0
 10
6553.6363651938
 20
7365.065874411706
 30
0.0
  0
SPLINE
  5
AE
330
1F
100
AcDbEntity
  8
0
  6
SLD-Plná
 62
     7
370
    25
100
AcDbSpline
210
0.0
220
0.0
230
1.0
 70
     8
 71
     3
 72
    20
 73
    16
 74
     0
 42
0.00000001
 43
0.00000001
 40
0.0
 40
0.0
 40
0.0
 40
0.0
 40
0.0545737394455359
 40
0.108181409297388
 40
0.1602860383703499
 40
0.2108462853189675
 40
0.2601931988813631
 40
0.3102153216273852
 40
0.3904739922708329
 40
0.4721348638571227
 40
0.5546186673431001
 40
0.6668666985862202
 40
0.7786207048195384
 40
0.8894532393669653
 40
1.0
 40
1.0
 40
1.0
 40
1.0
 10
5903.297906924397
 20
6976.123486174474
 30
0.0
 10
5909.474770205478
 20
6984.625451676282
 30
0.0
 10
5921.719153338722
 20
7001.478880067451
 30
0.0
 10
5945.436611843307
 20
7023.828703180334
 30
0.0
 10
5972.51683843325
 20
7042.861231010055
 30
0.0
 10
6002.470096502386
 20
7058.044182017658
 30
0.0
 10
6034.305470634758
 20
7070.034148495704
 30
0.0
 10
6074.0307771456
 20
7081.701062395065
 30
0.0
 10
6122.289571422543
 20
7092.575531063571
 30
0.0
 10
6179.096729854749
 20
7101.694709633904
 30
0.0
 10
6243.990501811117
 20
7109.263249252324
 30
0.0
 10
6316.270342793029
 20
7115.98321386116
 30
0.0
 10
6395.624896412512
 20
7120.573206524121
 30
0.0
 10
6474.762773201497
 20
7122.470920266634
 30
0.0
 10
6527.367803441782
 20
7122.581211369155
 30
0.0
 10
6553.6363651938
 20
7122.636285734173
 30
0.0
  0
SPLINE
  5
AF
330
1F
100
AcDbEntity
  8
0
  6
SLD-Plná
 62
     7
370
    25
100
AcDbSpline
210
0.0
220
0.0
230
1.0
 70
     8
 71
     3
 72
    32
 73
    28
 74
     0
 42
0.00000001
 43
0.00000001
 40
0.0
 40
0.0
 40
0.0
 40
0.0
 40
0.0285299819521302
 40
0.0567401763634504
 40
0.0847533110942784
 40
0.1125404229953155
 40
0.1401578255227119
 40
0.1760543129585391
 40
0.2118439777874962
 40
0.24767148766923
 40
0.2966663585745747
 40
0.3456291572881395
 40
0.3945661334675906
 40
0.443535747275273
 40
0.4927616915513245
 40
0.5482758678319475
 40
0.6042930413362123
 40
0.6602719362614318
 40
0.7159390556764516
 40
0.7724531116369528
 40
0.8045459689116506
 40
0.8370977781403294
 40
0.8698089626516078
 40
0.9025105583674053
 40
0.9350762480612691
 40
0.9675360017438517
 40
1.0
 40
1.0
 40
1.0
 40
1.0
 10
6553.636353320926
 20
6032.09685789797
 30
0.0
 10
6538.538963765818
 20
6032.566048508777
 30
0.0
 10
6508.513408635011
 20
6033.499170655505
 30
0.0
 10
6464.548604607497
 20
6040.636899825951
 30
0.0
 10
6422.434876540415
 20
6051.222199009877
 30
0.0
 10
6382.403106953711
 20
6065.042270768173
 30
0.0
 10
6340.620847884706
 20
6082.985496424803
 30
0.0
 10
6297.714002717722
 20
6105.458114252947
 30
0.0
 10
6254.036450214812
 20
6132.428390170764
 30
0.0
 10
6207.884800518616
 20
6165.059252594242
 30
0.0
 10
6160.528762965263
 20
6204.085335887978
 30
0.0
 10
6113.158353892442
 20
6249.813305892007
 30
0.0
 10
6069.982884796698
 20
6297.802442450235
 30
0.0
 10
6030.225431164853
 20
6347.571332498875
 30
0.0
 10
5992.363693772471
 20
6401.151517753156
 30
0.0
 10
5957.313650793149
 20
6458.90099581055
 30
0.0
 10
5926.674975341601
 20
6520.877106337137
 30
0.0
 10
5901.668014912822
 20
6584.246097857248
 30
0.0
 10
5881.001468361943
 20
6648.549025521997
 30
0.0
 10
5865.81128826105
 20
6704.105471917429
 30
0.0
 10
5856.911215029722
 20
6751.245269024603
 30
0.0
 10
5852.935239302482
 20
6789.401684325379
 30
0.0
 10
5852.948728021616
 20
6827.944329113941
 30
0.0
 10
5857.796290357847
 20
6866.379040413232
 30
0.0
 10
5867.74943760222
 20
6904.162872057883
 30
0.0
 10
5882.096529510918
 20
6941.142747403603
 30
0.0
 10
5896.230194533424
 20
6964.462318175334
 30
0.0
 10
5903.297489058801
 20
6976.122865852584
 30
0.0
  0
LINE
  5
B0
330
1F
100
AcDbEntity
  8
0
  6
SLD-Plná
 62
     7
370
    25
100
AcDbLine
 10
6553.6363651938
 20
6032.0968580711
 30
0.0
 11
6553.6363651938
 21
6031.191008182
 31
0.0
  0
SPLINE
  5
B1
330
1F
100
AcDbEntity
  8
0
  6
SLD-Plná
 62
     7
370
    25
100
AcDbSpline
210
0.0
220
0.0
230
1.0
 70
     8
 71
     3
 72
    24
 73
    20
 74
     0
 42
0.00000001
 43
0.00000001
 40
0.0
 40
0.0
 40
0.0
 40
0.0
 40
0.1124185670230441
 40
0.2252883680185586
 40
0.3391465189541605
 40
0.4531656889336289
 40
0.5653765086317235
 40
0.6262430197229764
 40
0.6863658633452914
 40
0.7453837150390352
 40
0.8036159069312965
 40
0.8565770418745572
 40
0.9111982595520146
 40
0.9257685213107095
 40
0.9404244351635399
 40
0.9551633774346905
 40
0.9699677460052387
 40
0.9848276549559215
 40
1.0
 40
1.0
 40
1.0
 40
1.0
 10
6553.6363651938
 20
7122.636346325178
 30
0.0
 10
6580.350912445097
 20
7122.579345606374
 30
0.0
 10
6633.887235776506
 20
7122.465115375048
 30
0.0
 10
6714.45552852674
 20
7120.480552144447
 30
0.0
 10
6795.203863524158
 20
7115.670340260024
 30
0.0
 10
6875.37776208746
 20
7108.078712167297
 30
0.0
 10
6942.736905455708
 20
7099.784885400334
 30
0.0
 10
6996.594519097408
 20
7089.997783189977
 30
0.0
 10
7037.447316533041
 20
7080.511514118568
 30
0.0
 10
7076.677296280128
 20
7068.9671620705
 30
0.0
 10
7112.490822935003
 20
7054.785824758843
 30
0.0
 10
7144.055964611198
 20
7037.058911343561
 30
0.0
 10
7164.181880573695
 20
7021.361149904258
 30
0.0
 10
7176.461915257468
 20
7009.688270527896
 30
0.0
 10
7182.560690722644
 20
7003.375032879965
 30
0.0
 10
7188.358141522351
 20
6996.85670533411
 30
0.0
 10
7193.849715645632
 20
6990.15088316685
 30
0.0
 10
7199.095486245721
 20
6983.246970304408
 30
0.0
 10
7202.337039670597
 20
6978.514402688351
 30
0.0
 10
7203.974677892811
 20
6976.123501598218
 30
0.0
  0
SPLINE
  5
B2
330
1F
100
AcDbEntity
  8
0
  6
SLD-Plná
 62
     7
370
    25
100
AcDbSpline
210
0.0
220
0.0
230
1.0
 70
     8
 71
     3
 72
    34
 73
    30
 74
     0
 42
0.00000001
 43
0.00000001
 40
0.0
 40
0.0
 40
0.0
 40
0.0
 40
0.0324584090350516
 40
0.06472604179769
 40
0.0970999369261142
 40
0.1296272413148922
 40
0.1621454970870824
 40
0.1945142526296485
 40
0.2264098590324434
 40
0.258063936154765
 40
0.3081696807640409
 40
0.3579471552057595
 40
0.4080434047687695
 40
0.4579995525550478
 40
0.5074626004871967
 40
0.5566767809363851
 40
0.605641489320007
 40
0.6545742885362406
 40
0.703530537426027
 40
0.7525221117439881
 40
0.7830545958170779
 40
0.8135615256134037
 40
0.8440868472011525
 40
0.8747892944610226
 40
0.9057216283879825
 40
0.9369010434601422
 40
0.9578480876086586
 40
0.9788863723624319
 40
1.0
 40
1.0
 40
1.0
 40
1.0
 10
7203.9752332738
 20
6976.122880718584
 30
0.0
 10
7211.041909654021
 20
6964.46407771696
 30
0.0
 10
7225.133727594423
 20
6941.214997037154
 30
0.0
 10
7239.440794958803
 20
6904.386355190667
 30
0.0
 10
7249.379728365984
 20
6866.823798170127
 30
0.0
 10
7254.274038845087
 20
6828.612426615822
 30
0.0
 10
7254.37895781186
 20
6790.284658046434
 30
0.0
 10
7250.514210412844
 20
6752.346649879856
 30
0.0
 10
7243.576767611291
 20
6715.014253300755
 30
0.0
 10
7232.611875171509
 20
6671.119086450556
 30
0.0
 10
7217.644216577499
 20
6620.641455502191
 30
0.0
 10
7197.819043387301
 20
6563.505473246031
 30
0.0
 10
7174.197042042165
 20
6507.152654211933
 30
0.0
 10
7145.919815297257
 20
6452.100745415367
 30
0.0
 10
7113.26370046127
 20
6398.803443557552
 30
0.0
 10
7076.874612699021
 20
6347.343495656114
 30
0.0
 10
7037.107444424693
 20
6297.587021599477
 30
0.0
 10
6993.918366747094
 20
6249.609678244482
 30
0.0
 10
6946.531981761154
 20
6203.896171027315
 30
0.0
 10
6901.034022969414
 20
6166.426685766261
 30
0.0
 10
6859.112231420871
 20
6136.528009433794
 30
0.0
 10
6822.382271257825
 20
6113.156269321636
 30
0.0
 10
6783.643207883872
 20
6091.522479879975
 30
0.0
 10
6742.528332755864
 20
6072.105194166186
 30
0.0
 10
6698.806925207082
 20
6055.506901674407
 30
0.0
 10
6657.630072656458
 20
6043.959566468031
 30
0.0
 10
6620.117544383175
 20
6036.86102584042
 30
0.0
 10
6587.104911579598
 20
6032.865198841306
 30
0.0
 10
6564.805809479564
 20
6032.353276667894
 30
0.0
 10
6553.636329575038
 20
6032.096858072968
 30
0.0
  0
LINE
  5
B3
330
1F
100
AcDbEntity
  8
0
  6
SLD-Plná
 62
     7
370
    25
100
AcDbLine
 10
5931.6256836437
 20
6623.096326087
 30
0.0
 11
5931.1772982214
 21
6624.6136894093
 31
0.0
  0
SPLINE
  5
B4
330
1F
100
AcDbEntity
  8
0
  6
SLD-Plná
 62
     7
370
    25
100
AcDbSpline
210
0.0
220
0.0
230
1.0
 70
     8
 71
     3
 72
    11
 73
     7
 74
     0
 42
0.00000001
 43
0.00000001
 40
0.0
 40
0.0
 40
0.0
 40
0.0
 40
0.250000582243561
 40
0.4999999958063011
 40
0.7499994115888912
 40
1.0
 40
1.0
 40
1.0
 40
1.0
 10
5903.297906923801
 20
6976.123486173584
 30
0.0
 10
5907.027731572384
 20
6974.54064733103
 30
0.0
 10
5914.487363433692
 20
6971.374977045239
 30
0.0
 10
5924.939995023118
 20
6964.287352150621
 30
0.0
 10
5934.216028417049
 20
6956.027765471486
 30
0.0
 10
5938.702353284354
 20
6949.900504645553
 30
0.0
 10
5940.945520978801
 20
6946.836867047587
 30
0.0
  0
SPLINE
  5
B5
330
1F
100
AcDbEntity
  8
0
  6
SLD-Plná
 62
     7
370
    25
100
AcDbSpline
210
0.0
220
0.0
230
1.0
 70
     8
 71
     3
 72
    11
 73
     7
 74
     0
 42
0.00000001
 43
0.00000001
 40
0.0
 40
0.0
 40
0.0
 40
0.0
 40
0.250000032170444
 40
0.4999999999893428
 40
0.7499999678272322
 40
1.0
 40
1.0
 40
1.0
 40
1.0
 10
7203.975121022584
 20
6976.1228391171
 30
0.0
 10
7200.24530187134
 20
6974.540012115217
 30
0.0
 10
7192.785664528925
 20
6971.374358518881
 30
0.0
 10
7182.332819276629
 20
6964.287088057905
 30
0.0
 10
7173.056959259538
 20
6956.02746938858
 30
0.0
 10
7168.570530463303
 20
6949.900320943719
 30
0.0
 10
7166.327315776551
 20
6946.836746327095
 30
0.0
  0
LINE
  5
B6
330
1F
100
AcDbEntity
  8
0
  6
SLD-Plná
 62
     7
370
    25
100
AcDbLine
 10
6007.8756570288
 20
6639.9843184863
 30
0.0
 11
5940.9455192539
 21
6946.8368668429
 31
0.0
  0
LINE
  5
B7
330
1F
100
AcDbEntity
  8
0
  6
SLD-Plná
 62
     7
370
    25
100
AcDbLine
 10
6017.2451325038
 20
6597.0283718386
 30
0.0
 11
6007.8756570266
 21
6639.984318486
 31
0.0
  0
SPLINE
  5
B8
330
1F
100
AcDbEntity
  8
0
  6
SLD-Plná
 62
     7
370
    25
100
AcDbSpline
210
0.0
220
0.0
230
1.0
 70
     8
 71
     3
 72
     9
 73
     5
 74
     0
 42
0.00000001
 43
0.00000001
 40
0.0
 40
0.0
 40
0.0
 40
0.0
 40
0.4987851871510192
 40
1.0
 40
1.0
 40
1.0
 40
1.0
 10
6017.245132503801
 20
6597.028371838619
 30
0.0
 10
6015.322388820748
 20
6591.838890498513
 30
0.0
 10
6011.467535604203
 20
6581.434649406775
 30
0.0
 10
6008.330381444054
 20
6570.914266522191
 30
0.0
 10
6006.7579933088
 20
6565.641294783594
 30
0.0
  0
SPLINE
  5
B9
330
1F
100
AcDbEntity
  8
0
  6
SLD-Plná
 62
     7
370
    25
100
AcDbSpline
210
0.0
220
0.0
230
1.0
 70
     8
 71
     3
 72
     9
 73
     5
 74
     0
 42
0.00000001
 43
0.00000001
 40
0.0
 40
0.0
 40
0.0
 40
0.0
 40
0.5024537921228058
 40
1.0
 40
1.0
 40
1.0
 40
1.0
 10
7090.027598055049
 20
6597.028372623734
 30
0.0
 10
7091.9640954068
 20
6591.800635178501
 30
0.0
 10
7095.818175885668
 20
6581.396220827992
 30
0.0
 10
7098.955412671848
 20
6570.875832166244
 30
0.0
 10
7100.516332938023
 20
6565.641452682197
 30
0.0
  0
LINE
  5
BA
330
1F
100
AcDbEntity
  8
0
  6
SLD-Plná
 62
     7
370
    25
100
AcDbLine
 10
7090.0275978838
 20
6597.0283718386
 30
0.0
 11
7099.3970611148
 21
6639.9842623385
 31
0.0
  0
LINE
  5
BB
330
1F
100
AcDbEntity
  8
0
  6
SLD-Plná
 62
     7
370
    25
100
AcDbLine
 10
7166.3272087526
 20
6946.8368559248
 30
0.0
 11
7099.3970611123
 21
6639.9842623389
 31
0.0
  0
LINE
  5
BC
330
1F
100
AcDbEntity
  8
0
  6
SLD-Plná
 62
     7
370
    25
100
AcDbLine
 10
7078.1041303435
 20
4741.8213775485
 30
0.0
 11
7078.1872513178
 21
4741.894451161
 31
0.0
  0
SPLINE
  5
BD
330
1F
100
AcDbEntity
  8
0
  6
SLD-Plná
 62
     7
370
    25
100
AcDbSpline
210
0.0
220
0.0
230
1.0
 70
     8
 71
     3
 72
    19
 73
    15
 74
     0
 42
0.00000001
 43
0.00000001
 40
0.0
 40
0.0
 40
0.0
 40
0.0
 40
0.0890327681601689
 40
0.1764399600415854
 40
0.2633329692112541
 40
0.3490904733205689
 40
0.4345905700090316
 40
0.519538096335708
 40
0.6040764580738455
 40
0.6875224950956736
 40
0.7691036937606835
 40
0.8480598094503025
 40
0.9244879001603824
 40
1.0
 40
1.0
 40
1.0
 40
1.0
 10
7039.966053742148
 20
4748.741646619535
 30
0.0
 10
7032.684335239414
 20
4749.272669674422
 30
0.0
 10
7018.253849158764
 20
4750.325020269834
 30
0.0
 10
6990.780994544603
 20
4751.568344460468
 30
0.0
 10
6959.618621484668
 20
4752.593576839398
 30
0.0
 10
6924.490470869107
 20
4753.441717123203
 30
0.0
 10
6885.795463640063
 20
4754.160342974262
 30
0.0
 10
6843.607757977544
 20
4754.766644410061
 30
0.0
 10
6798.372633869359
 20
4755.205864789543
 30
0.0
 10
6750.686995422983
 20
4755.389328657135
 30
0.0
 10
6701.701662690402
 20
4755.287761016049
 30
0.0
 10
6652.406651849305
 20
4754.836614809969
 30
0.0
 10
6603.059819309656
 20
4754.250184649073
 30
0.0
 10
6570.044504215953
 20
4754.142336917256
 30
0.0
 10
6553.6363651938
 20
4754.088738138268
 30
0.0
  0
SPLINE
  5
BE
330
1F
100
AcDbEntity
  8
0
  6
SLD-Plná
 62
     7
370
    25
100
AcDbSpline
210
0.0
220
0.0
230
1.0
 70
     8
 71
     3
 72
    19
 73
    15
 74
     0
 42
0.00000001
 43
0.00000001
 40
0.0
 40
0.0
 40
0.0
 40
0.0
 40
0.0751102673570507
 40
0.1515814036899629
 40
0.2305356837328217
 40
0.3121806329500913
 40
0.3957397156997987
 40
0.4803019240516293
 40
0.5652995485150452
 40
0.650838783402812
 40
0.7366057363829253
 40
0.8234901998770623
 40
0.9110326059974716
 40
1.0
 40
1.0
 40
1.0
 40
1.0
 10
6553.636365237512
 20
4754.088738153269
 30
0.0
 10
6537.315642418466
 20
4754.141765300022
 30
0.0
 10
6504.378493328245
 20
4754.248780354299
 30
0.0
 10
6455.102942309972
 20
4754.833859493796
 30
0.0
 10
6405.77904835024
 20
4755.286764780985
 30
0.0
 10
6356.750421319352
 20
4755.389557276718
 30
0.0
 10
6309.018066899763
 20
4755.206789655478
 30
0.0
 10
6263.742602788631
 20
4754.767544233337
 30
0.0
 10
6221.53135619444
 20
4754.161404099614
 30
0.0
 10
6182.815868090624
 20
4753.442503826669
 30
0.0
 10
6147.680252722465
 20
4752.594284605049
 30
0.0
 10
6116.497681521855
 20
4751.568715391114
 30
0.0
 10
6089.018948041522
 20
4750.325031988337
 30
0.0
 10
6074.582947769635
 20
4749.272274483824
 30
0.0
 10
6067.3066757263
 20
4748.74164620354
 30
0.0
  0
LINE
  5
BF
330
1F
100
AcDbEntity
  8
0
  6
SLD-Plná
 62
     7
370
    25
100
AcDbLine
 10
6029.0855023069
 20
4741.894443276
 30
0.0
 11
6029.1681876751
 21
4741.8217700227
 31
0.0
  0
SPLINE
  5
C0
330
1F
100
AcDbEntity
  8
0
  6
SLD-Plná
 62
     7
370
    25
100
AcDbSpline
210
0.0
220
0.0
230
1.0
 70
     8
 71
     3
 72
    13
 73
     9
 74
     0
 42
0.00000001
 43
0.00000001
 40
0.0
 40
0.0
 40
0.0
 40
0.0
 40
0.2507493256270297
 40
0.5009499298882222
 40
0.625699684958302
 40
0.7504348169235028
 40
0.8752171432869068
 40
0.9999999999999999
 40
0.9999999999999999
 40
0.9999999999999999
 40
0.9999999999999999
 10
6082.353854880445
 20
4659.841048699086
 30
0.0
 10
6121.45484343759
 20
4653.323904684278
 30
0.0
 10
6199.57125482686
 20
4640.303878292885
 30
0.0
 10
6297.691733660724
 20
4627.560204572982
 30
0.0
 10
6376.315804596175
 20
4619.861491532856
 30
0.0
 10
6435.334840485103
 20
4615.610846633915
 30
0.0
 10
6494.454083561743
 20
4612.821786236796
 30
0.0
 10
6533.908861125655
 20
4612.460025210959
 30
0.0
 10
6553.636291830185
 20
4612.279144313656
 30
0.0
  0
SPLINE
  5
C1
330
1F
100
AcDbEntity
  8
0
  6
SLD-Plná
 62
     7
370
    25
100
AcDbSpline
210
0.0
220
0.0
230
1.0
 70
     8
 71
     3
 72
     9
 73
     5
 74
     0
 42
0.00000001
 43
0.00000001
 40
0.0
 40
0.0
 40
0.0
 40
0.0
 40
0.5599087317082433
 40
0.9999999999999999
 40
0.9999999999999999
 40
0.9999999999999999
 40
0.9999999999999999
 10
6115.403908521017
 20
4669.125540093104
 30
0.0
 10
6109.351491017503
 20
4666.927951444776
 30
0.0
 10
6098.541840871397
 20
4663.003046323858
 30
0.0
 10
6087.300879860984
 20
4660.807362872676
 30
0.0
 10
6082.353831073093
 20
4659.841061757876
 30
0.0
  0
SPLINE
  5
C2
330
1F
100
AcDbEntity
  8
0
  6
SLD-Plná
 62
     7
370
    25
100
AcDbSpline
210
0.0
220
0.0
230
1.0
 70
     8
 71
     3
 72
    10
 73
     6
 74
     0
 42
0.00000001
 43
0.00000001
 40
0.0
 40
0.0
 40
0.0
 40
0.0
 40
0.2784520706262428
 40
0.5582036202584018
 40
1.0
 40
1.0
 40
1.0
 40
1.0
 10
6109.976812783266
 20
4672.595312849323
 30
0.0
 10
6111.337357220456
 20
4672.1949358915
 30
0.0
 10
6114.064795478155
 20
4671.392313498272
 30
0.0
 10
6116.551414350338
 20
4670.146702413892
 30
0.0
 10
6115.839715497017
 20
4669.513331514514
 30
0.0
 10
6115.4039496053
 20
4669.125525023791
 30
0.0
  0
SPLINE
  5
C3
330
1F
100
AcDbEntity
  8
0
  6
SLD-Plná
 62
     7
370
    25
100
AcDbSpline
210
0.0
220
0.0
230
1.0
 70
     8
 71
     3
 72
    28
 73
    24
 74
     0
 42
0.00000001
 43
0.00000001
 40
0.0
 40
0.0
 40
0.0
 40
0.0
 40
0.000000534844811
 40
0.0526216548937299
 40
0.1067425683753155
 40
0.1591347411887708
 40
0.2130054420995996
 40
0.2656536914427963
 40
0.3198117584245332
 40
0.3728840419406235
 40
0.4275220832849052
 40
0.4806690427094047
 40
0.5353956415754247
 40
0.588434754596461
 40
0.643034393852908
 40
0.6959811894125376
 40
0.750467057335621
 40
0.8033690342174284
 40
0.8577985052491863
 40
0.9106833643261157
 40
0.9650908600088995
 40
0.9999994651551889
 40
0.9999999999999999
 40
0.9999999999999999
 40
0.9999999999999999
 40
0.9999999999999999
 10
6553.6363651938
 20
4619.66080946531
 30
0.0
 10
6553.636265193801
 20
4619.660809465317
 30
0.0
 10
6543.797588003432
 20
4619.660810154352
 30
0.0
 10
6523.801679665531
 20
4619.968233212529
 30
0.0
 10
6494.83768389601
 20
4621.304351317729
 30
0.0
 10
6467.291550334826
 20
4623.409886018463
 30
0.0
 10
6442.367451352677
 20
4626.082556983701
 30
0.0
 10
6420.281954059513
 20
4629.183133357236
 30
0.0
 10
6402.019113384691
 20
4632.474863064807
 30
0.0
 10
6387.847660112183
 20
4635.835150060015
 30
0.0
 10
6378.480745023644
 20
4639.058180600441
 30
0.0
 10
6374.074167239487
 20
4642.085909797494
 30
0.0
 10
6374.847374869863
 20
4644.792488907225
 30
0.0
 10
6380.777917645729
 20
4647.194626811054
 30
0.0
 10
6391.559674037051
 20
4649.238357028579
 30
0.0
 10
6407.065456496323
 20
4650.971246092736
 30
0.0
 10
6426.55098418852
 20
4652.374070688648
 30
0.0
 10
6449.817097599856
 20
4653.489139398777
 30
0.0
 10
6475.781121968589
 20
4654.308876748855
 30
0.0
 10
6504.180173161089
 20
4654.86099428431
 30
0.0
 10
6530.400088597359
 20
4655.114650268185
 30
0.0
 10
6547.109299081871
 20
4655.158287898288
 30
0.0
 10
6553.636265193801
 20
4655.158287938778
 30
0.0
 10
6553.6363651938
 20
4655.158287938781
 30
0.0
  0
SPLINE
  5
C4
330
1F
100
AcDbEntity
  8
0
  6
SLD-Plná
 62
     7
370
    25
100
AcDbSpline
210
0.0
220
0.0
230
1.0
 70
     8
 71
     3
 72
    10
 73
     6
 74
     0
 42
0.00000001
 43
0.00000001
 40
0.0
 40
0.0
 40
0.0
 40
0.0
 40
0.2816997601654482
 40
0.5621803662867649
 40
1.0
 40
1.0
 40
1.0
 40
1.0
 10
6991.868769896301
 20
4669.125553548791
 30
0.0
 10
6991.50076616455
 20
4669.361473764933
 30
0.0
 10
6990.766351365658
 20
4669.832293170135
 30
0.0
 10
6991.987533296948
 20
4670.955968564613
 30
0.0
 10
6995.285656026233
 20
4671.974506440807
 30
0.0
 10
6997.2959336305
 20
4672.595327450114
 30
0.0
  0
SPLINE
  5
C5
330
1F
100
AcDbEntity
  8
0
  6
SLD-Plná
 62
     7
370
    25
100
AcDbSpline
210
0.0
220
0.0
230
1.0
 70
     8
 71
     3
 72
     9
 73
     5
 74
     0
 42
0.00000001
 43
0.00000001
 40
0.0
 40
0.0
 40
0.0
 40
0.0
 40
0.5600704377413314
 40
1.0
 40
1.0
 40
1.0
 40
1.0
 10
7024.918894296467
 20
4659.841056111853
 30
0.0
 10
7018.6340878661
 20
4661.114932735437
 30
0.0
 10
7007.412630694193
 20
4663.389426330781
 30
0.0
 10
6996.617781412237
 20
4667.373048923643
 30
0.0
 10
6991.868808092983
 20
4669.125562267123
 30
0.0
  0
SPLINE
  5
C6
330
1F
100
AcDbEntity
  8
0
  6
SLD-Plná
 62
     7
370
    25
100
AcDbSpline
210
0.0
220
0.0
230
1.0
 70
     8
 71
     3
 72
    12
 73
     8
 74
     0
 42
0.00000001
 43
0.00000001
 40
0.0
 40
0.0
 40
0.0
 40
0.0
 40
0.1666561760474374
 40
0.3329252049675461
 40
0.4992603125591624
 40
0.7493605462596195
 40
1.0
 40
1.0
 40
1.0
 40
1.0
 10
6553.6363651938
 20
4612.279191559001
 30
0.0
 10
6579.98393477321
 20
4612.602446876336
 30
0.0
 10
6632.617867764237
 20
4613.248206579539
 30
0.0
 10
6711.422379071104
 20
4618.120652517085
 30
0.0
 10
6803.147164285603
 20
4626.699029502516
 30
0.0
 10
6907.752410635637
 20
4640.319248762401
 30
0.0
 10
6985.835369901096
 20
4653.329104138806
 30
0.0
 10
7024.918891234801
 20
4659.841036638998
 30
0.0
  0
SPLINE
  5
C7
330
1F
100
AcDbEntity
  8
0
  6
SLD-Plná
 62
     7
370
    25
100
AcDbSpline
210
0.0
220
0.0
230
1.0
 70
     8
 71
     3
 72
    28
 73
    24
 74
     0
 42
0.00000001
 43
0.00000001
 40
0.0
 40
0.0
 40
0.0
 40
0.0
 40
0.0000005348471355
 40
0.0528688864948339
 40
0.1072564033823824
 40
0.1600744521278733
 40
0.2144106848359423
 40
0.2671675172716121
 40
0.3214417807376492
 40
0.3741453169483931
 40
0.4283720856356918
 40
0.4810685526137469
 40
0.535300213513818
 40
0.5881318993089781
 40
0.642513237300568
 40
0.6956696771822761
 40
0.7503910772694045
 40
0.8038548278603681
 40
0.8588956594355246
 40
0.9122167856229031
 40
0.9670997402215666
 40
0.9999994651528646
 40
1.0
 40
1.0
 40
1.0
 40
1.0
 10
6553.6363651938
 20
4655.158287938781
 30
0.0
 10
6553.636465193799
 20
4655.158287938775
 30
0.0
 10
6563.521324435777
 20
4655.15828773133
 30
0.0
 10
6583.613702954107
 20
4655.078756156483
 30
0.0
 10
6612.742759363
 20
4654.707110338658
 30
0.0
 10
6640.464221312106
 20
4654.065011225097
 30
0.0
 10
6665.486424229081
 20
4653.153769785648
 30
0.0
 10
6687.56769661523
 20
4651.944387930354
 30
0.0
 10
6705.689243423112
 20
4650.4467883459
 30
0.0
 10
6719.673867089892
 20
4648.618621306705
 30
0.0
 10
6728.874403463891
 20
4646.482789974586
 30
0.0
 10
6733.192552734915
 20
4643.996147754508
 30
0.0
 10
6732.420763273046
 20
4641.216913723061
 30
0.0
 10
6726.54913703176
 20
4638.134280557834
 30
0.0
 10
6715.818216853011
 20
4634.874547648017
 30
0.0
 10
6700.318257007671
 20
4631.497758764434
 30
0.0
 10
6680.71724290702
 20
4628.216711062624
 30
0.0
 10
6657.231019549869
 20
4625.170178306476
 30
0.0
 10
6630.966557951831
 20
4622.622383558014
 30
0.0
 10
6602.256614305149
 20
4620.729965468323
 30
0.0
 10
6576.208263544583
 20
4619.817654057105
 30
0.0
 10
6559.787804057231
 20
4619.660810195309
 30
0.0
 10
6553.636465193799
 20
4619.660809465321
 30
0.0
 10
6553.6363651938
 20
4619.66080946531
 30
0.0
  0
SPLINE
  5
C8
330
1F
100
AcDbEntity
  8
0
  6
SLD-Plná
 62
     7
370
    25
100
AcDbSpline
210
0.0
220
0.0
230
1.0
 70
     8
 71
     3
 72
    24
 73
    20
 74
     0
 42
0.00000001
 43
0.00000001
 40
0.0
 40
0.0
 40
0.0
 40
0.0
 40
0.1315531244445521
 40
0.2629342171246009
 40
0.3954113165924851
 40
0.5266151007217319
 40
0.5907201437039096
 40
0.6533326755061909
 40
0.714589347926458
 40
0.7731569243189528
 40
0.8285761821797653
 40
0.8836509325011173
 40
0.8996968240798371
 40
0.9158979900219371
 40
0.9322186052951287
 40
0.9487504996527752
 40
0.9655559657905509
 40
0.9825786408383846
 40
1.0
 40
1.0
 40
1.0
 40
1.0
 10
6553.636365212045
 20
7100.156264067169
 30
0.0
 10
6583.273975088727
 20
7100.069721069181
 30
0.0
 10
6642.510437797391
 20
7099.896748245309
 30
0.0
 10
6731.551020729275
 20
7096.781674934865
 30
0.0
 10
6820.08395866972
 20
7089.282723319045
 30
0.0
 10
6893.067725224487
 20
7080.319767376735
 30
0.0
 10
6950.029036139127
 20
7071.389162158323
 30
0.0
 10
6990.945689955086
 20
7062.785217595187
 30
0.0
 10
7029.661784117536
 20
7051.702764251648
 30
0.0
 10
7065.380278811393
 20
7037.871896551887
 30
0.0
 10
7097.253426827425
 20
7020.402756276296
 30
0.0
 10
7118.243308779766
 20
7004.516636553086
 30
0.0
 10
7131.10165655131
 20
6992.532344907704
 30
0.0
 10
7137.8387135628
 20
6985.607201032899
 30
0.0
 10
7144.198533872081
 20
6978.363447197812
 30
0.0
 10
7150.208403008444
 20
6970.839550575813
 30
0.0
 10
7155.900429064585
 20
6963.076792124734
 30
0.0
 10
7161.329321435026
 20
6955.067304551098
 30
0.0
 10
7164.648396293019
 20
6949.601444514123
 30
0.0
 10
7166.327142598801
 20
6946.836881273587
 30
0.0
  0
SPLINE
  5
C9
330
1F
100
AcDbEntity
  8
0
  6
SLD-Plná
 62
     7
370
    25
100
AcDbSpline
210
0.0
220
0.0
230
1.0
 70
     8
 71
     3
 72
    19
 73
    15
 74
     0
 42
0.00000001
 43
0.00000001
 40
0.0
 40
0.0
 40
0.0
 40
0.0
 40
0.0592624358347524
 40
0.1160224950412134
 40
0.1710842847937826
 40
0.2265317079234267
 40
0.2850171548594386
 40
0.3462325548031685
 40
0.4088150326316362
 40
0.4731414832745547
 40
0.6044366747853142
 40
0.7369179333229545
 40
0.8682931864233696
 40
1.0
 40
1.0
 40
1.0
 40
1.0
 10
5940.945520978801
 20
6946.836867047587
 30
0.0
 10
5946.944043651564
 20
6956.199111066408
 30
0.0
 10
5958.687799324985
 20
6974.528275147294
 30
0.0
 10
5982.203086196101
 20
6999.346497324762
 30
0.0
 10
6009.883564734915
 20
7020.309927711807
 30
0.0
 10
6041.738293352648
 20
7037.802221771813
 30
0.0
 10
6077.420464718539
 20
7051.638191219895
 30
0.0
 10
6116.094225490974
 20
7062.727536436403
 30
0.0
 10
6157.033726930797
 20
7071.353009293824
 30
0.0
 10
6214.049595951535
 20
7080.300659169006
 30
0.0
 10
6287.095864369585
 20
7089.271899933246
 30
0.0
 10
6375.638695097708
 20
7096.777052796539
 30
0.0
 10
6464.703829750857
 20
7099.896292609401
 30
0.0
 10
6523.967261002063
 20
7100.069481168475
 30
0.0
 10
6553.636321270229
 20
7100.15618458217
 30
0.0
  0
SPLINE
  5
CA
330
1F
100
AcDbEntity
  8
0
  6
SLD-Plná
 62
     7
370
    25
100
AcDbSpline
210
0.0
220
0.0
230
1.0
 70
     8
 71
     3
 72
     9
 73
     5
 74
     0
 42
0.00000001
 43
0.00000001
 40
0.0
 40
0.0
 40
0.0
 40
0.0
 40
0.5000825321669224
 40
1.0
 40
1.0
 40
1.0
 40
1.0
 10
6007.8756604538
 20
6639.984319173614
 30
0.0
 10
6011.081055564451
 20
6649.537408459391
 30
0.0
 10
6017.490787767579
 20
6668.640433802796
 30
0.0
 10
6029.465914240449
 20
6685.740368879744
 30
0.0
 10
6035.452489143747
 20
6694.288925123523
 30
0.0
  0
SPLINE
  5
CB
330
1F
100
AcDbEntity
  8
0
  6
SLD-Plná
 62
     7
370
    25
100
AcDbSpline
210
0.0
220
0.0
230
1.0
 70
     8
 71
     3
 72
     9
 73
     5
 74
     0
 42
0.00000001
 43
0.00000001
 40
0.0
 40
0.0
 40
0.0
 40
0.0
 40
0.5004613963123711
 40
1.0
 40
1.0
 40
1.0
 40
1.0
 10
7071.820236538802
 20
6694.288929163647
 30
0.0
 10
7077.81287810983
 20
6685.730943914664
 30
0.0
 10
7089.787111517609
 20
6668.630753346435
 30
0.0
 10
7096.19571585268
 20
6649.52721647358
 30
0.0
 10
7099.397061113804
 20
6639.984262338615
 30
0.0
  0
SPLINE
  5
CC
330
1F
100
AcDbEntity
  8
0
  6
SLD-Plná
 62
     7
370
    25
100
AcDbSpline
210
0.0
220
0.0
230
1.0
 70
     8
 71
     3
 72
    10
 73
     6
 74
     0
 42
0.00000001
 43
0.00000001
 40
0.0
 40
0.0
 40
0.0
 40
0.0
 40
0.2793826985618348
 40
0.5595578638107831
 40
1.0
 40
1.0
 40
1.0
 40
1.0
 10
6035.452490193799
 20
6694.288926743648
 30
0.0
 10
6039.669677027451
 20
6700.012101014921
 30
0.0
 10
6048.116012709918
 20
6711.47468329341
 30
0.0
 10
6065.109037825869
 20
6731.79234993415
 30
0.0
 10
6078.597931922101
 20
6745.887030947976
 30
0.0
 10
6086.842359746301
 20
6754.501716443659
 30
0.0
  0
SPLINE
  5
CD
330
1F
100
AcDbEntity
  8
0
  6
SLD-Plná
 62
     7
370
    25
100
AcDbSpline
210
0.0
220
0.0
230
1.0
 70
     8
 71
     3
 72
    11
 73
     7
 74
     0
 42
0.00000001
 43
0.00000001
 40
0.0
 40
0.0
 40
0.0
 40
0.0
 40
0.2501490858608683
 40
0.5007170930465623
 40
0.7503667741334116
 40
1.0
 40
1.0
 40
1.0
 40
1.0
 10
7020.430386920299
 20
6754.501699968657
 30
0.0
 10
7025.145602600433
 20
6749.64138614062
 30
0.0
 10
7034.583930469267
 20
6739.912618982053
 30
0.0
 10
7047.948476542607
 20
6724.880548650515
 30
0.0
 10
7060.561886355674
 20
6709.642002367734
 30
0.0
 10
7068.067530996323
 20
6699.406516053518
 30
0.0
 10
7071.820229632224
 20
6694.288941565495
 30
0.0
  0
SPLINE
  5
CE
330
1F
100
AcDbEntity
  8
0
  6
SLD-Plná
 62
     7
370
    25
100
AcDbSpline
210
0.0
220
0.0
230
1.0
 70
     8
 71
     3
 72
    18
 73
    14
 74
     0
 42
0.00000001
 43
0.00000001
 40
0.0
 40
0.0
 40
0.0
 40
0.0
 40
0.1229868673518572
 40
0.2449481824248657
 40
0.3669528753497986
 40
0.4899362620707861
 40
0.5711501523163643
 40
0.6533316248374991
 40
0.7354515460110986
 40
0.7984320996928366
 40
0.8632764377712879
 40
0.9302322963346314
 40
1.0
 40
1.0
 40
1.0
 40
1.0
 10
6553.636363762461
 20
6922.244056912158
 30
0.0
 10
6574.360446887545
 20
6921.884215087667
 30
0.0
 10
6615.635800941309
 20
6921.167532056641
 30
0.0
 10
6677.222462457977
 20
6915.072357666564
 30
0.0
 10
6738.234153930447
 20
6904.845739533791
 30
0.0
 10
6791.517393580211
 20
6891.096045756054
 30
0.0
 10
6837.071371814516
 20
6875.189206612185
 30
0.0
 10
6875.024795864169
 20
6858.798513865359
 30
0.0
 10
6908.94215683467
 20
6840.996967203765
 30
0.0
 10
6939.023585818019
 20
6822.31100671458
 30
0.0
 10
6965.632886512221
 20
6803.162033367208
 30
0.0
 10
6991.863878554607
 20
6781.78052392152
 30
0.0
 10
7008.551238541707
 20
6765.934970667845
 30
0.0
 10
7017.0665139453
 20
6757.849254893657
 30
0.0
  0
SPLINE
  5
CF
330
1F
100
AcDbEntity
  8
0
  6
SLD-Plná
 62
     7
370
    25
100
AcDbSpline
210
0.0
220
0.0
230
1.0
 70
     8
 71
     3
 72
    18
 73
    14
 74
     0
 42
0.00000001
 43
0.00000001
 40
0.0
 40
0.0
 40
0.0
 40
0.0
 40
0.0696362238697865
 40
0.1366862615439081
 40
0.2015613501178596
 40
0.2645043101682575
 40
0.3465751563965664
 40
0.4287870167284958
 40
0.5100315442153044
 40
0.6330763978845644
 40
0.7551284713978661
 40
0.8771406105911539
 40
0.9999999999999999
 40
0.9999999999999999
 40
0.9999999999999999
 40
0.9999999999999999
 10
6090.206233125801
 20
6757.849271028656
 30
0.0
 10
6098.705274801565
 20
6765.919972779631
 30
0.0
 10
6115.387716335707
 20
6781.761642374463
 30
0.0
 10
6141.61604932443
 20
6803.144581393019
 30
0.0
 10
6168.236880469315
 20
6822.302694797195
 30
0.0
 10
6198.309683252892
 20
6840.984564532801
 30
0.0
 10
6232.217528307106
 20
6858.783829419051
 30
0.0
 10
6270.171628019618
 20
6875.178203322906
 30
0.0
 10
6315.744516454592
 20
6891.093387185286
 30
0.0
 10
6369.050595787511
 20
6904.84915466515
 30
0.0
 10
6430.089249152977
 20
6915.077984754808
 30
0.0
 10
6491.671351847419
 20
6921.169339515247
 30
0.0
 10
6532.933771015344
 20
6921.884988371645
 30
0.0
 10
6553.636364140168
 20
6922.244050864658
 30
0.0
  0
ELLIPSE
  5
D0
330
1F
100
AcDbEntity
  8
0
  6
SLD-Plná
 62
     7
370
    25
100
AcDbEllipse
 10
6094.5473913333
 20
6754.7428802242
 30
0.0
 11
27.90903427101239
 21
27.13914357675731
 31
0.0
210
0.0
220
0.0
230
1.0
 40
0.1349940889
 41
1.595120917972646
 42
1.717539932851355
  0
ELLIPSE
  5
D1
330
1F
100
AcDbEntity
  8
0
  6
SLD-Plná
 62
     7
370
    25
100
AcDbEllipse
 10
7012.7253781139
 20
6754.7428839936
 30
0.0
 11
27.9089463730561
 21
-27.13905759872614
 31
0.0
210
0.0
220
0.0
230
1.0
 40
0.1349937386
 41
1.424052330421861
 42
1.546471718381312
  0
SPLINE
  5
D2
330
1F
100
AcDbEntity
  8
0
  6
SLD-Plná
 62
     7
370
    25
100
AcDbSpline
210
0.0
220
0.0
230
1.0
 70
     8
 71
     3
 72
    15
 73
    11
 74
     0
 42
0.00000001
 43
0.00000001
 40
0.0
 40
0.0
 40
0.0
 40
0.0
 40
0.0930856296849714
 40
0.1866324813790553
 40
0.2802282282225497
 40
0.3736496107131459
 40
0.466946239757617
 40
0.5601733206310978
 40
0.7799012209073772
 40
1.0
 40
1.0
 40
1.0
 40
1.0
 10
7369.752819698801
 20
6713.736742739042
 30
0.0
 10
7364.267223247881
 20
6651.485555428564
 30
0.0
 10
7353.268850234304
 20
6526.674737734525
 30
0.0
 10
7334.596603515866
 20
6339.471280686905
 30
0.0
 10
7313.701936316789
 20
6152.27295996823
 30
0.0
 10
7289.562398135292
 20
5965.634227618086
 30
0.0
 10
7263.216618438959
 20
5779.548603508275
 30
0.0
 10
7222.40093508939
 20
5509.886063044371
 30
0.0
 10
7166.64497880015
 20
5156.388114243158
 30
0.0
 10
7117.152794545154
 20
4865.290514957387
 30
0.0
 10
7092.38583555853
 20
4719.618982954086
 30
0.0
  0
SPLINE
  5
D3
330
1F
100
AcDbEntity
  8
0
  6
SLD-Plná
 62
     7
370
    25
100
AcDbSpline
210
0.0
220
0.0
230
1.0
 70
     8
 71
     3
 72
    15
 73
    11
 74
     0
 42
0.00000001
 43
0.00000001
 40
0.0
 40
0.0
 40
0.0
 40
0.0
 40
0.0930856296837054
 40
0.1866324813753874
 40
0.2802282282263604
 40
0.3736496107267047
 40
0.4669462397793606
 40
0.5601733206586251
 40
0.7799012209351358
 40
0.9999999999999999
 40
0.9999999999999999
 40
0.9999999999999999
 40
0.9999999999999999
 10
5737.5199106888
 20
6713.736742739042
 30
0.0
 10
5743.00550706209
 20
6651.485556259455
 30
0.0
 10
5754.003879919956
 20
6526.674740232061
 30
0.0
 10
5772.676126368161
 20
6339.471285677293
 30
0.0
 10
5793.570793178425
 20
6152.272967433859
 30
0.0
 10
5817.710330913403
 20
5965.634237540173
 30
0.0
 10
5844.056110138524
 20
5779.548615879692
 30
0.0
 10
5884.871792798107
 20
5509.88607898127
 30
0.0
 10
5940.627748281939
 20
5156.388134901059
 30
0.0
 10
5990.119931669957
 20
4865.290539482427
 30
0.0
 10
6014.886890221152
 20
4719.619009423583
 30
0.0
  0
SPLINE
  5
D4
330
1F
100
AcDbEntity
  8
0
  6
SLD-Plná
 62
     7
370
    25
100
AcDbSpline
210
0.0
220
0.0
230
1.0
 70
     8
 71
     3
 72
    12
 73
     8
 74
     0
 42
0.00000001
 43
0.00000001
 40
0.0
 40
0.0
 40
0.0
 40
0.0
 40
0.1619637112258331
 40
0.3741995604150268
 40
0.5839419036167179
 40
0.7922872184283217
 40
1.0
 40
1.0
 40
1.0
 40
1.0
 10
7361.620890325542
 20
6956.228131364794
 30
0.0
 10
7363.806340014845
 20
6943.273576230725
 30
0.0
 10
7368.855584113154
 20
6913.343483867131
 30
0.0
 10
7372.492395804489
 20
6866.072907796549
 30
0.0
 10
7373.918452758358
 20
6814.975666149638
 30
0.0
 10
7372.891978081122
 20
6764.220178595499
 30
0.0
 10
7370.798144741104
 20
6730.547490492155
 30
0.0
 10
7369.752819698801
 20
6713.736742739042
 30
0.0
  0
SPLINE
  5
D5
330
1F
100
AcDbEntity
  8
0
  6
SLD-Plná
 62
     7
370
    25
100
AcDbSpline
210
0.0
220
0.0
230
1.0
 70
     8
 71
     3
 72
    12
 73
     8
 74
     0
 42
0.00000001
 43
0.00000001
 40
0.0
 40
0.0
 40
0.0
 40
0.0
 40
0.1658148675833236
 40
0.377075396907684
 40
0.585853879034054
 40
0.7932417527486096
 40
1.0
 40
1.0
 40
1.0
 40
1.0
 10
5745.824206569282
 20
6957.337845795545
 30
0.0
 10
5743.573852175784
 20
6944.014376813802
 30
0.0
 10
5738.456378161069
 20
6913.715812953395
 30
0.0
 10
5734.77728627031
 20
6866.073313311655
 30
0.0
 10
5733.355080518171
 20
6814.975559341827
 30
0.0
 10
5734.38055285247
 20
6764.220205128733
 30
0.0
 10
5736.474519229244
 20
6730.547499327598
 30
0.0
 10
5737.5199106888
 20
6713.736742739042
 30
0.0
  0
LINE
  5
D6
330
1F
100
AcDbEntity
  8
0
  6
SLD-Plná
 62
     7
370
    25
100
AcDbLine
 10
7087.2313884185
 20
4702.4977466518
 30
0.0
 11
7092.3858361881
 21
4719.6189828444
 31
0.0
  0
LINE
  5
D7
330
1F
100
AcDbEntity
  8
0
  6
SLD-Plná
 62
     7
370
    25
100
AcDbLine
 10
7084.6132974888
 20
4701.538389014
 30
0.0
 11
7087.2309049138
 21
4702.497958269
 31
0.0
  0
SPLINE
  5
D8
330
1F
100
AcDbEntity
  8
0
  6
SLD-Plná
 62
     7
370
    25
100
AcDbSpline
210
0.0
220
0.0
230
1.0
 70
     8
 71
     3
 72
    11
 73
     7
 74
     0
 42
0.00000001
 43
0.00000001
 40
0.0
 40
0.0
 40
0.0
 40
0.0
 40
0.2801146989106205
 40
0.5421028203487213
 40
0.7802433455887533
 40
1.0
 40
1.0
 40
1.0
 40
1.0
 10
7058.7466770088
 20
4674.365185534003
 30
0.0
 10
7062.509737921971
 20
4677.448359128794
 30
0.0
 10
7069.792347303432
 20
4683.41519024426
 30
0.0
 10
7077.321150871876
 20
4692.482106533445
 30
0.0
 10
7082.381890211939
 20
4699.545809671713
 30
0.0
 10
7083.88967326705
 20
4700.892214183295
 30
0.0
 10
7084.613297203801
 20
4701.538388399028
 30
0.0
  0
SPLINE
  5
D9
330
1F
100
AcDbEntity
  8
0
  6
SLD-Plná
 62
     7
370
    25
100
AcDbSpline
210
0.0
220
0.0
230
1.0
 70
     8
 71
     3
 72
     9
 73
     5
 74
     0
 42
0.00000001
 43
0.00000001
 40
0.0
 40
0.0
 40
0.0
 40
0.0
 40
0.511308408591761
 40
1.0
 40
1.0
 40
1.0
 40
1.0
 10
7024.918900182802
 20
4659.841055128998
 30
0.0
 10
7031.214122651732
 20
4661.367562056331
 30
0.0
 10
7043.526109630918
 20
4664.353053594668
 30
0.0
 10
7053.750228555701
 20
4671.078507387193
 30
0.0
 10
7058.746669503804
 20
4674.365180104004
 30
0.0
  0
LINE
  5
DA
330
1F
100
AcDbEntity
  8
0
  6
SLD-Plná
 62
     7
370
    25
100
AcDbLine
 10
6020.0418441138
 20
4702.497938184
 30
0.0
 11
6022.6594536138
 21
4701.538367784
 31
0.0
  0
LINE
  5
DB
330
1F
100
AcDbEntity
  8
0
  6
SLD-Plná
 62
     7
370
    25
100
AcDbLine
 10
6014.8868902272
 20
4719.6190094247
 30
0.0
 11
6020.0413589153
 21
4702.4977258419
 31
0.0
  0
SPLINE
  5
DC
330
1F
100
AcDbEntity
  8
0
  6
SLD-Plná
 62
     7
370
    25
100
AcDbSpline
210
0.0
220
0.0
230
1.0
 70
     8
 71
     3
 72
     9
 73
     5
 74
     0
 42
0.00000001
 43
0.00000001
 40
0.0
 40
0.0
 40
0.0
 40
0.0
 40
0.488682131192306
 40
1.0
 40
1.0
 40
1.0
 40
1.0
 10
6048.526062378801
 20
4674.365177974001
 30
0.0
 10
6053.522411086255
 20
4671.078582671548
 30
0.0
 10
6063.74653918209
 20
4664.353157098001
 30
0.0
 10
6076.058497844956
 20
4661.367578423831
 30
0.0
 10
6082.353822309301
 20
4659.840998698998
 30
0.0
  0
SPLINE
  5
DD
330
1F
100
AcDbEntity
  8
0
  6
SLD-Plná
 62
     7
370
    25
100
AcDbSpline
210
0.0
220
0.0
230
1.0
 70
     8
 71
     3
 72
    11
 73
     7
 74
     0
 42
0.00000001
 43
0.00000001
 40
0.0
 40
0.0
 40
0.0
 40
0.0
 40
0.2203601062413369
 40
0.4586428510714942
 40
0.7202999563048581
 40
1.0
 40
1.0
 40
1.0
 40
1.0
 10
6022.659434223801
 20
4701.538348044029
 30
0.0
 10
6023.385633524894
 20
4700.889170971204
 30
0.0
 10
6024.897096391653
 20
4699.53801704135
 30
0.0
 10
6029.966853575052
 20
4692.461908176917
 30
0.0
 10
6037.495083590098
 20
4683.401563557775
 30
0.0
 10
6044.76826479754
 20
4677.443500159186
 30
0.0
 10
6048.526059638802
 20
4674.365180059002
 30
0.0
  0
ELLIPSE
  5
DE
330
1F
100
AcDbEntity
  8
0
  6
SLD-Plná
 62
     7
370
    25
100
AcDbEllipse
 10
7019.8243204722
 20
4689.5223627468
 30
0.0
 11
-5.118453167318877
 21
29.70058674701068
 31
0.0
210
0.0
220
0.0
230
1.0
 40
0.0171836993
 41
3.10247610996531
 42
3.205020781290628
  0
SPLINE
  5
DF
330
1F
100
AcDbEntity
  8
0
  6
SLD-Plná
 62
     7
370
    25
100
AcDbSpline
210
0.0
220
0.0
230
1.0
 70
     8
 71
     3
 72
    10
 73
     6
 74
     0
 42
0.00000001
 43
0.00000001
 40
0.0
 40
0.0
 40
0.0
 40
0.0
 40
0.4117175567407309
 40
0.8234194693671124
 40
1.0
 40
1.0
 40
1.0
 40
1.0
 10
6020.041844837223
 20
4702.497935495438
 30
0.0
 10
6021.356880136917
 20
4700.120611173099
 30
0.0
 10
6023.986900768641
 20
4695.366052860085
 30
0.0
 10
6028.74787360255
 20
4690.353465810661
 30
0.0
 10
6032.418970528029
 20
4688.987660370138
 30
0.0
 10
6033.520897417965
 20
4688.577696326179
 30
0.0
  0
SPLINE
  5
E0
330
1F
100
AcDbEntity
  8
0
  6
SLD-Plná
 62
     7
370
    25
100
AcDbSpline
210
0.0
220
0.0
230
1.0
 70
     8
 71
     3
 72
    10
 73
     6
 74
     0
 42
0.00000001
 43
0.00000001
 40
0.0
 40
0.0
 40
0.0
 40
0.0
 40
0.0070740855965108
 40
0.3943311236752846
 40
1.0
 40
1.0
 40
1.0
 40
1.0
 10
7072.815690828836
 20
4687.507958790718
 30
0.0
 10
7072.862912279587
 20
4687.523765722414
 30
0.0
 10
7075.495180080557
 20
4688.404892343298
 30
0.0
 10
7081.325236914779
 20
4692.887499475289
 30
0.0
 10
7084.99338956816
 20
4698.856786469812
 30
0.0
 10
7087.230903831346
 20
4702.497955759472
 30
0.0
  0
LWPOLYLINE
  5
E1
330
1F
100
AcDbEntity
  8
0
  6
SLD-Plná
 62
     7
370
    25
100
AcDbPolyline
 90
        9
 70
   128
 43
0.0
 10
7289.2703443427
 20
6101.8454979641
 10
7290.2016317943
 20
6096.3285541977
 10
7291.4365388032
 20
6092.4453944967
 10
7292.9430819266
 20
6090.2965906578
 10
7294.6822424889
 20
6089.9377955716
 10
7296.608977145
 20
6091.3783018424
 10
7298.6733844794
 20
6094.5808011144
 10
7300.8219974266
 20
6099.4623503387
 10
7301.7533613803
 20
6102.034215067
  0
LWPOLYLINE
  5
E2
330
1F
100
AcDbEntity
  8
0
  6
SLD-Plná
 62
     7
370
    25
100
AcDbPolyline
 90
        8
 70
   128
 43
0.0
 10
7314.3106069097
 20
6218.943304006
 10
7314.1529292857
 20
6219.9298188771
 10
7313.0663084789
 20
6224.6451610123
 10
7311.6911241137
 20
6227.6709544982
 10
7310.0629927425
 20
6228.9288328727
 10
7308.2240821128
 20
6228.3862177468
 10
7306.2220190439
 20
6226.0571625671
 10
7304.8136780011
 20
6223.5226549915
  0
LWPOLYLINE
  5
E3
330
1F
100
AcDbEntity
  8
0
  6
SLD-Plná
 62
     7
370
    25
100
AcDbPolyline
 90
        8
 70
   128
 43
0.0
 10
5805.7668843136
 20
6101.322090218
 10
5807.5313227099
 20
6096.818610165
 10
5809.6446858362
 20
6092.7634362373
 10
5811.6467489051
 20
6090.4343810576
 10
5813.4856595348
 20
6089.8917659317
 10
5815.113790906
 20
6091.1496443062
 10
5816.4889752713
 20
6094.1754377921
 10
5816.5846290785
 20
6094.4841559054
  0
LWPOLYLINE
  5
E4
330
1F
100
AcDbEntity
  8
0
  6
SLD-Plná
 62
     7
370
    25
100
AcDbPolyline
 90
        7
 70
   128
 43
0.0
 10
5801.8032683069
 20
6224.7869517113
 10
5800.0316439373
 20
6227.442296962
 10
5798.1049092812
 20
6228.8828032328
 10
5796.3657487189
 20
6228.5240081466
 10
5794.8592055956
 20
6226.3752043077
 10
5793.6242985867
 20
6222.4920446067
 10
5792.693011135
 20
6216.9751008403
  0
SPLINE
  5
E5
330
1F
100
AcDbEntity
  8
0
  6
SLD-Plná
 62
     7
370
    25
100
AcDbSpline
210
0.0
220
0.0
230
1.0
 70
     8
 71
     3
 72
    31
 73
    27
 74
     0
 42
0.00000001
 43
0.00000001
 40
0.0
 40
0.0
 40
0.0
 40
0.0
 40
0.0011039757840011
 40
0.0282905171352223
 40
0.0927958963106675
 40
0.1567328057099202
 40
0.220437830401825
 40
0.2840638867321116
 40
0.3477497542515669
 40
0.393203539572738
 40
0.4387961904661752
 40
0.484444587243046
 40
0.5302188918904742
 40
0.5760130115300192
 40
0.6219262842805455
 40
0.6678159472782246
 40
0.7080488684373716
 40
0.7484533946610215
 40
0.7890943218527043
 40
0.8301916583116898
 40
0.857835712274332
 40
0.8857116100530282
 40
0.9138476545681723
 40
0.9422613113734752
 40
0.9710049791586473
 40
1.0
 40
1.0
 40
1.0
 40
1.0
 10
5749.15179205076
 20
6915.148600773349
 30
0.0
 10
5749.191736176602
 20
6914.719514448869
 30
0.0
 10
5750.215345564537
 20
6903.72373520154
 30
0.0
 10
5755.578512426098
 20
6867.457402989387
 30
0.0
 10
5766.741888929997
 20
6806.486718088689
 30
0.0
 10
5784.540681784069
 20
6731.30694497342
 30
0.0
 10
5806.377574603584
 20
6657.280315344647
 30
0.0
 10
5833.111863763891
 20
6584.071592582504
 30
0.0
 10
5861.516642416425
 20
6518.441556507531
 30
0.0
 10
5889.706500000276
 20
6460.199775645585
 30
0.0
 10
5916.968073764811
 20
6409.536198004683
 30
0.0
 10
5947.091910129386
 20
6359.728293620123
 30
0.0
 10
5980.438228903178
 20
6311.077266919677
 30
0.0
 10
6017.381471874787
 20
6263.85277651386
 30
0.0
 10
6058.206186043487
 20
6218.438505558261
 30
0.0
 10
6101.170645541353
 20
6176.847170164907
 30
0.0
 10
6145.810577212745
 20
6139.105234645403
 30
0.0
 10
6191.788235991473
 20
6105.136224788042
 30
0.0
 10
6241.443200136669
 20
6073.613581086869
 30
0.0
 10
6289.106409807541
 20
6048.390856559579
 30
0.0
 10
6333.716148436615
 20
6029.037486315282
 30
0.0
 10
6374.068781647357
 20
6014.545975625476
 30
0.0
 10
6416.417901377378
 20
6002.442486712928
 30
0.0
 10
6460.688457228045
 20
5993.23082634387
 30
0.0
 10
6506.634757680207
 20
5987.06335462662
 30
0.0
 10
6537.923759359875
 20
5986.267804929445
 30
0.0
 10
6553.636365194679
 20
5985.868298452961
 30
0.0
  0
SPLINE
  5
E6
330
1F
100
AcDbEntity
  8
0
  6
SLD-Plná
 62
     7
370
    25
100
AcDbSpline
210
0.0
220
0.0
230
1.0
 70
     8
 71
     3
 72
    31
 73
    27
 74
     0
 42
0.00000001
 43
0.00000001
 40
0.0
 40
0.0
 40
0.0
 40
0.0
 40
0.0289953915820327
 40
0.0577388112586798
 40
0.0861625310917573
 40
0.1143038920558912
 40
0.1421815866195727
 40
0.1698280653402655
 40
0.2108967047053743
 40
0.2515405210744018
 40
0.2919539712560852
 40
0.3322039501501559
 40
0.3781009703821243
 40
0.4239985416554457
 40
0.4697999808408695
 40
0.5155498582979353
 40
0.561218252377783
 40
0.6066873952696629
 40
0.6521824904669398
 40
0.7158622868841359
 40
0.7794289491542012
 40
0.8431936309556624
 40
0.9070986752668695
 40
0.9716329574096867
 40
0.9988235044257827
 40
0.9999999999999999
 40
0.9999999999999999
 40
0.9999999999999999
 40
0.9999999999999999
 10
6553.636365193796
 20
5985.868298467962
 30
0.0
 10
6569.349448063252
 20
5986.267847937293
 30
0.0
 10
6600.639066053906
 20
5987.063474764162
 30
0.0
 10
6646.59172955735
 20
5993.231503212653
 30
0.0
 10
6690.870734722991
 20
6002.44558011957
 30
0.0
 10
6733.228099542556
 20
6014.553825220645
 30
0.0
 10
6773.585091878697
 20
6029.048602706448
 30
0.0
 10
6818.182709579983
 20
6048.399456002741
 30
0.0
 10
6865.83591450578
 20
6073.617891541433
 30
0.0
 10
6915.485131007446
 20
6105.136499367835
 30
0.0
 10
6961.474327393637
 20
6139.114371893261
 30
0.0
 10
7006.125536775607
 20
6176.867704403454
 30
0.0
 10
7049.091112778556
 20
6218.463175729367
 30
0.0
 10
7089.913866472683
 20
6263.881279862068
 30
0.0
 10
7126.847164771224
 20
6311.094588174845
 30
0.0
 10
7160.193671738344
 20
6359.748500585115
 30
0.0
 10
7190.288850860965
 20
6409.511023397708
 30
0.0
 10
7217.541019452969
 20
6460.151524682351
 30
0.0
 10
7245.719233152697
 20
6518.360102163882
 30
0.0
 10
7274.124042729031
 20
6583.981720551076
 30
0.0
 10
7300.865075032617
 20
6657.188511355658
 30
0.0
 10
7322.705239543663
 20
6731.203172441615
 30
0.0
 10
7340.513112102032
 20
6806.405694096139
 30
0.0
 10
7351.682365570938
 20
6867.378419459803
 30
0.0
 10
7357.05228910631
 20
6903.686213271895
 30
0.0
 10
7358.079138398528
 20
6914.712081248716
 30
0.0
 10
7358.121725976834
 20
6915.1693684275
 30
0.0
  0
LINE
  5
E7
330
1F
100
AcDbEntity
  8
0
  6
SLD-Plná
 62
     7
370
    25
100
AcDbLine
 10
5934.8725247467
 20
6612.108819897
 30
0.0
 11
5931.6256836437
 21
6623.096326087
 31
0.0
  0
SPLINE
  5
E8
330
1F
100
AcDbEntity
  8
0
  6
SLD-Plná
 62
     7
370
    25
100
AcDbSpline
210
0.0
220
0.0
230
1.0
 70
     8
 71
     3
 72
    16
 73
    12
 74
     0
 42
0.00000001
 43
0.00000001
 40
0.0
 40
0.0
 40
0.0
 40
0.0
 40
0.1049833894250065
 40
0.219082521931606
 40
0.3324476279492934
 40
0.4458292154027693
 40
0.5583002847528327
 40
0.6697624947770915
 40
0.7808759070961402
 40
0.8911807114052739
 40
1.0
 40
1.0
 40
1.0
 40
1.0
 10
5930.68136767598
 20
6626.291948296997
 30
0.0
 10
5927.351920175367
 20
6637.210686557883
 30
0.0
 10
5920.403928125688
 20
6659.9962408023
 30
0.0
 10
5911.672921243834
 20
6695.344773351437
 30
0.0
 10
5904.48854461177
 20
6732.116095514074
 30
0.0
 10
5900.110326872187
 20
6769.235718588927
 30
0.0
 10
5899.200217690881
 20
6806.446809697043
 30
0.0
 10
5902.535779365214
 20
6843.365627354507
 30
0.0
 10
5910.654980040234
 20
6879.21259939272
 30
0.0
 10
5922.753821997636
 20
6914.011359529876
 30
0.0
 10
5934.909152128262
 20
6935.944306604675
 30
0.0
 10
5940.945614663802
 20
6946.836434740088
 30
0.0
  0
SPLINE
  5
E9
330
1F
100
AcDbEntity
  8
0
  6
SLD-Plná
 62
     7
370
    25
100
AcDbSpline
210
0.0
220
0.0
230
1.0
 70
     8
 71
     3
 72
    16
 73
    12
 74
     0
 42
0.00000001
 43
0.00000001
 40
0.0
 40
0.0
 40
0.0
 40
0.0
 40
0.1086482788260347
 40
0.2181483725162325
 40
0.3284499394467977
 40
0.4391698522895955
 40
0.5508199935651769
 40
0.6633734783511267
 40
0.7758311680938985
 40
0.889112722550936
 40
1.0
 40
1.0
 40
1.0
 40
1.0
 10
7166.327119203801
 20
6946.836445374586
 30
0.0
 10
7172.394797156725
 20
6935.882174740852
 30
0.0
 10
7184.577724347888
 20
6913.887750745623
 30
0.0
 10
7196.672553271468
 20
6879.022950440732
 30
0.0
 10
7204.767162879401
 20
6843.167192680689
 30
0.0
 10
7208.078608787237
 20
6806.245625760856
 30
0.0
 10
7207.147223736669
 20
6769.032899614846
 30
0.0
 10
7202.753346352421
 20
6731.930802557034
 30
0.0
 10
7195.563686973874
 20
6695.17339905392
 30
0.0
 10
7186.639982627447
 20
6659.131369751338
 30
0.0
 10
7179.470051171947
 20
6635.652449615587
 30
0.0
 10
7175.923375339108
 20
6624.03837503992
 30
0.0
  0
SPLINE
  5
EA
330
1F
100
AcDbEntity
  8
0
  6
SLD-Plná
 62
     7
370
    25
100
AcDbSpline
210
0.0
220
0.0
230
1.0
 70
     8
 71
     3
 72
    10
 73
     6
 74
     0
 42
0.00000001
 43
0.00000001
 40
0.0
 40
0.0
 40
0.0
 40
0.0
 40
0.4110071122287225
 40
0.8246016911819068
 40
0.9999999999999999
 40
0.9999999999999999
 40
0.9999999999999999
 40
0.9999999999999999
 10
6006.757756071748
 20
6565.641714011629
 30
0.0
 10
6003.396666900351
 20
6552.056129298479
 30
0.0
 10
5996.653329054164
 20
6524.79943276734
 30
0.0
 10
5992.585340016126
 20
6491.358641364297
 30
0.0
 10
5993.250436420795
 20
6471.852032674953
 30
0.0
 10
5993.44849786942
 20
6466.043089568977
 30
0.0
  0
SPLINE
  5
EB
330
1F
100
AcDbEntity
  8
0
  6
SLD-Plná
 62
     7
370
    25
100
AcDbSpline
210
0.0
220
0.0
230
1.0
 70
     8
 71
     3
 72
    10
 73
     6
 74
     0
 42
0.00000001
 43
0.00000001
 40
0.0
 40
0.0
 40
0.0
 40
0.0
 40
0.4251324732986342
 40
0.8400886092979476
 40
1.0
 40
1.0
 40
1.0
 40
1.0
 10
7100.516332832032
 20
6565.641452263037
 30
0.0
 10
7103.976163306083
 20
6551.576232504764
 30
0.0
 10
7110.813006769961
 20
6523.78247021106
 30
0.0
 10
7114.757961487164
 20
6490.310264836573
 30
0.0
 10
7114.051847131602
 20
6471.262630949526
 30
0.0
 10
7113.855426698466
 20
6465.964134369039
 30
0.0
  0
SPLINE
  5
EC
330
1F
100
AcDbEntity
  8
0
  6
SLD-Plná
 62
     7
370
    25
100
AcDbSpline
210
0.0
220
0.0
230
1.0
 70
     8
 71
     3
 72
    12
 73
     8
 74
     0
 42
0.00000001
 43
0.00000001
 40
0.0
 40
0.0
 40
0.0
 40
0.0
 40
0.0206851549233911
 40
0.2165966327170775
 40
0.4776998284541344
 40
0.7385844260141484
 40
1.0
 40
1.0
 40
1.0
 40
1.0
 10
7078.187251317822
 20
4741.894451160972
 30
0.0
 10
7078.251713949157
 20
4741.946472818066
 30
0.0
 10
7078.926709564857
 20
4742.491197563753
 30
0.0
 10
7076.548288745758
 20
4743.665524227764
 30
0.0
 10
7070.140585244822
 20
4745.35358960413
 30
0.0
 10
7057.907055636528
 20
4747.133156868632
 30
0.0
 10
7045.950447910847
 20
4748.205119202115
 30
0.0
 10
7039.966066434802
 20
4748.741645253539
 30
0.0
  0
SPLINE
  5
ED
330
1F
100
AcDbEntity
  8
0
  6
SLD-Plná
 62
     7
370
    25
100
AcDbSpline
210
0.0
220
0.0
230
1.0
 70
     8
 71
     3
 72
    12
 73
     8
 74
     0
 42
0.00000001
 43
0.00000001
 40
0.0
 40
0.0
 40
0.0
 40
0.0
 40
0.2614436175167056
 40
0.5222180581560346
 40
0.783429749074861
 40
0.979322469251506
 40
1.0
 40
1.0
 40
1.0
 40
1.0
 10
6067.306654675802
 20
4748.741644473538
 30
0.0
 10
6061.321686417984
 20
4748.205101361892
 30
0.0
 10
6049.367068701903
 20
4747.133388445196
 30
0.0
 10
6037.132560866959
 20
4745.353497341255
 30
0.0
 10
6030.72469436921
 20
4743.665691033254
 30
0.0
 10
6028.34600243832
 20
4742.491100965713
 30
0.0
 10
6029.021050571386
 20
4741.946445480799
 30
0.0
 10
6029.085502306874
 20
4741.894443276026
 30
0.0
  0
LINE
  5
EE
330
1F
100
AcDbEntity
  8
0
  6
SLD-Plná
 62
     7
370
    25
100
AcDbLine
 10
6997.2959336305
 20
4672.5953274501
 30
0.0
 11
7009.0186291317
 21
4675.1615477566
 31
0.0
  0
LINE
  5
EF
330
1F
100
AcDbEntity
  8
0
  6
SLD-Plná
 62
     7
370
    25
100
AcDbLine
 10
6109.9768234876
 20
4672.595310833
 30
0.0
 11
6098.2461125521
 21
4675.1632866635
 31
0.0
  0
SPLINE
  5
F0
330
1F
100
AcDbEntity
  8
0
  6
SLD-Plná
 62
     7
370
    25
100
AcDbSpline
210
0.0
220
0.0
230
1.0
 70
     8
 71
     3
 72
    21
 73
    17
 74
     0
 42
0.00000001
 43
0.00000001
 40
0.0
 40
0.0
 40
0.0
 40
0.0
 40
0.0199033572510041
 40
0.1065175923058073
 40
0.1934715565165588
 40
0.2816090052664637
 40
0.3701049551228211
 40
0.4593926954263993
 40
0.5267233148765602
 40
0.5942621941038805
 40
0.6618906000592261
 40
0.7294405236510882
 40
0.7975036766651327
 40
0.8656685752202766
 40
0.9331800100815291
 40
1.0
 40
1.0
 40
1.0
 40
1.0
 10
6597.684350352184
 20
6834.364861099648
 30
0.0
 10
6602.046630969644
 20
6834.325697669688
 30
0.0
 10
6625.392422459719
 20
6834.116105176664
 30
0.0
 10
6667.729039882283
 20
6832.082521910278
 30
0.0
 10
6724.634019186187
 20
6827.096461248454
 30
0.0
 10
6780.964076397462
 20
6818.356900814089
 30
0.0
 10
6836.092778072951
 20
6805.666202488967
 30
0.0
 10
6884.702430693595
 20
6790.298534696331
 30
0.0
 10
6926.781159753715
 20
6773.248420102334
 30
0.0
 10
6962.101593140833
 20
6755.053434973297
 30
0.0
 10
6993.854897952759
 20
6733.87907205671
 30
0.0
 10
7021.102607237
 20
6709.740112793115
 30
0.0
 10
7043.697416653798
 20
6683.238524575815
 30
0.0
 10
7062.410460342779
 20
6655.254027605157
 30
0.0
 10
7077.969149381314
 20
6626.456834545008
 30
0.0
 10
7086.021931761205
 20
6606.804139930073
 30
0.0
 10
7090.027597883804
 20
6597.028371838622
 30
0.0
  0
SPLINE
  5
F1
330
1F
100
AcDbEntity
  8
0
  6
SLD-Plná
 62
     7
370
    25
100
AcDbSpline
210
0.0
220
0.0
230
1.0
 70
     8
 71
     3
 72
    22
 73
    18
 74
     0
 42
0.00000001
 43
0.00000001
 40
0.0
 40
0.0
 40
0.0
 40
0.0
 40
0.0272051885967694
 40
0.1170688908504029
 40
0.2082950153565714
 40
0.2765714372202694
 40
0.3450075040487098
 40
0.4137654839079502
 40
0.4826022935920783
 40
0.5509147646851813
 40
0.6193153212264901
 40
0.6862277576908584
 40
0.7519425925152924
 40
0.8167665436465568
 40
0.8800322738111028
 40
0.9404354680944313
 40
1.0
 40
1.0
 40
1.0
 40
1.0
 10
6511.447806572088
 20
6834.353820567459
 30
0.0
 10
6505.467869855145
 20
6834.300163284977
 30
0.0
 10
6479.735110961827
 20
6834.069266207247
 30
0.0
 10
6434.03289648489
 20
6831.769059761848
 30
0.0
 10
6379.715971626792
 20
6826.642137916394
 30
0.0
 10
6330.943543329892
 20
6818.949166740311
 30
0.0
 10
6287.956929419236
 20
6809.711491268635
 30
0.0
 10
6246.188225005238
 20
6798.029613385691
 30
0.0
 10
6206.061264083928
 20
6784.006463832036
 30
0.0
 10
6168.159482753833
 20
6767.42647501545
 30
0.0
 10
6133.696680827709
 20
6748.046746887323
 30
0.0
 10
6103.599027423607
 20
6725.958592312377
 30
0.0
 10
6078.672661181925
 20
6701.591252503775
 30
0.0
 10
6058.273059308322
 20
6675.846105288853
 30
0.0
 10
6041.671828473952
 20
6649.624446495027
 30
0.0
 10
6027.969476435451
 20
6623.381025227556
 30
0.0
 10
6020.80321467279
 20
6605.771555265615
 30
0.0
 10
6017.245132503804
 20
6597.028371838622
 30
0.0
  0
LINE
  5
F2
330
1F
100
AcDbEntity
  8
0
  6
SLD-Plná
 62
     7
370
    25
100
AcDbLine
 10
6207.6914713809
 20
6844.7451502627
 30
0.0
 11
6207.4081170725
 21
6844.9223119108
 31
0.0
  0
LINE
  5
F3
330
1F
100
AcDbEntity
  8
0
  6
SLD-Plná
 62
     7
370
    25
100
AcDbLine
 10
6899.5812589012
 20
6844.7451498886
 30
0.0
 11
6900.0295759589
 21
6845.0254515517
 31
0.0
  0
LINE
  5
F4
330
1F
100
AcDbEntity
  8
0
  6
SLD-Plná
 62
     7
370
    25
100
AcDbLine
 10
6553.6363651938
 20
6920.8627428898
 30
0.0
 11
6553.6363652943
 21
6920.4385909406
 31
0.0
  0
LINE
  5
F5
330
1F
100
AcDbEntity
  8
0
  6
SLD-Plná
 62
     7
370
    25
100
AcDbLine
 10
6553.6363651938
 20
4655.1582879388
 30
0.0
 11
6553.6363648483
 21
4655.0350444245
 31
0.0
  0
SPLINE
  5
F6
330
1F
100
AcDbEntity
  8
0
  6
SLD-Plná
 62
     7
370
    25
100
AcDbSpline
210
0.0
220
0.0
230
1.0
 70
     8
 71
     3
 72
     9
 73
     5
 74
     0
 42
0.00000001
 43
0.00000001
 40
0.0
 40
0.0
 40
0.0
 40
0.0
 40
0.517509595949931
 40
1.0
 40
1.0
 40
1.0
 40
1.0
 10
7092.385836181534
 20
4719.618982845634
 30
0.0
 10
7089.068214818194
 20
4720.316570061031
 30
0.0
 10
7082.657471154108
 20
4721.66453968489
 30
0.0
 10
7076.363808119927
 20
4723.834325917132
 30
0.0
 10
7073.327176099609
 20
4724.881226953027
 30
0.0
  0
SPLINE
  5
F7
330
1F
100
AcDbEntity
  8
0
  6
SLD-Plná
 62
     7
370
    25
100
AcDbSpline
210
0.0
220
0.0
230
1.0
 70
     8
 71
     3
 72
     9
 73
     5
 74
     0
 42
0.00000001
 43
0.00000001
 40
0.0
 40
0.0
 40
0.0
 40
0.0
 40
0.1855952195510005
 40
1.0
 40
1.0
 40
1.0
 40
1.0
 10
6033.916806464821
 20
4725.073729058957
 30
0.0
 10
6032.7596557158
 20
4724.581951524875
 30
0.0
 10
6026.524846695292
 20
4721.932219838509
 30
0.0
 10
6020.110645966106
 20
4720.657305641648
 30
0.0
 10
6014.886890229498
 20
4719.619009425063
 30
0.0
  0
SPLINE
  5
F8
330
1F
100
AcDbEntity
  8
0
  6
SLD-Plná
 62
     7
370
    25
100
AcDbSpline
210
0.0
220
0.0
230
1.0
 70
     8
 71
     3
 72
    10
 73
     6
 74
     0
 42
0.00000001
 43
0.00000001
 40
0.0
 40
0.0
 40
0.0
 40
0.0
 40
0.4265426466643765
 40
0.8530742780653572
 40
1.0
 40
1.0
 40
1.0
 40
1.0
 10
6115.403908792301
 20
4669.12554019879
 30
0.0
 10
6111.424569365598
 20
4669.792564635754
 30
0.0
 10
6103.465993276769
 20
4671.126596284098
 30
0.0
 10
6094.418871371357
 20
4674.28086932221
 30
0.0
 10
6089.743249098347
 20
4677.059973295964
 30
0.0
 10
6088.545306175548
 20
4677.772008559441
 30
0.0
  0
SPLINE
  5
F9
330
1F
100
AcDbEntity
  8
0
  6
SLD-Plná
 62
     7
370
    25
100
AcDbSpline
210
0.0
220
0.0
230
1.0
 70
     8
 71
     3
 72
    10
 73
     6
 74
     0
 42
0.00000001
 43
0.00000001
 40
0.0
 40
0.0
 40
0.0
 40
0.0
 40
0.435213834127794
 40
0.8704163714756402
 40
1.0
 40
1.0
 40
1.0
 40
1.0
 10
6991.868779907287
 20
4669.125554687924
 30
0.0
 10
6995.847186153918
 20
4669.794357925027
 30
0.0
 10
7003.803895380287
 20
4671.131947039205
 30
0.0
 10
7012.681594305776
 20
4674.202900921717
 30
0.0
 10
7017.199053777398
 20
4676.8773562493
 30
0.0
 10
7018.235532404919
 20
4677.490978973466
 30
0.0
  0
LINE
  5
FA
330
1F
100
AcDbEntity
  8
0
  6
SLD-Plná
 62
     7
370
    25
100
AcDbLine
 10
7058.7466695038
 20
4674.365180104
 30
0.0
 11
7056.7242006841
 21
4673.7274344208
 31
0.0
  0
LINE
  5
FB
330
1F
100
AcDbEntity
  8
0
  6
SLD-Plná
 62
     7
370
    25
100
AcDbLine
 10
6082.3538548903
 20
4659.841048714
 30
0.0
 11
6082.3725554536
 21
4660.2595124019
 31
0.0
  0
LINE
  5
FC
330
1F
100
AcDbEntity
  8
0
  6
SLD-Plná
 62
     7
370
    25
100
AcDbLine
 10
6048.5260623788
 20
4674.365177974
 30
0.0
 11
6050.5485287368
 21
4673.7274334512
 31
0.0
  0
LINE
  5
FD
330
1F
100
AcDbEntity
  8
0
  6
SLD-Plná
 62
     7
370
    25
100
AcDbLine
 10
6553.6362918302
 20
4612.279144359
 30
0.0
 11
6553.6363016715
 21
4612.7540980139
 31
0.0
  0
SPLINE
  5
FE
330
1F
100
AcDbEntity
  8
0
  6
SLD-Plná
 62
     7
370
    25
100
AcDbSpline
210
0.0
220
0.0
230
1.0
 70
     8
 71
     3
 72
    10
 73
     6
 74
     0
 42
0.00000001
 43
0.00000001
 40
0.0
 40
0.0
 40
0.0
 40
0.0
 40
0.4949659602864804
 40
0.9896789328089651
 40
1.0
 40
1.0
 40
1.0
 40
1.0
 10
7084.613297203801
 20
4701.538388399028
 30
0.0
 10
7083.295272868652
 20
4699.267227429336
 30
0.0
 10
7080.659897868984
 20
4694.726066329255
 30
0.0
 10
7076.95855999604
 20
4690.410957910625
 30
0.0
 10
7074.47343423476
 20
4689.366503586864
 30
0.0
 10
7074.42264726211
 20
4689.345158722148
 30
0.0
  0
SPLINE
  5
FF
330
1F
100
AcDbEntity
  8
0
  6
SLD-Plná
 62
     7
370
    25
100
AcDbSpline
210
0.0
220
0.0
230
1.0
 70
     8
 71
     3
 72
    10
 73
     6
 74
     0
 42
0.00000001
 43
0.00000001
 40
0.0
 40
0.0
 40
0.0
 40
0.0
 40
0.4950073105032137
 40
0.9897617673445792
 40
1.0
 40
1.0
 40
1.0
 40
1.0
 10
6022.659454563801
 20
4701.538303089027
 30
0.0
 10
6023.977492318595
 20
4699.267170551948
 30
0.0
 10
6026.612894564045
 20
4694.726065590313
 30
0.0
 10
6030.313827433014
 20
4690.411169960887
 30
0.0
 10
6032.798501722044
 20
4689.366831351086
 30
0.0
 10
6032.848876062049
 20
4689.34565840763
 30
0.0
  0
SPLINE
  5
100
330
1F
100
AcDbEntity
  8
0
  6
SLD-Plná
 62
     7
370
    25
100
AcDbSpline
210
0.0
220
0.0
230
1.0
 70
     8
 71
     3
 72
    20
 73
    16
 74
     0
 42
0.00000001
 43
0.00000001
 40
0.0
 40
0.0
 40
0.0
 40
0.0
 40
0.2039575977124641
 40
0.3739981582371903
 40
0.5100975810918579
 40
0.6129741348417135
 40
0.6529121387766722
 40
0.6862132120565626
 40
0.7144530624380424
 40
0.7412087957446379
 40
0.7919017392088905
 40
0.8761970734131439
 40
0.9310616703198176
 40
0.9943398735430634
 40
0.9999999999999999
 40
0.9999999999999999
 40
0.9999999999999999
 40
0.9999999999999999
 10
8383.314565673069
 20
7374.187088786433
 30
0.0
 10
8381.274872566142
 20
7375.306399257744
 30
0.0
 10
8377.534676202209
 20
7377.358884967814
 30
0.0
 10
8370.884100670426
 20
7379.43018805484
 30
0.0
 10
8364.16935308912
 20
7380.396833555907
 30
0.0
 10
8358.116356959772
 20
7380.350355651676
 30
0.0
 10
8353.051347833163
 20
7379.675362969407
 30
0.0
 10
8349.558133087598
 20
7378.962921945497
 30
0.0
 10
8345.952731378982
 20
7377.967813823579
 30
0.0
 10
8341.237817862097
 20
7376.320520993981
 30
0.0
 10
8334.462184425181
 20
7373.03897988962
 30
0.0
 10
8327.265677227499
 20
7367.637166041622
 30
0.0
 10
8321.186595908657
 20
7360.436350845546
 30
0.0
 10
8317.823782672196
 20
7355.606320016481
 30
0.0
 10
8316.76377911137
 20
7352.570292213064
 30
0.0
 10
8316.676748366253
 20
7352.321021576921
 30
0.0
  0
SPLINE
  5
101
330
1F
100
AcDbEntity
  8
0
  6
SLD-Plná
 62
     7
370
    25
100
AcDbSpline
210
0.0
220
0.0
230
1.0
 70
     8
 71
     3
 72
    20
 73
    16
 74
     0
 42
0.00000001
 43
0.00000001
 40
0.0
 40
0.0
 40
0.0
 40
0.0
 40
0.0313674781644913
 40
0.0741458952269906
 40
0.1284410865284223
 40
0.1946151704469067
 40
0.2722569093523177
 40
0.3615122908307443
 40
0.4457317317419542
 40
0.5387923768981903
 40
0.6401369374535625
 40
0.7502259781529456
 40
0.8428018219790198
 40
0.9405248695679911
 40
1.0
 40
1.0
 40
1.0
 40
1.0
 10
9047.465548056285
 20
6638.90169101692
 30
0.0
 10
9044.021488276327
 20
6642.708719880025
 30
0.0
 10
9035.88048011937
 20
6651.707707995346
 30
0.0
 10
9021.294291438804
 20
6667.726099927155
 30
0.0
 10
9002.618673349782
 20
6688.270167495974
 30
0.0
 10
8979.745956668528
 20
6713.471704724624
 30
0.0
 10
8952.686759008653
 20
6743.361101437065
 30
0.0
 10
8923.393340157574
 20
6775.808088407075
 30
0.0
 10
8892.204693795957
 20
6810.451137469213
 30
0.0
 10
8859.534809609228
 20
6846.840397135546
 30
0.0
 10
8823.77774217384
 20
6886.786485682216
 30
0.0
 10
8787.988301668154
 20
6926.836030417022
 30
0.0
 10
8752.52369399781
 20
6966.518611370697
 30
0.0
 10
8722.95380137594
 20
6999.58701930257
 30
0.0
 10
8704.312912729814
 20
7020.356533496052
 30
0.0
 10
8697.260227402581
 20
7028.214573463293
 30
0.0
  0
SPLINE
  5
102
330
1F
100
AcDbEntity
  8
0
  6
SLD-Plná
 62
     7
370
    25
100
AcDbSpline
210
0.0
220
0.0
230
1.0
 70
     8
 71
     3
 72
     9
 73
     5
 74
     0
 42
0.00000001
 43
0.00000001
 40
0.0
 40
0.0
 40
0.0
 40
0.0
 40
0.5000000754338633
 40
1.0
 40
1.0
 40
1.0
 40
1.0
 10
8928.088138392188
 20
4688.715197418246
 30
0.0
 10
8944.246531381104
 20
4690.374379965026
 30
0.0
 10
8976.56331248338
 20
4693.692744557955
 30
0.0
 10
9008.890583472745
 20
4696.907310588367
 30
0.0
 10
9025.054216528859
 20
4698.514593361086
 30
0.0
  0
LINE
  5
103
330
1F
100
AcDbEntity
  8
0
  6
SLD-Plná
 62
     7
370
    25
100
AcDbLine
 10
9047.6327251436
 20
6638.7160224983
 30
0.0
 11
9040.8145697138
 21
6646.2748479942
 31
0.0
  0
LWPOLYLINE
  5
104
330
1F
100
AcDbEntity
  8
0
  6
SLD-Plná
 62
     7
370
    25
100
AcDbPolyline
 90
       40
 70
   128
 43
0.0
 10
8265.2934114114
 20
6216.9751008403
 10
8256.4937916462
 20
6209.9672589541
 10
8248.9001598967
 20
6201.6500183718
 10
8242.7091872362
 20
6192.2387912556
 10
8238.0812166048
 20
6181.9773234445
 10
8235.1361100109
 20
6171.1313815646
 10
8233.9501441682
 20
6159.9818698135
 10
8234.5540349691
 20
6148.817554689
 10
8236.9321419591
 20
6137.9275860884
 10
8241.0228734163
 20
6127.5940084784
 10
8246.7202815447
 20
6118.0844560909
 10
8253.8768064665
 20
6109.6452213377
 10
8262.3070979454
 20
6102.494875966
 10
8271.7928158602
 20
6096.818610165
 10
8282.0882850997
 20
6092.7634362373
 10
8292.9268584185
 20
6090.4343810576
 10
8304.0278224609
 20
6089.8917659317
 10
8315.1036680891
 20
6091.1496443062
 10
8325.8675367195
 20
6094.1754377921
 10
8336.0406498083
 20
6098.8907799274
 10
8345.3595290703
 20
6105.1735458276
 10
8353.5828204277
 20
6112.8610151561
 10
8360.4975449537
 20
6121.7540864954
 10
8365.9246149152
 20
6131.6224339691
 10
8369.723472051
 20
6142.2104725613
 10
8371.7957279567
 20
6153.2439776339
 10
8372.0877122928
 20
6164.4371872013
 10
8370.5918628184
 20
6175.5002030153
 10
8367.3469212492
 20
6186.1464987772
 10
8362.4369298673
 20
6196.1003410193
 10
8355.9890548704
 20
6205.1039304559
 10
8348.170292834
 20
6212.9240788499
 10
8339.1831455879
 20
6219.3582484657
 10
8329.2603755249
 20
6224.23979769
 10
8318.6589771776
 20
6227.442296962
 10
8307.6535211944
 20
6228.8828032328
 10
8296.5290431045
 20
6228.5240081466
 10
8285.5736610469
 20
6226.3752043077
 10
8275.0711136624
 20
6222.4920446067
 10
8265.2934114114
 20
6216.9751008403
  0
SPLINE
  5
105
330
1F
100
AcDbEntity
  8
0
  6
SLD-Plná
 62
     7
370
    25
100
AcDbSpline
210
0.0
220
0.0
230
1.0
 70
     8
 71
     3
 72
    17
 73
    13
 74
     0
 42
0.00000001
 43
0.00000001
 40
0.0
 40
0.0
 40
0.0
 40
0.0
 40
0.087667938009236
 40
0.173817617764211
 40
0.2589609389391274
 40
0.3432159936676055
 40
0.4267844334343213
 40
0.5098924749733776
 40
0.6336594202676258
 40
0.7563933850017197
 40
0.8784640791011845
 40
1.0
 40
1.0
 40
1.0
 40
1.0
 10
8405.756918219897
 20
7231.380092243503
 30
0.0
 10
8411.484777655949
 20
7220.462412739065
 30
0.0
 10
8422.84129983123
 20
7198.816129205231
 30
0.0
 10
8440.843038038229
 20
7161.33262719039
 30
0.0
 10
8458.56553822964
 20
7121.256535048511
 30
0.0
 10
8475.467717677813
 20
7078.864525145895
 30
0.0
 10
8491.390551720522
 20
7035.155673543726
 30
0.0
 10
8508.661035447467
 20
6983.225955802576
 30
0.0
 10
8526.24769767326
 20
6922.909916209173
 30
0.0
 10
8542.903023259272
 20
6854.39089003623
 30
0.0
 10
8555.372973231804
 20
6785.328552177578
 30
0.0
 10
8559.637966144815
 20
6739.00095022414
 30
0.0
 10
8561.765781275424
 20
6715.887999180156
 30
0.0
  0
SPLINE
  5
106
330
1F
100
AcDbEntity
  8
0
  6
SLD-Plná
 62
     7
370
    25
100
AcDbSpline
210
0.0
220
0.0
230
1.0
 70
     8
 71
     3
 72
    42
 73
    38
 74
     0
 42
0.00000001
 43
0.00000001
 40
0.0
 40
0.0
 40
0.0
 40
0.0
 40
0.0229402495747243
 40
0.045743055415817
 40
0.0684019058952412
 40
0.0853413682755282
 40
0.1022463020772685
 40
0.1190470897749681
 40
0.1355862856162231
 40
0.157272652619055
 40
0.1786362788610055
 40
0.1997670068487598
 40
0.2207107512166081
 40
0.2415002380745903
 40
0.2621440134451663
 40
0.3111254024599889
 40
0.3596751307419117
 40
0.4080487801416949
 40
0.4563624658595384
 40
0.5047215684892977
 40
0.5392363573250792
 40
0.5738565920740991
 40
0.608519156793694
 40
0.6432773281505436
 40
0.6780505457849223
 40
0.7129142409105724
 40
0.7477600082524698
 40
0.7783103962618007
 40
0.8089910905266527
 40
0.8398512930422386
 40
0.8710580644821141
 40
0.892049246588154
 40
0.9132164765260179
 40
0.9345812457801648
 40
0.9561568166101396
 40
0.9779829773349537
 40
1.0
 40
1.0
 40
1.0
 40
1.0
 10
8405.756944694918
 20
7231.380125581562
 30
0.0
 10
8412.335188069595
 20
7224.53405069677
 30
0.0
 10
8425.452262068571
 20
7210.882918357694
 30
0.0
 10
8448.938114635035
 20
7187.150297468069
 30
0.0
 10
8473.214416323355
 20
7163.381949622081
 30
0.0
 10
8497.648359400057
 20
7140.258835448216
 30
0.0
 10
8521.295627023548
 20
7118.541695485505
 30
0.0
 10
8546.265690664954
 20
7096.166540960548
 30
0.0
 10
8574.259528717146
 20
7070.478615021626
 30
0.0
 10
8604.850138104677
 20
7041.674920786697
 30
0.0
 10
8637.6226992166
 20
7009.859835317886
 30
0.0
 10
8669.666411954515
 20
6977.892635974589
 30
0.0
 10
8701.06285069138
 20
6945.899267119746
 30
0.0
 10
8731.88798073721
 20
6913.955561786391
 30
0.0
 10
8776.16058458036
 20
6867.482893462823
 30
0.0
 10
8833.215397618416
 20
6806.477762196261
 30
0.0
 10
8902.995653714439
 20
6731.309326289726
 30
0.0
 10
8972.127100457063
 20
6657.279678643715
 30
0.0
 10
9040.218965422358
 20
6584.071765170943
 30
0.0
 10
9100.599409459492
 20
6518.441524726859
 30
0.0
 10
9153.86536417109
 20
6460.199782951554
 30
0.0
 10
9200.480707761277
 20
6409.536196042046
 30
0.0
 10
9246.539097454504
 20
6359.72829414789
 30
0.0
 10
9291.794769398508
 20
6311.077266778037
 30
0.0
 10
9336.007703248712
 20
6263.852776551943
 30
0.0
 10
9378.79889055866
 20
6218.438505548006
 30
0.0
 10
9418.107645029195
 20
6176.847170167276
 30
0.0
 10
9453.943963626014
 20
6139.105234644808
 30
0.0
 10
9486.39486865138
 20
6105.136224788203
 30
0.0
 10
9516.806137838792
 20
6073.613581086825
 30
0.0
 10
9541.553208954909
 20
6048.390856559591
 30
0.0
 10
9560.998895523731
 20
6029.037486315284
 30
0.0
 10
9575.779697125654
 20
6014.545975625476
 30
0.0
 10
9588.305303212674
 20
6002.442486712933
 30
0.0
 10
9597.990868202533
 20
5993.230826343868
 30
0.0
 10
9604.588709935259
 20
5987.063354626617
 30
0.0
 10
9605.452347826378
 20
5986.267804929447
 30
0.0
 10
9605.886046603537
 20
5985.868298452961
 30
0.0
  0
SPLINE
  5
107
330
1F
100
AcDbEntity
  8
0
  6
SLD-Plná
 62
     7
370
    25
100
AcDbSpline
210
0.0
220
0.0
230
1.0
 70
     8
 71
     3
 72
     9
 73
     5
 74
     0
 42
0.00000001
 43
0.00000001
 40
0.0
 40
0.0
 40
0.0
 40
0.0
 40
0.5601464516915893
 40
0.9999999999999999
 40
0.9999999999999999
 40
0.9999999999999999
 40
0.9999999999999999
 10
9605.886046575151
 20
5985.868298461931
 30
0.0
 10
9584.119753286694
 20
5911.509970717152
 30
0.0
 10
9545.261534649884
 20
5778.761958978035
 30
0.0
 10
9503.85849399227
 20
5646.786581021552
 30
0.0
 10
9485.647219648255
 20
5588.736742738046
 30
0.0
  0
SPLINE
  5
108
330
1F
100
AcDbEntity
  8
0
  6
SLD-Plná
 62
     7
370
    25
100
AcDbSpline
210
0.0
220
0.0
230
1.0
 70
     8
 71
     3
 72
    16
 73
    12
 74
     0
 42
0.00000001
 43
0.00000001
 40
0.0
 40
0.0
 40
0.0
 40
0.0
 40
0.0840339807545416
 40
0.1680217524561228
 40
0.2512680404590472
 40
0.334406816903333
 40
0.4175361376593126
 40
0.5006113685022011
 40
0.666824807124426
 40
0.8332857309873067
 40
0.9999999999999999
 40
0.9999999999999999
 40
0.9999999999999999
 40
0.9999999999999999
 10
8561.765789025576
 20
6715.887941583797
 30
0.0
 10
8563.369412955708
 20
6684.237668024883
 30
0.0
 10
8566.575779006704
 20
6620.954524928063
 30
0.0
 10
8567.385214075046
 20
6526.341959678005
 30
0.0
 10
8568.311119451448
 20
6432.082583583302
 30
0.0
 10
8568.143557611389
 20
6338.175572766071
 30
0.0
 10
8567.106032425536
 20
6244.373485628621
 30
0.0
 10
8564.304821677477
 20
6119.396964207274
 30
0.0
 10
8558.834286056723
 20
5963.254469559796
 30
0.0
 10
8550.356581242788
 20
5775.933146054334
 30
0.0
 10
8542.847187163741
 20
5651.167167702508
 30
0.0
 10
8539.089635066868
 20
5588.736742738831
 30
0.0
  0
SPLINE
  5
109
330
1F
100
AcDbEntity
  8
0
  6
SLD-Plná
 62
     7
370
    25
100
AcDbSpline
210
0.0
220
0.0
230
1.0
 70
     8
 71
     3
 72
    18
 73
    14
 74
     0
 42
0.00000001
 43
0.00000001
 40
0.0
 40
0.0
 40
0.0
 40
0.0
 40
0.1214540881329195
 40
0.2454334762285112
 40
0.3712113041384678
 40
0.4978075153518886
 40
0.5823996391356655
 40
0.6666854441038655
 40
0.750461980499684
 40
0.8129929255029562
 40
0.875495741439938
 40
0.9378797380125838
 40
1.0
 40
1.0
 40
1.0
 40
1.0
 10
8266.547028828007
 20
7325.204757179537
 30
0.0
 10
8266.597787377106
 20
7324.976784800869
 30
0.0
 10
8266.700359858172
 20
7324.516099991985
 30
0.0
 10
8268.995929581157
 20
7320.491981292459
 30
0.0
 10
8273.701064052322
 20
7313.551368829772
 30
0.0
 10
8280.535553935017
 20
7304.267115283904
 30
0.0
 10
8288.82768825904
 20
7293.438884252575
 30
0.0
 10
8297.504932182346
 20
7281.405438677563
 30
0.0
 10
8306.972279524132
 20
7267.130817406075
 30
0.0
 10
8316.957945838156
 20
7251.048106816242
 30
0.0
 10
8327.27440334145
 20
7233.860320508375
 30
0.0
 10
8339.021409834402
 20
7214.041517469021
 30
0.0
 10
8348.600984271798
 20
7198.369953262639
 30
0.0
 10
8353.380625391406
 20
7190.550769521361
 30
0.0
  0
SPLINE
  5
10A
330
1F
100
AcDbEntity
  8
0
  6
SLD-Plná
 62
     7
370
    25
100
AcDbSpline
210
0.0
220
0.0
230
1.0
 70
     8
 71
     3
 72
    19
 73
    15
 74
     0
 42
0.00000001
 43
0.00000001
 40
0.0
 40
0.0
 40
0.0
 40
0.0
 40
0.0868930178218086
 40
0.1719590285576922
 40
0.2556552665758942
 40
0.3389947662173516
 40
0.4224561258610513
 40
0.5058620618031904
 40
0.5890601759321212
 40
0.671813853593649
 40
0.7540314123294475
 40
0.8359369654250635
 40
0.9178411421154659
 40
1.0
 40
1.0
 40
1.0
 40
1.0
 10
8353.380674487522
 20
7190.55072631598
 30
0.0
 10
8359.39844692499
 20
7180.742024771373
 30
0.0
 10
8371.307462498022
 20
7161.330858819214
 30
0.0
 10
8390.814040996042
 20
7127.997439121626
 30
0.0
 10
8410.767782281591
 20
7092.473411094424
 30
0.0
 10
8430.374097641401
 20
7054.586750409579
 30
0.0
 10
8449.27884320503
 20
7014.980976227202
 30
0.0
 10
8467.301893378486
 20
6974.060321775924
 30
0.0
 10
8484.018381797487
 20
6932.162781478326
 30
0.0
 10
8499.126234069583
 20
6889.572782524624
 30
0.0
 10
8512.234146485273
 20
6846.408997840444
 30
0.0
 10
8522.80577744413
 20
6802.669208756825
 30
0.0
 10
8530.848297944103
 20
6758.40636001482
 30
0.0
 10
8534.10391377594
 20
6728.64201650588
 30
0.0
 10
8535.734248599063
 20
6713.736742598733
 30
0.0
  0
SPLINE
  5
10B
330
1F
100
AcDbEntity
  8
0
  6
SLD-Plná
 62
     7
370
    25
100
AcDbSpline
210
0.0
220
0.0
230
1.0
 70
    24
 71
     3
 72
    28
 73
    24
 74
     0
 42
0.00000001
 43
0.00000001
 40
0.0
 40
0.0
 40
0.0
 40
0.0
 40
0.0916837130143349
 40
0.1848907878874713
 40
0.278464122875467
 40
0.3224256932627569
 40
0.3662428095312659
 40
0.4099838069882354
 40
0.4538199280523796
 40
0.4980100408094373
 40
0.53402448218132
 40
0.5698753161342001
 40
0.6054284792637722
 40
0.6407340011855547
 40
0.676071108939917
 40
0.7118199714432621
 40
0.7480973836087896
 40
0.7908787311922736
 40
0.8336216075710432
 40
0.8757575626327795
 40
0.9173984728816957
 40
0.9587620260032013
 40
1.0
 40
1.0
 40
1.0
 40
1.0
 10
8107.174729684512
 20
7338.736742739042
 30
0.0
 10
8107.174729684509
 20
7338.312471896867
 30
0.0
 10
8107.1747296845
 20
7337.456880781405
 30
0.0
 10
8107.174729684495
 20
7330.025034731101
 30
0.0
 10
8107.174729684481
 20
7319.625730289973
 30
0.0
 10
8107.174729684473
 20
7308.088597526494
 30
0.0
 10
8107.174729684466
 20
7297.347242448263
 30
0.0
 10
8107.174729684456
 20
7283.579702499973
 30
0.0
 10
8107.17472968444
 20
7266.06451175565
 30
0.0
 10
8107.174729684434
 20
7245.602341384241
 30
0.0
 10
8107.174729684417
 20
7222.70756239301
 30
0.0
 10
8107.174729684401
 20
7198.044992305598
 30
0.0
 10
8107.174729684381
 20
7169.770846289318
 30
0.0
 10
8107.174729684358
 20
7137.687588380168
 30
0.0
 10
8107.174729684335
 20
7101.529691184795
 30
0.0
 10
8107.174729684307
 20
7061.96292497083
 30
0.0
 10
8107.174729684274
 20
7017.643858986825
 30
0.0
 10
8107.174729684244
 20
6969.198793966816
 30
0.0
 10
8107.174729684205
 20
6917.608912109205
 30
0.0
 10
8107.17472968417
 20
6866.086471890122
 30
0.0
 10
8107.174729684132
 20
6814.972093530546
 30
0.0
 10
8107.174729684097
 20
6764.221066107047
 30
0.0
 10
8107.174729684079
 20
6730.547786029348
 30
0.0
 10
8107.174729684063
 20
6713.736742739042
 30
0.0
  0
SPLINE
  5
10C
330
1F
100
AcDbEntity
  8
0
  6
SLD-Plná
 62
     7
370
    25
100
AcDbSpline
210
0.0
220
0.0
230
1.0
 70
     8
 71
     3
 72
     9
 73
     5
 74
     0
 42
0.00000001
 43
0.00000001
 40
0.0
 40
0.0
 40
0.0
 40
0.0
 40
0.560047550817725
 40
1.0
 40
1.0
 40
1.0
 40
1.0
 10
8107.174729684512
 20
7338.736742739042
 30
0.0
 10
8136.921288548834
 20
7336.1460782322
 30
0.0
 10
8190.035633609153
 20
7331.52028439905
 30
0.0
 10
8243.170301537457
 20
7327.134356431181
 30
0.0
 10
8266.547028829002
 20
7325.204756679778
 30
0.0
  0
SPLINE
  5
10D
330
1F
100
AcDbEntity
  8
0
  6
SLD-Plná
 62
     7
370
    25
100
AcDbSpline
210
0.0
220
0.0
230
1.0
 70
     8
 71
     3
 72
     9
 73
     5
 74
     0
 42
0.00000001
 43
0.00000001
 40
0.0
 40
0.0
 40
0.0
 40
0.0
 40
0.5599346450968791
 40
1.0
 40
1.0
 40
1.0
 40
1.0
 10
8460.612053516457
 20
4731.618622446012
 30
0.0
 10
8394.658574772347
 20
4728.695097244908
 30
0.0
 10
8276.870759137712
 20
4723.473907188702
 30
0.0
 10
8159.031642423832
 20
4720.797016344468
 30
0.0
 10
8107.174729705667
 20
4719.619009425063
 30
0.0
  0
SPLINE
  5
10E
330
1F
100
AcDbEntity
  8
0
  6
SLD-Plná
 62
     7
370
    25
100
AcDbSpline
210
0.0
220
0.0
230
1.0
 70
     8
 71
     3
 72
    16
 73
    12
 74
     0
 42
0.00000001
 43
0.00000001
 40
0.0
 40
0.0
 40
0.0
 40
0.0
 40
0.0828416104497227
 40
0.1668645206891757
 40
0.2501899386500812
 40
0.3333863237300239
 40
0.4165548468599246
 40
0.4996855890755401
 40
0.666166335358482
 40
0.8329543390642347
 40
1.0
 40
1.0
 40
1.0
 40
1.0
 10
8535.734241143778
 20
6713.736742469844
 30
0.0
 10
8537.750002272945
 20
6682.658427220664
 30
0.0
 10
8541.810268759991
 20
6620.058628040892
 30
0.0
 10
8542.966317274258
 20
6526.163411586815
 30
0.0
 10
8544.324248159794
 20
6432.163641244802
 30
0.0
 10
8544.417995868149
 20
6338.50951595165
 30
0.0
 10
8543.542544545215
 20
6244.972661659394
 30
0.0
 10
8540.817331207212
 20
6120.297174538568
 30
0.0
 10
8535.319320830902
 20
5964.46937472236
 30
0.0
 10
8526.781272223016
 20
5777.480971540233
 30
0.0
 10
8519.230591013615
 20
5652.925868291236
 30
0.0
 10
8515.452336551189
 20
5590.600250030137
 30
0.0
  0
SPLINE
  5
10F
330
1F
100
AcDbEntity
  8
0
  6
SLD-Plná
 62
     7
370
    25
100
AcDbSpline
210
0.0
220
0.0
230
1.0
 70
     8
 71
     3
 72
     9
 73
     5
 74
     0
 42
0.00000001
 43
0.00000001
 40
0.0
 40
0.0
 40
0.0
 40
0.0
 40
0.4999190805667066
 40
1.0
 40
1.0
 40
1.0
 40
1.0
 10
8515.452336684095
 20
5590.600250023769
 30
0.0
 10
8506.229058414106
 20
5447.300309467261
 30
0.0
 10
8487.779516021099
 20
5160.654037846542
 30
0.0
 10
8469.668859834259
 20
4874.645782845015
 30
0.0
 10
8460.6120662368
 20
4731.618511718338
 30
0.0
  0
SPLINE
  5
110
330
1F
100
AcDbEntity
  8
0
  6
SLD-Plná
 62
     7
370
    25
100
AcDbSpline
210
0.0
220
0.0
230
1.0
 70
    24
 71
     3
 72
    15
 73
    11
 74
     0
 42
0.00000001
 43
0.00000001
 40
0.0
 40
0.0
 40
0.0
 40
0.0
 40
0.0930856296837054
 40
0.1866324813753874
 40
0.2802282282263604
 40
0.3736496107267047
 40
0.4669462397793606
 40
0.5601733206586251
 40
0.7799012209351358
 40
0.9999999999999999
 40
0.9999999999999999
 40
0.9999999999999999
 40
0.9999999999999999
 10
8107.174729684063
 20
6713.736742739042
 30
0.0
 10
8107.174729684026
 20
6651.485556259455
 30
0.0
 10
8107.174729683948
 20
6526.674740232061
 30
0.0
 10
8107.174729683848
 20
6339.471285677293
 30
0.0
 10
8107.174729683731
 20
6152.272967433859
 30
0.0
 10
8107.174729683625
 20
5965.634237540173
 30
0.0
 10
8107.174729683514
 20
5779.548615879692
 30
0.0
 10
8107.174729683355
 20
5509.88607898127
 30
0.0
 10
8107.174729683159
 20
5156.388134901059
 30
0.0
 10
8107.174729682983
 20
4865.290539482427
 30
0.0
 10
8107.1747296829
 20
4719.619009423583
 30
0.0
  0
SPLINE
  5
111
330
1F
100
AcDbEntity
  8
0
  6
SLD-Plná
 62
     7
370
    25
100
AcDbSpline
210
0.0
220
0.0
230
1.0
 70
     8
 71
     3
 72
    18
 73
    14
 74
     0
 42
0.00000001
 43
0.00000001
 40
0.0
 40
0.0
 40
0.0
 40
0.0
 40
0.1208979755189878
 40
0.2437023647120757
 40
0.3680583924609717
 40
0.4930453974499007
 40
0.5770353669518054
 40
0.6614510878058558
 40
0.7460152274815288
 40
0.8094462668118679
 40
0.8730174845881716
 40
0.9366348692958371
 40
1.0
 40
1.0
 40
1.0
 40
1.0
 10
8315.843016353718
 20
7353.733514435773
 30
0.0
 10
8315.921107660211
 20
7353.562109451127
 30
0.0
 10
8316.078521677888
 20
7353.216596634203
 30
0.0
 10
8318.58143245933
 20
7349.682524483587
 30
0.0
 10
8323.475407479598
 20
7343.339995680212
 30
0.0
 10
8330.472097144779
 20
7334.651111908678
 30
0.0
 10
8338.881015457224
 20
7324.378734673499
 30
0.0
 10
8347.776686769883
 20
7313.104705840258
 30
0.0
 10
8357.618228900012
 20
7299.993374570377
 30
0.0
 10
8368.08700710821
 20
7285.45169518373
 30
0.0
 10
8378.912100731579
 20
7270.041188013858
 30
0.0
 10
8391.151057631703
 20
7252.370110268437
 30
0.0
 10
8400.894725378972
 20
7238.367559106763
 30
0.0
 10
8405.756881230436
 20
7231.380191738323
 30
0.0
  0
LINE
  5
112
330
1F
100
AcDbEntity
  8
0
  6
SLD-Plná
 62
     7
370
    25
100
AcDbLine
 10
8394.3026706855
 20
7365.0659031222
 30
0.0
 11
8383.0175242888
 21
7373.8141848639
 31
0.0
  0
SPLINE
  5
113
330
1F
100
AcDbEntity
  8
0
  6
SLD-Plná
 62
     7
370
    25
100
AcDbSpline
210
0.0
220
0.0
230
1.0
 70
     8
 71
     3
 72
    26
 73
    22
 74
     0
 42
0.00000001
 43
0.00000001
 40
0.0
 40
0.0
 40
0.0
 40
0.0
 40
0.0706403741842828
 40
0.1417312902833597
 40
0.2133613420484302
 40
0.2852915914327775
 40
0.3575469804143778
 40
0.4182755599244537
 40
0.4788427539488832
 40
0.538986655000294
 40
0.5838328461708955
 40
0.6281696704755423
 40
0.6717759059904305
 40
0.7144861832229727
 40
0.7562206339780693
 40
0.7970882856328181
 40
0.8373277011540086
 40
0.8774782819303408
 40
0.9180387382818485
 40
0.9588996532728528
 40
1.0
 40
1.0
 40
1.0
 40
1.0
 10
8394.30267068553
 20
7365.065903122187
 30
0.0
 10
8394.38210370128
 20
7364.976621901604
 30
0.0
 10
8394.54147635387
 20
7364.797490027838
 30
0.0
 10
8396.63811505226
 20
7362.440830674989
 30
0.0
 10
8400.566777783386
 20
7358.024653041978
 30
0.0
 10
8406.730488060473
 20
7351.095714404565
 30
0.0
 10
8414.999991978979
 20
7341.79984505316
 30
0.0
 10
8425.322300295302
 20
7330.199814655827
 30
0.0
 10
8437.505522302818
 20
7316.517144047022
 30
0.0
 10
8451.304221655131
 20
7301.039442455405
 30
0.0
 10
8466.226876240875
 20
7284.334130160847
 30
0.0
 10
8481.615394921306
 20
7267.151963500723
 30
0.0
 10
8499.067549527617
 20
7247.722801395977
 30
0.0
 10
8518.592361458099
 20
7226.045056072282
 30
0.0
 10
8540.112194225394
 20
7202.209192877092
 30
0.0
 10
8563.43895306394
 20
7176.419044866945
 30
0.0
 10
8588.327712495777
 20
7148.931075548947
 30
0.0
 10
8614.470734879707
 20
7120.060741282598
 30
0.0
 10
8641.34997395616
 20
7090.347670574361
 30
0.0
 10
8668.678570657868
 20
7060.070731609102
 30
0.0
 10
8686.99143093173
 20
7039.720613170472
 30
0.0
 10
8696.174609558357
 20
7029.515829761425
 30
0.0
  0
SPLINE
  5
114
330
1F
100
AcDbEntity
  8
0
  6
SLD-Plná
 62
     7
370
    25
100
AcDbSpline
210
0.0
220
0.0
230
1.0
 70
     8
 71
     3
 72
    25
 73
    21
 74
     0
 42
0.00000001
 43
0.00000001
 40
0.0
 40
0.0
 40
0.0
 40
0.0
 40
0.0719424245911553
 40
0.1439551324697641
 40
0.2160001881956378
 40
0.2876371226358594
 40
0.3592657583702691
 40
0.4305862282369399
 40
0.4875946203082554
 40
0.5444611897242689
 40
0.6012606526713314
 40
0.6580876723303305
 40
0.7149354101211368
 40
0.7624274689016212
 40
0.8098843456154765
 40
0.8574137708432424
 40
0.8931272146775519
 40
0.9288004913199596
 40
0.9644353529848543
 40
1.0
 40
1.0
 40
1.0
 40
1.0
 10
9047.465507758594
 20
6638.901735772304
 30
0.0
 10
9064.870692122477
 20
6619.558752804538
 30
0.0
 10
9099.698064636019
 20
6580.853889974169
 30
0.0
 10
9151.128779837634
 20
6523.491369407911
 30
0.0
 10
9201.877751783437
 20
6466.818099947714
 30
0.0
 10
9251.664853854538
 20
6411.206893810048
 30
0.0
 10
9300.18768068503
 20
6357.066317196601
 30
0.0
 10
9344.090571695762
 20
6308.189787735148
 30
0.0
 10
9383.348225617056
 20
6264.60642491799
 30
0.0
 10
9418.177093750743
 20
6226.030403666066
 30
0.0
 10
9451.403390174513
 20
6189.312178910937
 30
0.0
 10
9482.791150075253
 20
6154.69970722213
 30
0.0
 10
9510.38811094427
 20
6124.3284698925
 30
0.0
 10
9534.147803285625
 20
6098.224112534293
 30
0.0
 10
9554.073306333816
 20
6076.362932538898
 30
0.0
 10
9569.594434943092
 20
6059.354828547167
 30
0.0
 10
9581.101087253692
 20
6046.756601744039
 30
0.0
 10
9588.998140891974
 20
6038.115615827794
 30
0.0
 10
9594.297130447287
 20
6032.320064795872
 30
0.0
 10
9594.985724397826
 20
6031.567112871665
 30
0.0
 10
9595.329681838568
 20
6031.191008177968
 30
0.0
  0
ARC
  5
115
330
1F
100
AcDbEntity
  8
0
  6
SLD-Plná
 62
     7
370
    25
100
AcDbCircle
 10
9560.2766020692
 20
5999.1358744352
 30
0.0
 40
47.50000000519024
100
AcDbArc
 50
343.7805314229
 51
42.4421085846
  0
SPLINE
  5
116
330
1F
100
AcDbEntity
  8
0
  6
SLD-Plná
 62
     7
370
    25
100
AcDbSpline
210
0.0
220
0.0
230
1.0
 70
     8
 71
     3
 72
     9
 73
     5
 74
     0
 42
0.00000001
 43
0.00000001
 40
0.0
 40
0.0
 40
0.0
 40
0.0
 40
0.4998763822059781
 40
1.0
 40
1.0
 40
1.0
 40
1.0
 10
8539.089635057248
 20
5588.73674273873
 30
0.0
 10
8529.694132277678
 20
5446.745438948087
 30
0.0
 10
8510.898479764335
 20
5162.692603396969
 30
0.0
 10
8491.439597185952
 20
4879.381542667943
 30
0.0
 10
8481.707750432623
 20
4737.690990015079
 30
0.0
  0
SPLINE
  5
117
330
1F
100
AcDbEntity
  8
0
  6
SLD-Plná
 62
     7
370
    25
100
AcDbSpline
210
0.0
220
0.0
230
1.0
 70
     8
 71
     3
 72
    12
 73
     8
 74
     0
 42
0.00000001
 43
0.00000001
 40
0.0
 40
0.0
 40
0.0
 40
0.0
 40
0.1866702265752652
 40
0.3732531755498054
 40
0.5598132940947402
 40
0.7797932845881214
 40
1.0
 40
1.0
 40
1.0
 40
1.0
 10
9485.64721964825
 20
5588.736742738046
 30
0.0
 10
9468.635918613954
 20
5536.063847798287
 30
0.0
 10
9434.621270173351
 20
5430.742685112817
 30
0.0
 10
9380.223345808403
 20
5273.900580368563
 30
0.0
 10
9319.432954718366
 20
5108.862909656636
 30
0.0
 10
9252.290116189584
 20
4935.564905491306
 30
0.0
 10
9203.257377645512
 20
4814.601561938637
 30
0.0
 10
9178.728380841225
 20
4754.088738149033
 30
0.0
  0
SPLINE
  5
118
330
1F
100
AcDbEntity
  8
0
  6
SLD-Plná
 62
     7
370
    25
100
AcDbSpline
210
0.0
220
0.0
230
1.0
 70
     8
 71
     3
 72
    19
 73
    15
 74
     0
 42
0.00000001
 43
0.00000001
 40
0.0
 40
0.0
 40
0.0
 40
0.0
 40
0.0751102673570507
 40
0.1515814036899629
 40
0.2305356837328217
 40
0.3121806329500913
 40
0.3957397156997987
 40
0.4803019240516293
 40
0.5652995485150452
 40
0.650838783402812
 40
0.7366057363829253
 40
0.8234901998770623
 40
0.9110326059974716
 40
1.0
 40
1.0
 40
1.0
 40
1.0
 10
9178.72838059265
 20
4754.088738153269
 30
0.0
 10
9178.102660295326
 20
4754.141765300022
 30
0.0
 10
9176.839882724127
 20
4754.248780354299
 30
0.0
 10
9167.039342331782
 20
4754.833859493796
 30
0.0
 10
9152.103474005567
 20
4755.286764780985
 30
0.0
 10
9131.657926782807
 20
4755.389557276718
 30
0.0
 10
9105.69083841927
 20
4755.206789655478
 30
0.0
 10
9074.346623362711
 20
4754.767544233337
 30
0.0
 10
9038.33942966383
 20
4754.161404099614
 30
0.0
 10
8998.24680414408
 20
4753.442503826669
 30
0.0
 10
8954.455275293943
 20
4752.594284605049
 30
0.0
 10
8907.274967638416
 20
4751.568715391114
 30
0.0
 10
8856.992106774851
 20
4750.325031988337
 30
0.0
 10
8821.471405661146
 20
4749.272274483824
 30
0.0
 10
8803.567673352642
 20
4748.74164620354
 30
0.0
  0
SPLINE
  5
119
330
1F
100
AcDbEntity
  8
0
  6
SLD-Plná
 62
     7
370
    25
100
AcDbSpline
210
0.0
220
0.0
230
1.0
 70
     8
 71
     3
 72
    14
 73
    10
 74
     0
 42
0.00000001
 43
0.00000001
 40
0.0
 40
0.0
 40
0.0
 40
0.0
 40
0.1666494458270856
 40
0.3328723447878359
 40
0.4993739559139781
 40
0.6242399349310879
 40
0.7489315246162663
 40
0.8742764304643366
 40
1.0
 40
1.0
 40
1.0
 40
1.0
 10
8803.567615577642
 20
4748.741644473538
 30
0.0
 10
8786.330368174997
 20
4748.205151267365
 30
0.0
 10
8751.899992891547
 20
4747.133538033882
 30
0.0
 10
8698.503881567189
 20
4745.352900356158
 30
0.0
 10
8648.833895616064
 20
4743.667697249008
 30
0.0
 10
8603.299593211595
 20
4742.055585141433
 30
0.0
 10
8562.282676446635
 20
4740.575514137454
 30
0.0
 10
8521.378187714565
 20
4739.076372694196
 30
0.0
 10
8494.944545007256
 20
4738.153229957917
 30
0.0
 10
8481.707789927135
 20
4737.690962443771
 30
0.0
  0
SPLINE
  5
11A
330
1F
100
AcDbEntity
  8
0
  6
SLD-Plná
 62
     7
370
    25
100
AcDbSpline
210
0.0
220
0.0
230
1.0
 70
     8
 71
     3
 72
    11
 73
     7
 74
     0
 42
0.00000001
 43
0.00000001
 40
0.0
 40
0.0
 40
0.0
 40
0.0
 40
0.2797746561529984
 40
0.5595467400623199
 40
0.7797711614137359
 40
0.9999999999999999
 40
0.9999999999999999
 40
0.9999999999999999
 40
0.9999999999999999
 10
8266.547064705503
 20
7325.204753755078
 30
0.0
 10
8272.233182814918
 20
7325.299136983471
 30
0.0
 10
8283.60536675568
 20
7325.487902572505
 30
0.0
 10
8298.125590191446
 20
7332.474845363718
 30
0.0
 10
8309.225376594895
 20
7342.101049299469
 30
0.0
 10
8313.637139102515
 20
7349.855984149315
 30
0.0
 10
8315.843042478755
 20
7353.733490460738
 30
0.0
  0
SPLINE
  5
11B
330
1F
100
AcDbEntity
  8
0
  6
SLD-Plná
 62
     7
370
    25
100
AcDbSpline
210
0.0
220
0.0
230
1.0
 70
     8
 71
     3
 72
     9
 73
     5
 74
     0
 42
0.00000001
 43
0.00000001
 40
0.0
 40
0.0
 40
0.0
 40
0.0
 40
0.5080177449643435
 40
1.0
 40
1.0
 40
1.0
 40
1.0
 10
8481.707754776635
 20
4737.691052623773
 30
0.0
 10
8478.284716810118
 20
4736.438144644182
 30
0.0
 10
8471.546688462791
 20
4733.971876502942
 30
0.0
 10
8464.217763695251
 20
4732.394500005192
 30
0.0
 10
8460.612062761129
 20
4731.618458758788
 30
0.0
  0
SPLINE
  5
11C
330
1F
100
AcDbEntity
  8
0
  6
SLD-Plná
 62
     7
370
    25
100
AcDbSpline
210
0.0
220
0.0
230
1.0
 70
     8
 71
     3
 72
     9
 73
     5
 74
     0
 42
0.00000001
 43
0.00000001
 40
0.0
 40
0.0
 40
0.0
 40
0.0
 40
0.5599087317082433
 40
0.9999999999999999
 40
0.9999999999999999
 40
0.9999999999999999
 40
0.9999999999999999
 10
8457.01414267787
 20
4669.125540093104
 30
0.0
 10
8403.11859923873
 20
4666.927951444776
 30
0.0
 10
8306.860869385673
 20
4663.003046323858
 30
0.0
 10
8210.598224057767
 20
4660.807362872676
 30
0.0
 10
8168.233874386288
 20
4659.841061757876
 30
0.0
  0
LINE
  5
11D
330
1F
100
AcDbEntity
  8
0
  6
SLD-Plná
 62
     7
370
    25
100
AcDbLine
 10
8107.1747296826
 20
4719.6190094247
 30
0.0
 11
8107.1747296826
 21
4702.4977258419
 31
0.0
  0
SPLINE
  5
11E
330
1F
100
AcDbEntity
  8
0
  6
SLD-Plná
 62
     7
370
    25
100
AcDbSpline
210
0.0
220
0.0
230
1.0
 70
     8
 71
     3
 72
     9
 73
     5
 74
     0
 42
0.00000001
 43
0.00000001
 40
0.0
 40
0.0
 40
0.0
 40
0.0
 40
0.5483080099109068
 40
1.0
 40
1.0
 40
1.0
 40
1.0
 10
8107.174729682598
 20
4684.943594069044
 30
0.0
 10
8110.299766504092
 20
4684.875611541634
 30
0.0
 10
8115.999185015237
 20
4684.751625522495
 30
0.0
 10
8121.69785839032
 20
4684.626619419995
 30
0.0
 10
8124.271903507974
 20
4684.570155164782
 30
0.0
  0
SPLINE
  5
11F
330
1F
100
AcDbEntity
  8
0
  6
SLD-Plná
 62
     7
370
    25
100
AcDbSpline
210
0.0
220
0.0
230
1.0
 70
     8
 71
     3
 72
    10
 73
     6
 74
     0
 42
0.00000001
 43
0.00000001
 40
0.0
 40
0.0
 40
0.0
 40
0.0
 40
0.2805487916807224
 40
0.5610869232928959
 40
1.0
 40
1.0
 40
1.0
 40
1.0
 10
8107.17472968261
 20
4702.497935495437
 30
0.0
 10
8107.174729686225
 20
4700.090532935542
 30
0.0
 10
8107.174729693464
 20
4695.275819290309
 30
0.0
 10
8107.174729614062
 20
4688.455678229012
 30
0.0
 10
8107.174729656631
 20
4686.274349187614
 30
0.0
 10
8107.174729682598
 20
4684.943593425718
 30
0.0
  0
SPLINE
  5
120
330
1F
100
AcDbEntity
  8
0
  6
SLD-Plná
 62
     7
370
    25
100
AcDbSpline
210
0.0
220
0.0
230
1.0
 70
     8
 71
     3
 72
    11
 73
     7
 74
     0
 42
0.00000001
 43
0.00000001
 40
0.0
 40
0.0
 40
0.0
 40
0.0
 40
0.2144159609903209
 40
0.4468086874715596
 40
0.707313577135894
 40
1.0
 40
1.0
 40
1.0
 40
1.0
 10
8124.271904776796
 20
4684.57015018903
 30
0.0
 10
8126.25842648476
 20
4684.328316148515
 30
0.0
 10
8130.39802109735
 20
4683.824372553418
 30
0.0
 10
8135.701579836413
 20
4681.320718377597
 30
0.0
 10
8140.030102447648
 20
4678.022113049906
 30
0.0
 10
8141.739860975401
 20
4675.854242454778
 30
0.0
 10
8142.644472266488
 20
4674.707249949016
 30
0.0
  0
SPLINE
  5
121
330
1F
100
AcDbEntity
  8
0
  6
SLD-Plná
 62
     7
370
    25
100
AcDbSpline
210
0.0
220
0.0
230
1.0
 70
     8
 71
     3
 72
    13
 73
     9
 74
     0
 42
0.00000001
 43
0.00000001
 40
0.0
 40
0.0
 40
0.0
 40
0.0
 40
0.1952593696708033
 40
0.3887683074789155
 40
0.5790230612823748
 40
0.7249198531758566
 40
0.8658375364464048
 40
1.0
 40
1.0
 40
1.0
 40
1.0
 10
8782.174731159877
 20
4687.626275010883
 30
0.0
 10
8765.033245993054
 20
4686.868135683337
 30
0.0
 10
8730.903943070409
 20
4685.358653481792
 30
0.0
 10
8678.182003912469
 20
4682.97699467383
 30
0.0
 10
8629.176975812139
 20
4680.586748000223
 30
0.0
 10
8584.800022756513
 20
4678.115361088457
 30
0.0
 10
8545.682236501194
 20
4675.633483255161
 30
0.0
 10
8521.031951806552
 20
4673.591318559703
 30
0.0
 10
8509.009481409794
 20
4672.595311215343
 30
0.0
  0
LINE
  5
122
330
1F
100
AcDbEntity
  8
0
  6
SLD-Plná
 62
     7
370
    25
100
AcDbLine
 10
8107.1747296826
 20
4625.976305729
 30
0.0
 11
8124.1238413356
 21
4625.9956777292
 31
0.0
  0
SPLINE
  5
123
330
1F
100
AcDbEntity
  8
0
  6
SLD-Plná
 62
     7
370
    25
100
AcDbSpline
210
0.0
220
0.0
230
1.0
 70
    24
 71
     3
 72
    12
 73
     8
 74
     0
 42
0.00000001
 43
0.00000001
 40
0.0
 40
0.0
 40
0.0
 40
0.0
 40
0.1865639140175376
 40
0.3727645015971734
 40
0.5590928151389473
 40
0.7794923313545778
 40
1.0
 40
1.0
 40
1.0
 40
1.0
 10
8107.174729682553
 20
4625.976305729042
 30
0.0
 10
8107.174729682555
 20
4626.49048136724
 30
0.0
 10
8107.174729682557
 20
4627.517831305283
 30
0.0
 10
8107.174729682555
 20
4635.194936346435
 30
0.0
 10
8107.174729682572
 20
4647.254995814357
 30
0.0
 10
8107.174729682576
 20
4663.928384959813
 30
0.0
 10
8107.174729682591
 20
4677.937378920165
 30
0.0
 10
8107.174729682598
 20
4684.943594070042
 30
0.0
  0
SPLINE
  5
124
330
1F
100
AcDbEntity
  8
0
  6
SLD-Plná
 62
     7
370
    25
100
AcDbSpline
210
0.0
220
0.0
230
1.0
 70
     8
 71
     3
 72
     9
 73
     5
 74
     0
 42
0.00000001
 43
0.00000001
 40
0.0
 40
0.0
 40
0.0
 40
0.0
 40
0.5000000011112233
 40
1.0
 40
1.0
 40
1.0
 40
1.0
 10
8142.703714096989
 20
4619.576588284552
 30
0.0
 10
8139.877406750084
 20
4621.428919802996
 30
0.0
 10
8134.224792068831
 20
4625.133582831652
 30
0.0
 10
8127.490824954819
 20
4625.708272130471
 30
0.0
 10
8124.123841405297
 20
4625.995616779242
 30
0.0
  0
SPLINE
  5
125
330
1F
100
AcDbEntity
  8
0
  6
SLD-Plná
 62
     7
370
    25
100
AcDbSpline
210
0.0
220
0.0
230
1.0
 70
     8
 71
     3
 72
    10
 73
     6
 74
     0
 42
0.00000001
 43
0.00000001
 40
0.0
 40
0.0
 40
0.0
 40
0.0
 40
0.2784520706262428
 40
0.5582036202584018
 40
1.0
 40
1.0
 40
1.0
 40
1.0
 10
8509.009477730275
 20
4672.595312849323
 30
0.0
 10
8504.320564054127
 20
4672.1949358915
 30
0.0
 10
8494.920854498301
 20
4671.392313498272
 30
0.0
 10
8477.46511231445
 20
4670.146702413892
 30
0.0
 10
8464.78074915723
 20
4669.513331514514
 30
0.0
 10
8457.014243989586
 20
4669.125525023791
 30
0.0
  0
SPLINE
  5
126
330
1F
100
AcDbEntity
  8
0
  6
SLD-Plná
 62
     7
370
    25
100
AcDbSpline
210
0.0
220
0.0
230
1.0
 70
     8
 71
     3
 72
     9
 73
     5
 74
     0
 42
0.00000001
 43
0.00000001
 40
0.0
 40
0.0
 40
0.0
 40
0.0
 40
0.5000000085965999
 40
1.0
 40
1.0
 40
1.0
 40
1.0
 10
8168.23387195708
 20
4659.841048713998
 30
0.0
 10
8164.7042789167
 20
4660.029540997661
 30
0.0
 10
8157.64509295732
 20
4660.406525558509
 30
0.0
 10
8151.686100801985
 20
4664.171036461006
 30
0.0
 10
8148.706604775544
 20
4666.053291879892
 30
0.0
  0
SPLINE
  5
127
330
1F
100
AcDbEntity
  8
0
  6
SLD-Plná
 62
     7
370
    25
100
AcDbSpline
210
0.0
220
0.0
230
1.0
 70
     8
 71
     3
 72
     9
 73
     5
 74
     0
 42
0.00000001
 43
0.00000001
 40
0.0
 40
0.0
 40
0.0
 40
0.0
 40
0.56126523980685
 40
1.0
 40
1.0
 40
1.0
 40
1.0
 10
8142.644472266738
 20
4674.707249289017
 30
0.0
 10
8144.575681036843
 20
4672.538784904285
 30
0.0
 10
8148.01649410192
 20
4668.675256164324
 30
0.0
 10
8148.49614894381
 20
4666.852838101673
 30
0.0
 10
8148.706590195836
 20
4666.053279949983
 30
0.0
  0
LINE
  5
128
330
1F
100
AcDbEntity
  8
0
  6
SLD-Plná
 62
     7
370
    25
100
AcDbLine
 10
8142.7037438643
 20
4619.5766261334
 30
0.0
 11
8144.0080617508
 21
4618.5508236226
 31
0.0
  0
SPLINE
  5
129
330
1F
100
AcDbEntity
  8
0
  6
SLD-Plná
 62
     7
370
    25
100
AcDbSpline
210
0.0
220
0.0
230
1.0
 70
     8
 71
     3
 72
    11
 73
     7
 74
     0
 42
0.00000001
 43
0.00000001
 40
0.0
 40
0.0
 40
0.0
 40
0.0
 40
0.279819976791328
 40
0.5596386397968672
 40
0.7798181915079573
 40
1.0
 40
1.0
 40
1.0
 40
1.0
 10
9116.848833587614
 20
4707.808527443315
 30
0.0
 10
9124.324267355945
 20
4709.232885658517
 30
0.0
 10
9139.275099794617
 20
4712.081595401397
 30
0.0
 10
9157.311872810693
 20
4723.763779862205
 30
0.0
 10
9170.8375569153
 20
4738.005466432459
 30
0.0
 10
9176.098097210392
 20
4748.727629253214
 30
0.0
 10
9178.728380837645
 20
4754.088738138268
 30
0.0
  0
SPLINE
  5
12A
330
1F
100
AcDbEntity
  8
0
  6
SLD-Plná
 62
     7
370
    25
100
AcDbSpline
210
0.0
220
0.0
230
1.0
 70
     8
 71
     3
 72
    19
 73
    15
 74
     0
 42
0.00000001
 43
0.00000001
 40
0.0
 40
0.0
 40
0.0
 40
0.0
 40
0.0672108615320112
 40
0.1375965680600841
 40
0.2122077199986268
 40
0.2902614601874882
 40
0.3697683983076137
 40
0.4506429477628431
 40
0.5325690545522745
 40
0.6239310311531827
 40
0.7160785436895878
 40
0.809625688781911
 40
0.9039968788592389
 40
1.0
 40
1.0
 40
1.0
 40
1.0
 10
9116.848833529237
 20
4707.808527435929
 30
0.0
 10
9116.331903880568
 20
4707.758666043297
 30
0.0
 10
9115.273626334876
 20
4707.656587951316
 30
0.0
 10
9107.089710502501
 20
4706.888302226464
 30
0.0
 10
9094.593800073832
 20
4705.769389933751
 30
0.0
 10
9077.58172369201
 20
4704.337131727606
 30
0.0
 10
9056.204823344808
 20
4702.663424565449
 30
0.0
 10
9030.45814797022
 20
4700.795945695344
 30
0.0
 10
8999.766493209536
 20
4698.748759946659
 30
0.0
 10
8964.11556319253
 20
4696.577396205849
 30
0.0
 10
8923.539089913109
 20
4694.329166557414
 30
0.0
 10
8879.521948879075
 20
4692.096252617062
 30
0.0
 10
8832.410357300532
 20
4689.870236988635
 30
0.0
 10
8799.015362987038
 20
4688.378524766776
 30
0.0
 10
8782.174731159874
 20
4687.62627501088
 30
0.0
  0
LWPOLYLINE
  5
12B
330
1F
100
AcDbEntity
  8
0
  6
SLD-Plná
 62
     7
370
    25
100
AcDbPolyline
 90
        3
 70
   128
 43
0.0
 10
8594.6704023239
 20
4655.1582879388
 10
8699.6736576898
 20
4665.7036176534
 10
8782.1747296826
 20
4674.0038962686
  0
SPLINE
  5
12C
330
1F
100
AcDbEntity
  8
0
  6
SLD-Plná
 62
     7
370
    25
100
AcDbSpline
210
0.0
220
0.0
230
1.0
 70
     8
 71
     3
 72
    24
 73
    20
 74
     0
 42
0.00000001
 43
0.00000001
 40
0.0
 40
0.0
 40
0.0
 40
0.0
 40
0.0436969832968504
 40
0.1022317435623434
 40
0.1624183782029209
 40
0.2212392380415581
 40
0.2817469302593607
 40
0.3410415390822799
 40
0.4020854790397052
 40
0.4614635189585613
 40
0.5226063991398082
 40
0.5818639484770904
 40
0.6428649839912681
 40
0.7020193923404681
 40
0.762893317689789
 40
0.821997652708931
 40
0.8828085690564069
 40
0.9418937793370431
 40
1.0
 40
1.0
 40
1.0
 40
1.0
 10
8244.090088659412
 20
4620.479182372371
 30
0.0
 10
8245.657002674729
 20
4620.767347752516
 30
0.0
 10
8249.322893079794
 20
4621.441528142642
 30
0.0
 10
8260.65265336581
 20
4623.428424978752
 30
0.0
 10
8276.733496512914
 20
4626.077662343183
 30
0.0
 10
8297.09854327071
 20
4629.184474490847
 30
0.0
 10
8320.710653189743
 20
4632.474507845193
 30
0.0
 10
8347.402671815342
 20
4635.83524763521
 30
0.0
 10
8375.960357621238
 20
4639.058154875627
 30
0.0
 10
8406.015319731885
 20
4642.085917150913
 30
0.0
 10
8436.122678570237
 20
4644.792485799804
 30
0.0
 10
8465.941822386074
 20
4647.194631943462
 30
0.0
 10
8494.05062405136
 20
4649.238339261309
 30
0.0
 10
8520.18211469954
 20
4650.971310454968
 30
0.0
 10
8543.10952330833
 20
4652.373825641551
 30
0.0
 10
8562.65481032073
 20
4653.490034344974
 30
0.0
 10
8577.78166463682
 20
4654.305467492087
 30
0.0
 10
8588.690134907993
 20
4654.865030079733
 30
0.0
 10
8591.801120207541
 20
4655.017820508539
 30
0.0
 10
8593.343618638011
 20
4655.093577535311
 30
0.0
  0
LWPOLYLINE
  5
12D
330
1F
100
AcDbEntity
  8
0
  6
SLD-Plná
 62
     7
370
    25
100
AcDbPolyline
 90
        3
 70
   128
 43
0.0
 10
8165.5241793813
 20
4612.2791910131
 10
8207.036818863
 20
4616.4116142132
 10
8239.6536605549
 20
4619.6608094653
  0
SPLINE
  5
12E
330
1F
100
AcDbEntity
  8
0
  6
SLD-Plná
 62
     7
370
    25
100
AcDbSpline
210
0.0
220
0.0
230
1.0
 70
     8
 71
     3
 72
     9
 73
     5
 74
     0
 42
0.00000001
 43
0.00000001
 40
0.0
 40
0.0
 40
0.0
 40
0.0
 40
0.5592657152238085
 40
1.0
 40
1.0
 40
1.0
 40
1.0
 10
8165.524181261544
 20
4612.279144359
 30
0.0
 10
8161.161162238798
 20
4612.336599717285
 30
0.0
 10
8153.359827553011
 20
4612.439333277947
 30
0.0
 10
8146.868842732159
 20
4616.681235123171
 30
0.0
 10
8144.008043179648
 20
4618.550786699016
 30
0.0
  0
LWPOLYLINE
  5
12F
330
1F
100
AcDbEntity
  8
0
  6
SLD-Plná
 62
     7
370
    25
100
AcDbPolyline
 90
        3
 70
   128
 43
0.0
 10
8782.1747296826
 20
4674.0038962686
 10
8864.1021888104
 20
4682.2593639141
 10
8928.4728592706
 20
4688.7547294217
  0
LWPOLYLINE
  5
130
330
1F
100
AcDbEntity
  8
0
  6
SLD-Plná
 62
     7
370
    25
100
AcDbPolyline
 90
        3
 70
   128
 43
0.0
 10
9024.6693712225
 20
4698.4762941444
 10
9076.2900712238
 20
4703.7003600495
 10
9116.8488335292
 20
4707.8085274359
  0
SPLINE
  5
131
330
1F
100
AcDbEntity
  8
0
  6
SLD-Plná
 62
     7
370
    25
100
AcDbSpline
210
0.0
220
0.0
230
1.0
 70
     8
 71
     3
 72
    19
 73
    15
 74
     0
 42
0.00000001
 43
0.00000001
 40
0.0
 40
0.0
 40
0.0
 40
0.0
 40
0.0834438962533568
 40
0.1668564469704977
 40
0.2501379751863491
 40
0.3334905940472374
 40
0.4167968118325109
 40
0.500051631258863
 40
0.5834205537966742
 40
0.6667468108092109
 40
0.7499686631252539
 40
0.8333222486546377
 40
0.9166630942476547
 40
1.0
 40
1.0
 40
1.0
 40
1.0
 10
8928.472859270605
 20
4688.75472942168
 30
0.0
 10
8928.794459975146
 20
4688.789046596273
 30
0.0
 10
8929.437540575556
 20
4688.857668054282
 30
0.0
 10
8934.51612713731
 20
4689.396641780225
 30
0.0
 10
8942.221192797448
 20
4690.206140511485
 30
0.0
 10
8952.312757787678
 20
4691.253313098216
 30
0.0
 10
8964.021087019786
 20
4692.451792487143
 30
0.0
 10
8976.577559381387
 20
4693.72048484212
 30
0.0
 10
8989.136648258576
 20
4694.975321185825
 30
0.0
 10
9000.846424806661
 20
4696.135353151702
 30
0.0
 10
9010.93645134956
 20
4697.129150145386
 30
0.0
 10
9018.635784287844
 20
4697.884989439322
 30
0.0
 10
9023.707065344159
 20
4698.38202714786
 30
0.0
 10
9024.348607651193
 20
4698.444872307391
 30
0.0
 10
9024.669371222495
 20
4698.476294144411
 30
0.0
  0
LINE
  5
132
330
1F
100
AcDbEntity
  8
0
  6
SLD-Plná
 62
     7
370
    25
100
AcDbLine
 10
8594.6704023239
 20
4655.1582879388
 30
0.0
 11
8591.7778961948
 21
4655.0365581369
 31
0.0
  0
LINE
  5
133
330
1F
100
AcDbEntity
  8
0
  6
SLD-Plná
 62
     7
370
    25
100
AcDbLine
 10
8243.6114769894
 20
4620.3804458773
 30
0.0
 11
8239.6536605549
 21
4619.6608094653
 31
0.0
  0
LINE
  5
134
330
1F
100
AcDbEntity
  8
0
  6
SLD-Plná
 62
     7
370
    25
100
AcDbLine
 10
8414.8918363021
 20
7341.9221893778
 30
0.0
 11
8413.0148970174
 21
7344.0317936325
 31
0.0
  0
SPLINE
  5
135
330
1F
100
AcDbEntity
  8
0
  6
SLD-Plná
 62
     7
370
    25
100
AcDbSpline
210
0.0
220
0.0
230
1.0
 70
     8
 71
     3
 72
    15
 73
    11
 74
     0
 42
0.00000001
 43
0.00000001
 40
0.0
 40
0.0
 40
0.0
 40
0.0
 40
0.0000015397810148
 40
0.143443682536439
 40
0.2875655505129523
 40
0.431647325910331
 40
0.5750666962064813
 40
0.7163896389278083
 40
0.8566424145471586
 40
1.0
 40
1.0
 40
1.0
 40
1.0
 10
8808.542828811149
 20
6904.30972563426
 30
0.0
 10
8808.542946354151
 20
6904.309594564832
 30
0.0
 10
8819.493075518774
 20
6892.099363847518
 30
0.0
 10
8842.250436323186
 20
6866.73681185677
 30
0.0
 10
8876.487918300743
 20
6828.635675036629
 30
0.0
 10
8911.020775358375
 20
6790.278842485787
 30
0.0
 10
8945.208433644702
 20
6752.346761309914
 30
0.0
 10
8978.865875074944
 20
6715.019412750748
 30
0.0
 10
9012.291239370677
 20
6677.953942878357
 30
0.0
 10
9034.379335611873
 20
6653.423113920322
 30
0.0
 10
9045.54428788096
 20
6641.023424447466
 30
0.0
  0
SPLINE
  5
136
330
1F
100
AcDbEntity
  8
0
  6
SLD-Plná
 62
     7
370
    25
100
AcDbSpline
210
0.0
220
0.0
230
1.0
 70
     8
 71
     3
 72
     9
 73
     5
 74
     0
 42
0.00000001
 43
0.00000001
 40
0.0
 40
0.0
 40
0.0
 40
0.0
 40
0.2766834160359885
 40
1.0
 40
1.0
 40
1.0
 40
1.0
 10
9255.379450018958
 20
6407.0729885124
 30
0.0
 10
9257.809451402956
 20
6404.359233173361
 30
0.0
 10
9266.5920572375
 20
6394.551072720828
 30
0.0
 10
9275.024160785122
 20
6385.152181503199
 30
0.0
 10
9281.123241118814
 20
6378.353807614613
 30
0.0
  0
LINE
  5
137
330
1F
100
AcDbEntity
  8
0
  6
SLD-Plná
 62
     7
370
    25
100
AcDbLine
 10
9405.166682745
 20
6240.4550642322
 30
0.0
 11
9430.1714237077
 21
6212.7891815266
 31
0.0
  0
LINE
  5
138
330
1F
100
AcDbEntity
  8
0
  6
SLD-Plná
 62
     7
370
    25
100
AcDbLine
 10
9468.6955632605
 20
6170.2552044362
 30
0.0
 11
9476.4988709951
 21
6161.6441605243
 31
0.0
  0
SPLINE
  5
139
330
1F
100
AcDbEntity
  8
0
  6
SLD-Plná
 62
     7
370
    25
100
AcDbSpline
210
0.0
220
0.0
230
1.0
 70
     8
 71
     3
 72
    13
 73
     9
 74
     0
 42
0.00000001
 43
0.00000001
 40
0.0
 40
0.0
 40
0.0
 40
0.0
 40
0.1817886049230534
 40
0.3643068864157474
 40
0.5484233981789574
 40
0.7328002888824589
 40
0.9142529519999979
 40
0.9999999999999999
 40
0.9999999999999999
 40
0.9999999999999999
 40
0.9999999999999999
 10
8612.135104484356
 20
7122.636346325178
 30
0.0
 10
8612.186301219239
 20
7122.57978689652
 30
0.0
 10
8612.288900186251
 20
7122.466441016785
 30
0.0
 10
8614.091222458279
 20
7120.475205291729
 30
0.0
 10
8618.421644394552
 20
7115.690596498851
 30
0.0
 10
8625.376667387523
 20
7108.003500164392
 30
0.0
 10
8632.412279566726
 20
7100.225741724598
 30
0.0
 10
8638.976741436229
 20
7092.962305312857
 30
0.0
 10
8641.083342617285
 20
7090.631396240996
 30
0.0
  0
SPLINE
  5
13A
330
1F
100
AcDbEntity
  8
0
  6
SLD-Plná
 62
     7
370
    25
100
AcDbSpline
210
0.0
220
0.0
230
1.0
 70
     8
 71
     3
 72
    11
 73
     7
 74
     0
 42
0.00000001
 43
0.00000001
 40
0.0
 40
0.0
 40
0.0
 40
0.0
 40
0.0320002881823512
 40
0.434075763618186
 40
0.8287615327749225
 40
1.0
 40
1.0
 40
1.0
 40
1.0
 10
8641.433227194599
 20
7090.244281014414
 30
0.0
 10
8641.614260873188
 20
7090.043989322778
 30
0.0
 10
8644.069936641632
 20
7087.327083509317
 30
0.0
 10
8650.471398174155
 20
7080.238812620329
 30
0.0
 10
8658.36890602543
 20
7071.491566652782
 30
0.0
 10
8665.012691084808
 20
7064.120290936177
 30
0.0
 10
8667.022980620055
 20
7061.88987584868
 30
0.0
  0
SPLINE
  5
13B
330
1F
100
AcDbEntity
  8
0
  6
SLD-Plná
 62
     7
370
    25
100
AcDbSpline
210
0.0
220
0.0
230
1.0
 70
     8
 71
     3
 72
    14
 73
    10
 74
     0
 42
0.00000001
 43
0.00000001
 40
0.0
 40
0.0
 40
0.0
 40
0.0
 40
0.3223119063752739
 40
0.4335044670734155
 40
0.5453506794240673
 40
0.6578305209158166
 40
0.7708096614515727
 40
0.8842126569043907
 40
1.0
 40
1.0
 40
1.0
 40
1.0
 10
8694.001969867924
 20
7031.92895056625
 30
0.0
 10
8698.697395691965
 20
7026.709037765345
 30
0.0
 10
8705.012669900812
 20
7019.688336785435
 30
0.0
 10
8714.00523565091
 20
7009.680548338549
 30
0.0
 10
8719.667806854031
 20
7003.377119856744
 30
0.0
 10
8725.524071083753
 20
6996.856142316585
 30
0.0
 10
8731.544078757981
 20
6990.151034111269
 30
0.0
 10
8737.741307804357
 20
6983.246931581088
 30
0.0
 10
8741.98812214047
 20
6978.514389691365
 30
0.0
 10
8744.133619859582
 20
6976.123501598218
 30
0.0
  0
SPLINE
  5
13C
330
1F
100
AcDbEntity
  8
0
  6
SLD-Plná
 62
     7
370
    25
100
AcDbSpline
210
0.0
220
0.0
230
1.0
 70
     8
 71
     3
 72
    10
 73
     6
 74
     0
 42
0.00000001
 43
0.00000001
 40
0.0
 40
0.0
 40
0.0
 40
0.0
 40
0.0000079082661693
 40
0.7780687866921828
 40
1.0
 40
1.0
 40
1.0
 40
1.0
 10
8239.653660554915
 20
4619.66080946531
 30
0.0
 10
8239.653660554975
 20
4619.660809465321
 30
0.0
 10
8239.653666259954
 20
4619.660810504733
 30
0.0
 10
8240.074328653975
 20
4619.750301982734
 30
0.0
 10
8243.360728243191
 20
4620.346799833665
 30
0.0
 10
8244.090088659414
 20
4620.479182372374
 30
0.0
  0
LWPOLYLINE
  5
13D
330
1F
100
AcDbEntity
  8
0
  6
SLD-Plná
 62
     7
370
    25
100
AcDbPolyline
 90
        5
 70
   128
 43
0.0
 10
8593.343618638
 20
4655.0935775353
 10
8593.6032220284
 20
4655.1065052616
 10
8594.6704023237
 20
4655.1582879388
 10
8594.6704023239
 20
4655.1582879388
 10
8594.6704023239
 20
4655.1582879388
  0
SPLINE
  5
13E
330
1F
100
AcDbEntity
  8
0
  6
SLD-Plná
 62
     7
370
    25
100
AcDbSpline
210
0.0
220
0.0
230
1.0
 70
     8
 71
     3
 72
    63
 73
    59
 74
     0
 42
0.00000001
 43
0.00000001
 40
0.0
 40
0.0
 40
0.0
 40
0.0
 40
0.0174540401029726
 40
0.0340671130019772
 40
0.0498199194844503
 40
0.0647264992123557
 40
0.0788105557332438
 40
0.0920821895461511
 40
0.1104902753809542
 40
0.1271447075776415
 40
0.1421029783033543
 40
0.1553411231343843
 40
0.1703996992874698
 40
0.1825371655789181
 40
0.1917777765788082
 40
0.1983771096298773
 40
0.203238975979788
 40
0.2084340536013633
 40
0.21397847105326
 40
0.2198722650850508
 40
0.2261391791149769
 40
0.2329581742378989
 40
0.2403663023293426
 40
0.25780188613279
 40
0.277851844647455
 40
0.3005152698960746
 40
0.3224194467755286
 40
0.3462719791672018
 40
0.3721056401587928
 40
0.3995992915182506
 40
0.4262996629994952
 40
0.4518972445934243
 40
0.4763328104432287
 40
0.5081209391443103
 40
0.5377807331085936
 40
0.565256202975223
 40
0.5907195029345963
 40
0.6119771163685106
 40
0.6321095057877899
 40
0.6532577865548249
 40
0.6755843202148204
 40
0.69913799966338
 40
0.7197703808563924
 40
0.7413360690348954
 40
0.7638660603251822
 40
0.7873046086708327
 40
0.8104335254779579
 40
0.8329208847261397
 40
0.8494168851427258
 40
0.8656278562092327
 40
0.8813909798935055
 40
0.8965973835175276
 40
0.9159844464995663
 40
0.9345793992828294
 40
0.9541684595694319
 40
0.9751521884109129
 40
0.9974969164069465
 40
1.0
 40
1.0
 40
1.0
 40
1.0
 10
6553.636364126783
 20
2407.275731576984
 30
0.0
 10
6566.462273517435
 20
2407.559374828448
 30
0.0
 10
6591.496116798796
 20
2408.112994886781
 30
0.0
 10
6627.712493767318
 20
2412.272241189227
 30
0.0
 10
6661.464937900012
 20
2418.138152396737
 30
0.0
 10
6692.712762910888
 20
2425.410674772023
 30
0.0
 10
6721.522619165087
 20
2433.590297720128
 30
0.0
 10
6751.940678470576
 20
2443.66513952646
 30
0.0
 10
6783.063825150468
 20
2455.665307177542
 30
0.0
 10
6814.052167070057
 20
2469.44739178914
 30
0.0
 10
6840.840812286499
 20
2482.752963436538
 30
0.0
 10
6865.865462438019
 20
2496.293454718116
 30
0.0
 10
6888.505303635801
 20
2509.556754918977
 30
0.0
 10
6908.278781504807
 20
2521.977069719904
 30
0.0
 10
6923.09165952514
 20
2531.777081907439
 30
0.0
 10
6933.856496726685
 20
2539.16778105283
 30
0.0
 10
6942.411354093329
 20
2545.197291023645
 30
0.0
 10
6950.327775965029
 20
2550.904784318518
 30
0.0
 10
6958.661141623359
 20
2557.057866741533
 30
0.0
 10
6967.410238151435
 20
2563.681640012424
 30
0.0
 10
6976.65234267431
 20
2570.864372122214
 30
0.0
 10
6986.471498437545
 20
2578.710998428643
 30
0.0
 10
7001.374433070992
 20
2590.981756722114
 30
0.0
 10
7021.847866353736
 20
2608.735521641529
 30
0.0
 10
7047.965230276649
 20
2633.176388720105
 30
0.0
 10
7074.441518341084
 20
2660.170316653702
 30
0.0
 10
7100.739043787807
 20
2689.467158946129
 30
0.0
 10
7126.466553384836
 20
2720.780207736749
 30
0.0
 10
7152.230865488902
 20
2755.19260685659
 30
0.0
 10
7176.91159882214
 20
2791.47706506215
 30
0.0
 10
7199.660029325834
 20
2828.171896425734
 30
0.0
 10
7219.994824072891
 20
2863.854054932925
 30
0.0
 10
7240.29847613192
 20
2902.22569690184
 30
0.0
 10
7260.185187287867
 20
2942.946883481173
 30
0.0
 10
7278.980909312156
 20
2985.708682355542
 30
0.0
 10
7294.764833492138
 20
3025.908391738802
 30
0.0
 10
7307.518025151607
 20
3062.370691399557
 30
0.0
 10
7317.916285994168
 20
3095.474363806962
 30
0.0
 10
7326.787655554734
 20
3126.615702762655
 30
0.0
 10
7334.968444703785
 20
3158.289063928948
 30
0.0
 10
7342.791138427891
 20
3191.699782920242
 30
0.0
 10
7349.662414318945
 20
3225.022643512773
 30
0.0
 10
7355.38080801229
 20
3258.163999266141
 30
0.0
 10
7359.784723199387
 20
3291.029427469566
 30
0.0
 10
7362.699260604133
 20
3325.644866351066
 30
0.0
 10
7363.357440502605
 20
3361.458233729978
 30
0.0
 10
7360.853250004158
 20
3397.729493256237
 30
0.0
 10
7354.787797734308
 20
3430.659857294603
 30
0.0
 10
7345.555232627943
 20
3459.784588296432
 30
0.0
 10
7333.935259730689
 20
3484.946228106812
 30
0.0
 10
7319.003810208384
 20
3508.200774959748
 30
0.0
 10
7299.704773670531
 20
3531.395968948744
 30
0.0
 10
7275.740872488042
 20
3553.846210426149
 30
0.0
 10
7246.257242538176
 20
3575.615355478538
 30
0.0
 10
7213.036924043084
 20
3595.509769869948
 30
0.0
 10
7174.91549708253
 20
3613.779088502712
 30
0.0
 10
7146.019034025107
 20
3625.882485038062
 30
0.0
 10
7129.490413790284
 20
3631.197172726385
 30
0.0
 10
7127.825377093706
 20
3631.73255619495
 30
0.0
  0
SPLINE
  5
13F
330
1F
100
AcDbEntity
  8
0
  6
SLD-Plná
 62
     7
370
    25
100
AcDbSpline
210
0.0
220
0.0
230
1.0
 70
     8
 71
     3
 72
    58
 73
    54
 74
     0
 42
0.00000001
 43
0.00000001
 40
0.0
 40
0.0
 40
0.0
 40
0.0
 40
0.0030997573910098
 40
0.0268435642145333
 40
0.0499179112096745
 40
0.0667608007927486
 40
0.0831969934976045
 40
0.0996065439433554
 40
0.1162482323090958
 40
0.1331173351996748
 40
0.1501045520470757
 40
0.1670357677556044
 40
0.1839455510886138
 40
0.2090703975753811
 40
0.2333956016932162
 40
0.2569332213942027
 40
0.2797415222720533
 40
0.3018486895115003
 40
0.3232614817315775
 40
0.3557425463518907
 40
0.3883017462957218
 40
0.4229782122187609
 40
0.4580611801722542
 40
0.4950918510179925
 40
0.5340632717235958
 40
0.5750970223813039
 40
0.6018223175112314
 40
0.6293881224510629
 40
0.6558429133897539
 40
0.6802576506362098
 40
0.702687731277338
 40
0.7257292559188915
 40
0.7461285826058262
 40
0.7639086381003481
 40
0.7791022548044756
 40
0.7922011096239269
 40
0.7959205466426685
 40
0.7994617933617733
 40
0.8030647638664303
 40
0.8080808263668379
 40
0.8173001828474573
 40
0.8294250807470906
 40
0.8444777281200825
 40
0.85772858396803
 40
0.8727009398815453
 40
0.8893751525528948
 40
0.9078005649480269
 40
0.9210861997349358
 40
0.935185319927068
 40
0.9501064831078722
 40
0.9658786934821763
 40
0.9825190542336213
 40
1.0
 40
1.0
 40
1.0
 40
1.0
 10
5979.211185253482
 20
3631.61021794412
 30
0.0
 10
5977.149806893411
 20
3630.946333716551
 30
0.0
 10
5959.298492935891
 20
3625.197168009101
 30
0.0
 10
5927.91408545799
 20
3611.894631921097
 30
0.0
 10
5889.685237836187
 20
3593.01939356642
 30
0.0
 10
5858.449331107502
 20
3573.725245941927
 30
0.0
 10
5833.088494963752
 20
3554.905423252141
 30
0.0
 10
5810.409839661689
 20
3534.23688976607
 30
0.0
 10
5790.599914313375
 20
3511.442636242928
 30
0.0
 10
5774.155968581716
 20
3486.515236211981
 30
0.0
 10
5761.758049642212
 20
3459.897918067042
 30
0.0
 10
5753.234269248852
 20
3432.711276878136
 30
0.0
 10
5746.969817031298
 20
3400.971875893265
 30
0.0
 10
5744.056666518836
 20
3365.353199361992
 30
0.0
 10
5744.651513968062
 20
3326.917128029728
 30
0.0
 10
5747.785015705046
 20
3290.311337019146
 30
0.0
 10
5752.608110936749
 20
3255.377474660229
 30
0.0
 10
5758.559093423918
 20
3221.952938117897
 30
0.0
 10
5766.509106403389
 20
3184.054279189911
 30
0.0
 10
5776.720098015794
 20
3141.507922682337
 30
0.0
 10
5790.197038586805
 20
3092.701870796789
 30
0.0
 10
5806.375125687796
 20
3042.772804868862
 30
0.0
 10
5825.964027477993
 20
2991.110719835613
 30
0.0
 10
5849.26883590224
 20
2938.001801616884
 30
0.0
 10
5876.717472930882
 20
2882.904602849233
 30
0.0
 10
5904.395226562204
 20
2833.25437434958
 30
0.0
 10
5931.657676938411
 20
2789.481091563669
 30
0.0
 10
5956.666833109595
 20
2752.904164074425
 30
0.0
 10
5982.990064365689
 20
2717.977730925804
 30
0.0
 10
6009.518130591813
 20
2685.984135455007
 30
0.0
 10
6036.609839688917
 20
2656.150372372118
 30
0.0
 10
6063.85622581989
 20
2628.747621338946
 30
0.0
 10
6090.705323852363
 20
2603.999678164556
 30
0.0
 10
6115.301855487038
 20
2583.02939704189
 30
0.0
 10
6137.434779687519
 20
2565.418111060388
 30
0.0
 10
6153.35213649769
 20
2553.499818905332
 30
0.0
 10
6163.680616831053
 20
2546.050535720384
 30
0.0
 10
6169.239445102929
 20
2542.106196795898
 30
0.0
 10
6175.514044644218
 20
2537.725685904796
 30
0.0
 10
6184.80260822028
 20
2531.368227924376
 30
0.0
 10
6198.754339280837
 20
2522.131723769029
 30
0.0
 10
6218.497769984027
 20
2509.720558761758
 30
0.0
 10
6241.124749186564
 20
2496.453335595344
 30
0.0
 10
6266.148780689249
 20
2482.898392598455
 30
0.0
 10
6292.955869183734
 20
2469.572005248716
 30
0.0
 10
6323.963683454872
 20
2455.766536261034
 30
0.0
 10
6355.110288417958
 20
2443.744504088122
 30
0.0
 10
6385.551151750715
 20
2433.65107609654
 30
0.0
 10
6414.38455273506
 20
2425.455632154891
 30
0.0
 10
6445.66131408252
 20
2418.16823908903
 30
0.0
 10
6479.45255318966
 20
2412.286561332201
 30
0.0
 10
6515.719241988565
 20
2408.115470172966
 30
0.0
 10
6540.791452461305
 20
2407.560204124249
 30
0.0
 10
6553.636387085607
 20
2407.275731556401
 30
0.0
  0
LINE
  5
140
330
1F
100
AcDbEntity
  8
0
  6
SLD-Plná
 62
     7
370
    25
100
AcDbLine
 10
7313.1267742145
 20
3514.6905535735
 30
0.0
 11
7373.3398907613
 21
3907.8761151663
 31
0.0
  0
LINE
  5
141
330
1F
100
AcDbEntity
  8
0
  6
SLD-Plná
 62
     7
370
    25
100
AcDbLine
 10
5733.9328396264
 20
3907.8761151663
 30
0.0
 11
5794.1643481179
 21
3514.5704592042
 31
0.0
  0
SPLINE
  5
142
330
1F
100
AcDbEntity
  8
0
  6
SLD-Plná
 62
     7
370
    25
100
AcDbSpline
210
0.0
220
0.0
230
1.0
 70
     8
 71
     3
 72
    50
 73
    46
 74
     0
 42
0.00000001
 43
0.00000001
 40
0.0
 40
0.0
 40
0.0
 40
0.0
 40
0.0168886930267992
 40
0.0338125001119791
 40
0.050761694528854
 40
0.0677200534824868
 40
0.0846373508697416
 40
0.1015311367475482
 40
0.1214585684130711
 40
0.1413478786720293
 40
0.1612340140610314
 40
0.1811157007967059
 40
0.2112339471161678
 40
0.2414300239515762
 40
0.2716732843235887
 40
0.3020297445699196
 40
0.3324175422772813
 40
0.362908278957122
 40
0.3995424336484776
 40
0.4361072308257697
 40
0.4726861331531572
 40
0.5093541195878312
 40
0.546338113426646
 40
0.5671372013473535
 40
0.5880006435102682
 40
0.6088768888828245
 40
0.6297007001442145
 40
0.6504137455096448
 40
0.6665524447974844
 40
0.6825271294881007
 40
0.698476966807334
 40
0.714676789060861
 40
0.7312358124301646
 40
0.7473471789750058
 40
0.7638007701163995
 40
0.7805308583503123
 40
0.797451285612857
 40
0.8144668118266075
 40
0.8368810626226917
 40
0.8593913340749667
 40
0.8817590328463935
 40
0.9115471943970315
 40
0.9412197674689776
 40
0.970769036628571
 40
1.0
 40
1.0
 40
1.0
 40
1.0
 10
6553.6363651938
 20
2419.721163026835
 30
0.0
 10
6568.649915340849
 20
2420.153412368548
 30
0.0
 10
6598.708230997527
 20
2421.018809761458
 30
0.0
 10
6642.932087719107
 20
2427.613819787807
 30
0.0
 10
6685.787824705271
 20
2437.321902901623
 30
0.0
 10
6726.964341232686
 20
2449.930845409652
 30
0.0
 10
6766.28668192452
 20
2464.8807987349
 30
0.0
 10
6805.907616552993
 20
2482.866646988645
 30
0.0
 10
6845.521999723816
 20
2503.864408699471
 30
0.0
 10
6884.856330099329
 20
2527.824393018671
 30
0.0
 10
6921.906033730208
 20
2553.312159112021
 30
0.0
 10
6962.752241908046
 20
2584.719227383149
 30
0.0
 10
7006.036009853249
 20
2622.715779334429
 30
0.0
 10
7050.12315089131
 20
2667.807442066486
 30
0.0
 10
7089.679919673884
 20
2714.817823648866
 30
0.0
 10
7125.097833086825
 20
2763.335395438525
 30
0.0
 10
7156.869711798304
 20
2813.087704349761
 30
0.0
 10
7187.379627284659
 20
2867.181117103343
 30
0.0
 10
7216.618581017929
 20
2925.515298503113
 30
0.0
 10
7243.627568934907
 20
2988.228610293585
 30
0.0
 10
7266.246728331058
 20
3051.799216480712
 30
0.0
 10
7284.722644114719
 20
3116.20442465126
 30
0.0
 10
7297.762165917378
 20
3171.62761437764
 30
0.0
 10
7306.555562755013
 20
3217.906785066386
 30
0.0
 10
7311.951614865206
 20
3254.824592177005
 30
0.0
 10
7315.291519442228
 20
3291.884122785359
 30
0.0
 10
7315.857089213362
 20
3328.962461128696
 30
0.0
 10
7312.838015448985
 20
3363.247540989617
 30
0.0
 10
7305.918066035753
 20
3394.415987565337
 30
0.0
 10
7295.211937112612
 20
3422.23769677881
 30
0.0
 10
7278.497669961482
 20
3448.771607412308
 30
0.0
 10
7255.720563844235
 20
3473.575607134824
 30
0.0
 10
7227.824958434526
 20
3495.985627678925
 30
0.0
 10
7195.801848233674
 20
3515.918967144013
 30
0.0
 10
7160.631877041272
 20
3533.435826209729
 30
0.0
 10
7122.547008725732
 20
3548.874175639255
 30
0.0
 10
7082.280062718097
 20
3562.330352145538
 30
0.0
 10
7036.046093857542
 20
3575.157530442116
 30
0.0
 10
6983.852219411164
 20
3586.844366925029
 30
0.0
 10
6926.02657624146
 20
3597.006078449815
 30
0.0
 10
6861.025544317687
 20
3605.866739476274
 30
0.0
 10
6789.075489206056
 20
3612.9371170449
 30
0.0
 10
6710.325743041037
 20
3617.840977609094
 30
0.0
 10
6631.822038585964
 20
3620.449397073865
 30
0.0
 10
6579.603999557386
 20
3620.648924932372
 30
0.0
 10
6553.6363651938
 20
3620.748148621565
 30
0.0
  0
SPLINE
  5
143
330
1F
100
AcDbEntity
  8
0
  6
SLD-Plná
 62
     7
370
    25
100
AcDbSpline
210
0.0
220
0.0
230
1.0
 70
     8
 71
     3
 72
    18
 73
    14
 74
     0
 42
0.00000001
 43
0.00000001
 40
0.0
 40
0.0
 40
0.0
 40
0.0
 40
0.0633346045933745
 40
0.1269074486971402
 40
0.1904313993207591
 40
0.2538363186101112
 40
0.3383765316368778
 40
0.422750835590209
 40
0.5065507032000675
 40
0.631488842583845
 40
0.755826474596091
 40
0.8791774674872435
 40
1.0
 40
1.0
 40
1.0
 40
1.0
 10
7185.00910208689
 20
3609.293889102173
 30
0.0
 10
7173.937044836302
 20
3614.153772999488
 30
0.0
 10
7151.751281673775
 20
3623.891821738133
 30
0.0
 10
7115.617292767895
 20
3636.124682196568
 30
0.0
 10
7078.080518959069
 20
3646.945002304004
 30
0.0
 10
7035.036093588485
 20
3657.412413368416
 30
0.0
 10
6986.50344565011
 20
3667.253004358789
 30
0.0
 10
6932.67716454399
 20
3676.144218237104
 30
0.0
 10
6869.457428471179
 20
3684.55153340047
 30
0.0
 10
6796.884119934374
 20
3691.552982037002
 30
0.0
 10
6715.156612611128
 20
3696.462821535162
 30
0.0
 10
6634.053820935986
 20
3698.972325337205
 30
0.0
 10
6580.256656684991
 20
3699.129851115491
 30
0.0
 10
6553.636614171956
 20
3699.207798400878
 30
0.0
  0
SPLINE
  5
144
330
1F
100
AcDbEntity
  8
0
  6
SLD-Plná
 62
     7
370
    25
100
AcDbSpline
210
0.0
220
0.0
230
1.0
 70
     8
 71
     3
 72
     9
 73
     5
 74
     0
 42
0.00000001
 43
0.00000001
 40
0.0
 40
0.0
 40
0.0
 40
0.0
 40
0.4891496978265369
 40
1.0
 40
1.0
 40
1.0
 40
1.0
 10
5979.236919575699
 20
3631.518869697773
 30
0.0
 10
5971.36841533969
 20
3628.937313715389
 30
0.0
 10
5955.282329074131
 20
3623.659673774379
 30
0.0
 10
5940.606173711256
 20
3617.173587725281
 30
0.0
 10
5933.108855309387
 20
3613.860168707176
 30
0.0
  0
SPLINE
  5
145
330
1F
100
AcDbEntity
  8
0
  6
SLD-Plná
 62
     7
370
    25
100
AcDbSpline
210
0.0
220
0.0
230
1.0
 70
     8
 71
     3
 72
    51
 73
    47
 74
     0
 42
0.00000001
 43
0.00000001
 40
0.0
 40
0.0
 40
0.0
 40
0.0
 40
0.0265607733852533
 40
0.0532909504838588
 40
0.080223842537102
 40
0.1072696088641367
 40
0.1344376276461015
 40
0.1572715672592689
 40
0.1800448259465292
 40
0.2026589265197259
 40
0.2195210897603493
 40
0.2361917311120698
 40
0.2525876711544235
 40
0.2686467309753057
 40
0.2843388801416215
 40
0.2997051129358805
 40
0.3148351290089153
 40
0.3299317432270736
 40
0.3451824706190946
 40
0.3605461704284826
 40
0.3759998965458902
 40
0.3915048549740325
 40
0.4225662376080646
 40
0.4535330722602136
 40
0.4843831483907856
 40
0.5150046253813033
 40
0.5455074776110772
 40
0.5759609382235469
 40
0.6064673364491037
 40
0.6370035375339307
 40
0.6675534553695625
 40
0.6979303138381353
 40
0.7283036533312818
 40
0.7585463184590006
 40
0.7827201035463055
 40
0.8068337502879174
 40
0.8309189412653961
 40
0.8550158173651502
 40
0.8791214787620775
 40
0.8992599668091862
 40
0.9193835362857702
 40
0.9395378691661262
 40
0.9546817643824329
 40
0.9698086271403713
 40
0.984919200447287
 40
1.0
 40
1.0
 40
1.0
 40
1.0
 10
6553.636365197084
 20
3620.748174164873
 30
0.0
 10
6530.040856295073
 20
3620.668741149121
 30
0.0
 10
6482.699347134173
 20
3620.509368496533
 30
0.0
 10
6411.485121126674
 20
3618.412729798154
 30
0.0
 10
6340.014963595016
 20
3614.484067067011
 30
0.0
 10
6268.500853999768
 20
3608.320356789957
 30
0.0
 10
6201.157502812853
 20
3600.050852871334
 30
0.0
 10
6138.364770440726
 20
3589.728544555374
 30
0.0
 10
6080.548196124864
 20
3577.545322546568
 30
0.0
 10
6029.210618182526
 20
3563.746623198653
 30
0.0
 10
5984.597376383492
 20
3548.823968600464
 30
0.0
 10
5946.648833134205
 20
3533.435449962598
 30
0.0
 10
5911.595257347005
 20
3515.983295201001
 30
0.0
 10
5880.191070682061
 20
3496.458483832429
 30
0.0
 10
5853.165240049409
 20
3474.938649037026
 30
0.0
 10
5831.142489033688
 20
3451.611897543171
 30
0.0
 10
5814.495264765465
 20
3426.72311124146
 30
0.0
 10
5803.35966604045
 20
3400.580188956525
 30
0.0
 10
5796.439366780703
 20
3373.700571794261
 30
0.0
 10
5792.721216555
 20
3346.373402073323
 30
0.0
 10
5791.500358675372
 20
3318.841549580019
 30
0.0
 10
5792.467296156653
 20
3282.013784576009
 30
0.0
 10
5797.470717559519
 20
3236.117810004876
 30
0.0
 10
5807.391008190752
 20
3181.428701258596
 30
0.0
 10
5819.928537696655
 20
3127.177720223212
 30
0.0
 10
5834.589525203703
 20
3073.364199665655
 30
0.0
 10
5851.955560869151
 20
3020.126429099571
 30
0.0
 10
5872.308574030529
 20
2967.451051690088
 30
0.0
 10
5895.672459943815
 20
2915.380719764723
 30
0.0
 10
5921.734887249698
 20
2863.914570351914
 30
0.0
 10
5950.350484589604
 20
2813.175089079111
 30
0.0
 10
5982.140447502996
 20
2763.385457158186
 30
0.0
 10
6017.556401997071
 20
2714.863307576293
 30
0.0
 10
6054.495944193282
 20
2670.960243261541
 30
0.0
 10
6092.318612051592
 20
2631.702626454878
 30
0.0
 10
6130.223344736807
 20
2596.87374916921
 30
0.0
 10
6171.181614987824
 20
2563.647455193384
 30
0.0
 10
6215.301694151276
 20
2532.259694635576
 30
0.0
 10
6260.124992325759
 20
2504.662733936754
 30
0.0
 10
6305.173647300899
 20
2480.903041557206
 30
0.0
 10
6350.04036701459
 20
2460.977538518642
 30
0.0
 10
6393.656397027485
 20
2445.456409906909
 30
0.0
 10
6435.140894761304
 20
2433.949757596813
 30
0.0
 10
6473.763193824718
 20
2426.052703958396
 30
0.0
 10
6513.395683451552
 20
2420.753714403129
 30
0.0
 10
6540.231625024342
 20
2420.06512045258
 30
0.0
 10
6553.636363442472
 20
2419.721163011833
 30
0.0
  0
SPLINE
  5
146
330
1F
100
AcDbEntity
  8
0
  6
SLD-Plná
 62
     7
370
    25
100
AcDbSpline
210
0.0
220
0.0
230
1.0
 70
     8
 71
     3
 72
    20
 73
    16
 74
     0
 42
0.00000001
 43
0.00000001
 40
0.0
 40
0.0
 40
0.0
 40
0.0
 40
0.0545737394455359
 40
0.108181409297388
 40
0.1602860383703499
 40
0.2108462853189675
 40
0.2601931988813631
 40
0.3102153216273852
 40
0.3904739922708329
 40
0.4721348638571227
 40
0.5546186673431001
 40
0.6668666985862202
 40
0.7786207048195384
 40
0.8894532393669653
 40
1.0
 40
1.0
 40
1.0
 40
1.0
 10
5903.297906924397
 20
3270.917210706948
 30
0.0
 10
5909.474770205478
 20
3278.547783000537
 30
0.0
 10
5921.719153338722
 20
3293.673850461784
 30
0.0
 10
5945.436611843307
 20
3313.758432569546
 30
0.0
 10
5972.51683843325
 20
3330.88141889171
 30
0.0
 10
6002.470096502386
 20
3344.557583574274
 30
0.0
 10
6034.305470634758
 20
3355.368790193113
 30
0.0
 10
6074.0307771456
 20
3365.898371735702
 30
0.0
 10
6122.289571422543
 20
3375.723079994911
 30
0.0
 10
6179.096729854749
 20
3383.967843886221
 30
0.0
 10
6243.990501811117
 20
3390.813649584677
 30
0.0
 10
6316.270342793029
 20
3396.894107090739
 30
0.0
 10
6395.624896412512
 20
3401.048303601114
 30
0.0
 10
6474.762773201497
 20
3402.766004010759
 30
0.0
 10
6527.367803441782
 20
3402.865834643437
 30
0.0
 10
6553.6363651938
 20
3402.915685525137
 30
0.0
  0
SPLINE
  5
147
330
1F
100
AcDbEntity
  8
0
  6
SLD-Plná
 62
     7
370
    25
100
AcDbSpline
210
0.0
220
0.0
230
1.0
 70
     8
 71
     3
 72
    32
 73
    28
 74
     0
 42
0.00000001
 43
0.00000001
 40
0.0
 40
0.0
 40
0.0
 40
0.0
 40
0.0285299819521302
 40
0.0567401763634504
 40
0.0847533110942784
 40
0.1125404229953155
 40
0.1401578255227119
 40
0.1760543129585391
 40
0.2118439777874962
 40
0.24767148766923
 40
0.2966663585745747
 40
0.3456291572881395
 40
0.3945661334675906
 40
0.443535747275273
 40
0.4927616915513245
 40
0.5482758678319475
 40
0.6042930413362123
 40
0.6602719362614318
 40
0.7159390556764516
 40
0.7724531116369528
 40
0.8045459689116506
 40
0.8370977781403294
 40
0.8698089626516078
 40
0.9025105583674053
 40
0.9350762480612691
 40
0.9675360017438517
 40
1.0
 40
1.0
 40
1.0
 40
1.0
 10
6553.636353320926
 20
2420.549516606835
 30
0.0
 10
6538.538963765818
 20
2420.978586257196
 30
0.0
 10
6508.513408635011
 20
2421.831916191809
 30
0.0
 10
6464.548604607497
 20
2428.357464674055
 30
0.0
 10
6422.434876540415
 20
2438.029523554462
 30
0.0
 10
6382.403106953711
 20
2450.64793324279
 30
0.0
 10
6340.620847884706
 20
2467.016003535393
 30
0.0
 10
6297.714002717722
 20
2487.491509620904
 30
0.0
 10
6254.036450214812
 20
2512.026830188875
 30
0.0
 10
6207.884800518616
 20
2541.661821952433
 30
0.0
 10
6160.528762965263
 20
2577.03023414614
 30
0.0
 10
6113.158353892442
 20
2618.36206281432
 30
0.0
 10
6069.982884796698
 20
2661.617157238489
 30
0.0
 10
6030.225431164853
 20
2706.342164726833
 30
0.0
 10
5992.363693772471
 20
2754.380229634533
 30
0.0
 10
5957.313650793149
 20
2806.086527484962
 30
0.0
 10
5926.674975341601
 20
2861.576189271321
 30
0.0
 10
5901.668014912822
 20
2918.398012854603
 30
0.0
 10
5881.001468361943
 20
2976.253055134305
 30
0.0
 10
5865.81128826105
 20
3026.342332536501
 30
0.0
 10
5856.911215029722
 20
3068.849661799847
 30
0.0
 10
5852.935239302482
 20
3103.239823097518
 30
0.0
 10
5852.948728021616
 20
3137.940854981668
 30
0.0
 10
5857.796290357847
 20
3172.480003568149
 30
0.0
 10
5867.74943760222
 20
3206.379837801215
 30
0.0
 10
5882.096529510918
 20
3239.537309259385
 30
0.0
 10
5896.230194533424
 20
3260.456416595331
 30
0.0
 10
5903.297489058801
 20
3270.916654086152
 30
0.0
  0
LINE
  5
148
330
1F
100
AcDbEntity
  8
0
  6
SLD-Plná
 62
     7
370
    25
100
AcDbLine
 10
6553.6363651938
 20
2420.5495167689
 30
0.0
 11
6553.6363651938
 21
2419.7211630211
 31
0.0
  0
SPLINE
  5
149
330
1F
100
AcDbEntity
  8
0
  6
SLD-Plná
 62
     7
370
    25
100
AcDbSpline
210
0.0
220
0.0
230
1.0
 70
     8
 71
     3
 72
    24
 73
    20
 74
     0
 42
0.00000001
 43
0.00000001
 40
0.0
 40
0.0
 40
0.0
 40
0.0
 40
0.1124185670230441
 40
0.2252883680185586
 40
0.3391465189541605
 40
0.4531656889336289
 40
0.5653765086317235
 40
0.6262430197229764
 40
0.6863658633452914
 40
0.7453837150390352
 40
0.8036159069312965
 40
0.8565770418745572
 40
0.9111982595520146
 40
0.9257685213107095
 40
0.9404244351635399
 40
0.9551633774346905
 40
0.9699677460052387
 40
0.9848276549559215
 40
1.0
 40
1.0
 40
1.0
 40
1.0
 10
6553.6363651938
 20
3402.915740366047
 30
0.0
 10
6580.350912445097
 20
3402.864145850108
 30
0.0
 10
6633.887235776506
 20
3402.76074972434
 30
0.0
 10
6714.45552852674
 20
3400.964442070814
 30
0.0
 10
6795.203863524158
 20
3396.610941384987
 30
0.0
 10
6875.37776208746
 20
3389.741973923145
 30
0.0
 10
6942.736905455708
 20
3382.240481713291
 30
0.0
 10
6996.594519097408
 20
3373.393944470463
 30
0.0
 10
7037.447316533041
 20
3364.824668148182
 30
0.0
 10
7076.677296280128
 20
3354.405689624592
 30
0.0
 10
7112.490822935003
 20
3341.620693781541
 30
0.0
 10
7144.055964611198
 20
3325.658687516618
 30
0.0
 10
7164.181880573695
 20
3311.541652479507
 30
0.0
 10
7176.461915257468
 20
3301.052503101819
 30
0.0
 10
7182.560690722644
 20
3295.381174870077
 30
0.0
 10
7188.358141522351
 20
3289.527276394549
 30
0.0
 10
7193.849715645632
 20
3283.506631338414
 30
0.0
 10
7199.095486245721
 20
3277.309571615862
 30
0.0
 10
7202.337039670597
 20
3273.062734312856
 30
0.0
 10
7203.974677892811
 20
3270.917224990823
 30
0.0
  0
SPLINE
  5
14A
330
1F
100
AcDbEntity
  8
0
  6
SLD-Plná
 62
     7
370
    25
100
AcDbSpline
210
0.0
220
0.0
230
1.0
 70
     8
 71
     3
 72
    34
 73
    30
 74
     0
 42
0.00000001
 43
0.00000001
 40
0.0
 40
0.0
 40
0.0
 40
0.0
 40
0.0324584090350516
 40
0.06472604179769
 40
0.0970999369261142
 40
0.1296272413148922
 40
0.1621454970870824
 40
0.1945142526296485
 40
0.2264098590324434
 40
0.258063936154765
 40
0.3081696807640409
 40
0.3579471552057595
 40
0.4080434047687695
 40
0.4579995525550478
 40
0.5074626004871967
 40
0.5566767809363851
 40
0.605641489320007
 40
0.6545742885362406
 40
0.703530537426027
 40
0.7525221117439881
 40
0.7830545958170779
 40
0.8135615256134037
 40
0.8440868472011525
 40
0.8747892944610226
 40
0.9057216283879825
 40
0.9369010434601422
 40
0.9578480876086586
 40
0.9788863723624319
 40
1.0
 40
1.0
 40
1.0
 40
1.0
 10
7203.9752332738
 20
3270.916667421154
 30
0.0
 10
7211.041909654021
 20
3260.457993043536
 30
0.0
 10
7225.133727594423
 20
3239.602115782788
 30
0.0
 10
7239.440794958803
 20
3206.580239008176
 30
0.0
 10
7249.379728365984
 20
3172.879107693739
 30
0.0
 10
7254.274038845087
 20
3138.541916762881
 30
0.0
 10
7254.37895781186
 20
3104.035236187218
 30
0.0
 10
7250.514210412844
 20
3069.842661951968
 30
0.0
 10
7243.576767611291
 20
3036.179014647661
 30
0.0
 10
7232.611875171509
 20
2996.601997233887
 30
0.0
 10
7217.644216577499
 20
2951.126564959124
 30
0.0
 10
7197.819043387301
 20
2899.789213340366
 30
0.0
 10
7174.197042042165
 20
2849.286291695822
 30
0.0
 10
7145.919815297257
 20
2799.999069060252
 30
0.0
 10
7113.26370046127
 20
2752.275181271092
 30
0.0
 10
7076.874612699021
 20
2706.137692578016
 30
0.0
 10
7037.107444424693
 20
2661.4232784306
 30
0.0
 10
6993.918366747094
 20
2618.178273777684
 30
0.0
 10
6946.531981761154
 20
2576.858986475764
 30
0.0
 10
6901.034022969414
 20
2542.900946386474
 30
0.0
 10
6859.112231420871
 20
2515.750844180168
 30
0.0
 10
6822.382271257825
 20
2494.496959323526
 30
0.0
 10
6783.643207883872
 20
2474.796873379693
 30
0.0
 10
6742.528332755864
 20
2457.09322210753
 30
0.0
 10
6698.806925207082
 20
2441.943224892448
 30
0.0
 10
6657.630072656458
 20
2431.393900308992
 30
0.0
 10
6620.117544383175
 20
2424.905598658044
 30
0.0
 10
6587.104911579598
 20
2421.252133716622
 30
0.0
 10
6564.805809479564
 20
2420.784001332096
 30
0.0
 10
6553.636329575038
 20
2420.549516766836
 30
0.0
  0
SPLINE
  5
14B
330
1F
100
AcDbEntity
  8
0
  6
SLD-Plná
 62
     7
370
    25
100
AcDbSpline
210
0.0
220
0.0
230
1.0
 70
     8
 71
     3
 72
    18
 73
    14
 74
     0
 42
0.00000001
 43
0.00000001
 40
0.0
 40
0.0
 40
0.0
 40
0.0
 40
0.1214540881329195
 40
0.2454334762285112
 40
0.3712113041384678
 40
0.4978075153518886
 40
0.5823996391356655
 40
0.6666854441038655
 40
0.750461980499684
 40
0.8129929255029562
 40
0.875495741439938
 40
0.9378797380125838
 40
1.0
 40
1.0
 40
1.0
 40
1.0
 10
6553.636333799051
 20
3748.503816022398
 30
0.0
 10
6527.036833298469
 20
3748.453057473296
 30
0.0
 10
6473.284769665549
 20
3748.350484992232
 30
0.0
 10
6392.088657874854
 20
3746.054915269247
 30
0.0
 10
6310.06765149799
 20
3741.349780798081
 30
0.0
 10
6237.130892779969
 20
3734.515290915387
 30
0.0
 10
6173.850880535754
 20
3726.223156591363
 30
0.0
 10
6120.504591654143
 20
3717.545912668058
 30
0.0
 10
6072.935781633484
 20
3708.078565326273
 30
0.0
 10
6031.255520461505
 20
3698.092899012248
 30
0.0
 10
5995.403418603641
 20
3687.776441508955
 30
0.0
 10
5961.400180309242
 20
3676.029435016003
 30
0.0
 10
5941.208420207733
 20
3666.449860578605
 30
0.0
 10
5931.133926033803
 20
3661.670219458998
 30
0.0
  0
SPLINE
  5
14C
330
1F
100
AcDbEntity
  8
0
  6
SLD-Plná
 62
     7
370
    25
100
AcDbSpline
210
0.0
220
0.0
230
1.0
 70
     8
 71
     3
 72
    18
 73
    14
 74
     0
 42
0.00000001
 43
0.00000001
 40
0.0
 40
0.0
 40
0.0
 40
0.0
 40
0.0620835656200058
 40
0.1244300677516814
 40
0.1868910126205681
 40
0.2493911927763514
 40
0.3331432747130023
 40
0.4173881050680101
 40
0.5017834142829131
 40
0.628330543762801
 40
0.7540900635558035
 40
0.8786213156780542
 40
1.0
 40
1.0
 40
1.0
 40
1.0
 10
7176.138946233797
 20
3661.670126947
 30
0.0
 10
7166.070939692957
 20
3666.447540764871
 30
0.0
 10
7145.892286558421
 20
3676.022601718586
 30
0.0
 10
7111.911453503581
 20
3687.76268006752
 30
0.0
 10
7076.083120856698
 20
3698.074493908093
 30
0.0
 10
7034.425506685034
 20
3708.059612585698
 30
0.0
 10
6986.879013435622
 20
3717.525536042031
 30
0.0
 10
6933.590558125095
 20
3726.197729271005
 30
0.0
 10
6870.374550920964
 20
3734.488649730005
 30
0.0
 10
6797.497209864765
 20
3741.328023095586
 30
0.0
 10
6715.372157232949
 20
3746.048764027802
 30
0.0
 10
6634.075782053843
 20
3748.350613897725
 30
0.0
 10
6580.21935751665
 20
3748.453162955817
 30
0.0
 10
6553.6363651938
 20
3748.503780144902
 30
0.0
  0
SPLINE
  5
14D
330
1F
100
AcDbEntity
  8
0
  6
SLD-Plná
 62
     7
370
    25
100
AcDbSpline
210
0.0
220
0.0
230
1.0
 70
     8
 71
     3
 72
    26
 73
    22
 74
     0
 42
0.00000001
 43
0.00000001
 40
0.0
 40
0.0
 40
0.0
 40
0.0
 40
0.1014273728550266
 40
0.2045400024057701
 40
0.3080578162581785
 40
0.3566913897072261
 40
0.4051651572181815
 40
0.453554716413118
 40
0.5020495084488177
 40
0.550935912541275
 40
0.5907777781583466
 40
0.6304386490257136
 40
0.6697702141899098
 40
0.7088278201492364
 40
0.7479203687162823
 40
0.7874684311480784
 40
0.8276012147031359
 40
0.874929137514377
 40
0.9222145006048513
 40
0.9688284419924682
 40
1.0
 40
1.0
 40
1.0
 40
1.0
 10
6553.6363651938
 20
3907.87611516589
 30
0.0
 10
6591.08470815845
 20
3907.876115165895
 30
0.0
 10
6666.603613405356
 20
3907.876115165903
 30
0.0
 10
6780.143535623391
 20
3907.876115165908
 30
0.0
 10
6873.850429661779
 20
3907.876115165919
 30
0.0
 10
6947.029562158206
 20
3907.876115165937
 30
0.0
 10
6999.683610401296
 20
3907.876115165933
 30
0.0
 10
7051.590265733962
 20
3907.876115165948
 30
0.0
 10
7102.532644657438
 20
3907.876115165957
 30
0.0
 10
7148.955460432305
 20
3907.876115165975
 30
0.0
 10
7190.521760592075
 20
3907.876115165984
 30
0.0
 10
7226.894490183357
 20
3907.876115166006
 30
0.0
 10
7260.185837448015
 20
3907.876115166028
 30
0.0
 10
7289.577227247611
 20
3907.876115166046
 30
0.0
 10
7313.968587402386
 20
3907.876115166077
 30
0.0
 10
7333.149108731672
 20
3907.876115166094
 30
0.0
 10
7348.698452676987
 20
3907.876115166128
 30
0.0
 10
7360.373986791226
 20
3907.876115166157
 30
0.0
 10
7368.149828704764
 20
3907.876115166204
 30
0.0
 10
7372.31070803368
 20
3907.876115166228
 30
0.0
 10
7372.838339721863
 20
3907.87611516625
 30
0.0
 10
7373.049781467471
 20
3907.876115166257
 30
0.0
  0
SPLINE
  5
14E
330
1F
100
AcDbEntity
  8
0
  6
SLD-Plná
 62
     7
370
    25
100
AcDbSpline
210
0.0
220
0.0
230
1.0
 70
     8
 71
     3
 72
    26
 73
    22
 74
     0
 42
0.00000001
 43
0.00000001
 40
0.0
 40
0.0
 40
0.0
 40
0.0
 40
0.1014273728549888
 40
0.204540002405696
 40
0.3080578162580678
 40
0.3566913897070983
 40
0.4051651572180366
 40
0.4535547164129561
 40
0.5020495084486387
 40
0.5509359125410789
 40
0.5907777781581373
 40
0.630438649025491
 40
0.6697702141896716
 40
0.7088278201489845
 40
0.7479203687160155
 40
0.7874684311477976
 40
0.8276012147028415
 40
0.874929137514066
 40
0.9222145006045238
 40
0.9688284419921243
 40
1.0
 40
1.0
 40
1.0
 40
1.0
 10
6553.6363651938
 20
3907.87611516589
 30
0.0
 10
6516.188022229152
 20
3907.876115165897
 30
0.0
 10
6440.669116982248
 20
3907.876115165899
 30
0.0
 10
6327.129194764214
 20
3907.87611516591
 30
0.0
 10
6233.422300725822
 20
3907.876115165919
 30
0.0
 10
6160.243168229394
 20
3907.87611516593
 30
0.0
 10
6107.589119986308
 20
3907.876115165939
 30
0.0
 10
6055.682464653635
 20
3907.876115165948
 30
0.0
 10
6004.74008573017
 20
3907.876115165955
 30
0.0
 10
5958.317269955294
 20
3907.876115165977
 30
0.0
 10
5916.750969795527
 20
3907.876115165986
 30
0.0
 10
5880.378240204241
 20
3907.876115166006
 30
0.0
 10
5847.086892939588
 20
3907.876115166026
 30
0.0
 10
5817.695503139993
 20
3907.876115166048
 30
0.0
 10
5793.304142985214
 20
3907.876115166068
 30
0.0
 10
5774.123621655935
 20
3907.876115166097
 30
0.0
 10
5758.574277710615
 20
3907.87611516613
 30
0.0
 10
5746.898743596377
 20
3907.876115166157
 30
0.0
 10
5739.122901682832
 20
3907.876115166204
 30
0.0
 10
5734.962022353917
 20
3907.876115166232
 30
0.0
 10
5734.43439066573
 20
3907.876115166248
 30
0.0
 10
5734.22294892012
 20
3907.876115166257
 30
0.0
  0
SPLINE
  5
14F
330
1F
100
AcDbEntity
  8
0
  6
SLD-Plná
 62
     7
370
    25
100
AcDbSpline
210
0.0
220
0.0
230
1.0
 70
     8
 71
     3
 72
    15
 73
    11
 74
     0
 42
0.00000001
 43
0.00000001
 40
0.0
 40
0.0
 40
0.0
 40
0.0
 40
0.1666710351786271
 40
0.3333740417332602
 40
0.5000986419286463
 40
0.6249186313752826
 40
0.7500011093133168
 40
0.8748612689167756
 40
0.9374702661914666
 40
0.9999999999999999
 40
0.9999999999999999
 40
0.9999999999999999
 40
0.9999999999999999
 10
6553.6363651938
 20
3250.125589764393
 30
0.0
 10
6545.909298514219
 20
3250.106015725413
 30
0.0
 10
6530.453682924186
 20
3250.066863892694
 30
0.0
 10
6507.422442643269
 20
3247.061049872154
 30
0.0
 10
6486.684339581201
 20
3242.476495398862
 30
0.0
 10
6468.080471848381
 20
3237.291579896923
 30
0.0
 10
6451.906669690817
 20
3230.818012135327
 30
0.0
 10
6439.570594248936
 20
3223.037493169255
 30
0.0
 10
6431.031325336005
 20
3215.101469576847
 30
0.0
 10
6427.77660348681
 20
3210.28354940495
 30
0.0
 10
6426.150273340346
 20
3207.876115165754
 30
0.0
  0
SPLINE
  5
150
330
1F
100
AcDbEntity
  8
0
  6
SLD-Plná
 62
     7
370
    25
100
AcDbSpline
210
0.0
220
0.0
230
1.0
 70
     8
 71
     3
 72
    15
 73
    11
 74
     0
 42
0.00000001
 43
0.00000001
 40
0.0
 40
0.0
 40
0.0
 40
0.0
 40
0.1666689894090166
 40
0.3333685849274423
 40
0.5000900145603374
 40
0.6249045508493627
 40
0.7499847773335169
 40
0.8748479849154761
 40
0.9374657844352354
 40
1.0
 40
1.0
 40
1.0
 40
1.0
 10
6553.6363651938
 20
3250.125589764393
 30
0.0
 10
6561.363336665911
 20
3250.106016276696
 30
0.0
 10
6576.818698545573
 20
3250.066865706934
 30
0.0
 10
6599.849548917334
 20
3247.061176466993
 30
0.0
 10
6620.587119313565
 20
3242.476791004859
 30
0.0
 10
6639.190526790976
 20
3237.292119395824
 30
0.0
 10
6655.364234178782
 20
3230.818918311281
 30
0.0
 10
6667.700875426594
 20
3223.038479649834
 30
0.0
 10
6676.240906777675
 20
3215.102132831392
 30
0.0
 10
6679.495998271929
 20
3210.283715045693
 30
0.0
 10
6681.122457047257
 20
3207.876115165754
 30
0.0
  0
SPLINE
  5
151
330
1F
100
AcDbEntity
  8
0
  6
SLD-Plná
 62
     7
370
    25
100
AcDbSpline
210
0.0
220
0.0
230
1.0
 70
     8
 71
     3
 72
    22
 73
    18
 74
     0
 42
0.00000001
 43
0.00000001
 40
0.0
 40
0.0
 40
0.0
 40
0.0
 40
0.0624352204818838
 40
0.1247423598179702
 40
0.187402536196675
 40
0.2498510620268659
 40
0.3124900231130648
 40
0.3746389173773367
 40
0.4372179264198289
 40
0.4995709617650024
 40
0.5826286926162124
 40
0.6660812466424062
 40
0.7494637626355825
 40
0.8748101496340889
 40
0.9373453930977342
 40
0.9686558295008789
 40
1.0
 40
1.0
 40
1.0
 40
1.0
 10
6553.6363651938
 20
2986.87513244264
 30
0.0
 10
6547.522587726853
 20
2987.191083503963
 30
0.0
 10
6535.30757474631
 20
2987.822337476839
 30
0.0
 10
6517.500059491789
 20
2992.662964609264
 30
0.0
 10
6500.599199479841
 20
2999.868739587918
 30
0.0
 10
6484.794380236472
 20
3009.327298180823
 30
0.0
 10
6470.315230906067
 20
3020.615898142881
 30
0.0
 10
6457.40092050076
 20
3033.695138911637
 30
0.0
 10
6446.348229101801
 20
3048.342987027705
 30
0.0
 10
6436.207127973733
 20
3066.03961709759
 30
0.0
 10
6428.099987689475
 20
3087.024860783728
 30
0.0
 10
6422.957058318383
 20
3111.002518111411
 30
0.0
 10
6420.289159025194
 20
3139.486204520087
 30
0.0
 10
6419.356144979478
 20
3166.008355562529
 30
0.0
 10
6419.709468048036
 20
3187.473128597121
 30
0.0
 10
6422.034021752316
 20
3199.60978137111
 30
0.0
 10
6424.777697067732
 20
3205.119681699956
 30
0.0
 10
6426.150273341569
 20
3207.876115167166
 30
0.0
  0
SPLINE
  5
152
330
1F
100
AcDbEntity
  8
0
  6
SLD-Plná
 62
     7
370
    25
100
AcDbSpline
210
0.0
220
0.0
230
1.0
 70
     8
 71
     3
 72
    23
 73
    19
 74
     0
 42
0.00000001
 43
0.00000001
 40
0.0
 40
0.0
 40
0.0
 40
0.0
 40
0.0624344363102298
 40
0.1247407930833171
 40
0.187400182464966
 40
0.2498479239563651
 40
0.3124860983119507
 40
0.3746342120007451
 40
0.4372124350655958
 40
0.4995646872713284
 40
0.5826213749364869
 40
0.6660728808192287
 40
0.7494543495471404
 40
0.8121390785291857
 40
0.8748117219872916
 40
0.9373461800230068
 40
0.9686562231744337
 40
1.0
 40
1.0
 40
1.0
 40
1.0
 10
6553.6363651938
 20
2986.87513244264
 30
0.0
 10
6559.750142676492
 20
2987.191083503254
 30
0.0
 10
6571.965155688496
 20
2987.822337474698
 30
0.0
 10
6589.772670706844
 20
2992.662964617775
 30
0.0
 10
6606.673531619589
 20
2999.86873955573
 30
0.0
 10
6622.478347500276
 20
3009.327298300441
 30
0.0
 10
6636.957509376111
 20
3020.615897695988
 30
0.0
 10
6649.871773177035
 20
3033.69514056904
 30
0.0
 10
6660.924639168506
 20
3048.342980801616
 30
0.0
 10
6671.065018113264
 20
3066.039643480453
 30
0.0
 10
6679.175749798605
 20
3087.024725002579
 30
0.0
 10
6684.30450022524
 20
3111.00302255776
 30
0.0
 10
6686.448670324663
 20
3133.375946559388
 30
0.0
 10
6687.384809434844
 20
3153.773426703345
 30
0.0
 10
6687.843171970462
 20
3172.143461912264
 30
0.0
 10
6687.559859365956
 20
3187.473406440379
 30
0.0
 10
6685.239310418136
 20
3199.609732236791
 30
0.0
 10
6682.495233986177
 20
3205.119665315902
 30
0.0
 10
6681.122457046044
 20
3207.876115167146
 30
0.0
  0
LINE
  5
153
330
1F
100
AcDbEntity
  8
0
  6
SLD-Plná
 62
     7
370
    25
100
AcDbLine
 10
7212.7000549848
 20
3594.9486312532
 30
0.0
 11
7185.0090600088
 21
3609.2937947927
 31
0.0
  0
SPLINE
  5
154
330
1F
100
AcDbEntity
  8
0
  6
SLD-Plná
 62
     7
370
    25
100
AcDbSpline
210
0.0
220
0.0
230
1.0
 70
     8
 71
     3
 72
    17
 73
    13
 74
     0
 42
0.00000001
 43
0.00000001
 40
0.0
 40
0.0
 40
0.0
 40
0.0
 40
0.1350085172520701
 40
0.2721459542176792
 40
0.4110161283927538
 40
0.5505909239746878
 40
0.6443837372771556
 40
0.7386519932702433
 40
0.8330859907073344
 40
0.9039203494381952
 40
0.9749112474664193
 40
1.0
 40
1.0
 40
1.0
 40
1.0
 10
6553.636366386668
 20
3699.207828496686
 30
0.0
 10
6526.999684912516
 20
3699.129743234942
 30
0.0
 10
6473.306293973029
 20
3698.972341402088
 30
0.0
 10
6392.303250120044
 20
3696.469337737741
 30
0.0
 10
6310.67901457204
 20
3691.575721732973
 30
0.0
 10
6238.048675755723
 20
3684.577828592209
 30
0.0
 10
6174.762710596758
 20
3676.172039283744
 30
0.0
 10
6120.891462993741
 20
3667.265747588592
 30
0.0
 10
6072.297425474158
 20
3657.460765610895
 30
0.0
 10
6029.345587595625
 20
3646.887460451876
 30
0.0
 10
5999.57718381968
 20
3638.68545368124
 30
0.0
 10
5983.448511402021
 20
3633.002760278808
 30
0.0
 10
5979.236919575699
 20
3631.518869697773
 30
0.0
  0
SPLINE
  5
155
330
1F
100
AcDbEntity
  8
0
  6
SLD-Plná
 62
     7
370
    25
100
AcDbSpline
210
0.0
220
0.0
230
1.0
 70
     8
 71
     3
 72
    15
 73
    11
 74
     0
 42
0.00000001
 43
0.00000001
 40
0.0
 40
0.0
 40
0.0
 40
0.0
 40
0.0645335915009406
 40
0.1966519968537845
 40
0.3291241522242043
 40
0.4616655366506382
 40
0.5940140538443708
 40
0.726939218421286
 40
0.8620154218869606
 40
1.0
 40
1.0
 40
1.0
 40
1.0
 10
7305.278726624389
 20
3523.840740654544
 30
0.0
 10
7304.628159370052
 20
3526.265724868328
 30
0.0
 10
7302.645698039804
 20
3533.655333549436
 30
0.0
 10
7296.724311722683
 20
3547.778268608796
 30
0.0
 10
7287.134359723238
 20
3565.730973715694
 30
0.0
 10
7274.061433125391
 20
3584.661459699176
 30
0.0
 10
7257.186843852876
 20
3604.265806518631
 30
0.0
 10
7235.479722023238
 20
3624.228612702359
 30
0.0
 10
7208.844298358877
 20
3643.739020619551
 30
0.0
 10
7187.117884889817
 20
3655.650815221044
 30
0.0
 10
7176.138973970776
 20
3661.670148876916
 30
0.0
  0
SPLINE
  5
156
330
1F
100
AcDbEntity
  8
0
  6
SLD-Plná
 62
     7
370
    25
100
AcDbSpline
210
0.0
220
0.0
230
1.0
 70
     8
 71
     3
 72
    15
 73
    11
 74
     0
 42
0.00000001
 43
0.00000001
 40
0.0
 40
0.0
 40
0.0
 40
0.0
 40
0.1375308069014863
 40
0.2721698997729999
 40
0.404640970956963
 40
0.5365474108502162
 40
0.6686467259002716
 40
0.8006583185235062
 40
0.9323409790601506
 40
1.0
 40
1.0
 40
1.0
 40
1.0
 10
5931.133771048485
 20
3661.670170362882
 30
0.0
 10
5920.157156240125
 20
3655.652372619443
 30
0.0
 10
5898.434720230724
 20
3643.743306966541
 30
0.0
 10
5871.804715043444
 20
3624.237096046256
 30
0.0
 10
5850.099694047342
 20
3604.281987713102
 30
0.0
 10
5833.226662303947
 20
3584.680745788834
 30
0.0
 10
5820.155664658681
 20
3565.757055510436
 30
0.0
 10
5810.558430333872
 20
3547.804629404147
 30
0.0
 10
5804.588496070924
 20
3533.549755920641
 30
0.0
 10
5802.575808366913
 20
3526.037801171106
 30
0.0
 10
5801.892677380446
 20
3523.488151243738
 30
0.0
  0
LINE
  5
157
330
1F
100
AcDbEntity
  8
0
  6
SLD-Plná
 62
     7
370
    25
100
AcDbLine
 10
6553.6363305718
 20
3357.5361155462
 30
0.0
 11
6553.6363397582
 21
3357.454789486
 31
0.0
  0
ENDSEC
  0
SECTION
  2
OBJECTS
  0
DICTIONARY
  5
C
330
0
100
AcDbDictionary
281
     1
  3
ACAD_GROUP
350
D
  3
ACAD_LAYOUT
350
1A
  3
ACAD_MLINESTYLE
350
17
  3
ACAD_PLOTSETTINGS
350
19
  3
ACAD_PLOTSTYLENAME
350
E
  3
ACAD_SCALELIST
350
47
  3
DWGPROPS
350
158
  0
DICTIONARY
  5
D
102
{ACAD_REACTORS
330
C
102
}
330
C
100
AcDbDictionary
281
     1
  0
DICTIONARY
  5
1A
102
{ACAD_REACTORS
330
C
102
}
330
C
100
AcDbDictionary
281
     1
  3
Layout1
350
1E
  3
Layout2
350
26
  3
Model
350
22
  0
DICTIONARY
  5
17
102
{ACAD_REACTORS
330
C
102
}
330
C
100
AcDbDictionary
281
     1
  3
Standard
350
18
  0
DICTIONARY
  5
19
102
{ACAD_REACTORS
330
C
102
}
330
C
100
AcDbDictionary
281
     1
  0
ACDBDICTIONARYWDFLT
  5
E
102
{ACAD_REACTORS
330
C
102
}
330
C
100
AcDbDictionary
281
     1
  3
Normal
350
F
100
AcDbDictionaryWithDefault
340
F
  0
DICTIONARY
  5
47
102
{ACAD_REACTORS
330
C
102
}
330
C
100
AcDbDictionary
281
     1
  3
A0
350
48
  3
A1
350
49
  3
A2
350
4A
  3
A3
350
4B
  3
A4
350
4C
  3
A5
350
4D
  3
A6
350
4E
  3
A7
350
4F
  3
A8
350
50
  3
A9
350
51
  3
B0
350
52
  3
B1
350
53
  3
B2
350
54
  3
B3
350
55
  3
B4
350
56
  3
B5
350
57
  3
B6
350
58
  0
XRECORD
  5
158
102
{ACAD_REACTORS
330
C
102
}
330
C
100
AcDbXrecord
280
     1
  1
DWGPROPS COOKIE
  2

  3

  4

  6

  7

  8
radek.stransky
  9

300
=
301
=
302
=
303
=
304
=
305
=
306
=
307
=
308
=
309
=
 40
0.0
 41
2461007.277377547
 42
2461007.277379618
  1

 90
        0
  0
LAYOUT
  5
1E
102
{ACAD_REACTORS
330
1A
102
}
330
1A
100
AcDbPlotSettings
  1

  2
none_device
  4

  6

 40
0.0
 41
0.0
 42
0.0
 43
0.0
 44
0.0
 45
0.0
 46
0.0
 47
0.0
 48
0.0
 49
0.0
140
0.0
141
0.0
142
1.0
143
1.0
 70
   688
 72
     1
 73
     0
 74
     5
  7

 75
    16
147
1.0
148
0.0
149
0.0
100
AcDbLayout
  1
Layout1
 70
     1
 71
     1
 10
0.0
 20
0.0
 11
420.0
 21
297.0
 12
0.0
 22
0.0
 32
0.0
 14
1.0000000000E+20
 24
1.0000000000E+20
 34
1.0000000000E+20
 15
-1.0000000000E+20
 25
-1.0000000000E+20
 35
-1.0000000000E+20
146
0.0
 13
0.0
 23
0.0
 33
0.0
 16
1.0
 26
0.0
 36
0.0
 17
0.0
 27
1.0
 37
0.0
 76
     0
330
1B
  0
LAYOUT
  5
26
102
{ACAD_REACTORS
330
1A
102
}
330
1A
100
AcDbPlotSettings
  1

  2
none_device
  4

  6

 40
0.0
 41
0.0
 42
0.0
 43
0.0
 44
0.0
 45
0.0
 46
0.0
 47
0.0
 48
0.0
 49
0.0
140
0.0
141
0.0
142
1.0
143
1.0
 70
   688
 72
     1
 73
     0
 74
     5
  7

 75
    16
147
1.0
148
0.0
149
0.0
100
AcDbLayout
  1
Layout2
 70
     1
 71
     2
 10
0.0
 20
0.0
 11
0.0
 21
0.0
 12
0.0
 22
0.0
 32
0.0
 14
0.0
 24
0.0
 34
0.0
 15
0.0
 25
0.0
 35
0.0
146
0.0
 13
0.0
 23
0.0
 33
0.0
 16
1.0
 26
0.0
 36
0.0
 17
0.0
 27
1.0
 37
0.0
 76
     0
330
23
  0
LAYOUT
  5
22
102
{ACAD_REACTORS
330
1A
102
}
330
1A
100
AcDbPlotSettings
  1

  2
none_device
  4
Letter_(8.50_x_11.00_Inches)
  6

 40
6.35
 41
6.35
 42
6.35000508
 43
6.35000508
 44
215.9
 45
279.4
 46
0.0
 47
0.0
 48
0.0
 49
0.0
140
0.0
141
0.0
142
1.0
143
1.0
 70
  1712
 72
     1
 73
     0
 74
     0
  7

 75
     0
147
1.0
148
0.0
149
0.0
100
AcDbLayout
  1
Model
 70
     1
 71
     0
 10
0.0
 20
0.0
 11
20000.0
 21
10000.0
 12
0.0
 22
0.0
 32
0.0
 14
0.0
 24
0.0
 34
0.0
 15
20000.0
 25
10000.0
 35
0.0
146
0.0
 13
0.0
 23
0.0
 33
0.0
 16
1.0
 26
0.0
 36
0.0
 17
0.0
 27
1.0
 37
0.0
 76
     0
330
1F
331
29
  0
MLINESTYLE
  5
18
102
{ACAD_REACTORS
330
17
102
}
330
17
100
AcDbMlineStyle
  2
Standard
 70
     0
  3

 62
   256
 51
90.0
 52
90.0
 71
     2
 49
0.5
 62
   256
  6
BYLAYER
 49
-0.5
 62
   256
  6
BYLAYER
  0
ACDBPLACEHOLDER
  5
F
102
{ACAD_REACTORS
330
E
102
}
330
E
  0
SCALE
  5
48
102
{ACAD_REACTORS
330
47
102
}
330
47
100
AcDbScale
 70
     0
300
1:1
140
1.0
141
1.0
290
     1
  0
SCALE
  5
49
102
{ACAD_REACTORS
330
47
102
}
330
47
100
AcDbScale
 70
     0
300
1:2
140
1.0
141
2.0
290
     0
  0
SCALE
  5
4A
102
{ACAD_REACTORS
330
47
102
}
330
47
100
AcDbScale
 70
     0
300
1:4
140
1.0
141
4.0
290
     0
  0
SCALE
  5
4B
102
{ACAD_REACTORS
330
47
102
}
330
47
100
AcDbScale
 70
     0
300
1:5
140
1.0
141
5.0
290
     0
  0
SCALE
  5
4C
102
{ACAD_REACTORS
330
47
102
}
330
47
100
AcDbScale
 70
     0
300
1:8
140
1.0
141
8.0
290
     0
  0
SCALE
  5
4D
102
{ACAD_REACTORS
330
47
102
}
330
47
100
AcDbScale
 70
     0
300
1:10
140
1.0
141
10.0
290
     0
  0
SCALE
  5
4E
102
{ACAD_REACTORS
330
47
102
}
330
47
100
AcDbScale
 70
     0
300
1:16
140
1.0
141
16.0
290
     0
  0
SCALE
  5
4F
102
{ACAD_REACTORS
330
47
102
}
330
47
100
AcDbScale
 70
     0
300
1:20
140
1.0
141
20.0
290
     0
  0
SCALE
  5
50
102
{ACAD_REACTORS
330
47
102
}
330
47
100
AcDbScale
 70
     0
300
1:30
140
1.0
141
30.0
290
     0
  0
SCALE
  5
51
102
{ACAD_REACTORS
330
47
102
}
330
47
100
AcDbScale
 70
     0
300
1:40
140
1.0
141
40.0
290
     0
  0
SCALE
  5
52
102
{ACAD_REACTORS
330
47
102
}
330
47
100
AcDbScale
 70
     0
300
1:50
140
1.0
141
50.0
290
     0
  0
SCALE
  5
53
102
{ACAD_REACTORS
330
47
102
}
330
47
100
AcDbScale
 70
     0
300
1:100
140
1.0
141
100.0
290
     0
  0
SCALE
  5
54
102
{ACAD_REACTORS
330
47
102
}
330
47
100
AcDbScale
 70
     0
300
2:1
140
2.0
141
1.0
290
     0
  0
SCALE
  5
55
102
{ACAD_REACTORS
330
47
102
}
330
47
100
AcDbScale
 70
     0
300
4:1
140
4.0
141
1.0
290
     0
  0
SCALE
  5
56
102
{ACAD_REACTORS
330
47
102
}
330
47
100
AcDbScale
 70
     0
300
8:1
140
8.0
141
1.0
290
     0
  0
SCALE
  5
57
102
{ACAD_REACTORS
330
47
102
}
330
47
100
AcDbScale
 70
     0
300
10:1
140
10.0
141
1.0
290
     0
  0
SCALE
  5
58
102
{ACAD_REACTORS
330
47
102
}
330
47
100
AcDbScale
 70
     0
300
100:1
140
100.0
141
1.0
290
     0
  0
ENDSEC
  0
EOF
