  0
SECTION
  2
HEADER
  9
$ACADVER
  1
AC1015
  9
$ACADMAINTVER
 70
     6
  9
$DWGCODEPAGE
  3
ANSI_1250
  9
$INSBASE
 10
0.0
 20
0.0
 30
0.0
  9
$EXTMIN
 10
0.0
 20
0.0
 30
0.0
  9
$EXTMAX
 10
20000.0
 20
10000.0
 30
0.0
  9
$LIMMIN
 10
0.0
 20
0.0
  9
$LIMMAX
 10
20000.0
 20
10000.0
  9
$ORTHOMODE
 70
     0
  9
$REGENMODE
 70
     1
  9
$FILLMODE
 70
     1
  9
$QTEXTMODE
 70
     0
  9
$MIRRTEXT
 70
     1
  9
$LTSCALE
 40
1.0
  9
$ATTMODE
 70
     1
  9
$TEXTSIZE
 40
2.0
  9
$TRACEWID
 40
1.0
  9
$TEXTSTYLE
  7
STANDARD
  9
$CLAYER
  8
0
  9
$CELTYPE
  6
ByLayer
  9
$CECOLOR
 62
   256
  9
$CELTSCALE
 40
1.0
  9
$DISPSILH
 70
     0
  9
$DIMSCALE
 40
1.0
  9
$DIMASZ
 40
2.0
  9
$DIMEXO
 40
1.0
  9
$DIMDLI
 40
3.75
  9
$DIMRND
 40
0.0
  9
$DIMDLE
 40
0.0
  9
$DIMEXE
 40
1.0
  9
$DIMTP
 40
0.0
  9
$DIMTM
 40
0.0
  9
$DIMTXT
 40
2.0
  9
$DIMCEN
 40
2.5
  9
$DIMTSZ
 40
0.0
  9
$DIMTOL
 70
     0
  9
$DIMLIM
 70
     0
  9
$DIMTIH
 70
     1
  9
$DIMTOH
 70
     1
  9
$DIMSE1
 70
     0
  9
$DIMSE2
 70
     0
  9
$DIMTAD
 70
     1
  9
$DIMZIN
 70
     0
  9
$DIMBLK
  1

  9
$DIMASO
 70
     1
  9
$DIMSHO
 70
     1
  9
$DIMPOST
  1

  9
$DIMAPOST
  1

  9
$DIMALT
 70
     0
  9
$DIMALTD
 70
     3
  9
$DIMALTF
 40
0.0393700787
  9
$DIMLFAC
 40
1.0
  9
$DIMTOFL
 70
     1
  9
$DIMTVP
 40
0.0
  9
$DIMTIX
 70
     0
  9
$DIMSOXD
 70
     0
  9
$DIMSAH
 70
     0
  9
$DIMBLK1
  1

  9
$DIMBLK2
  1

  9
$DIMSTYLE
  2
ISO-25
  9
$DIMCLRD
 70
     0
  9
$DIMCLRE
 70
     0
  9
$DIMCLRT
 70
     0
  9
$DIMTFAC
 40
1.0
  9
$DIMGAP
 40
1.524
  9
$DIMJUST
 70
     0
  9
$DIMSD1
 70
     0
  9
$DIMSD2
 70
     0
  9
$DIMTOLJ
 70
     0
  9
$DIMTZIN
 70
     0
  9
$DIMALTZ
 70
     0
  9
$DIMALTTZ
 70
     0
  9
$DIMUPT
 70
     0
  9
$DIMDEC
 70
     2
  9
$DIMTDEC
 70
     0
  9
$DIMALTU
 70
     2
  9
$DIMALTTD
 70
     3
  9
$DIMTXSTY
  7
STANDARD
  9
$DIMAUNIT
 70
     0
  9
$DIMADEC
 70
     2
  9
$DIMALTRND
 40
0.0
  9
$DIMAZIN
 70
     0
  9
$DIMDSEP
 70
    44
  9
$DIMATFIT
 70
     3
  9
$DIMFRAC
 70
     0
  9
$DIMLDRBLK
  1

  9
$DIMLUNIT
 70
     2
  9
$DIMLWD
 70
    -2
  9
$DIMLWE
 70
    -2
  9
$DIMTMOVE
 70
     0
  9
$LUNITS
 70
     2
  9
$LUPREC
 70
     3
  9
$SKETCHINC
 40
1.0
  9
$FILLETRAD
 40
10.0
  9
$AUNITS
 70
     0
  9
$AUPREC
 70
     2
  9
$MENU
  1
.
  9
$ELEVATION
 40
0.0
  9
$PELEVATION
 40
0.0
  9
$THICKNESS
 40
0.0
  9
$LIMCHECK
 70
     0
  9
$CHAMFERA
 40
0.0
  9
$CHAMFERB
 40
0.0
  9
$CHAMFERC
 40
0.0
  9
$CHAMFERD
 40
0.0
  9
$SKPOLY
 70
     0
  9
$TDCREATE
 40
2460860.530771227
  9
$TDUCREATE
 40
2460860.447437894
  9
$TDUPDATE
 40
2460860.530773368
  9
$TDUUPDATE
 40
2460860.447440035
  9
$TDINDWG
 40
0.0000000116
  9
$TDUSRTIMER
 40
0.0000000116
  9
$USRTIMER
 70
     1
  9
$ANGBASE
 50
0.0
  9
$ANGDIR
 70
     0
  9
$PDMODE
 70
     0
  9
$PDSIZE
 40
-1.0
  9
$PLINEWID
 40
0.0
  9
$SPLFRAME
 70
     0
  9
$SPLINETYPE
 70
     6
  9
$SPLINESEGS
 70
     8
  9
$HANDSEED
  5
627
  9
$SURFTAB1
 70
     6
  9
$SURFTAB2
 70
     6
  9
$SURFTYPE
 70
     6
  9
$SURFU
 70
     6
  9
$SURFV
 70
     6
  9
$UCSBASE
  2

  9
$UCSNAME
  2

  9
$UCSORG
 10
0.0
 20
0.0
 30
0.0
  9
$UCSXDIR
 10
1.0
 20
0.0
 30
0.0
  9
$UCSYDIR
 10
0.0
 20
1.0
 30
0.0
  9
$UCSORTHOREF
  2

  9
$UCSORTHOVIEW
 70
     0
  9
$UCSORGTOP
 10
0.0
 20
0.0
 30
0.0
  9
$UCSORGBOTTOM
 10
0.0
 20
0.0
 30
0.0
  9
$UCSORGLEFT
 10
0.0
 20
0.0
 30
0.0
  9
$UCSORGRIGHT
 10
0.0
 20
0.0
 30
0.0
  9
$UCSORGFRONT
 10
0.0
 20
0.0
 30
0.0
  9
$UCSORGBACK
 10
0.0
 20
0.0
 30
0.0
  9
$PUCSBASE
  2

  9
$PUCSNAME
  2

  9
$PUCSORG
 10
0.0
 20
0.0
 30
0.0
  9
$PUCSXDIR
 10
1.0
 20
0.0
 30
0.0
  9
$PUCSYDIR
 10
0.0
 20
1.0
 30
0.0
  9
$PUCSORTHOREF
  2

  9
$PUCSORTHOVIEW
 70
     0
  9
$PUCSORGTOP
 10
0.0
 20
0.0
 30
0.0
  9
$PUCSORGBOTTOM
 10
0.0
 20
0.0
 30
0.0
  9
$PUCSORGLEFT
 10
0.0
 20
0.0
 30
0.0
  9
$PUCSORGRIGHT
 10
0.0
 20
0.0
 30
0.0
  9
$PUCSORGFRONT
 10
0.0
 20
0.0
 30
0.0
  9
$PUCSORGBACK
 10
0.0
 20
0.0
 30
0.0
  9
$USERI1
 70
     0
  9
$USERI2
 70
     0
  9
$USERI3
 70
     0
  9
$USERI4
 70
     0
  9
$USERI5
 70
     0
  9
$USERR1
 40
0.0
  9
$USERR2
 40
0.0
  9
$USERR3
 40
0.0
  9
$USERR4
 40
0.0
  9
$USERR5
 40
0.0
  9
$WORLDVIEW
 70
     1
  9
$SHADEDGE
 70
     3
  9
$SHADEDIF
 70
    70
  9
$TILEMODE
 70
     1
  9
$MAXACTVP
 70
    64
  9
$PINSBASE
 10
0.0
 20
0.0
 30
0.0
  9
$PLIMCHECK
 70
     0
  9
$PEXTMIN
 10
1.0000000000E+20
 20
1.0000000000E+20
 30
1.0000000000E+20
  9
$PEXTMAX
 10
-1.0000000000E+20
 20
-1.0000000000E+20
 30
-1.0000000000E+20
  9
$PLIMMIN
 10
0.0
 20
0.0
  9
$PLIMMAX
 10
420.0
 20
297.0
  9
$UNITMODE
 70
     0
  9
$VISRETAIN
 70
     1
  9
$PLINEGEN
 70
     0
  9
$PSLTSCALE
 70
     1
  9
$TREEDEPTH
 70
  3020
  9
$CMLSTYLE
  2
Standard
  9
$CMLJUST
 70
     0
  9
$CMLSCALE
 40
20.0
  9
$PROXYGRAPHICS
 70
     1
  9
$MEASUREMENT
 70
     1
  9
$CELWEIGHT
370
    -1
  9
$ENDCAPS
280
     0
  9
$JOINSTYLE
280
     0
  9
$LWDISPLAY
290
     1
  9
$INSUNITS
 70
     4
  9
$HYPERLINKBASE
  1

  9
$STYLESHEET
  1

  9
$XEDIT
290
     1
  9
$CEPSNTYPE
380
     0
  9
$PSTYLEMODE
290
     1
  9
$FINGERPRINTGUID
  2
{eaef257e-0632-4292-ba7c-a584101739aa}
  9
$VERSIONGUID
  2
{FAEB1C32-E019-11D5-929B-00C0DF256EC4}
  9
$EXTNAMES
290
     1
  9
$PSVPSCALE
 40
0.0
  9
$OLESTARTUP
290
     0
  0
ENDSEC
  0
SECTION
  2
CLASSES
  0
CLASS
  1
ACDBDICTIONARYWDFLT
  2
AcDbDictionaryWithDefault
  3
ObjectDBX Classes
 90
        0
280
     0
281
     0
  0
CLASS
  1
VISUALSTYLE
  2
AcDbVisualStyle
  3
ObjectDBX Classes
 90
     4095
280
     0
281
     0
  0
CLASS
  1
MATERIAL
  2
AcDbMaterial
  3
ObjectDBX Classes
 90
     1153
280
     0
281
     0
  0
CLASS
  1
SCALE
  2
AcDbScale
  3
ObjectDBX Classes
 90
     1153
280
     0
281
     0
  0
CLASS
  1
TABLESTYLE
  2
AcDbTableStyle
  3
ObjectDBX Classes
 90
     4095
280
     0
281
     0
  0
CLASS
  1
MLEADERSTYLE
  2
AcDbMLeaderStyle
  3
ACDB_MLEADERSTYLE_CLASS
 90
     4095
280
     0
281
     0
  0
CLASS
  1
SUN
  2
AcDbSun
  3
SCENEOE
 90
     1153
280
     0
281
     0
  0
CLASS
  1
ACDBPLACEHOLDER
  2
AcDbPlaceHolder
  3
ObjectDBX Classes
 90
        0
280
     0
281
     0
  0
CLASS
  1
LAYOUT
  2
AcDbLayout
  3
ObjectDBX Classes
 90
        0
280
     0
281
     0
  0
ENDSEC
  0
SECTION
  2
TABLES
  0
TABLE
  2
VPORT
  5
8
330
0
100
AcDbSymbolTable
 70
     1
  0
VPORT
  5
29
330
8
100
AcDbSymbolTableRecord
100
AcDbViewportTableRecord
  2
*Active
 70
     0
 10
0.0
 20
0.0
 11
1.0
 21
1.0
 12
10000.0
 22
5000.0
 13
0.0
 23
0.0
 14
10.0
 24
10.0
 15
10.0
 25
10.0
 16
0.0
 26
0.0
 36
1.0
 17
0.0
 27
0.0
 37
0.0
 40
10000.0
 41
2.0
 42
50.0
 43
0.0
 44
0.0
 50
0.0
 51
0.0
 71
     0
 72
  2000
 73
     1
 74
     3
 75
     0
 76
     0
 77
     0
 78
     0
281
     0
 65
     1
110
0.0
120
0.0
130
0.0
111
1.0
121
0.0
131
0.0
112
0.0
122
1.0
132
0.0
 79
     0
146
0.0
  0
ENDTAB
  0
TABLE
  2
LTYPE
  5
5
330
0
100
AcDbSymbolTable
 70
    10
  0
LTYPE
  5
14
330
5
100
AcDbSymbolTableRecord
100
AcDbLinetypeTableRecord
  2
ByBlock
 70
     0
  3

 72
    65
 73
     0
 40
0.0
  0
LTYPE
  5
15
330
5
100
AcDbSymbolTableRecord
100
AcDbLinetypeTableRecord
  2
ByLayer
 70
     0
  3

 72
    65
 73
     0
 40
0.0
  0
LTYPE
  5
16
330
5
100
AcDbSymbolTableRecord
100
AcDbLinetypeTableRecord
  2
Continuous
 70
     0
  3
Solid line
 72
    65
 73
     0
 40
0.0
  0
LTYPE
  5
6E
330
5
100
AcDbSymbolTableRecord
100
AcDbLinetypeTableRecord
  2
SLD-Plná
 70
     0
  3
SolidWorks Line Style
 72
    65
 73
     0
 40
0.0
  0
LTYPE
  5
6F
330
5
100
AcDbSymbolTableRecord
100
AcDbLinetypeTableRecord
  2
SLD-Čárkovaná
 70
     0
  3
SolidWorks Line Style
 72
    65
 73
     2
 40
1.905
 49
1.27
 74
     0
 49
-0.635
 74
     0
  0
LTYPE
  5
70
330
5
100
AcDbSymbolTableRecord
100
AcDbLinetypeTableRecord
  2
SLD-Dvojitě-čerchovaná
 70
     0
  3
SolidWorks Line Style
 72
    65
 73
     6
 40
12.7
 49
6.35
 74
     0
 49
-1.27
 74
     0
 49
1.27
 74
     0
 49
-1.27
 74
     0
 49
1.27
 74
     0
 49
-1.27
 74
     0
  0
LTYPE
  5
71
330
5
100
AcDbSymbolTableRecord
100
AcDbLinetypeTableRecord
  2
SLD-Čerchovaná
 70
     0
  3
SolidWorks Line Style
 72
    65
 73
     4
 40
10.16
 49
6.35
 74
     0
 49
-1.27
 74
     0
 49
1.27
 74
     0
 49
-1.27
 74
     0
  0
LTYPE
  5
72
330
5
100
AcDbSymbolTableRecord
100
AcDbLinetypeTableRecord
  2
SLD-Osa
 70
     0
  3
SolidWorks Line Style
 72
    65
 73
     4
 40
19.05
 49
15.24
 74
     0
 49
-1.27
 74
     0
 49
1.27
 74
     0
 49
-1.27
 74
     0
  0
LTYPE
  5
73
330
5
100
AcDbSymbolTableRecord
100
AcDbLinetypeTableRecord
  2
SLD-Tečkovaná
 70
     0
  3
SolidWorks Line Style
 72
    65
 73
     2
 40
0.635
 49
0.0
 74
     0
 49
-0.635
 74
     0
  0
LTYPE
  5
74
330
5
100
AcDbSymbolTableRecord
100
AcDbLinetypeTableRecord
  2
SLD-Hrubá-tenká-čerchovaná
 70
     0
  3
SolidWorks Line Style
 72
    65
 73
     4
 40
10.16
 49
6.35
 74
     0
 49
-1.27
 74
     0
 49
1.27
 74
     0
 49
-1.27
 74
     0
  0
LTYPE
  5
75
330
5
100
AcDbSymbolTableRecord
100
AcDbLinetypeTableRecord
  2
SLD-Řez-1
 70
     0
  3
SolidWorks Line Style
 72
    65
 73
     4
 40
8.128
 49
5.08
 74
     0
 49
-1.016
 74
     0
 49
1.016
 74
     0
 49
-1.016
 74
     0
  0
LTYPE
  5
76
330
5
100
AcDbSymbolTableRecord
100
AcDbLinetypeTableRecord
  2
SLD-Řez-2
 70
     0
  3
SolidWorks Line Style
 72
    65
 73
     2
 40
5080.0
 49
0.0
 74
     0
 49
-5080.0
 74
     0
  0
ENDTAB
  0
TABLE
  2
LAYER
  5
2
330
0
100
AcDbSymbolTable
 70
    13
  0
LAYER
  5
10
330
2
100
AcDbSymbolTableRecord
100
AcDbLayerTableRecord
  2
0
 70
     0
 62
     7
  6
Continuous
370
    -3
390
F
  0
LAYER
  5
77
330
2
100
AcDbSymbolTableRecord
100
AcDbLayerTableRecord
  2
FORMAT
 70
     0
 62
     7
  6
SLD-Plná
370
    -3
390
F
  0
LAYER
  5
78
330
2
100
AcDbSymbolTableRecord
100
AcDbLayerTableRecord
  2
OSA
 70
     0
 62
     7
  6
SLD-Hrubá-tenká-čerchovaná
370
    -3
390
F
  0
LAYER
  5
79
330
2
100
AcDbSymbolTableRecord
100
AcDbLayerTableRecord
  2
0_35
 70
     0
 62
     7
  6
SLD-Plná
370
    35
390
F
  0
LAYER
  5
7A
330
2
100
AcDbSymbolTableRecord
100
AcDbLayerTableRecord
  2
0_5
 70
     0
 62
     7
  6
SLD-Plná
370
    50
390
F
  0
LAYER
  5
7B
330
2
100
AcDbSymbolTableRecord
100
AcDbLayerTableRecord
  2
0_25
 70
     0
 62
     7
  6
SLD-Plná
370
    25
390
F
  0
LAYER
  5
7C
330
2
100
AcDbSymbolTableRecord
100
AcDbLayerTableRecord
  2
0_18
 70
     0
 62
     7
  6
SLD-Plná
370
    -3
390
F
  0
LAYER
  5
7D
330
2
100
AcDbSymbolTableRecord
100
AcDbLayerTableRecord
  2
SLD-0
 70
     0
 62
   179
  6
SLD-Plná
370
    -3
390
F
  0
LAYER
  5
7E
330
2
100
AcDbSymbolTableRecord
100
AcDbLayerTableRecord
  2
KOTY
 70
     0
 62
     7
  6
SLD-Plná
370
    -3
390
F
  0
LAYER
  5
7F
330
2
100
AcDbSymbolTableRecord
100
AcDbLayerTableRecord
  2
SILNA
 70
     0
 62
   179
  6
SLD-Plná
370
    -3
390
F
  0
LAYER
  5
80
330
2
100
AcDbSymbolTableRecord
100
AcDbLayerTableRecord
  2
0_18_1
 70
     0
 62
   179
  6
SLD-Plná
370
    -3
390
F
  0
LAYER
  5
81
330
2
100
AcDbSymbolTableRecord
100
AcDbLayerTableRecord
  2
0_35_1
 70
     0
 62
   179
  6
SLD-Plná
370
    35
390
F
  0
LAYER
  5
82
330
2
100
AcDbSymbolTableRecord
100
AcDbLayerTableRecord
  2
0_5_1
 70
     0
 62
   179
  6
SLD-Plná
370
    50
390
F
  0
ENDTAB
  0
TABLE
  2
STYLE
  5
3
330
0
100
AcDbSymbolTable
 70
     1
  0
STYLE
  5
11
330
3
100
AcDbSymbolTableRecord
100
AcDbTextStyleTableRecord
  2
STANDARD
 70
     0
 40
0.0
 41
1.0
 50
0.0
 71
     0
 42
2.0
  3
SWISOP1.TTF
  4

1001
ACAD
1000
SWISOP1
1071
        2
  0
ENDTAB
  0
TABLE
  2
VIEW
  5
6
330
0
100
AcDbSymbolTable
 70
     0
  0
ENDTAB
  0
TABLE
  2
UCS
  5
7
330
0
100
AcDbSymbolTable
 70
     0
  0
ENDTAB
  0
TABLE
  2
APPID
  5
9
330
0
100
AcDbSymbolTable
 70
     1
  0
APPID
  5
12
330
9
100
AcDbSymbolTableRecord
100
AcDbRegAppTableRecord
  2
ACAD
 70
     0
  0
ENDTAB
  0
TABLE
  2
DIMSTYLE
  5
A
330
0
100
AcDbSymbolTable
 70
     1
100
AcDbDimStyleTable
  0
DIMSTYLE
105
27
330
A
100
AcDbSymbolTableRecord
100
AcDbDimStyleTableRecord
  2
ISO-25
 70
     0
 41
2.5
 42
0.625
 43
3.75
 44
1.25
 73
     0
 74
     0
 77
     1
 78
     8
140
2.5
141
2.5
143
0.0393700787
147
0.625
171
     3
172
     1
178
     0
271
     2
272
     2
274
     3
278
    44
283
     0
284
     8
340
11
  0
ENDTAB
  0
TABLE
  2
BLOCK_RECORD
  5
1
330
0
100
AcDbSymbolTable
 70
     1
  0
BLOCK_RECORD
  5
1F
330
1
100
AcDbSymbolTableRecord
100
AcDbBlockTableRecord
  2
*Model_Space
340
22
  0
BLOCK_RECORD
  5
1B
330
1
100
AcDbSymbolTableRecord
100
AcDbBlockTableRecord
  2
*Paper_Space
340
1E
  0
BLOCK_RECORD
  5
23
330
1
100
AcDbSymbolTableRecord
100
AcDbBlockTableRecord
  2
*Paper_Space0
340
26
  0
ENDTAB
  0
ENDSEC
  0
SECTION
  2
BLOCKS
  0
BLOCK
  5
20
330
1F
100
AcDbEntity
  8
0
100
AcDbBlockBegin
  2
*Model_Space
 70
     0
 10
0.0
 20
0.0
 30
0.0
  3
*Model_Space
  1

  0
ENDBLK
  5
21
330
1F
100
AcDbEntity
  8
0
100
AcDbBlockEnd
  0
BLOCK
  5
1C
330
1B
100
AcDbEntity
 67
     1
  8
0
100
AcDbBlockBegin
  2
*Paper_Space
 70
     0
 10
0.0
 20
0.0
 30
0.0
  3
*Paper_Space
  1

  0
ENDBLK
  5
1D
330
1B
100
AcDbEntity
 67
     1
  8
0
100
AcDbBlockEnd
  0
BLOCK
  5
24
330
23
100
AcDbEntity
  8
0
100
AcDbBlockBegin
  2
*Paper_Space0
 70
     0
 10
0.0
 20
0.0
 30
0.0
  3
*Paper_Space0
  1

  0
ENDBLK
  5
25
330
23
100
AcDbEntity
  8
0
100
AcDbBlockEnd
  0
ENDSEC
  0
SECTION
  2
ENTITIES
  0
LINE
  5
83
330
1F
100
AcDbEntity
  8
0
  6
SLD-Plná
 62
     7
370
    25
100
AcDbLine
 10
6382.5308902996
 20
5738.9090754651
 30
0.0
 11
6165.5066203725
 21
5738.9090754651
 31
0.0
  0
LINE
  5
84
330
1F
100
AcDbEntity
  8
0
  6
SLD-Plná
 62
     7
370
    25
100
AcDbLine
 10
6165.5066203725
 20
5738.9090754651
 30
0.0
 11
6165.5066274747
 21
5738.109068363
 31
0.0
  0
LINE
  5
85
330
1F
100
AcDbEntity
  8
0
  6
SLD-Plná
 62
     7
370
    25
100
AcDbLine
 10
6384.0379970808
 20
4694.5898337203
 30
0.0
 11
6384.0379970808
 21
5737.4019686839
 31
0.0
  0
LINE
  5
86
330
1F
100
AcDbEntity
  8
0
  6
SLD-Plná
 62
     7
370
    25
100
AcDbLine
 10
6384.0379970808
 20
5737.4019686839
 30
0.0
 11
6383.2379899787
 21
5737.4019615818
 31
0.0
  0
LINE
  5
87
330
1F
100
AcDbEntity
  8
0
  6
SLD-Plná
 62
     7
370
    25
100
AcDbLine
 10
6164.7995206935
 20
5737.4019615818
 30
0.0
 11
6163.9995135914
 21
5737.4019686839
 31
0.0
  0
LINE
  5
88
330
1F
100
AcDbEntity
  8
0
  6
SLD-Plná
 62
     7
370
    25
100
AcDbLine
 10
6163.9995135914
 20
5737.4019686839
 30
0.0
 11
6163.9995135914
 21
4694.5898337203
 31
0.0
  0
LINE
  5
89
330
1F
100
AcDbEntity
  8
0
  6
SLD-Plná
 62
     7
370
    25
100
AcDbLine
 10
6382.5308831975
 20
5738.109068363
 30
0.0
 11
6382.5308902996
 21
5738.9090754651
 31
0.0
  0
ARC
  5
8A
330
1F
100
AcDbEntity
  8
0
  6
SLD-Plná
 62
     7
370
    25
100
AcDbCircle
 10
6179.4294696218
 20
4690.9898337203
 30
0.0
 40
2.660714285713766
100
AcDbArc
 50
180.0
 51
249.9840403971
  0
ARC
  5
8B
330
1F
100
AcDbEntity
  8
0
  6
SLD-Plná
 62
     7
370
    25
100
AcDbCircle
 10
6183.6080410504
 20
4690.9898337203
 30
0.0
 40
2.660714285714675
100
AcDbArc
 50
290.0159596029
 51
0.0
  0
ARC
  5
8C
330
1F
100
AcDbEntity
  8
0
  6
SLD-Plná
 62
     7
370
    25
100
AcDbCircle
 10
6364.4294696218
 20
4690.9898337204
 30
0.0
 40
2.660714285714419
100
AcDbArc
 50
180.0
 51
249.9840403971
  0
ARC
  5
8D
330
1F
100
AcDbEntity
  8
0
  6
SLD-Plná
 62
     7
370
    25
100
AcDbCircle
 10
6368.6080410504
 20
4690.9898337204
 30
0.0
 40
2.660714285714675
100
AcDbArc
 50
290.0159596029
 51
0.0
  0
ARC
  5
8E
330
1F
100
AcDbEntity
  8
0
  6
SLD-Plná
 62
     7
370
    25
100
AcDbCircle
 10
6216.9294696218
 20
4690.9898337203
 30
0.0
 40
2.660714285713766
100
AcDbArc
 50
180.0
 51
249.9840403971
  0
ARC
  5
8F
330
1F
100
AcDbEntity
  8
0
  6
SLD-Plná
 62
     7
370
    25
100
AcDbCircle
 10
6221.1080410504
 20
4690.9898337203
 30
0.0
 40
2.660714285714675
100
AcDbArc
 50
290.0159596029
 51
0.0
  0
ARC
  5
90
330
1F
100
AcDbEntity
  8
0
  6
SLD-Plná
 62
     7
370
    25
100
AcDbCircle
 10
6326.9294696218
 20
4690.9898337204
 30
0.0
 40
2.660714285713766
100
AcDbArc
 50
180.0
 51
249.9840403971
  0
ARC
  5
91
330
1F
100
AcDbEntity
  8
0
  6
SLD-Plná
 62
     7
370
    25
100
AcDbCircle
 10
6331.1080410503
 20
4690.9898337204
 30
0.0
 40
2.660714285713766
100
AcDbArc
 50
290.0159596029
 51
0.0
  0
LINE
  5
92
330
1F
100
AcDbEntity
  8
0
  6
SLD-Plná
 62
     7
370
    25
100
AcDbLine
 10
6270.0187553361
 20
5602.1890531988
 30
0.0
 11
6270.0187553361
 21
5602.0044123495
 31
0.0
  0
LINE
  5
93
330
1F
100
AcDbEntity
  8
0
  6
SLD-Plná
 62
     7
370
    25
100
AcDbLine
 10
6278.0187553361
 20
5602.0044123495
 30
0.0
 11
6278.0187553361
 21
5602.1890531988
 31
0.0
  0
LINE
  5
94
330
1F
100
AcDbEntity
  8
0
  6
SLD-Plná
 62
     7
370
    25
100
AcDbLine
 10
6290.1745788413
 20
5606.0175991128
 30
0.0
 11
6289.4708292263
 21
5609.8684607007
 31
0.0
  0
LINE
  5
95
330
1F
100
AcDbEntity
  8
0
  6
SLD-Plná
 62
     7
370
    25
100
AcDbLine
 10
6258.5666814459
 20
5609.8684607007
 30
0.0
 11
6257.8629318309
 21
5606.0175991128
 31
0.0
  0
LINE
  5
96
330
1F
100
AcDbEntity
  8
0
  6
SLD-Plná
 62
     7
370
    25
100
AcDbLine
 10
6263.1612926294
 20
5604.0208848755
 30
0.0
 11
6263.0310395594
 21
5603.3081504978
 31
0.0
  0
LINE
  5
97
330
1F
100
AcDbEntity
  8
0
  6
SLD-Plná
 62
     7
370
    25
100
AcDbLine
 10
6289.0020041225
 20
5604.3229896783
 30
0.0
 11
6288.6956209845
 21
5605.9994936963
 31
0.0
  0
LINE
  5
98
330
1F
100
AcDbEntity
  8
0
  6
SLD-Plná
 62
     7
370
    25
100
AcDbLine
 10
6266.6573840129
 20
5603.0121598643
 30
0.0
 11
6266.5271309429
 21
5602.2994254866
 31
0.0
  0
LINE
  5
99
330
1F
100
AcDbEntity
  8
0
  6
SLD-Plná
 62
     7
370
    25
100
AcDbLine
 10
6281.5103797293
 20
5602.2994254866
 30
0.0
 11
6281.3801266593
 21
5603.0121598643
 31
0.0
  0
LINE
  5
9A
330
1F
100
AcDbEntity
  8
0
  6
SLD-Plná
 62
     7
370
    25
100
AcDbLine
 10
6203.717352087
 20
5699.1912369695
 30
0.0
 11
6344.3201585852
 21
5699.1912369694
 31
0.0
  0
LINE
  5
9B
330
1F
100
AcDbEntity
  8
0
  6
SLD-Plná
 62
     7
370
    25
100
AcDbLine
 10
6203.6880549854
 20
5700.664044735
 30
0.0
 11
6203.717352087
 21
5699.1912369695
 31
0.0
  0
LINE
  5
9C
330
1F
100
AcDbEntity
  8
0
  6
SLD-Plná
 62
     7
370
    25
100
AcDbLine
 10
6203.6880549854
 20
5700.664044735
 30
0.0
 11
6344.3494556867
 21
5700.664044735
 31
0.0
  0
LINE
  5
9D
330
1F
100
AcDbEntity
  8
0
  6
SLD-Plná
 62
     7
370
    25
100
AcDbLine
 10
6344.3201585852
 20
5699.1912369694
 30
0.0
 11
6344.3494556867
 21
5700.664044735
 31
0.0
  0
LINE
  5
9E
330
1F
100
AcDbEntity
  8
0
  6
SLD-Plná
 62
     7
370
    25
100
AcDbLine
 10
6203.717352087
 20
4694.5898337203
 30
0.0
 11
6203.717352087
 21
5699.1912369695
 31
0.0
  0
LINE
  5
9F
330
1F
100
AcDbEntity
  8
0
  6
SLD-Plná
 62
     7
370
    25
100
AcDbLine
 10
6344.3201585852
 20
5699.1912369694
 30
0.0
 11
6344.3201585852
 21
4694.5898337204
 31
0.0
  0
LINE
  5
A0
330
1F
100
AcDbEntity
  8
0
  6
SLD-Plná
 62
     7
370
    25
100
AcDbLine
 10
6203.717352087
 20
4694.5898337203
 30
0.0
 11
6344.3201585852
 21
4694.5898337204
 31
0.0
  0
SPLINE
  5
A1
330
1F
100
AcDbEntity
  8
0
  6
SLD-Plná
 62
     7
370
    25
100
AcDbSpline
210
0.0
220
0.0
230
1.0
 70
     8
 71
     3
 72
    11
 73
     7
 74
     0
 42
0.00000001
 43
0.00000001
 40
0.0
 40
0.0
 40
0.0
 40
0.0
 40
0.2500000000005955
 40
0.5000000000004047
 40
0.7500000000001549
 40
1.0
 40
1.0
 40
1.0
 40
1.0
 10
6344.320158585203
 20
4694.589833720351
 30
0.0
 10
6344.276032881124
 20
4694.38017445026
 30
0.0
 10
6344.187781472964
 20
4693.960855910081
 30
0.0
 10
6344.055404360724
 20
4693.431984010726
 30
0.0
 10
6343.923027248486
 20
4693.06198526973
 30
0.0
 10
6343.834775840326
 20
4693.013884236811
 30
0.0
 10
6343.790650136247
 20
4692.98983372035
 30
0.0
  0
LINE
  5
A2
330
1F
100
AcDbEntity
  8
0
  6
SLD-Plná
 62
     7
370
    25
100
AcDbLine
 10
6204.246860536
 20
4692.9898337203
 30
0.0
 11
6343.7906501362
 21
4692.9898337204
 31
0.0
  0
SPLINE
  5
A3
330
1F
100
AcDbEntity
  8
0
  6
SLD-Plná
 62
     7
370
    25
100
AcDbSpline
210
0.0
220
0.0
230
1.0
 70
     8
 71
     3
 72
    11
 73
     7
 74
     0
 42
0.00000001
 43
0.00000001
 40
0.0
 40
0.0
 40
0.0
 40
0.0
 40
0.2500000000002401
 40
0.5000000000001247
 40
0.7500000000000682
 40
1.0
 40
1.0
 40
1.0
 40
1.0
 10
6204.246860535954
 20
4692.989833720348
 30
0.0
 10
6204.202734831874
 20
4693.013884236809
 30
0.0
 10
6204.114483423715
 20
4693.061985269731
 30
0.0
 10
6203.982106311476
 20
4693.431984010725
 30
0.0
 10
6203.849729199237
 20
4693.96085591008
 30
0.0
 10
6203.761477791077
 20
4694.38017445026
 30
0.0
 10
6203.717352086997
 20
4694.589833720349
 30
0.0
  0
LINE
  5
A4
330
1F
100
AcDbEntity
  8
0
  6
SLD-Plná
 62
     7
370
    25
100
AcDbLine
 10
6202.2445443215
 20
4694.5898337203
 30
0.0
 11
6203.717352087
 21
4694.5898337203
 31
0.0
  0
LINE
  5
A5
330
1F
100
AcDbEntity
  8
0
  6
SLD-Plná
 62
     7
370
    25
100
AcDbLine
 10
6202.2445443215
 20
4694.5898337203
 30
0.0
 11
6202.2445443215
 21
5699.2205340711
 31
0.0
  0
LINE
  5
A6
330
1F
100
AcDbEntity
  8
0
  6
SLD-Plná
 62
     7
370
    25
100
AcDbLine
 10
6203.717352087
 20
5699.1912369695
 30
0.0
 11
6202.2445443215
 21
5699.2205340711
 31
0.0
  0
LINE
  5
A7
330
1F
100
AcDbEntity
  8
0
  6
SLD-Plná
 62
     7
370
    25
100
AcDbLine
 10
6345.7929663507
 20
5699.220534071
 30
0.0
 11
6344.3201585852
 21
5699.1912369694
 31
0.0
  0
LINE
  5
A8
330
1F
100
AcDbEntity
  8
0
  6
SLD-Plná
 62
     7
370
    25
100
AcDbLine
 10
6345.7929663507
 20
5699.220534071
 30
0.0
 11
6345.7929663507
 21
4694.5898337203
 31
0.0
  0
LINE
  5
A9
330
1F
100
AcDbEntity
  8
0
  6
SLD-Plná
 62
     7
370
    25
100
AcDbLine
 10
6344.3201585852
 20
4694.5898337204
 30
0.0
 11
6345.7929663507
 21
4694.5898337203
 31
0.0
  0
LINE
  5
AA
330
1F
100
AcDbEntity
  8
0
  6
SLD-Plná
 62
     7
370
    25
100
AcDbLine
 10
6344.3201585852
 20
5699.1912369695
 30
0.0
 11
6344.3494556867
 21
5699.9276408522
 31
0.0
  0
LINE
  5
AB
330
1F
100
AcDbEntity
  8
0
  6
SLD-Plná
 62
     7
370
    25
100
AcDbLine
 10
6344.3494556867
 20
5700.664044735
 30
0.0
 11
6344.3494556867
 21
5699.9276408522
 31
0.0
  0
LINE
  5
AC
330
1F
100
AcDbEntity
  8
0
  6
SLD-Plná
 62
     7
370
    25
100
AcDbLine
 10
6345.056562468
 20
5699.220534071
 30
0.0
 11
6344.3201585852
 21
5699.1912369694
 31
0.0
  0
LINE
  5
AD
330
1F
100
AcDbEntity
  8
0
  6
SLD-Plná
 62
     7
370
    25
100
AcDbLine
 10
6345.7929663507
 20
5699.220534071
 30
0.0
 11
6345.056562468
 21
5699.220534071
 31
0.0
  0
LINE
  5
AE
330
1F
100
AcDbEntity
  8
0
  6
SLD-Plná
 62
     7
370
    25
100
AcDbLine
 10
6203.717352087
 20
5699.1912369695
 30
0.0
 11
6202.9809482042
 21
5699.2205340711
 31
0.0
  0
LINE
  5
AF
330
1F
100
AcDbEntity
  8
0
  6
SLD-Plná
 62
     7
370
    25
100
AcDbLine
 10
6202.2445443215
 20
5699.2205340711
 30
0.0
 11
6202.9809482042
 21
5699.2205340711
 31
0.0
  0
LINE
  5
B0
330
1F
100
AcDbEntity
  8
0
  6
SLD-Plná
 62
     7
370
    25
100
AcDbLine
 10
6203.6880549854
 20
5699.9276408522
 30
0.0
 11
6203.717352087
 21
5699.1912369695
 31
0.0
  0
LINE
  5
B1
330
1F
100
AcDbEntity
  8
0
  6
SLD-Plná
 62
     7
370
    25
100
AcDbLine
 10
6203.6880549854
 20
5700.664044735
 30
0.0
 11
6203.6880549854
 21
5699.9276408522
 31
0.0
  0
LINE
  5
B2
330
1F
100
AcDbEntity
  8
0
  6
SLD-Plná
 62
     7
370
    25
100
AcDbLine
 10
6383.9108048464
 20
5737.3383725667
 30
0.0
 11
6383.9108048464
 21
4694.5898337203
 31
0.0
  0
LINE
  5
B3
330
1F
100
AcDbEntity
  8
0
  6
SLD-Plná
 62
     7
370
    25
100
AcDbLine
 10
6345.7929663507
 20
4694.5898337203
 30
0.0
 11
6383.9108048464
 21
4694.5898337203
 31
0.0
  0
LINE
  5
B4
330
1F
100
AcDbEntity
  8
0
  6
SLD-Plná
 62
     7
370
    25
100
AcDbLine
 10
6383.9108048464
 20
5737.3383725667
 30
0.0
 11
6345.7929663507
 21
5699.220534071
 31
0.0
  0
SPLINE
  5
B5
330
1F
100
AcDbEntity
  8
0
  6
SLD-Plná
 62
     7
370
    25
100
AcDbSpline
210
0.0
220
0.0
230
1.0
 70
     8
 71
     3
 72
    11
 73
     7
 74
     0
 42
0.00000001
 43
0.00000001
 40
0.0
 40
0.0
 40
0.0
 40
0.0
 40
0.2499999999999078
 40
0.4999999999999025
 40
0.7499999999999588
 40
1.0
 40
1.0
 40
1.0
 40
1.0
 10
6344.527054019009
 20
4692.98983372035
 30
0.0
 10
6344.702805108548
 20
4693.01388423681
 30
0.0
 10
6345.054307287626
 20
4693.061985269726
 30
0.0
 10
6345.489412579385
 20
4693.431984010723
 30
0.0
 10
6345.778274357792
 20
4693.960855910079
 30
0.0
 10
6345.78806901975
 20
4694.38017445026
 30
0.0
 10
6345.792966350728
 20
4694.589833720349
 30
0.0
  0
LINE
  5
B6
330
1F
100
AcDbEntity
  8
0
  6
SLD-Plná
 62
     7
370
    25
100
AcDbLine
 10
6344.527054019
 20
4693.7898337203
 30
0.0
 11
6344.527054019
 21
4692.9898337204
 31
0.0
  0
SPLINE
  5
B7
330
1F
100
AcDbEntity
  8
0
  6
SLD-Plná
 62
     7
370
    25
100
AcDbSpline
210
0.0
220
0.0
230
1.0
 70
     8
 71
     3
 72
    11
 73
     7
 74
     0
 42
0.00000001
 43
0.00000001
 40
0.0
 40
0.0
 40
0.0
 40
0.0
 40
0.2500000000001887
 40
0.5000000000001579
 40
0.7500000000000973
 40
1.0
 40
1.0
 40
1.0
 40
1.0
 10
6344.527054019009
 20
4693.789833720348
 30
0.0
 10
6344.606308920703
 20
4693.801858978577
 30
0.0
 10
6344.764818724092
 20
4693.825909495037
 30
0.0
 10
6344.956509440746
 20
4694.010908865535
 30
0.0
 10
6345.075078400724
 20
4694.275344815214
 30
0.0
 10
6345.062734445552
 20
4694.485004085303
 30
0.0
 10
6345.056562467966
 20
4694.589833720349
 30
0.0
  0
SPLINE
  5
B8
330
1F
100
AcDbEntity
  8
0
  6
SLD-Plná
 62
     7
370
    25
100
AcDbSpline
210
0.0
220
0.0
230
1.0
 70
     8
 71
     3
 72
    11
 73
     7
 74
     0
 42
0.00000001
 43
0.00000001
 40
0.0
 40
0.0
 40
0.0
 40
0.0
 40
0.249999999999424
 40
0.4999999999996866
 40
0.7499999999999554
 40
1.0
 40
1.0
 40
1.0
 40
1.0
 10
6383.910804846366
 20
4694.589833720348
 30
0.0
 10
6383.877609194307
 20
4694.380174450258
 30
0.0
 10
6383.81121789019
 20
4693.960855910078
 30
0.0
 10
6383.437461148541
 20
4693.431984010723
 30
0.0
 10
6382.917460893538
 20
4693.061985269726
 30
0.0
 10
6382.5093620723
 20
4693.013884236807
 30
0.0
 10
6382.305312661681
 20
4692.989833720348
 30
0.0
  0
LINE
  5
B9
330
1F
100
AcDbEntity
  8
0
  6
SLD-Plná
 62
     7
370
    25
100
AcDbLine
 10
6344.527054019
 20
4692.9898337204
 30
0.0
 11
6382.3053126617
 21
4692.9898337203
 31
0.0
  0
LINE
  5
BA
330
1F
100
AcDbEntity
  8
0
  6
SLD-Plná
 62
     7
370
    25
100
AcDbLine
 10
6165.5702164898
 20
5738.7818832306
 30
0.0
 11
6203.6880549854
 21
5700.664044735
 31
0.0
  0
LINE
  5
BB
330
1F
100
AcDbEntity
  8
0
  6
SLD-Plná
 62
     7
370
    25
100
AcDbLine
 10
6165.5702164898
 20
5738.7818832306
 30
0.0
 11
6382.4672941824
 21
5738.7818832306
 31
0.0
  0
LINE
  5
BC
330
1F
100
AcDbEntity
  8
0
  6
SLD-Plná
 62
     7
370
    25
100
AcDbLine
 10
6344.3494556867
 20
5700.664044735
 30
0.0
 11
6382.4672941824
 21
5738.7818832306
 31
0.0
  0
LINE
  5
BD
330
1F
100
AcDbEntity
  8
0
  6
SLD-Plná
 62
     7
370
    25
100
AcDbLine
 10
6344.3494556867
 20
5699.9276408522
 30
0.0
 11
6382.4672941824
 21
5738.0454793479
 31
0.0
  0
LINE
  5
BE
330
1F
100
AcDbEntity
  8
0
  6
SLD-Plná
 62
     7
370
    25
100
AcDbLine
 10
6382.4672941824
 20
5738.7818832306
 30
0.0
 11
6382.4672941824
 21
5738.0454793479
 31
0.0
  0
SPLINE
  5
BF
330
1F
100
AcDbEntity
  8
0
  6
SLD-Plná
 62
     7
370
    25
100
AcDbSpline
210
0.0
220
0.0
230
1.0
 70
     8
 71
     3
 72
    11
 73
     7
 74
     0
 42
0.00000001
 43
0.00000001
 40
0.0
 40
0.0
 40
0.0
 40
0.0
 40
0.2500000000000069
 40
0.5000000000000397
 40
0.7500000000000442
 40
1.0
 40
1.0
 40
1.0
 40
1.0
 10
6202.244544321474
 20
4694.589833720348
 30
0.0
 10
6202.249441652452
 20
4694.380174450258
 30
0.0
 10
6202.259236314409
 20
4693.960855910078
 30
0.0
 10
6202.548098092817
 20
4693.431984010722
 30
0.0
 10
6202.983203384576
 20
4693.061985269726
 30
0.0
 10
6203.334705563653
 20
4693.013884236807
 30
0.0
 10
6203.510456653192
 20
4692.989833720347
 30
0.0
  0
SPLINE
  5
C0
330
1F
100
AcDbEntity
  8
0
  6
SLD-Plná
 62
     7
370
    25
100
AcDbSpline
210
0.0
220
0.0
230
1.0
 70
     8
 71
     3
 72
    11
 73
     7
 74
     0
 42
0.00000001
 43
0.00000001
 40
0.0
 40
0.0
 40
0.0
 40
0.0
 40
0.25000000000008
 40
0.5000000000000266
 40
0.750000000000034
 40
0.9999999999999999
 40
0.9999999999999999
 40
0.9999999999999999
 40
0.9999999999999999
 10
6202.980948204236
 20
4694.589833720348
 30
0.0
 10
6202.97477622665
 20
4694.485004085303
 30
0.0
 10
6202.962432271477
 20
4694.275344815213
 30
0.0
 10
6203.081001231455
 20
4694.010908865535
 30
0.0
 10
6203.272691948109
 20
4693.825909495037
 30
0.0
 10
6203.431201751498
 20
4693.801858978578
 30
0.0
 10
6203.510456653192
 20
4693.789833720348
 30
0.0
  0
LINE
  5
C1
330
1F
100
AcDbEntity
  8
0
  6
SLD-Plná
 62
     7
370
    25
100
AcDbLine
 10
6203.5104566532
 20
4693.7898337203
 30
0.0
 11
6203.5104566532
 21
4692.9898337203
 31
0.0
  0
LINE
  5
C2
330
1F
100
AcDbEntity
  8
0
  6
SLD-Plná
 62
     7
370
    25
100
AcDbLine
 10
6202.9809482042
 20
5699.2205340711
 30
0.0
 11
6164.8631097086
 21
5737.3383725667
 31
0.0
  0
LINE
  5
C3
330
1F
100
AcDbEntity
  8
0
  6
SLD-Plná
 62
     7
370
    25
100
AcDbLine
 10
6202.2445443215
 20
5699.2205340711
 30
0.0
 11
6164.1267058258
 21
5737.3383725667
 31
0.0
  0
LINE
  5
C4
330
1F
100
AcDbEntity
  8
0
  6
SLD-Plná
 62
     7
370
    25
100
AcDbLine
 10
6164.1267058258
 20
5737.3383725667
 30
0.0
 11
6164.8631097086
 21
5737.3383725667
 31
0.0
  0
LINE
  5
C5
330
1F
100
AcDbEntity
  8
0
  6
SLD-Plná
 62
     7
370
    25
100
AcDbLine
 10
6383.1744009636
 20
5737.3383725667
 30
0.0
 11
6345.056562468
 21
5699.220534071
 31
0.0
  0
LINE
  5
C6
330
1F
100
AcDbEntity
  8
0
  6
SLD-Plná
 62
     7
370
    25
100
AcDbLine
 10
6383.9108048464
 20
5737.3383725667
 30
0.0
 11
6383.1744009636
 21
5737.3383725667
 31
0.0
  0
LINE
  5
C7
330
1F
100
AcDbEntity
  8
0
  6
SLD-Plná
 62
     7
370
    25
100
AcDbLine
 10
6165.7321980105
 20
4692.9898337203
 30
0.0
 11
6203.5104566532
 21
4692.9898337203
 31
0.0
  0
SPLINE
  5
C8
330
1F
100
AcDbEntity
  8
0
  6
SLD-Plná
 62
     7
370
    25
100
AcDbSpline
210
0.0
220
0.0
230
1.0
 70
     8
 71
     3
 72
    11
 73
     7
 74
     0
 42
0.00000001
 43
0.00000001
 40
0.0
 40
0.0
 40
0.0
 40
0.0
 40
0.2500000000000245
 40
0.500000000000001
 40
0.7499999999999903
 40
1.0
 40
1.0
 40
1.0
 40
1.0
 10
6165.73219801052
 20
4692.989833720347
 30
0.0
 10
6165.528148599901
 20
4693.013884236807
 30
0.0
 10
6165.120049778663
 20
4693.061985269726
 30
0.0
 10
6164.600049523661
 20
4693.431984010722
 30
0.0
 10
6164.226292782013
 20
4693.960855910078
 30
0.0
 10
6164.159901477894
 20
4694.380174450258
 30
0.0
 10
6164.126705825835
 20
4694.589833720348
 30
0.0
  0
LINE
  5
C9
330
1F
100
AcDbEntity
  8
0
  6
SLD-Plná
 62
     7
370
    25
100
AcDbLine
 10
6164.1267058258
 20
4694.5898337203
 30
0.0
 11
6202.2445443215
 21
4694.5898337203
 31
0.0
  0
LINE
  5
CA
330
1F
100
AcDbEntity
  8
0
  6
SLD-Plná
 62
     7
370
    25
100
AcDbLine
 10
6164.1267058258
 20
4694.5898337203
 30
0.0
 11
6164.1267058258
 21
5737.3383725667
 31
0.0
  0
LINE
  5
CB
330
1F
100
AcDbEntity
  8
0
  6
SLD-Plná
 62
     7
370
    25
100
AcDbLine
 10
6165.5702164898
 20
5738.0454793479
 30
0.0
 11
6203.6880549854
 21
5699.9276408522
 31
0.0
  0
LINE
  5
CC
330
1F
100
AcDbEntity
  8
0
  6
SLD-Plná
 62
     7
370
    25
100
AcDbLine
 10
6165.5702164898
 20
5738.7818832306
 30
0.0
 11
6165.5702164898
 21
5738.0454793479
 31
0.0
  0
LINE
  5
CD
330
1F
100
AcDbEntity
  8
0
  6
SLD-Plná
 62
     7
370
    25
100
AcDbLine
 10
6203.5104566532
 20
4693.7898337203
 30
0.0
 11
6203.8975988378
 21
4693.7898337203
 31
0.0
  0
LINE
  5
CE
330
1F
100
AcDbEntity
  8
0
  6
SLD-Plná
 62
     7
370
    25
100
AcDbLine
 10
6203.5104566532
 20
4692.9898337203
 30
0.0
 11
6204.246860536
 21
4692.9898337203
 31
0.0
  0
LINE
  5
CF
330
1F
100
AcDbEntity
  8
0
  6
SLD-Plná
 62
     7
370
    25
100
AcDbLine
 10
6344.1399118344
 20
4693.7898337204
 30
0.0
 11
6344.527054019
 21
4693.7898337203
 31
0.0
  0
LINE
  5
D0
330
1F
100
AcDbEntity
  8
0
  6
SLD-Plná
 62
     7
370
    25
100
AcDbLine
 10
6343.7906501362
 20
4692.9898337204
 30
0.0
 11
6344.527054019
 21
4692.9898337204
 31
0.0
  0
LINE
  5
D1
330
1F
100
AcDbEntity
  8
0
  6
SLD-Plná
 62
     7
370
    25
100
AcDbLine
 10
6382.5308902996
 20
5738.9090754651
 30
0.0
 11
6382.4672941824
 21
5738.7818832306
 31
0.0
  0
LINE
  5
D2
330
1F
100
AcDbEntity
  8
0
  6
SLD-Plná
 62
     7
370
    25
100
AcDbLine
 10
6165.5702164898
 20
5738.7818832306
 30
0.0
 11
6165.5066203725
 21
5738.9090754651
 31
0.0
  0
LINE
  5
D3
330
1F
100
AcDbEntity
  8
0
  6
SLD-Plná
 62
     7
370
    25
100
AcDbLine
 10
6165.5702164898
 20
5738.0454793479
 30
0.0
 11
6165.506627647
 21
5738.1090681907
 31
0.0
  0
LINE
  5
D4
330
1F
100
AcDbEntity
  8
0
  6
SLD-Plná
 62
     7
370
    25
100
AcDbLine
 10
6383.9108048464
 20
5737.3383725667
 30
0.0
 11
6384.0379970808
 21
5737.4019686839
 31
0.0
  0
LINE
  5
D5
330
1F
100
AcDbEntity
  8
0
  6
SLD-Plná
 62
     7
370
    25
100
AcDbLine
 10
6384.0379970808
 20
4694.5898337203
 30
0.0
 11
6383.9108048464
 21
4694.5898337203
 31
0.0
  0
LINE
  5
D6
330
1F
100
AcDbEntity
  8
0
  6
SLD-Plná
 62
     7
370
    25
100
AcDbLine
 10
6383.1744009636
 20
5737.3383725667
 30
0.0
 11
6383.2379898064
 21
5737.4019614095
 31
0.0
  0
LINE
  5
D7
330
1F
100
AcDbEntity
  8
0
  6
SLD-Plná
 62
     7
370
    25
100
AcDbLine
 10
6164.7995152036
 20
5737.4019670716
 30
0.0
 11
6164.8631097086
 21
5737.3383725667
 31
0.0
  0
LINE
  5
D8
330
1F
100
AcDbEntity
  8
0
  6
SLD-Plná
 62
     7
370
    25
100
AcDbLine
 10
6163.9995135914
 20
5737.4019686839
 30
0.0
 11
6164.1267058258
 21
5737.3383725667
 31
0.0
  0
LINE
  5
D9
330
1F
100
AcDbEntity
  8
0
  6
SLD-Plná
 62
     7
370
    25
100
AcDbLine
 10
6164.1267058258
 20
4694.5898337203
 30
0.0
 11
6163.9995135914
 21
4694.5898337203
 31
0.0
  0
LINE
  5
DA
330
1F
100
AcDbEntity
  8
0
  6
SLD-Plná
 62
     7
370
    25
100
AcDbLine
 10
6382.5308886874
 20
5738.1090738528
 30
0.0
 11
6382.4672941824
 21
5738.0454793479
 31
0.0
  0
LINE
  5
DB
330
1F
100
AcDbEntity
  8
0
  6
SLD-Plná
 62
     7
370
    25
100
AcDbLine
 10
6178.5187553361
 20
4688.4898337203
 30
0.0
 11
6184.5187553361
 21
4688.4898337203
 31
0.0
  0
LINE
  5
DC
330
1F
100
AcDbEntity
  8
0
  6
SLD-Plná
 62
     7
370
    25
100
AcDbLine
 10
6363.5187553361
 20
4688.4898337204
 30
0.0
 11
6369.5187553361
 21
4688.4898337204
 31
0.0
  0
LINE
  5
DD
330
1F
100
AcDbEntity
  8
0
  6
SLD-Plná
 62
     7
370
    25
100
AcDbLine
 10
6216.0187553361
 20
4688.4898337203
 30
0.0
 11
6222.0187553361
 21
4688.4898337203
 31
0.0
  0
LINE
  5
DE
330
1F
100
AcDbEntity
  8
0
  6
SLD-Plná
 62
     7
370
    25
100
AcDbLine
 10
6326.0187553361
 20
4688.4898337204
 30
0.0
 11
6332.0187553361
 21
4688.4898337204
 31
0.0
  0
LINE
  5
DF
330
1F
100
AcDbEntity
  8
0
  6
SLD-Plná
 62
     7
370
    25
100
AcDbLine
 10
6338.3988948244
 20
4690.9898337203
 30
0.0
 11
6338.3988948244
 21
4692.9898337203
 31
0.0
  0
LINE
  5
E0
330
1F
100
AcDbEntity
  8
0
  6
SLD-Plná
 62
     7
370
    25
100
AcDbLine
 10
6344.8424287986
 20
4692.9898337203
 30
0.0
 11
6344.8424287986
 21
4690.9898337203
 31
0.0
  0
LINE
  5
E1
330
1F
100
AcDbEntity
  8
0
  6
SLD-Plná
 62
     7
370
    25
100
AcDbLine
 10
6344.8424287986
 20
4690.9898337203
 30
0.0
 11
6338.3988948244
 21
4690.9898337203
 31
0.0
  0
LINE
  5
E2
330
1F
100
AcDbEntity
  8
0
  6
SLD-Plná
 62
     7
370
    25
100
AcDbLine
 10
6203.1950818736
 20
4690.9898337203
 30
0.0
 11
6203.1950818736
 21
4692.9898337203
 31
0.0
  0
LINE
  5
E3
330
1F
100
AcDbEntity
  8
0
  6
SLD-Plná
 62
     7
370
    25
100
AcDbLine
 10
6209.6386158478
 20
4692.9898337203
 30
0.0
 11
6209.6386158478
 21
4690.9898337203
 31
0.0
  0
LINE
  5
E4
330
1F
100
AcDbEntity
  8
0
  6
SLD-Plná
 62
     7
370
    25
100
AcDbLine
 10
6209.6386158478
 20
4690.9898337203
 30
0.0
 11
6203.1950818736
 21
4690.9898337203
 31
0.0
  0
LINE
  5
E5
330
1F
100
AcDbEntity
  8
0
  6
SLD-Plná
 62
     7
370
    25
100
AcDbLine
 10
6209.6386158478
 20
4690.9898337203
 30
0.0
 11
6338.3988948244
 21
4690.9898337203
 31
0.0
  0
LINE
  5
E6
330
1F
100
AcDbEntity
  8
0
  6
SLD-Plná
 62
     7
370
    25
100
AcDbLine
 10
6373.4622893103
 20
4690.9898337203
 30
0.0
 11
6373.4622893103
 21
4692.9898337203
 31
0.0
  0
LINE
  5
E7
330
1F
100
AcDbEntity
  8
0
  6
SLD-Plná
 62
     7
370
    25
100
AcDbLine
 10
6344.8424287986
 20
4690.9898337203
 30
0.0
 11
6373.4622893103
 21
4690.9898337203
 31
0.0
  0
LINE
  5
E8
330
1F
100
AcDbEntity
  8
0
  6
SLD-Plná
 62
     7
370
    25
100
AcDbLine
 10
6174.5752213619
 20
4692.9898337203
 30
0.0
 11
6174.5752213619
 21
4690.9898337203
 31
0.0
  0
LINE
  5
E9
330
1F
100
AcDbEntity
  8
0
  6
SLD-Plná
 62
     7
370
    25
100
AcDbLine
 10
6174.5752213619
 20
4690.9898337203
 30
0.0
 11
6203.1950818736
 21
4690.9898337203
 31
0.0
  0
LINE
  5
EA
330
1F
100
AcDbEntity
  8
0
  6
SLD-Plná
 62
     7
370
    25
100
AcDbLine
 10
6174.0187553361
 20
4690.9898337203
 30
0.0
 11
6174.0187553361
 21
4692.9898337203
 31
0.0
  0
LINE
  5
EB
330
1F
100
AcDbEntity
  8
0
  6
SLD-Plná
 62
     7
370
    25
100
AcDbLine
 10
6174.5752213619
 20
4690.9898337203
 30
0.0
 11
6174.0187553361
 21
4690.9898337203
 31
0.0
  0
LINE
  5
EC
330
1F
100
AcDbEntity
  8
0
  6
SLD-Plná
 62
     7
370
    25
100
AcDbLine
 10
6374.0187553361
 20
4692.9898337203
 30
0.0
 11
6374.0187553361
 21
4690.9898337203
 31
0.0
  0
LINE
  5
ED
330
1F
100
AcDbEntity
  8
0
  6
SLD-Plná
 62
     7
370
    25
100
AcDbLine
 10
6374.0187553361
 20
4690.9898337203
 30
0.0
 11
6373.4622893103
 21
4690.9898337203
 31
0.0
  0
LINE
  5
EE
330
1F
100
AcDbEntity
  8
0
  6
SLD-Plná
 62
     7
370
    25
100
AcDbLine
 10
6275.3485051014
 20
5666.6010863113
 30
0.0
 11
6273.7224724944
 21
5667.1977587178
 31
0.0
  0
LINE
  5
EF
330
1F
100
AcDbEntity
  8
0
  6
SLD-Plná
 62
     7
370
    25
100
AcDbLine
 10
6273.7224724944
 20
5667.1977587178
 30
0.0
 11
6272.392722729
 21
5666.087909376
 31
0.0
  0
LINE
  5
F0
330
1F
100
AcDbEntity
  8
0
  6
SLD-Plná
 62
     7
370
    25
100
AcDbLine
 10
6275.6447879432
 20
5664.8945645629
 30
0.0
 11
6275.3485051014
 21
5666.6010863113
 31
0.0
  0
LINE
  5
F1
330
1F
100
AcDbEntity
  8
0
  6
SLD-Plná
 62
     7
370
    25
100
AcDbLine
 10
6274.3150381778
 20
5663.7847152211
 30
0.0
 11
6275.6447879432
 21
5664.8945645629
 31
0.0
  0
LINE
  5
F2
330
1F
100
AcDbEntity
  8
0
  6
SLD-Plná
 62
     7
370
    25
100
AcDbLine
 10
6272.6890055708
 20
5664.3813876276
 30
0.0
 11
6274.3150381778
 21
5663.7847152211
 31
0.0
  0
LINE
  5
F3
330
1F
100
AcDbEntity
  8
0
  6
SLD-Plná
 62
     7
370
    25
100
AcDbLine
 10
6272.392722729
 20
5666.087909376
 30
0.0
 11
6272.6890055708
 21
5664.3813876276
 31
0.0
  0
LWPOLYLINE
  5
F4
330
1F
100
AcDbEntity
  8
0
  6
SLD-Plná
 62
     7
370
    25
100
AcDbPolyline
 90
       16
 70
   128
 43
0.0
 10
6277.4371919396
 20
5602.5420020722
 10
6277.7927978443
 20
5602.3474431042
 10
6278.0157871134
 20
5602.0442881013
 10
6277.8836225684
 20
5601.737589963
 10
6277.4080476091
 20
5601.4546001646
 10
6276.6313191578
 20
5601.2204635916
 10
6275.6224529458
 20
5601.0559843061
 10
6274.4710911635
 20
5600.9757770144
 10
6273.2795373578
 20
5600.9869684862
 10
6272.1536663136
 20
5601.0885643103
 10
6271.1935166138
 20
5601.2715372519
 10
6270.4844017729
 20
5601.519629362
 10
6270.0893297562
 20
5601.810796568
 10
6270.0434044464
 20
5602.1191673858
 10
6270.3507065087
 20
5602.4173417151
 10
6270.6003187327
 20
5602.5420020722
  0
LINE
  5
F5
330
1F
100
AcDbEntity
  8
0
  6
SLD-Plná
 62
     7
370
    25
100
AcDbLine
 10
6273.1603418664
 20
5602.3047383288
 30
0.0
 11
6272.5846382887
 21
5601.9621672237
 31
0.0
  0
LINE
  5
F6
330
1F
100
AcDbEntity
  8
0
  6
SLD-Plná
 62
     7
370
    25
100
AcDbLine
 10
6272.5846382887
 20
5601.9621672237
 30
0.0
 11
6273.4430517584
 21
5601.6618412444
 31
0.0
  0
LINE
  5
F7
330
1F
100
AcDbEntity
  8
0
  6
SLD-Plná
 62
     7
370
    25
100
AcDbLine
 10
6273.4430517584
 20
5601.6618412444
 30
0.0
 11
6274.8771688058
 21
5601.7040863702
 31
0.0
  0
LINE
  5
F8
330
1F
100
AcDbEntity
  8
0
  6
SLD-Plná
 62
     7
370
    25
100
AcDbLine
 10
6274.8771688058
 20
5601.7040863702
 30
0.0
 11
6275.4528723835
 21
5602.0466574753
 31
0.0
  0
LINE
  5
F9
330
1F
100
AcDbEntity
  8
0
  6
SLD-Plná
 62
     7
370
    25
100
AcDbLine
 10
6275.4528723835
 20
5602.0466574753
 30
0.0
 11
6274.5944589138
 21
5602.3469834547
 31
0.0
  0
LINE
  5
FA
330
1F
100
AcDbEntity
  8
0
  6
SLD-Plná
 62
     7
370
    25
100
AcDbLine
 10
6274.5944589138
 20
5602.3469834547
 30
0.0
 11
6273.1603418664
 21
5602.3047383288
 31
0.0
  0
LINE
  5
FB
330
1F
100
AcDbEntity
  8
0
  6
SLD-Plná
 62
     7
370
    25
100
AcDbLine
 10
6274.8771688058
 20
5602.2480740966
 30
0.0
 11
6274.8771688058
 21
5601.7040863702
 31
0.0
  0
LINE
  5
FC
330
1F
100
AcDbEntity
  8
0
  6
SLD-Plná
 62
     7
370
    25
100
AcDbLine
 10
6273.4430517584
 20
5602.3130661811
 30
0.0
 11
6273.4430517584
 21
5601.6618412444
 31
0.0
  0
LWPOLYLINE
  5
FD
330
1F
100
AcDbEntity
  8
0
  6
SLD-Plná
 62
     7
370
    25
100
AcDbPolyline
 90
       24
 70
   128
 43
0.0
 10
6290.0324771675
 20
5606.4074748428
 10
6289.5152127228
 20
5607.0186401681
 10
6288.6517830272
 20
5607.6030258177
 10
6287.4614756734
 20
5608.1475775817
 10
6285.9708801606
 20
5608.6401310736
 10
6284.2132939296
 20
5609.0696834624
 10
6282.2279785524
 20
5609.4266392574
 10
6280.0592826938
 20
5609.7030246561
 10
6277.7556514357
 20
5609.8926656653
 10
6275.3685440938
 20
5609.9913260184
 10
6272.9512847015
 20
5609.9968018059
 10
6270.5578708393
 20
5609.908970708
 10
6268.2417674177
 20
5609.7297947261
 10
6266.0547123601
 20
5609.4632763557
 10
6264.0455608624
 20
5609.1153691767
 10
6262.259194049
 20
5608.6938448606
 10
6260.7355164027
 20
5608.2081195641
 10
6259.5085643642
 20
5607.6690435876
 10
6258.6057460147
 20
5607.0886589977
 10
6258.0472288242
 20
5606.4799306271
 10
6257.8454891439
 20
5605.8564564616
 10
6258.0050335047
 20
5605.2321638839
 10
6258.5222979494
 20
5604.6209985586
 10
6259.0615610968
 20
5604.2269375817
  0
LWPOLYLINE
  5
FE
330
1F
100
AcDbEntity
  8
0
  6
SLD-Plná
 62
     7
370
    25
100
AcDbPolyline
 90
        5
 70
   128
 43
0.0
 10
6289.012660251
 20
5604.2502276471
 10
6289.4317646575
 20
5604.550979729
 10
6289.990281848
 20
5605.1597080996
 10
6290.1920215283
 20
5605.7831822651
 10
6290.0324771675
 20
5606.4074748428
  0
ARC
  5
FF
330
1F
100
AcDbEntity
  8
0
  6
SLD-Plná
 62
     7
370
    25
100
AcDbCircle
 10
6287.5900769277
 20
5605.7933921817
 30
0.0
 40
1.124591257271815
100
AcDbArc
 50
10.5601658139
 51
24.7826003804
  0
ELLIPSE
  5
100
330
1F
100
AcDbEntity
  8
0
  6
SLD-Plná
 62
     7
370
    25
100
AcDbEllipse
 10
6284.9879781287
 20
5606.2223568838
 30
0.0
 11
3.626264725025067
 21
0.004209723295389267
 31
0.0
210
0.0
220
0.0
230
1.0
 40
0.255038236
 41
0.0413502128740165
 42
0.2355281268551092
  0
ARC
  5
101
330
1F
100
AcDbEntity
  8
0
  6
SLD-Plná
 62
     7
370
    25
100
AcDbCircle
 10
6286.7538008682
 20
5605.2812324845
 30
0.0
 40
2.108521808421671
100
AcDbArc
 50
33.4108668244
 51
48.0798338352
  0
ELLIPSE
  5
102
330
1F
100
AcDbEntity
  8
0
  6
SLD-Plná
 62
     7
370
    25
100
AcDbEllipse
 10
6284.609628531
 20
5606.6615252721
 30
0.0
 11
3.622626805884465
 21
0.008509826213412452
 31
0.0
210
0.0
220
0.0
230
1.0
 40
0.2555496571
 41
0.1959692171598371
 42
0.3901471311396114
  0
ARC
  5
103
330
1F
100
AcDbEntity
  8
0
  6
SLD-Plná
 62
     7
370
    25
100
AcDbCircle
 10
6285.0338039449
 20
5603.2008458053
 30
0.0
 40
4.811987364917865
100
AcDbArc
 50
52.5593661699
 51
61.0147138982
  0
ELLIPSE
  5
104
330
1F
100
AcDbEntity
  8
0
  6
SLD-Plná
 62
     7
370
    25
100
AcDbEllipse
 10
6283.9704964862
 20
5607.0799680675
 30
0.0
 11
3.616763879192149
 21
0.01199636844739871
 31
0.0
210
0.0
220
0.0
230
1.0
 40
0.2563774364
 41
0.3510526037727018
 42
0.5452305177521234
  0
ARC
  5
105
330
1F
100
AcDbEntity
  8
0
  6
SLD-Plná
 62
     7
370
    25
100
AcDbCircle
 10
6282.7595421066
 20
5598.8704378493
 30
0.0
 40
9.70600704387364
100
AcDbArc
 50
63.6916474635
 51
68.9858297823
  0
ELLIPSE
  5
106
330
1F
100
AcDbEntity
  8
0
  6
SLD-Plná
 62
     7
370
    25
100
AcDbEllipse
 10
6283.0863195463
 20
5607.4673818196
 30
0.0
 11
3.60924088869433
 21
0.01432917102920328
 31
0.0
210
0.0
220
0.0
230
1.0
 40
0.2574460952
 41
0.5067950856166132
 42
0.7009729995977259
  0
ARC
  5
107
330
1F
100
AcDbEntity
  8
0
  6
SLD-Plná
 62
     7
370
    25
100
AcDbCircle
 10
6280.2898225377
 20
5592.1524316681
 30
0.0
 40
16.86535761459521
100
AcDbArc
 50
70.778773654
 51
74.4408856798
  0
ELLIPSE
  5
108
330
1F
100
AcDbEntity
  8
0
  6
SLD-Plná
 62
     7
370
    25
100
AcDbEllipse
 10
6281.9788690821
 20
5607.8142271161
 30
0.0
 11
3.60078656591395
 21
0.01527322527545039
 31
0.0
210
0.0
220
0.0
230
1.0
 40
0.2586558582
 41
0.6633317412074706
 42
0.8575096551883223
  0
ARC
  5
109
330
1F
100
AcDbEntity
  8
0
  6
SLD-Plná
 62
     7
370
    25
100
AcDbCircle
 10
6277.9839557604
 20
5583.5258074056
 30
0.0
 40
25.79599619246861
100
AcDbArc
 50
75.7540493054
 51
78.5123392069
  0
ELLIPSE
  5
10A
330
1F
100
AcDbEntity
  8
0
  6
SLD-Plná
 62
     7
370
    25
100
AcDbEllipse
 10
6280.6754141993
 20
5608.1119634747
 30
0.0
 11
3.592225029430665
 21
0.01472406393168058
 31
0.0
210
0.0
220
0.0
230
1.0
 40
0.2598905728
 41
0.8207233009326669
 42
1.014901214912582
  0
ARC
  5
10B
330
1F
100
AcDbEntity
  8
0
  6
SLD-Plná
 62
     7
370
    25
100
AcDbCircle
 10
6276.127839584
 20
5574.005956115
 30
0.0
 40
35.49587441830818
100
AcDbArc
 50
79.5470364062
 51
81.7764535079
  0
ELLIPSE
  5
10C
330
1F
100
AcDbEntity
  8
0
  6
SLD-Plná
 62
     7
370
    25
100
AcDbEllipse
 10
6279.2080502831
 20
5608.353259638
 30
0.0
 11
3.5843964734986
 21
0.01272248883651627
 31
0.0
210
0.0
220
0.0
230
1.0
 40
0.2610281455
 41
0.9789473708202533
 42
1.173125284800576
  0
ARC
  5
10D
330
1F
100
AcDbEntity
  8
0
  6
SLD-Plná
 62
     7
370
    25
100
AcDbCircle
 10
6274.8769742387
 20
5564.9446393704
 30
0.0
 40
44.64362344802276
100
AcDbArc
 50
82.6436775749
 51
84.5569850849
  0
ELLIPSE
  5
10E
330
1F
100
AcDbEntity
  8
0
  6
SLD-Plná
 62
     7
370
    25
100
AcDbEllipse
 10
6277.6129087031
 20
5608.5321740938
 30
0.0
 11
3.578074156394905
 21
0.009455582727241563
 31
0.0
210
0.0
220
0.0
230
1.0
 40
0.2619528842
 41
1.137897479794533
 42
1.332075393774432
  0
ARC
  5
10F
330
1F
100
AcDbEntity
  8
0
  6
SLD-Plná
 62
     7
370
    25
100
AcDbCircle
 10
6274.2286992523
 20
5557.7531364905
 30
0.0
 40
51.8645902088599
100
AcDbArc
 50
85.3242001565
 51
87.055475908
  0
ELLIPSE
  5
110
330
1F
100
AcDbEntity
  8
0
  6
SLD-Plná
 62
     7
370
    25
100
AcDbEllipse
 10
6275.9292671388
 20
5608.6443013743
 30
0.0
 11
3.573886068917091
 21
0.005241951039351989
 31
0.0
210
0.0
220
0.0
230
1.0
 40
0.262568456
 41
1.297391271594977
 42
1.49156918557518
  0
ARC
  5
111
330
1F
100
AcDbEntity
  8
0
  6
SLD-Plná
 62
     7
370
    25
100
AcDbCircle
 10
6274.0295529936
 20
5553.6084907666
 30
0.0
 40
56.01415569861748
100
AcDbArc
 50
87.7683345131
 51
89.412995988
  0
ELLIPSE
  5
112
330
1F
100
AcDbEntity
  8
0
  6
SLD-Plná
 62
     7
370
    25
100
AcDbEllipse
 10
6274.1985824334
 20
5608.6868805338
 30
0.0
 11
3.572249947859746
 21
0.0005011347020626999
 31
0.0
210
0.0
220
0.0
230
1.0
 40
0.2628095885
 41
1.457187981289408
 42
1.651365895269868
  0
ARC
  5
113
330
1F
100
AcDbEntity
  8
0
  6
SLD-Plná
 62
     7
370
    25
100
AcDbCircle
 10
6274.0159837056
 20
5553.2065476073
 30
0.0
 40
56.41616639996965
100
AcDbArc
 50
90.1066736262
 51
91.7435110077
  0
ELLIPSE
  5
114
330
1F
100
AcDbEntity
  8
0
  6
SLD-Plná
 62
     7
370
    25
100
AcDbEllipse
 10
6272.463469788
 20
5608.658863132
 30
0.0
 11
3.573329364147867
 21
-0.004290168929401262
 31
0.0
210
0.0
220
0.0
230
1.0
 40
0.2626504622
 41
1.617013707010759
 42
1.811191620991138
  0
ARC
  5
115
330
1F
100
AcDbEntity
  8
0
  6
SLD-Plná
 62
     7
370
    25
100
AcDbCircle
 10
6273.8793587946
 20
5556.6153818467
 30
0.0
 40
53.00449086696007
100
AcDbArc
 50
92.449724004
 51
94.1560825147
  0
ELLIPSE
  5
116
330
1F
100
AcDbEntity
  8
0
  6
SLD-Plná
 62
     7
370
    25
100
AcDbEllipse
 10
6270.7666534344
 20
5608.5609390505
 30
0.0
 11
3.577016379475026
 21
-0.008649752829114732
 31
0.0
210
0.0
220
0.0
230
1.0
 40
0.2621081317
 41
1.776591350325064
 42
1.970769264305049
  0
ARC
  5
117
330
1F
100
AcDbEntity
  8
0
  6
SLD-Plná
 62
     7
370
    25
100
AcDbCircle
 10
6273.3409151006
 20
5563.2609396479
 30
0.0
 40
46.33688767030747
100
AcDbArc
 50
94.9087936903
 51
96.7751892678
  0
ELLIPSE
  5
118
330
1F
100
AcDbEntity
  8
0
  6
SLD-Plná
 62
     7
370
    25
100
AcDbEllipse
 10
6269.1499146228
 20
5608.3955195049
 30
0.0
 11
3.582943000375963
 21
-0.01214232058828202
 31
0.0
210
0.0
220
0.0
230
1.0
 40
0.261240259
 41
1.935671016290287
 42
2.129848930270393
  0
ARC
  5
119
330
1F
100
AcDbEntity
  8
0
  6
SLD-Plná
 62
     7
370
    25
100
AcDbCircle
 10
6272.220123048
 20
5572.0480126323
 30
0.0
 40
37.4781675781924
100
AcDbArc
 50
97.6171589697
 51
99.7672307108
  0
ELLIPSE
  5
11A
330
1F
100
AcDbEntity
  8
0
  6
SLD-Plná
 62
     7
370
    25
100
AcDbEllipse
 10
6267.6530628284
 20
5608.1666776736
 30
0.0
 11
3.590519953970216
 21
-0.01442540567495598
 31
0.0
210
0.0
220
0.0
230
1.0
 40
0.260137638
 41
2.094056553859164
 42
2.288234467838982
  0
ARC
  5
11B
330
1F
100
AcDbEntity
  8
0
  6
SLD-Plná
 62
     7
370
    25
100
AcDbCircle
 10
6270.4813751042
 20
5581.5902762874
 30
0.0
 40
27.7780786303267
100
AcDbArc
 50
100.7601112919
 51
103.3855308855
  0
ELLIPSE
  5
11C
330
1F
100
AcDbEntity
  8
0
  6
SLD-Plná
 62
     7
370
    25
100
AcDbEllipse
 10
6266.31295551
 20
5607.880048402
 30
0.0
 11
3.598997897425761
 21
-0.0152829958451548
 31
0.0
210
0.0
220
0.0
230
1.0
 40
0.2589130106
 41
2.25162482306049
 42
2.44580273704141
  0
ARC
  5
11D
330
1F
100
AcDbEntity
  8
0
  6
SLD-Plná
 62
     7
370
    25
100
AcDbCircle
 10
6268.2486404503
 20
5590.4994613763
 30
0.0
 40
18.59231862062459
100
AcDbArc
 50
104.6286529225
 51
108.0602204437
  0
ELLIPSE
  5
11E
330
1F
100
AcDbEntity
  8
0
  6
SLD-Plná
 62
     7
370
    25
100
AcDbEllipse
 10
6265.1625905573
 20
5607.5426894539
 30
0.0
 11
3.607543690450257
 21
-0.01464363995182793
 31
0.0
210
0.0
220
0.0
230
1.0
 40
0.2576882031
 41
2.408335843575187
 42
2.602513757554862
  0
ARC
  5
11F
330
1F
100
AcDbEntity
  8
0
  6
SLD-Plná
 62
     7
370
    25
100
AcDbCircle
 10
6265.7847216289
 20
5597.6709435845
 30
0.0
 40
11.00776412238447
100
AcDbArc
 50
109.7301754941
 51
114.5979949871
  0
ELLIPSE
  5
120
330
1F
100
AcDbEntity
  8
0
  6
SLD-Plná
 62
     7
370
    25
100
AcDbEllipse
 10
6264.2302937735
 20
5607.1629077263
 30
0.0
 11
3.615323151853773
 21
-0.01258257870995294
 31
0.0
210
0.0
220
0.0
230
1.0
 40
0.2565815278
 41
2.564233653684364
 42
2.758411567665227
  0
ARC
  5
121
330
1F
100
AcDbEntity
  8
0
  6
SLD-Plná
 62
     7
370
    25
100
AcDbCircle
 10
6263.4394802838
 20
5602.5039161497
 30
0.0
 40
5.633328713084205
100
AcDbArc
 50
117.041577878
 51
124.6527940271
  0
ELLIPSE
  5
122
330
1F
100
AcDbEntity
  8
0
  6
SLD-Plná
 62
     7
370
    25
100
AcDbEllipse
 10
6263.5390213994
 20
5606.7500547057
 30
0.0
 11
3.621581774966217
 21
-0.009309619120358548
 31
0.0
210
0.0
220
0.0
230
1.0
 40
0.2556968808
 41
2.719439005962858
 42
2.913616919942581
  0
ARC
  5
123
330
1F
100
AcDbEntity
  8
0
  6
SLD-Plná
 62
     7
370
    25
100
AcDbCircle
 10
6261.5781823733
 20
5605.0086583606
 30
0.0
 40
2.508894601877474
100
AcDbArc
 50
128.6365764901
 51
141.6973074459
  0
ELLIPSE
  5
124
330
1F
100
AcDbEntity
  8
0
  6
SLD-Plná
 62
     7
370
    25
100
AcDbEllipse
 10
6263.105794855
 20
5606.3142962038
 30
0.0
 11
3.625715897826922
 21
-0.005145692820406111
 31
0.0
210
0.0
220
0.0
230
1.0
 40
0.2551152825
 41
2.874135718150751
 42
3.068313632131834
  0
ARC
  5
125
330
1F
100
AcDbEntity
  8
0
  6
SLD-Plná
 62
     7
370
    25
100
AcDbCircle
 10
6260.5054691254
 20
5605.7781004182
 30
0.0
 40
1.184191493564007
100
AcDbArc
 50
149.0482708981
 51
170.6180871972
  0
ELLIPSE
  5
126
330
1F
100
AcDbEntity
  8
0
  6
SLD-Plná
 62
     7
370
    25
100
AcDbEllipse
 10
6262.9412816158
 20
5605.8663620409
 30
0.0
 11
3.627328397050406
 21
-0.0004913610264338787
 31
0.0
210
0.0
220
0.0
230
1.0
 40
0.2548890228
 41
3.028552626747548
 42
3.222730540727251
  0
LWPOLYLINE
  5
127
330
1F
100
AcDbEntity
  8
0
  6
SLD-Plná
 62
     7
370
    25
100
AcDbPolyline
 90
       20
 70
   128
 43
0.0
 10
6272.1203959127
 20
5607.3532641626
 10
6274.2927061344
 20
5607.3872046107
 10
6276.4579211742
 20
5607.3305166611
 10
6278.5599631001
 20
5607.184668502
 10
6280.5443901303
 20
5606.9534375241
 10
6282.359806647
 20
5606.6428124882
 10
6283.9591943162
 20
5606.2608384196
 10
6285.3011298373
 20
5605.8174082461
 10
6286.3508577851
 20
5605.3240065762
 10
6287.0811907573
 20
5604.793412254
 10
6287.4732135134
 20
5604.2393673938
 10
6287.51677287
 20
5603.6762214663
 10
6287.2107406627
 20
5603.1185596554
 10
6286.5630429649
 20
5602.5808251089
 10
6285.5904548067
 20
5602.0769448692
 10
6284.3181657105
 20
5601.6199691699
 10
6282.7791272957
 20
5601.2217334414
 10
6281.0131998487
 20
5600.8925517799
 10
6279.0661199629
 20
5600.6409498177
 10
6279.0013532452
 20
5600.6342558818
  0
LINE
  5
128
330
1F
100
AcDbEntity
  8
0
  6
SLD-Plná
 62
     7
370
    25
100
AcDbLine
 10
6277.9543732213
 20
5600.5395182114
 30
0.0
 11
6277.7505496507
 21
5600.523922266
 31
0.0
  0
LWPOLYLINE
  5
129
330
1F
100
AcDbEntity
  8
0
  6
SLD-Plná
 62
     7
370
    25
100
AcDbPolyline
 90
       18
 70
   128
 43
0.0
 10
6269.1200891883
 20
5600.6257297199
 10
6268.4673325033
 20
5600.696533571
 10
6266.5612298262
 20
5600.968342972
 10
6264.8482731426
 20
5601.3157691202
 10
6263.3728271307
 20
5601.7298138608
 10
6262.1731050672
 20
5602.1997536524
 10
6261.2801791236
 20
5602.7134173014
 10
6260.7171756125
 20
5603.257501189
 10
6260.4986760293
 20
5603.8179138283
 10
6260.6303393984
 20
5604.3801408264
 10
6261.1087557076
 20
5604.9296207994
 10
6261.9215342259
 20
5605.4521225045
 10
6263.0476244166
 20
5605.9341134221
 10
6264.4578611352
 20
5606.3631102405
 10
6266.1157199916
 20
5606.7280021675
 10
6267.978263312
 20
5607.0193386939
 10
6269.997252203
 20
5607.2295743567
 10
6272.1203959127
 20
5607.3532641626
  0
LINE
  5
12A
330
1F
100
AcDbEntity
  8
0
  6
SLD-Plná
 62
     7
370
    25
100
AcDbLine
 10
6280.9232200159
 20
5600.693051743
 30
0.0
 11
6280.4904243568
 21
5600.7543242048
 31
0.0
  0
LINE
  5
12B
330
1F
100
AcDbEntity
  8
0
  6
SLD-Plná
 62
     7
370
    25
100
AcDbLine
 10
6280.4904243568
 20
5600.7543242048
 30
0.0
 11
6279.8616437105
 21
5600.6747042564
 31
0.0
  0
LINE
  5
12C
330
1F
100
AcDbEntity
  8
0
  6
SLD-Plná
 62
     7
370
    25
100
AcDbLine
 10
6279.8616437105
 20
5600.6747042564
 30
0.0
 11
6280.2944393696
 21
5600.6134317946
 31
0.0
  0
LINE
  5
12D
330
1F
100
AcDbEntity
  8
0
  6
SLD-Plná
 62
     7
370
    25
100
AcDbLine
 10
6280.2944393696
 20
5600.6134317946
 30
0.0
 11
6280.2989771538
 21
5600.6139322334
 31
0.0
  0
ARC
  5
12E
330
1F
100
AcDbEntity
  8
0
  6
SLD-Plná
 62
     7
370
    25
100
AcDbCircle
 10
6274.7106763273
 20
5647.5860060424
 30
0.0
 40
47.30332783265555
100
AcDbArc
 50
274.8993535822
 51
276.7846293759
  0
LINE
  5
12F
330
1F
100
AcDbEntity
  8
0
  6
SLD-Plná
 62
     7
370
    25
100
AcDbLine
 10
6278.7506493133
 20
5600.4555122797
 30
0.0
 11
6278.7551224759
 21
5600.4559338122
 31
0.0
  0
LINE
  5
130
330
1F
100
AcDbEntity
  8
0
  6
SLD-Plná
 62
     7
370
    25
100
AcDbLine
 10
6278.7551224759
 20
5600.4559338122
 30
0.0
 11
6278.4660401936
 21
5600.5319105671
 31
0.0
  0
LINE
  5
131
330
1F
100
AcDbEntity
  8
0
  6
SLD-Plná
 62
     7
370
    25
100
AcDbLine
 10
6278.4660401936
 20
5600.5319105671
 30
0.0
 11
6277.7968772811
 21
5600.4787290809
 31
0.0
  0
LINE
  5
132
330
1F
100
AcDbEntity
  8
0
  6
SLD-Plná
 62
     7
370
    25
100
AcDbLine
 10
6277.7968772811
 20
5600.4787290809
 30
0.0
 11
6278.0859595634
 21
5600.4027523259
 31
0.0
  0
LINE
  5
133
330
1F
100
AcDbEntity
  8
0
  6
SLD-Plná
 62
     7
370
    25
100
AcDbLine
 10
6278.0859595634
 20
5600.4027523259
 30
0.0
 11
6278.0907073214
 21
5600.4030636228
 31
0.0
  0
ARC
  5
134
330
1F
100
AcDbEntity
  8
0
  6
SLD-Plná
 62
     7
370
    25
100
AcDbCircle
 10
6274.1610221442
 20
5654.3702249203
 30
0.0
 40
54.11004457679038
100
AcDbArc
 50
272.4410942534
 51
274.1647122654
  0
LINE
  5
135
330
1F
100
AcDbEntity
  8
0
  6
SLD-Plná
 62
     7
370
    25
100
AcDbLine
 10
6276.4656903543
 20
5600.3092831181
 30
0.0
 11
6276.4703998579
 21
5600.3095176043
 31
0.0
  0
LINE
  5
136
330
1F
100
AcDbEntity
  8
0
  6
SLD-Plná
 62
     7
370
    25
100
AcDbLine
 10
6275.7773316909
 20
5600.2840840848
 30
0.0
 11
6275.7821725171
 21
5600.284200067
 31
0.0
  0
ARC
  5
137
330
1F
100
AcDbEntity
  8
0
  6
SLD-Plná
 62
     7
370
    25
100
AcDbCircle
 10
6274.0215736685
 20
5657.8501863807
 30
0.0
 40
57.59290310944289
100
AcDbArc
 50
270.0983958544
 51
271.7517887795
  0
LINE
  5
138
330
1F
100
AcDbEntity
  8
0
  6
SLD-Plná
 62
     7
370
    25
100
AcDbLine
 10
6274.1204797341
 20
5600.2573681986
 30
0.0
 11
6274.1253096152
 21
5600.2574083722
 31
0.0
  0
LINE
  5
139
330
1F
100
AcDbEntity
  8
0
  6
SLD-Plná
 62
     7
370
    25
100
AcDbLine
 10
6273.4254018322
 20
5600.2603490772
 30
0.0
 11
6273.4302165294
 21
5600.2602683813
 31
0.0
  0
ARC
  5
13A
330
1F
100
AcDbEntity
  8
0
  6
SLD-Plná
 62
     7
370
    25
100
AcDbCircle
 10
6274.0077492641
 20
5657.4398564132
 30
0.0
 40
57.18250459329641
100
AcDbArc
 50
267.76001713
 51
269.421313371
  0
LINE
  5
13B
330
1F
100
AcDbEntity
  8
0
  6
SLD-Plná
 62
     7
370
    25
100
AcDbLine
 10
6271.7727643217
 20
5600.3010458387
 30
0.0
 11
6271.7775956525
 21
5600.3008892183
 31
0.0
  0
LINE
  5
13C
330
1F
100
AcDbEntity
  8
0
  6
SLD-Plná
 62
     7
370
    25
100
AcDbLine
 10
6271.088082306
 20
5600.3321317379
 30
0.0
 11
6271.0927523203
 21
5600.3318578431
 31
0.0
  0
ARC
  5
13D
330
1F
100
AcDbEntity
  8
0
  6
SLD-Plná
 62
     7
370
    25
100
AcDbCircle
 10
6273.8044744768
 20
5653.2087305594
 30
0.0
 40
52.94636064273529
100
AcDbArc
 50
265.3154442456
 51
267.0642318189
  0
LINE
  5
13E
330
1F
100
AcDbEntity
  8
0
  6
SLD-Plná
 62
     7
370
    25
100
AcDbLine
 10
6269.480352662
 20
5600.4392405501
 30
0.0
 11
6269.4850664792
 21
5600.4388894998
 31
0.0
  0
LINE
  5
13F
330
1F
100
AcDbEntity
  8
0
  6
SLD-Plná
 62
     7
370
    25
100
AcDbLine
 10
6269.4850664792
 20
5600.4388894998
 30
0.0
 11
6269.804554026
 21
5600.5123093117
 31
0.0
  0
LINE
  5
140
330
1F
100
AcDbEntity
  8
0
  6
SLD-Plná
 62
     7
370
    25
100
AcDbLine
 10
6269.804554026
 20
5600.5123093117
 30
0.0
 11
6269.1424132229
 21
5600.5710843513
 31
0.0
  0
LINE
  5
141
330
1F
100
AcDbEntity
  8
0
  6
SLD-Plná
 62
     7
370
    25
100
AcDbLine
 10
6269.1424132229
 20
5600.5710843513
 30
0.0
 11
6268.8229256761
 21
5600.4976645394
 31
0.0
  0
LINE
  5
142
330
1F
100
AcDbEntity
  8
0
  6
SLD-Plná
 62
     7
370
    25
100
AcDbLine
 10
6268.8229256761
 20
5600.4976645394
 30
0.0
 11
6268.8273360163
 21
5600.4972056823
 31
0.0
  0
ARC
  5
143
330
1F
100
AcDbEntity
  8
0
  6
SLD-Plná
 62
     7
370
    25
100
AcDbCircle
 10
6273.1426965373
 20
5645.8671760555
 30
0.0
 40
45.57473585330215
100
AcDbArc
 50
262.633999898
 51
264.5666627618
  0
LINE
  5
144
330
1F
100
AcDbEntity
  8
0
  6
SLD-Plná
 62
     7
370
    25
100
AcDbLine
 10
6267.2996915383
 20
5600.6685495202
 30
0.0
 11
6267.3041717721
 21
5600.6680111917
 31
0.0
  0
LINE
  5
145
330
1F
100
AcDbEntity
  8
0
  6
SLD-Plná
 62
     7
370
    25
100
AcDbLine
 10
6267.3041717721
 20
5600.6680111917
 30
0.0
 11
6267.7654528981
 21
5600.7255271357
 31
0.0
  0
LINE
  5
146
330
1F
100
AcDbEntity
  8
0
  6
SLD-Plná
 62
     7
370
    25
100
AcDbLine
 10
6267.7654528981
 20
5600.7255271357
 30
0.0
 11
6267.1469887424
 21
5600.8103874587
 31
0.0
  0
LINE
  5
147
330
1F
100
AcDbEntity
  8
0
  6
SLD-Plná
 62
     7
370
    25
100
AcDbLine
 10
6267.1469887424
 20
5600.8103874587
 30
0.0
 11
6266.6857076164
 21
5600.7528715148
 31
0.0
  0
LINE
  5
148
330
1F
100
AcDbEntity
  8
0
  6
SLD-Plná
 62
     7
370
    25
100
AcDbLine
 10
6266.6857076164
 20
5600.7528715148
 30
0.0
 11
6266.6897496854
 21
5600.7522404863
 31
0.0
  0
ARC
  5
149
330
1F
100
AcDbEntity
  8
0
  6
SLD-Plná
 62
     7
370
    25
100
AcDbCircle
 10
6271.8657504153
 20
5636.6168002678
 30
0.0
 40
36.23613709923863
100
AcDbArc
 50
259.5357576005
 51
261.7877323137
  0
LINE
  5
14A
330
1F
100
AcDbEntity
  8
0
  6
SLD-Plná
 62
     7
370
    25
100
AcDbLine
 10
6265.2844760646
 20
5600.9833264013
 30
0.0
 11
6265.2886123967
 21
5600.9826125576
 31
0.0
  0
LINE
  5
14B
330
1F
100
AcDbEntity
  8
0
  6
SLD-Plná
 62
     7
370
    25
100
AcDbLine
 10
6265.2886123967
 20
5600.9826125576
 30
0.0
 11
6265.8803288297
 21
5601.0186794672
 31
0.0
  0
LINE
  5
14C
330
1F
100
AcDbEntity
  8
0
  6
SLD-Plná
 62
     7
370
    25
100
AcDbLine
 10
6265.8803288297
 20
5601.0186794672
 30
0.0
 11
6265.3207699616
 21
5601.1275355309
 31
0.0
  0
LINE
  5
14D
330
1F
100
AcDbEntity
  8
0
  6
SLD-Plná
 62
     7
370
    25
100
AcDbLine
 10
6265.3207699616
 20
5601.1275355309
 30
0.0
 11
6264.7290535286
 21
5601.0914686214
 31
0.0
  0
LINE
  5
14E
330
1F
100
AcDbEntity
  8
0
  6
SLD-Plná
 62
     7
370
    25
100
AcDbLine
 10
6264.7290535286
 20
5601.0914686214
 30
0.0
 11
6264.7326277971
 21
5601.0906824519
 31
0.0
  0
ARC
  5
14F
330
1F
100
AcDbEntity
  8
0
  6
SLD-Plná
 62
     7
370
    25
100
AcDbCircle
 10
6269.9709195017
 20
5626.898334672
 30
0.0
 40
26.33390614953753
100
AcDbArc
 50
255.7400906167
 51
258.5262978955
  0
LINE
  5
150
330
1F
100
AcDbEntity
  8
0
  6
SLD-Plná
 62
     7
370
    25
100
AcDbLine
 10
6263.484327534
 20
5601.3758203417
 30
0.0
 11
6263.4880181141
 21
5601.3749470678
 31
0.0
  0
LINE
  5
151
330
1F
100
AcDbEntity
  8
0
  6
SLD-Plná
 62
     7
370
    25
100
AcDbLine
 10
6263.4880181141
 20
5601.3749470678
 30
0.0
 11
6264.1955998318
 21
5601.3845479228
 31
0.0
  0
LINE
  5
152
330
1F
100
AcDbEntity
  8
0
  6
SLD-Plná
 62
     7
370
    25
100
AcDbLine
 10
6264.1955998318
 20
5601.3845479228
 30
0.0
 11
6263.7087244476
 21
5601.5147193297
 31
0.0
  0
LINE
  5
153
330
1F
100
AcDbEntity
  8
0
  6
SLD-Plná
 62
     7
370
    25
100
AcDbLine
 10
6263.7087244476
 20
5601.5147193297
 30
0.0
 11
6263.00114273
 21
5601.5051184747
 31
0.0
  0
LINE
  5
154
330
1F
100
AcDbEntity
  8
0
  6
SLD-Plná
 62
     7
370
    25
100
AcDbLine
 10
6263.00114273
 20
5601.5051184747
 30
0.0
 11
6263.0041611877
 21
5601.5041980147
 31
0.0
  0
ARC
  5
155
330
1F
100
AcDbEntity
  8
0
  6
SLD-Plná
 62
     7
370
    25
100
AcDbCircle
 10
6267.6169487695
 20
5618.0917505411
 30
0.0
 40
17.21698893796283
100
AcDbArc
 50
250.7602326015
 51
254.4594267322
  0
LINE
  5
156
330
1F
100
AcDbEntity
  8
0
  6
SLD-Plná
 62
     7
370
    25
100
AcDbLine
 10
6261.9435715776
 20
5601.8363668382
 30
0.0
 11
6261.9467255315
 21
5601.8353541445
 31
0.0
  0
LINE
  5
157
330
1F
100
AcDbEntity
  8
0
  6
SLD-Plná
 62
     7
370
    25
100
AcDbLine
 10
6261.9467255315
 20
5601.8353541445
 30
0.0
 11
6262.7527495235
 21
5601.8141236071
 31
0.0
  0
LINE
  5
158
330
1F
100
AcDbEntity
  8
0
  6
SLD-Plná
 62
     7
370
    25
100
AcDbLine
 10
6262.7527495235
 20
5601.8141236071
 30
0.0
 11
6262.3505461112
 21
5601.9624051051
 31
0.0
  0
LINE
  5
159
330
1F
100
AcDbEntity
  8
0
  6
SLD-Plná
 62
     7
370
    25
100
AcDbLine
 10
6262.3505461112
 20
5601.9624051051
 30
0.0
 11
6261.5445221191
 21
5601.9836356424
 31
0.0
  0
LINE
  5
15A
330
1F
100
AcDbEntity
  8
0
  6
SLD-Plná
 62
     7
370
    25
100
AcDbLine
 10
6261.5445221191
 20
5601.9836356424
 30
0.0
 11
6261.5469104415
 21
5601.9826050491
 31
0.0
  0
ARC
  5
15B
330
1F
100
AcDbEntity
  8
0
  6
SLD-Plná
 62
     7
370
    25
100
AcDbCircle
 10
6265.0957022379
 20
5611.2336282297
 30
0.0
 40
9.908347647479546
100
AcDbArc
 50
243.6648269943
 51
249.0126502517
  0
LINE
  5
15C
330
1F
100
AcDbEntity
  8
0
  6
SLD-Plná
 62
     7
370
    25
100
AcDbLine
 10
6260.7001467206
 20
5602.3536257074
 30
0.0
 11
6260.7026863874
 21
5602.3524970375
 31
0.0
  0
LINE
  5
15D
330
1F
100
AcDbEntity
  8
0
  6
SLD-Plná
 62
     7
370
    25
100
AcDbLine
 10
6260.7026863874
 20
5602.3524970375
 30
0.0
 11
6261.5873056681
 21
5602.2968289409
 31
0.0
  0
LINE
  5
15E
330
1F
100
AcDbEntity
  8
0
  6
SLD-Plná
 62
     7
370
    25
100
AcDbLine
 10
6261.5873056681
 20
5602.2968289409
 30
0.0
 11
6261.2796778104
 21
5602.4595693474
 31
0.0
  0
LINE
  5
15F
330
1F
100
AcDbEntity
  8
0
  6
SLD-Plná
 62
     7
370
    25
100
AcDbLine
 10
6261.2796778104
 20
5602.4595693474
 30
0.0
 11
6260.3950585297
 21
5602.5152374439
 31
0.0
  0
LINE
  5
160
330
1F
100
AcDbEntity
  8
0
  6
SLD-Plná
 62
     7
370
    25
100
AcDbLine
 10
6260.3950585297
 20
5602.5152374439
 30
0.0
 11
6260.3967579084
 21
5602.5141235861
 31
0.0
  0
ARC
  5
161
330
1F
100
AcDbEntity
  8
0
  6
SLD-Plná
 62
     7
370
    25
100
AcDbCircle
 10
6262.7739888493
 20
5606.8129420214
 30
0.0
 40
4.912338229943937
100
AcDbArc
 50
232.5165140841
 51
241.057565984
  0
LINE
  5
162
330
1F
100
AcDbEntity
  8
0
  6
SLD-Plná
 62
     7
370
    25
100
AcDbLine
 10
6259.7846702096
 20
5602.9148603193
 30
0.0
 11
6259.7865330543
 21
5602.9136419725
 31
0.0
  0
LINE
  5
163
330
1F
100
AcDbEntity
  8
0
  6
SLD-Plná
 62
     7
370
    25
100
AcDbLine
 10
6259.7865330543
 20
5602.9136419725
 30
0.0
 11
6260.7279653612
 21
5602.820778117
 31
0.0
  0
LINE
  5
164
330
1F
100
AcDbEntity
  8
0
  6
SLD-Plná
 62
     7
370
    25
100
AcDbLine
 10
6260.7279653612
 20
5602.820778117
 30
0.0
 11
6260.5224878769
 21
5602.993970223
 31
0.0
  0
LINE
  5
165
330
1F
100
AcDbEntity
  8
0
  6
SLD-Plná
 62
     7
370
    25
100
AcDbLine
 10
6260.5224878769
 20
5602.993970223
 30
0.0
 11
6259.5810555701
 21
5603.0868340785
 31
0.0
  0
LINE
  5
166
330
1F
100
AcDbEntity
  8
0
  6
SLD-Plná
 62
     7
370
    25
100
AcDbLine
 10
6259.5810555701
 20
5603.0868340785
 30
0.0
 11
6259.5820241608
 21
5603.0856658755
 31
0.0
  0
ARC
  5
167
330
1F
100
AcDbEntity
  8
0
  6
SLD-Plná
 62
     7
370
    25
100
AcDbCircle
 10
6261.0181037983
 20
5604.6892413377
 30
0.0
 40
2.15262142241246
100
AcDbArc
 50
213.3366887966
 51
228.1540118632
  0
LINE
  5
168
330
1F
100
AcDbEntity
  8
0
  6
SLD-Plná
 62
     7
370
    25
100
AcDbLine
 10
6259.2196841147
 20
5603.5062512152
 30
0.0
 11
6259.2208242679
 21
5603.5049716988
 31
0.0
  0
LWPOLYLINE
  5
169
330
1F
100
AcDbEntity
  8
0
  6
SLD-Plná
 62
     7
370
    25
100
AcDbPolyline
 90
        3
 70
   128
 43
0.0
 10
6259.2208242679
 20
5603.5049716988
 10
6259.4787257804
 20
5603.4700834024
 10
6260.195888413
 20
5603.3730697677
  0
LINE
  5
16A
330
1F
100
AcDbEntity
  8
0
  6
SLD-Plná
 62
     7
370
    25
100
AcDbLine
 10
6260.195888413
 20
5603.3730697677
 30
0.0
 11
6260.0976208398
 21
5603.5524490088
 31
0.0
  0
LWPOLYLINE
  5
16B
330
1F
100
AcDbEntity
  8
0
  6
SLD-Plná
 62
     7
370
    25
100
AcDbPolyline
 90
        3
 70
   128
 43
0.0
 10
6260.0976208398
 20
5603.5524490088
 10
6259.3804582072
 20
5603.6494626435
 10
6259.1225566947
 20
5603.6843509399
  0
LINE
  5
16C
330
1F
100
AcDbEntity
  8
0
  6
SLD-Plná
 62
     7
370
    25
100
AcDbLine
 10
6259.1225566947
 20
5603.6843509399
 30
0.0
 11
6259.1227706474
 21
5603.6831586491
 31
0.0
  0
ARC
  5
16D
330
1F
100
AcDbEntity
  8
0
  6
SLD-Plná
 62
     7
370
    25
100
AcDbCircle
 10
6260.1174234968
 20
5604.1504538008
 30
0.0
 40
1.098953615759213
100
AcDbArc
 50
181.940762965
 51
205.1644797645
  0
LINE
  5
16E
330
1F
100
AcDbEntity
  8
0
  6
SLD-Plná
 62
     7
370
    25
100
AcDbLine
 10
6259.0191002685
 20
5604.1132363885
 30
0.0
 11
6259.0194896558
 21
5604.1119257161
 31
0.0
  0
LINE
  5
16F
330
1F
100
AcDbEntity
  8
0
  6
SLD-Plná
 62
     7
370
    25
100
AcDbLine
 10
6259.0194896558
 20
5604.1119257161
 30
0.0
 11
6260.004176324
 21
5603.9401046396
 31
0.0
  0
LINE
  5
170
330
1F
100
AcDbEntity
  8
0
  6
SLD-Plná
 62
     7
370
    25
100
AcDbLine
 10
6260.004176324
 20
5603.9401046396
 30
0.0
 11
6260.0155383356
 21
5604.1212541036
 31
0.0
  0
LINE
  5
171
330
1F
100
AcDbEntity
  8
0
  6
SLD-Plná
 62
     7
370
    25
100
AcDbLine
 10
6260.0155383356
 20
5604.1212541036
 30
0.0
 11
6259.0308516674
 21
5604.2930751801
 31
0.0
  0
LINE
  5
172
330
1F
100
AcDbEntity
  8
0
  6
SLD-Plná
 62
     7
370
    25
100
AcDbLine
 10
6259.0308516674
 20
5604.2930751801
 30
0.0
 11
6259.030305714
 21
5604.291889652
 31
0.0
  0
ARC
  5
173
330
1F
100
AcDbEntity
  8
0
  6
SLD-Plná
 62
     7
370
    25
100
AcDbCircle
 10
6260.2236247073
 20
5604.0970404023
 30
0.0
 40
1.209122181529849
100
AcDbArc
 50
148.939972795
 51
170.7263853005
  0
LINE
  5
174
330
1F
100
AcDbEntity
  8
0
  6
SLD-Plná
 62
     7
370
    25
100
AcDbLine
 10
6259.1878577111
 20
5604.7208698497
 30
0.0
 11
6259.1874867446
 21
5604.7195588021
 31
0.0
  0
LINE
  5
175
330
1F
100
AcDbEntity
  8
0
  6
SLD-Plná
 62
     7
370
    25
100
AcDbLine
 10
6259.1874867446
 20
5604.7195588021
 30
0.0
 11
6260.1575496819
 21
5604.5079204523
 31
0.0
  0
LINE
  5
176
330
1F
100
AcDbEntity
  8
0
  6
SLD-Plná
 62
     7
370
    25
100
AcDbLine
 10
6260.1575496819
 20
5604.5079204523
 30
0.0
 11
6260.2782615079
 21
5604.6863796382
 31
0.0
  0
LINE
  5
177
330
1F
100
AcDbEntity
  8
0
  6
SLD-Plná
 62
     7
370
    25
100
AcDbLine
 10
6260.2782615079
 20
5604.6863796382
 30
0.0
 11
6259.3081985706
 21
5604.898017988
 31
0.0
  0
LINE
  5
178
330
1F
100
AcDbEntity
  8
0
  6
SLD-Plná
 62
     7
370
    25
100
AcDbLine
 10
6259.3081985706
 20
5604.898017988
 30
0.0
 11
6259.3069061542
 21
5604.8968699065
 31
0.0
  0
ARC
  5
179
330
1F
100
AcDbEntity
  8
0
  6
SLD-Plná
 62
     7
370
    25
100
AcDbCircle
 10
6261.31872066
 20
5603.3116469343
 30
0.0
 40
2.561314013848676
100
AcDbArc
 50
128.5704677567
 51
141.7634161795
  0
LINE
  5
17A
330
1F
100
AcDbEntity
  8
0
  6
SLD-Plná
 62
     7
370
    25
100
AcDbLine
 10
6259.7218010742
 20
5605.3141896464
 30
0.0
 11
6259.7206788882
 21
5605.3129090136
 31
0.0
  0
LINE
  5
17B
330
1F
100
AcDbEntity
  8
0
  6
SLD-Plná
 62
     7
370
    25
100
AcDbLine
 10
6259.7206788882
 20
5605.3129090136
 30
0.0
 11
6260.6522319258
 21
5605.062535696
 31
0.0
  0
LINE
  5
17C
330
1F
100
AcDbEntity
  8
0
  6
SLD-Plná
 62
     7
370
    25
100
AcDbLine
 10
6260.6522319258
 20
5605.062535696
 30
0.0
 11
6260.8793212404
 21
5605.2339103464
 31
0.0
  0
LINE
  5
17D
330
1F
100
AcDbEntity
  8
0
  6
SLD-Plná
 62
     7
370
    25
100
AcDbLine
 10
6260.8793212404
 20
5605.2339103464
 30
0.0
 11
6259.9477682028
 21
5605.484283664
 31
0.0
  0
LINE
  5
17E
330
1F
100
AcDbEntity
  8
0
  6
SLD-Plná
 62
     7
370
    25
100
AcDbLine
 10
6259.9477682028
 20
5605.484283664
 30
0.0
 11
6259.945761147
 21
5605.4832027911
 31
0.0
  0
ARC
  5
17F
330
1F
100
AcDbEntity
  8
0
  6
SLD-Plná
 62
     7
370
    25
100
AcDbCircle
 10
6263.2188547858
 20
5600.7547333219
 30
0.0
 40
5.750788249413407
100
AcDbArc
 50
117.0030041003
 51
124.6913678048
  0
LINE
  5
180
330
1F
100
AcDbEntity
  8
0
  6
SLD-Plná
 62
     7
370
    25
100
AcDbLine
 10
6260.6077829
 20
5605.8785862761
 30
0.0
 11
6260.6059371265
 21
5605.8773660991
 31
0.0
  0
LINE
  5
181
330
1F
100
AcDbEntity
  8
0
  6
SLD-Plná
 62
     7
370
    25
100
AcDbLine
 10
6260.6059371265
 20
5605.8773660991
 30
0.0
 11
6261.4760423369
 21
5605.5902939028
 31
0.0
  0
LINE
  5
182
330
1F
100
AcDbEntity
  8
0
  6
SLD-Plná
 62
     7
370
    25
100
AcDbLine
 10
6261.4760423369
 20
5605.5902939028
 30
0.0
 11
6261.8039174476
 21
5605.750364205
 31
0.0
  0
LINE
  5
183
330
1F
100
AcDbEntity
  8
0
  6
SLD-Plná
 62
     7
370
    25
100
AcDbLine
 10
6261.8039174476
 20
5605.750364205
 30
0.0
 11
6260.9338122372
 21
5606.0374364013
 31
0.0
  0
LINE
  5
184
330
1F
100
AcDbEntity
  8
0
  6
SLD-Plná
 62
     7
370
    25
100
AcDbLine
 10
6260.9338122372
 20
5606.0374364013
 30
0.0
 11
6260.9311399623
 21
5606.0364508441
 31
0.0
  0
ARC
  5
185
330
1F
100
AcDbEntity
  8
0
  6
SLD-Plná
 62
     7
370
    25
100
AcDbCircle
 10
6265.6130282122
 20
5595.8209923735
 30
0.0
 40
11.2372447400705
100
AcDbArc
 50
109.7055182619
 51
114.6226522193
  0
LINE
  5
186
330
1F
100
AcDbEntity
  8
0
  6
SLD-Plná
 62
     7
370
    25
100
AcDbLine
 10
6261.8239873757
 20
5606.4001624207
 30
0.0
 11
6261.8214634638
 21
5606.399031252
 31
0.0
  0
LINE
  5
187
330
1F
100
AcDbEntity
  8
0
  6
SLD-Plná
 62
     7
370
    25
100
AcDbLine
 10
6261.8214634638
 20
5606.399031252
 30
0.0
 11
6262.608695969
 21
5606.0781999141
 31
0.0
  0
LINE
  5
188
330
1F
100
AcDbEntity
  8
0
  6
SLD-Plná
 62
     7
370
    25
100
AcDbLine
 10
6262.608695969
 20
5606.0781999141
 30
0.0
 11
6263.0292835023
 21
5606.223024406
 31
0.0
  0
LINE
  5
189
330
1F
100
AcDbEntity
  8
0
  6
SLD-Plná
 62
     7
370
    25
100
AcDbLine
 10
6263.0292835023
 20
5606.223024406
 30
0.0
 11
6262.2420509971
 21
5606.543855744
 31
0.0
  0
LINE
  5
18A
330
1F
100
AcDbEntity
  8
0
  6
SLD-Plná
 62
     7
370
    25
100
AcDbLine
 10
6262.2420509971
 20
5606.543855744
 30
0.0
 11
6262.2387793035
 21
5606.5429912624
 31
0.0
  0
ARC
  5
18B
330
1F
100
AcDbEntity
  8
0
  6
SLD-Plná
 62
     7
370
    25
100
AcDbCircle
 10
6268.1283521981
 20
5588.4999279089
 30
0.0
 40
18.97996849465893
100
AcDbArc
 50
104.6112809846
 51
108.0775923816
  0
LINE
  5
18C
330
1F
100
AcDbEntity
  8
0
  6
SLD-Plná
 62
     7
370
    25
100
AcDbLine
 10
6263.3404675107
 20
5606.8660751445
 30
0.0
 11
6263.3373276074
 21
5606.8650593449
 31
0.0
  0
LINE
  5
18D
330
1F
100
AcDbEntity
  8
0
  6
SLD-Plná
 62
     7
370
    25
100
AcDbLine
 10
6263.3373276074
 20
5606.8650593449
 30
0.0
 11
6264.0223031305
 21
5606.5142398646
 31
0.0
  0
LINE
  5
18E
330
1F
100
AcDbEntity
  8
0
  6
SLD-Plná
 62
     7
370
    25
100
AcDbLine
 10
6264.0223031305
 20
5606.5142398646
 30
0.0
 11
6264.5252468255
 21
5606.6402524866
 31
0.0
  0
LINE
  5
18F
330
1F
100
AcDbEntity
  8
0
  6
SLD-Plná
 62
     7
370
    25
100
AcDbLine
 10
6264.5252468255
 20
5606.6402524866
 30
0.0
 11
6263.8402713025
 21
5606.9910719669
 31
0.0
  0
LINE
  5
190
330
1F
100
AcDbEntity
  8
0
  6
SLD-Plná
 62
     7
370
    25
100
AcDbLine
 10
6263.8402713025
 20
5606.9910719669
 30
0.0
 11
6263.8364807501
 21
5606.9903513397
 31
0.0
  0
ARC
  5
191
330
1F
100
AcDbEntity
  8
0
  6
SLD-Plná
 62
     7
370
    25
100
AcDbCircle
 10
6270.4076638935
 20
5579.4048834107
 30
0.0
 40
28.3573357134264
100
AcDbArc
 50
100.7468259963
 51
103.3988161809
  0
LINE
  5
192
330
1F
100
AcDbEntity
  8
0
  6
SLD-Plná
 62
     7
370
    25
100
AcDbLine
 10
6265.1198825312
 20
5607.2648521298
 30
0.0
 11
6265.1162039514
 21
5607.2639752193
 31
0.0
  0
LINE
  5
193
330
1F
100
AcDbEntity
  8
0
  6
SLD-Plná
 62
     7
370
    25
100
AcDbLine
 10
6265.1162039514
 20
5607.2639752193
 30
0.0
 11
6265.6820561217
 21
5606.8876770036
 31
0.0
  0
LINE
  5
194
330
1F
100
AcDbEntity
  8
0
  6
SLD-Plná
 62
     7
370
    25
100
AcDbLine
 10
6265.6820561217
 20
5606.8876770036
 30
0.0
 11
6266.2549718355
 21
5606.9917749068
 31
0.0
  0
LINE
  5
195
330
1F
100
AcDbEntity
  8
0
  6
SLD-Plná
 62
     7
370
    25
100
AcDbLine
 10
6266.2549718355
 20
5606.9917749068
 30
0.0
 11
6265.6891196652
 21
5607.3680731224
 31
0.0
  0
LINE
  5
196
330
1F
100
AcDbEntity
  8
0
  6
SLD-Plná
 62
     7
370
    25
100
AcDbLine
 10
6265.6891196652
 20
5607.3680731224
 30
0.0
 11
6265.68490359
 21
5607.3675155863
 31
0.0
  0
ARC
  5
197
330
1F
100
AcDbEntity
  8
0
  6
SLD-Plná
 62
     7
370
    25
100
AcDbCircle
 10
6272.1826765619
 20
5569.6635348504
 30
0.0
 40
38.25978589752711
100
AcDbArc
 50
97.6062821055
 51
99.7781075751
  0
LINE
  5
198
330
1F
100
AcDbEntity
  8
0
  6
SLD-Plná
 62
     7
370
    25
100
AcDbLine
 10
6267.1184173338
 20
5607.586674164
 30
0.0
 11
6267.1142906563
 21
5607.5859562427
 31
0.0
  0
LINE
  5
199
330
1F
100
AcDbEntity
  8
0
  6
SLD-Plná
 62
     7
370
    25
100
AcDbLine
 10
6267.1142906563
 20
5607.5859562427
 30
0.0
 11
6267.5470863154
 21
5607.1893160694
 31
0.0
  0
LINE
  5
19A
330
1F
100
AcDbEntity
  8
0
  6
SLD-Plná
 62
     7
370
    25
100
AcDbLine
 10
6267.5470863154
 20
5607.1893160694
 30
0.0
 11
6268.1758669617
 21
5607.2689360178
 31
0.0
  0
LINE
  5
19B
330
1F
100
AcDbEntity
  8
0
  6
SLD-Plná
 62
     7
370
    25
100
AcDbLine
 10
6268.1758669617
 20
5607.2689360178
 30
0.0
 11
6267.7430713026
 21
5607.665576191
 31
0.0
  0
LINE
  5
19C
330
1F
100
AcDbEntity
  8
0
  6
SLD-Plná
 62
     7
370
    25
100
AcDbLine
 10
6267.7430713026
 20
5607.665576191
 30
0.0
 11
6267.7385335184
 21
5607.6651969666
 31
0.0
  0
ARC
  5
19D
330
1F
100
AcDbEntity
  8
0
  6
SLD-Plná
 62
     7
370
    25
100
AcDbCircle
 10
6273.3268343448
 20
5560.693123158
 30
0.0
 40
47.30332783228143
100
AcDbArc
 50
94.8993535822
 51
96.7846293759
  0
LINE
  5
19E
330
1F
100
AcDbEntity
  8
0
  6
SLD-Plná
 62
     7
370
    25
100
AcDbLine
 10
6269.2868613589
 20
5607.8236169204
 30
0.0
 11
6269.2823881963
 21
5607.8230741735
 31
0.0
  0
LINE
  5
19F
330
1F
100
AcDbEntity
  8
0
  6
SLD-Plná
 62
     7
370
    25
100
AcDbLine
 10
6269.2823881963
 20
5607.8230741735
 30
0.0
 11
6269.5714704786
 21
5607.4117297071
 31
0.0
  0
LINE
  5
1A0
330
1F
100
AcDbEntity
  8
0
  6
SLD-Plná
 62
     7
370
    25
100
AcDbLine
 10
6269.5714704786
 20
5607.4117297071
 30
0.0
 11
6270.2406333911
 21
5607.4649111933
 31
0.0
  0
LINE
  5
1A1
330
1F
100
AcDbEntity
  8
0
  6
SLD-Plná
 62
     7
370
    25
100
AcDbLine
 10
6270.2406333911
 20
5607.4649111933
 30
0.0
 11
6269.9515511088
 21
5607.8762556598
 31
0.0
  0
LINE
  5
1A2
330
1F
100
AcDbEntity
  8
0
  6
SLD-Plná
 62
     7
370
    25
100
AcDbLine
 10
6269.9515511088
 20
5607.8762556598
 30
0.0
 11
6269.9468033508
 21
5607.8760655772
 31
0.0
  0
ARC
  5
1A3
330
1F
100
AcDbEntity
  8
0
  6
SLD-Plná
 62
     7
370
    25
100
AcDbCircle
 10
6273.876488528
 20
5553.9089042797
 30
0.0
 40
54.11004457678862
100
AcDbArc
 50
92.4410942534
 51
94.1647122654
  0
LINE
  5
1A4
330
1F
100
AcDbEntity
  8
0
  6
SLD-Plná
 62
     7
370
    25
100
AcDbLine
 10
6271.571820318
 20
5607.969846082
 30
0.0
 11
6271.5671108143
 21
5607.9694903814
 31
0.0
  0
LWPOLYLINE
  5
1A5
330
1F
100
AcDbEntity
  8
0
  6
SLD-Plná
 62
     7
370
    25
100
AcDbPolyline
 90
        3
 70
   128
 43
0.0
 10
6271.5671108143
 20
5607.9694903814
 10
6271.6726622212
 20
5607.6487915561
 10
6271.7053615548
 20
5607.5494413547
  0
LINE
  5
1A6
330
1F
100
AcDbEntity
  8
0
  6
SLD-Plná
 62
     7
370
    25
100
AcDbLine
 10
6271.7053615548
 20
5607.5494413547
 30
0.0
 11
6272.3984297217
 21
5607.5748748742
 31
0.0
  0
LWPOLYLINE
  5
1A7
330
1F
100
AcDbEntity
  8
0
  6
SLD-Plná
 62
     7
370
    25
100
AcDbPolyline
 90
        3
 70
   128
 43
0.0
 10
6272.3984297217
 20
5607.5748748742
 10
6272.3657303882
 20
5607.6742250756
 10
6272.2601789813
 20
5607.9949239009
  0
LINE
  5
1A8
330
1F
100
AcDbEntity
  8
0
  6
SLD-Plná
 62
     7
370
    25
100
AcDbLine
 10
6272.2601789813
 20
5607.9949239009
 30
0.0
 11
6272.2553381551
 21
5607.994929133
 31
0.0
  0
ARC
  5
1A9
330
1F
100
AcDbEntity
  8
0
  6
SLD-Plná
 62
     7
370
    25
100
AcDbCircle
 10
6274.0159370037
 20
5550.4289428155
 30
0.0
 40
57.59290311324833
100
AcDbArc
 50
90.0983958545
 51
91.7517887794
  0
LINE
  5
1AA
330
1F
100
AcDbEntity
  8
0
  6
SLD-Plná
 62
     7
370
    25
100
AcDbLine
 10
6273.9170309381
 20
5608.0217610015
 30
0.0
 11
6273.912201057
 21
5608.0215996134
 31
0.0
  0
LINE
  5
1AB
330
1F
100
AcDbEntity
  8
0
  6
SLD-Plná
 62
     7
370
    25
100
AcDbLine
 10
6273.912201057
 20
5608.0215996134
 30
0.0
 11
6273.8962160635
 21
5607.5990600945
 31
0.0
  0
LINE
  5
1AC
330
1F
100
AcDbEntity
  8
0
  6
SLD-Plná
 62
     7
370
    25
100
AcDbLine
 10
6273.8962160635
 20
5607.5990600945
 30
0.0
 11
6274.5961238465
 21
5607.5961193895
 31
0.0
  0
LINE
  5
1AD
330
1F
100
AcDbEntity
  8
0
  6
SLD-Plná
 62
     7
370
    25
100
AcDbLine
 10
6274.5961238465
 20
5607.5961193895
 30
0.0
 11
6274.61210884
 21
5608.0186589085
 31
0.0
  0
LINE
  5
1AE
330
1F
100
AcDbEntity
  8
0
  6
SLD-Plná
 62
     7
370
    25
100
AcDbLine
 10
6274.61210884
 20
5608.0186589085
 30
0.0
 11
6274.6072941428
 21
5608.0188608188
 31
0.0
  0
ARC
  5
1AF
330
1F
100
AcDbEntity
  8
0
  6
SLD-Plná
 62
     7
370
    25
100
AcDbCircle
 10
6274.0297614083
 20
5550.8392727934
 30
0.0
 40
57.18250458671673
100
AcDbArc
 50
87.7600171299
 51
89.4213133711
  0
LINE
  5
1B0
330
1F
100
AcDbEntity
  8
0
  6
SLD-Plná
 62
     7
370
    25
100
AcDbLine
 10
6276.2647463505
 20
5607.9780833613
 30
0.0
 11
6276.2599150197
 21
5607.9781187674
 31
0.0
  0
LINE
  5
1B1
330
1F
100
AcDbEntity
  8
0
  6
SLD-Plná
 62
     7
370
    25
100
AcDbLine
 10
6276.2599150197
 20
5607.9781187674
 30
0.0
 11
6276.0900878958
 21
5607.5593641485
 31
0.0
  0
LINE
  5
1B2
330
1F
100
AcDbEntity
  8
0
  6
SLD-Plná
 62
     7
370
    25
100
AcDbLine
 10
6276.0900878958
 20
5607.5593641485
 30
0.0
 11
6276.7796012424
 21
5607.528121629
 31
0.0
  0
LINE
  5
1B3
330
1F
100
AcDbEntity
  8
0
  6
SLD-Plná
 62
     7
370
    25
100
AcDbLine
 10
6276.7796012424
 20
5607.528121629
 30
0.0
 11
6276.9494283662
 21
5607.9468762478
 31
0.0
  0
LINE
  5
1B4
330
1F
100
AcDbEntity
  8
0
  6
SLD-Plná
 62
     7
370
    25
100
AcDbLine
 10
6276.9494283662
 20
5607.9468762478
 30
0.0
 11
6276.9447583519
 21
5607.947271357
 31
0.0
  0
ARC
  5
1B5
330
1F
100
AcDbEntity
  8
0
  6
SLD-Plná
 62
     7
370
    25
100
AcDbCircle
 10
6274.2330361956
 20
5555.070398644
 30
0.0
 40
52.94636063939767
100
AcDbArc
 50
85.3154442455
 51
87.064231819
  0
LINE
  5
1B6
330
1F
100
AcDbEntity
  8
0
  6
SLD-Plná
 62
     7
370
    25
100
AcDbLine
 10
6278.5571580102
 20
5607.83988865
 30
0.0
 11
6278.552444193
 21
5607.8401184859
 31
0.0
  0
LINE
  5
1B7
330
1F
100
AcDbEntity
  8
0
  6
SLD-Plná
 62
     7
370
    25
100
AcDbLine
 10
6278.552444193
 20
5607.8401184859
 30
0.0
 11
6278.2329566462
 21
5607.4313309625
 31
0.0
  0
LINE
  5
1B8
330
1F
100
AcDbEntity
  8
0
  6
SLD-Plná
 62
     7
370
    25
100
AcDbLine
 10
6278.2329566462
 20
5607.4313309625
 30
0.0
 11
6278.8950974493
 21
5607.3725559229
 31
0.0
  0
LINE
  5
1B9
330
1F
100
AcDbEntity
  8
0
  6
SLD-Plná
 62
     7
370
    25
100
AcDbLine
 10
6278.8950974493
 20
5607.3725559229
 30
0.0
 11
6279.2145849961
 21
5607.7813434463
 31
0.0
  0
LINE
  5
1BA
330
1F
100
AcDbEntity
  8
0
  6
SLD-Plná
 62
     7
370
    25
100
AcDbLine
 10
6279.2145849961
 20
5607.7813434463
 30
0.0
 11
6279.2101746559
 21
5607.7819235178
 31
0.0
  0
ARC
  5
1BB
330
1F
100
AcDbEntity
  8
0
  6
SLD-Plná
 62
     7
370
    25
100
AcDbCircle
 10
6274.8948141352
 20
5562.4119531476
 30
0.0
 40
45.57473585016461
100
AcDbArc
 50
82.6339998979
 51
84.5666627619
  0
LINE
  5
1BC
330
1F
100
AcDbEntity
  8
0
  6
SLD-Plná
 62
     7
370
    25
100
AcDbLine
 10
6280.7378191339
 20
5607.6105796798
 30
0.0
 11
6280.7333389001
 21
5607.610996794
 31
0.0
  0
LINE
  5
1BD
330
1F
100
AcDbEntity
  8
0
  6
SLD-Plná
 62
     7
370
    25
100
AcDbLine
 10
6280.7333389001
 20
5607.610996794
 30
0.0
 11
6280.2720577741
 21
5607.2181131385
 31
0.0
  0
LINE
  5
1BE
330
1F
100
AcDbEntity
  8
0
  6
SLD-Plná
 62
     7
370
    25
100
AcDbLine
 10
6280.2720577741
 20
5607.2181131385
 30
0.0
 11
6280.8905219298
 21
5607.1332528155
 31
0.0
  0
LINE
  5
1BF
330
1F
100
AcDbEntity
  8
0
  6
SLD-Plná
 62
     7
370
    25
100
AcDbLine
 10
6280.8905219298
 20
5607.1332528155
 30
0.0
 11
6281.3518030558
 21
5607.5261364709
 31
0.0
  0
LINE
  5
1C0
330
1F
100
AcDbEntity
  8
0
  6
SLD-Plná
 62
     7
370
    25
100
AcDbLine
 10
6281.3518030558
 20
5607.5261364709
 30
0.0
 11
6281.3477609868
 21
5607.5268887137
 31
0.0
  0
ARC
  5
1C1
330
1F
100
AcDbEntity
  8
0
  6
SLD-Plná
 62
     7
370
    25
100
AcDbCircle
 10
6276.1717602562
 20
5571.6623289282
 30
0.0
 40
36.23613710332598
100
AcDbArc
 50
79.5357576006
 51
81.7877323136
  0
LINE
  5
1C2
330
1F
100
AcDbEntity
  8
0
  6
SLD-Plná
 62
     7
370
    25
100
AcDbLine
 10
6282.7530346076
 20
5607.2958027988
 30
0.0
 11
6282.7488982755
 21
5607.2963954281
 31
0.0
  0
LINE
  5
1C3
330
1F
100
AcDbEntity
  8
0
  6
SLD-Plná
 62
     7
370
    25
100
AcDbLine
 10
6282.7488982755
 20
5607.2963954281
 30
0.0
 11
6282.1571818425
 21
5606.9249608071
 31
0.0
  0
LINE
  5
1C4
330
1F
100
AcDbEntity
  8
0
  6
SLD-Plná
 62
     7
370
    25
100
AcDbLine
 10
6282.1571818425
 20
5606.9249608071
 30
0.0
 11
6282.7167407106
 21
5606.8161047433
 31
0.0
  0
LINE
  5
1C5
330
1F
100
AcDbEntity
  8
0
  6
SLD-Plná
 62
     7
370
    25
100
AcDbLine
 10
6282.7167407106
 20
5606.8161047433
 30
0.0
 11
6283.3084571436
 21
5607.1875393643
 31
0.0
  0
LINE
  5
1C6
330
1F
100
AcDbEntity
  8
0
  6
SLD-Plná
 62
     7
370
    25
100
AcDbLine
 10
6283.3084571436
 20
5607.1875393643
 30
0.0
 11
6283.3048828751
 21
5607.1884467481
 31
0.0
  0
ARC
  5
1C7
330
1F
100
AcDbEntity
  8
0
  6
SLD-Plná
 62
     7
370
    25
100
AcDbCircle
 10
6278.0665911704
 20
5581.3807945276
 30
0.0
 40
26.33390615007042
100
AcDbArc
 50
75.7400906168
 51
78.5262978955
  0
LINE
  5
1C8
330
1F
100
AcDbEntity
  8
0
  6
SLD-Plná
 62
     7
370
    25
100
AcDbLine
 10
6284.5531831382
 20
5606.9033088583
 30
0.0
 11
6284.5494925581
 21
5606.9040609179
 31
0.0
  0
LINE
  5
1C9
330
1F
100
AcDbEntity
  8
0
  6
SLD-Plná
 62
     7
370
    25
100
AcDbLine
 10
6284.5494925581
 20
5606.9040609179
 30
0.0
 11
6283.8419108404
 21
5606.5590923514
 31
0.0
  0
LINE
  5
1CA
330
1F
100
AcDbEntity
  8
0
  6
SLD-Plná
 62
     7
370
    25
100
AcDbLine
 10
6283.8419108404
 20
5606.5590923514
 30
0.0
 11
6284.3287862246
 21
5606.4289209445
 31
0.0
  0
LINE
  5
1CB
330
1F
100
AcDbEntity
  8
0
  6
SLD-Plná
 62
     7
370
    25
100
AcDbLine
 10
6284.3287862246
 20
5606.4289209445
 30
0.0
 11
6285.0363679422
 21
5606.773889511
 31
0.0
  0
LINE
  5
1CC
330
1F
100
AcDbEntity
  8
0
  6
SLD-Plná
 62
     7
370
    25
100
AcDbLine
 10
6285.0363679422
 20
5606.773889511
 30
0.0
 11
6285.0333494845
 21
5606.7749311853
 31
0.0
  0
ARC
  5
1CD
330
1F
100
AcDbEntity
  8
0
  6
SLD-Plná
 62
     7
370
    25
100
AcDbCircle
 10
6280.4205619028
 20
5590.1873786594
 30
0.0
 40
17.21698893757297
100
AcDbArc
 50
70.7602326015
 51
74.4594267323
  0
LINE
  5
1CE
330
1F
100
AcDbEntity
  8
0
  6
SLD-Plná
 62
     7
370
    25
100
AcDbLine
 10
6286.0939390946
 20
5606.4427623619
 30
0.0
 11
6286.0907851407
 21
5606.4436538412
 31
0.0
  0
LINE
  5
1CF
330
1F
100
AcDbEntity
  8
0
  6
SLD-Plná
 62
     7
370
    25
100
AcDbLine
 10
6286.0907851407
 20
5606.4436538412
 30
0.0
 11
6285.2847611487
 21
5606.1295166671
 31
0.0
  0
LINE
  5
1D0
330
1F
100
AcDbEntity
  8
0
  6
SLD-Plná
 62
     7
370
    25
100
AcDbLine
 10
6285.2847611487
 20
5606.1295166671
 30
0.0
 11
6285.686964561
 21
5605.9812351691
 31
0.0
  0
LINE
  5
1D1
330
1F
100
AcDbEntity
  8
0
  6
SLD-Plná
 62
     7
370
    25
100
AcDbLine
 10
6285.686964561
 20
5605.9812351691
 30
0.0
 11
6286.4929885531
 21
5606.2953723432
 31
0.0
  0
LINE
  5
1D2
330
1F
100
AcDbEntity
  8
0
  6
SLD-Plná
 62
     7
370
    25
100
AcDbLine
 10
6286.4929885531
 20
5606.2953723432
 30
0.0
 11
6286.4906002307
 21
5606.296524151
 31
0.0
  0
ARC
  5
1D3
330
1F
100
AcDbEntity
  8
0
  6
SLD-Plná
 62
     7
370
    25
100
AcDbCircle
 10
6282.9418084342
 20
5597.0455009702
 30
0.0
 40
9.908347647635262
100
AcDbArc
 50
63.6648269944
 51
69.0126502516
  0
LINE
  5
1D4
330
1F
100
AcDbEntity
  8
0
  6
SLD-Plná
 62
     7
370
    25
100
AcDbLine
 10
6287.3373639516
 20
5605.9255034927
 30
0.0
 11
6287.3348242848
 21
5605.9265109482
 31
0.0
  0
LINE
  5
1D5
330
1F
100
AcDbEntity
  8
0
  6
SLD-Plná
 62
     7
370
    25
100
AcDbLine
 10
6287.3348242848
 20
5605.9265109482
 30
0.0
 11
6286.4502050041
 21
5605.6468113333
 31
0.0
  0
LINE
  5
1D6
330
1F
100
AcDbEntity
  8
0
  6
SLD-Plná
 62
     7
370
    25
100
AcDbLine
 10
6286.4502050041
 20
5605.6468113333
 30
0.0
 11
6286.7578328618
 21
5605.4840709268
 31
0.0
  0
LINE
  5
1D7
330
1F
100
AcDbEntity
  8
0
  6
SLD-Plná
 62
     7
370
    25
100
AcDbLine
 10
6286.7578328618
 20
5605.4840709268
 30
0.0
 11
6287.6424521425
 21
5605.7637705418
 31
0.0
  0
LINE
  5
1D8
330
1F
100
AcDbEntity
  8
0
  6
SLD-Plná
 62
     7
370
    25
100
AcDbLine
 10
6287.6424521425
 20
5605.7637705418
 30
0.0
 11
6287.6407527638
 21
5605.7650056139
 31
0.0
  0
ARC
  5
1D9
330
1F
100
AcDbEntity
  8
0
  6
SLD-Plná
 62
     7
370
    25
100
AcDbCircle
 10
6285.2635218229
 20
5601.4661871787
 30
0.0
 40
4.912338229937954
100
AcDbArc
 50
52.5165140841
 51
61.057565984
  0
LINE
  5
1DA
330
1F
100
AcDbEntity
  8
0
  6
SLD-Plná
 62
     7
370
    25
100
AcDbLine
 10
6288.2528404626
 20
5605.3642688807
 30
0.0
 11
6288.2509776179
 21
5605.3653660132
 31
0.0
  0
LINE
  5
1DB
330
1F
100
AcDbEntity
  8
0
  6
SLD-Plná
 62
     7
370
    25
100
AcDbLine
 10
6288.2509776179
 20
5605.3653660132
 30
0.0
 11
6287.309545311
 21
5605.1228621572
 31
0.0
  0
LINE
  5
1DC
330
1F
100
AcDbEntity
  8
0
  6
SLD-Plná
 62
     7
370
    25
100
AcDbLine
 10
6287.309545311
 20
5605.1228621572
 30
0.0
 11
6287.5150227953
 21
5604.9496700512
 31
0.0
  0
LINE
  5
1DD
330
1F
100
AcDbEntity
  8
0
  6
SLD-Plná
 62
     7
370
    25
100
AcDbLine
 10
6287.5150227953
 20
5604.9496700512
 30
0.0
 11
6288.4564551021
 21
5605.1921739072
 31
0.0
  0
LINE
  5
1DE
330
1F
100
AcDbEntity
  8
0
  6
SLD-Plná
 62
     7
370
    25
100
AcDbLine
 10
6288.4564551021
 20
5605.1921739072
 30
0.0
 11
6288.4554865114
 21
5605.1934633246
 31
0.0
  0
ARC
  5
1DF
330
1F
100
AcDbEntity
  8
0
  6
SLD-Plná
 62
     7
370
    25
100
AcDbCircle
 10
6287.0194068739
 20
5603.5898878624
 30
0.0
 40
2.152621422413439
100
AcDbArc
 50
33.3366887967
 51
48.1540118633
  0
LINE
  5
1E0
330
1F
100
AcDbEntity
  8
0
  6
SLD-Plná
 62
     7
370
    25
100
AcDbLine
 10
6288.8178265575
 20
5604.7728779848
 30
0.0
 11
6288.8166864043
 21
5604.7740362869
 31
0.0
  0
LWPOLYLINE
  5
1E1
330
1F
100
AcDbEntity
  8
0
  6
SLD-Plná
 62
     7
370
    25
100
AcDbPolyline
 90
        3
 70
   128
 43
0.0
 10
6288.8166864043
 20
5604.7740362869
 10
6288.072246324
 20
5604.618694018
 10
6287.8416222592
 20
5604.5705705065
  0
LINE
  5
1E2
330
1F
100
AcDbEntity
  8
0
  6
SLD-Plná
 62
     7
370
    25
100
AcDbLine
 10
6287.8416222592
 20
5604.5705705065
 30
0.0
 11
6287.9398898324
 21
5604.3911912654
 31
0.0
  0
LWPOLYLINE
  5
1E3
330
1F
100
AcDbEntity
  8
0
  6
SLD-Plná
 62
     7
370
    25
100
AcDbPolyline
 90
        3
 70
   128
 43
0.0
 10
6287.9398898324
 20
5604.3911912654
 10
6288.1705138973
 20
5604.4393147768
 10
6288.9149539776
 20
5604.5946570457
  0
LINE
  5
1E4
330
1F
100
AcDbEntity
  8
0
  6
SLD-Plná
 62
     7
370
    25
100
AcDbLine
 10
6288.9149539776
 20
5604.5946570457
 30
0.0
 11
6288.9147400248
 21
5604.5959705509
 31
0.0
  0
ARC
  5
1E5
330
1F
100
AcDbEntity
  8
0
  6
SLD-Plná
 62
     7
370
    25
100
AcDbCircle
 10
6287.9200871754
 20
5604.1286753992
 30
0.0
 40
1.098953615774318
100
AcDbArc
 50
1.9407629652
 51
25.1644797643
  0
LINE
  5
1E6
330
1F
100
AcDbEntity
  8
0
  6
SLD-Plná
 62
     7
370
    25
100
AcDbLine
 10
6289.0184104037
 20
5604.1658928116
 30
0.0
 11
6289.0180210164
 21
5604.1670822696
 31
0.0
  0
LINE
  5
1E7
330
1F
100
AcDbEntity
  8
0
  6
SLD-Plná
 62
     7
370
    25
100
AcDbLine
 10
6289.0180210164
 20
5604.1670822696
 30
0.0
 11
6288.0333343482
 21
5604.0035356346
 31
0.0
  0
LINE
  5
1E8
330
1F
100
AcDbEntity
  8
0
  6
SLD-Plná
 62
     7
370
    25
100
AcDbLine
 10
6288.0333343482
 20
5604.0035356346
 30
0.0
 11
6288.0219723366
 21
5603.8223861706
 31
0.0
  0
LINE
  5
1E9
330
1F
100
AcDbEntity
  8
0
  6
SLD-Plná
 62
     7
370
    25
100
AcDbLine
 10
6288.0219723366
 20
5603.8223861706
 30
0.0
 11
6289.0066590048
 21
5603.9859328056
 31
0.0
  0
LINE
  5
1EA
330
1F
100
AcDbEntity
  8
0
  6
SLD-Plná
 62
     7
370
    25
100
AcDbLine
 10
6289.0066590048
 20
5603.9859328056
 30
0.0
 11
6289.0072049582
 21
5603.9872395481
 31
0.0
  0
ARC
  5
1EB
330
1F
100
AcDbEntity
  8
0
  6
SLD-Plná
 62
     7
370
    25
100
AcDbCircle
 10
6287.8138859648
 20
5604.1820887977
 30
0.0
 40
1.209122181558853
100
AcDbArc
 50
328.9399727952
 51
350.7263853003
  0
LINE
  5
1EC
330
1F
100
AcDbEntity
  8
0
  6
SLD-Plná
 62
     7
370
    25
100
AcDbLine
 10
6288.8496529611
 20
5603.5582593504
 30
0.0
 11
6288.8500239276
 21
5603.5594491836
 31
0.0
  0
LINE
  5
1ED
330
1F
100
AcDbEntity
  8
0
  6
SLD-Plná
 62
     7
370
    25
100
AcDbLine
 10
6288.8500239276
 20
5603.5594491836
 30
0.0
 11
6287.8799609903
 21
5603.4357198219
 31
0.0
  0
LINE
  5
1EE
330
1F
100
AcDbEntity
  8
0
  6
SLD-Plná
 62
     7
370
    25
100
AcDbLine
 10
6287.8799609903
 20
5603.4357198219
 30
0.0
 11
6287.7592491643
 21
5603.257260636
 31
0.0
  0
LINE
  5
1EF
330
1F
100
AcDbEntity
  8
0
  6
SLD-Plná
 62
     7
370
    25
100
AcDbLine
 10
6287.7592491643
 20
5603.257260636
 30
0.0
 11
6288.7293121016
 21
5603.3809899977
 31
0.0
  0
LINE
  5
1F0
330
1F
100
AcDbEntity
  8
0
  6
SLD-Plná
 62
     7
370
    25
100
AcDbLine
 10
6288.7293121016
 20
5603.3809899977
 30
0.0
 11
6288.730604518
 21
5603.3822592935
 31
0.0
  0
ARC
  5
1F1
330
1F
100
AcDbEntity
  8
0
  6
SLD-Plná
 62
     7
370
    25
100
AcDbCircle
 10
6286.7187900122
 20
5604.9674822658
 30
0.0
 40
2.561314013883789
100
AcDbArc
 50
308.5704677568
 51
321.7634161794
  0
LINE
  5
1F2
330
1F
100
AcDbEntity
  8
0
  6
SLD-Plná
 62
     7
370
    25
100
AcDbLine
 10
6288.315709598
 20
5602.9649395536
 30
0.0
 11
6288.316831784
 21
5602.9660989721
 31
0.0
  0
LINE
  5
1F3
330
1F
100
AcDbEntity
  8
0
  6
SLD-Plná
 62
     7
370
    25
100
AcDbLine
 10
6288.316831784
 20
5602.9660989721
 30
0.0
 11
6287.3852787464
 21
5602.8811045782
 31
0.0
  0
LINE
  5
1F4
330
1F
100
AcDbEntity
  8
0
  6
SLD-Plná
 62
     7
370
    25
100
AcDbLine
 10
6287.3852787464
 20
5602.8811045782
 30
0.0
 11
6287.1581894318
 21
5602.7097299278
 31
0.0
  0
LINE
  5
1F5
330
1F
100
AcDbEntity
  8
0
  6
SLD-Plná
 62
     7
370
    25
100
AcDbLine
 10
6287.1581894318
 20
5602.7097299278
 30
0.0
 11
6288.0897424694
 21
5602.7947243217
 31
0.0
  0
LINE
  5
1F6
330
1F
100
AcDbEntity
  8
0
  6
SLD-Plná
 62
     7
370
    25
100
AcDbLine
 10
6288.0897424694
 20
5602.7947243217
 30
0.0
 11
6288.0917495252
 21
5602.795926409
 31
0.0
  0
ARC
  5
1F7
330
1F
100
AcDbEntity
  8
0
  6
SLD-Plná
 62
     7
370
    25
100
AcDbCircle
 10
6284.8186558864
 20
5607.5243958781
 30
0.0
 40
5.750788249419508
100
AcDbArc
 50
297.0030041003
 51
304.6913678048
  0
LINE
  5
1F8
330
1F
100
AcDbEntity
  8
0
  6
SLD-Plná
 62
     7
370
    25
100
AcDbLine
 10
6287.4297277722
 20
5602.4005429239
 30
0.0
 11
6287.4315735457
 21
5602.4016418865
 31
0.0
  0
LINE
  5
1F9
330
1F
100
AcDbEntity
  8
0
  6
SLD-Plná
 62
     7
370
    25
100
AcDbLine
 10
6287.4315735457
 20
5602.4016418865
 30
0.0
 11
6286.5614683353
 21
5602.3533463714
 31
0.0
  0
LINE
  5
1FA
330
1F
100
AcDbEntity
  8
0
  6
SLD-Plná
 62
     7
370
    25
100
AcDbLine
 10
6286.5614683353
 20
5602.3533463714
 30
0.0
 11
6286.2335932246
 21
5602.1932760692
 31
0.0
  0
LINE
  5
1FB
330
1F
100
AcDbEntity
  8
0
  6
SLD-Plná
 62
     7
370
    25
100
AcDbLine
 10
6286.2335932246
 20
5602.1932760692
 30
0.0
 11
6287.103698435
 21
5602.2415715843
 31
0.0
  0
LINE
  5
1FC
330
1F
100
AcDbEntity
  8
0
  6
SLD-Plná
 62
     7
370
    25
100
AcDbLine
 10
6287.103698435
 20
5602.2415715843
 30
0.0
 11
6287.1063707099
 21
5602.2426783559
 31
0.0
  0
ARC
  5
1FD
330
1F
100
AcDbEntity
  8
0
  6
SLD-Plná
 62
     7
370
    25
100
AcDbCircle
 10
6282.42448246
 20
5612.4581368265
 30
0.0
 40
11.23724474007171
100
AcDbArc
 50
289.7055182619
 51
294.6226522193
  0
LINE
  5
1FE
330
1F
100
AcDbEntity
  8
0
  6
SLD-Plná
 62
     7
370
    25
100
AcDbLine
 10
6286.2135232965
 20
5601.8789667793
 30
0.0
 11
6286.2160472084
 21
5601.8799767336
 31
0.0
  0
LINE
  5
1FF
330
1F
100
AcDbEntity
  8
0
  6
SLD-Plná
 62
     7
370
    25
100
AcDbLine
 10
6286.2160472084
 20
5601.8799767336
 30
0.0
 11
6285.4288147032
 21
5601.8654403601
 31
0.0
  0
LINE
  5
200
330
1F
100
AcDbEntity
  8
0
  6
SLD-Plná
 62
     7
370
    25
100
AcDbLine
 10
6285.4288147032
 20
5601.8654403601
 30
0.0
 11
6285.0082271699
 21
5601.7206158682
 31
0.0
  0
LINE
  5
201
330
1F
100
AcDbEntity
  8
0
  6
SLD-Plná
 62
     7
370
    25
100
AcDbLine
 10
6285.0082271699
 20
5601.7206158682
 30
0.0
 11
6285.7954596751
 21
5601.7351522417
 31
0.0
  0
LINE
  5
202
330
1F
100
AcDbEntity
  8
0
  6
SLD-Plná
 62
     7
370
    25
100
AcDbLine
 10
6285.7954596751
 20
5601.7351522417
 30
0.0
 11
6285.7987313687
 21
5601.7361379377
 31
0.0
  0
ARC
  5
203
330
1F
100
AcDbEntity
  8
0
  6
SLD-Plná
 62
     7
370
    25
100
AcDbCircle
 10
6279.9091584736
 20
5619.7792012929
 30
0.0
 40
18.97996849645723
100
AcDbArc
 50
284.6112809847
 51
288.0775923814
  0
LINE
  5
204
330
1F
100
AcDbEntity
  8
0
  6
SLD-Plná
 62
     7
370
    25
100
AcDbLine
 10
6284.6970431615
 20
5601.4130540556
 30
0.0
 11
6284.7001830648
 21
5601.4139486408
 31
0.0
  0
LINE
  5
205
330
1F
100
AcDbEntity
  8
0
  6
SLD-Plná
 62
     7
370
    25
100
AcDbLine
 10
6284.7001830648
 20
5601.4139486408
 30
0.0
 11
6284.0152075417
 21
5601.4294004096
 31
0.0
  0
LINE
  5
206
330
1F
100
AcDbEntity
  8
0
  6
SLD-Plná
 62
     7
370
    25
100
AcDbLine
 10
6284.0152075417
 20
5601.4294004096
 30
0.0
 11
6283.5122638467
 21
5601.3033877876
 31
0.0
  0
LINE
  5
207
330
1F
100
AcDbEntity
  8
0
  6
SLD-Plná
 62
     7
370
    25
100
AcDbLine
 10
6283.5122638467
 20
5601.3033877876
 30
0.0
 11
6284.1972393697
 21
5601.2879360188
 31
0.0
  0
LINE
  5
208
330
1F
100
AcDbEntity
  8
0
  6
SLD-Plná
 62
     7
370
    25
100
AcDbLine
 10
6284.1972393697
 20
5601.2879360188
 30
0.0
 11
6284.2010299221
 21
5601.2887778603
 31
0.0
  0
ARC
  5
209
330
1F
100
AcDbEntity
  8
0
  6
SLD-Plná
 62
     7
370
    25
100
AcDbCircle
 10
6277.6298467787
 20
5628.8742457893
 30
0.0
 40
28.35733571346601
100
AcDbArc
 50
280.7468259963
 51
283.3988161809
  0
LINE
  5
20A
330
1F
100
AcDbEntity
  8
0
  6
SLD-Plná
 62
     7
370
    25
100
AcDbLine
 10
6282.917628141
 20
5601.0142770702
 30
0.0
 11
6282.9213067208
 21
5601.0150327664
 31
0.0
  0
LINE
  5
20B
330
1F
100
AcDbEntity
  8
0
  6
SLD-Plná
 62
     7
370
    25
100
AcDbLine
 10
6282.9213067208
 20
5601.0150327664
 30
0.0
 11
6282.3554545505
 21
5601.0559632706
 31
0.0
  0
LINE
  5
20C
330
1F
100
AcDbEntity
  8
0
  6
SLD-Plná
 62
     7
370
    25
100
AcDbLine
 10
6282.3554545505
 20
5601.0559632706
 30
0.0
 11
6281.7825388367
 21
5600.9518653675
 31
0.0
  0
LINE
  5
20D
330
1F
100
AcDbEntity
  8
0
  6
SLD-Plná
 62
     7
370
    25
100
AcDbLine
 10
6281.7825388367
 20
5600.9518653675
 30
0.0
 11
6282.348391007
 21
5600.9109348632
 31
0.0
  0
LINE
  5
20E
330
1F
100
AcDbEntity
  8
0
  6
SLD-Plná
 62
     7
370
    25
100
AcDbLine
 10
6282.348391007
 20
5600.9109348632
 30
0.0
 11
6282.3526070822
 21
5600.9116136137
 31
0.0
  0
ARC
  5
20F
330
1F
100
AcDbEntity
  8
0
  6
SLD-Plná
 62
     7
370
    25
100
AcDbCircle
 10
6275.8548341106
 20
5638.6155943474
 30
0.0
 40
38.25978589531262
100
AcDbArc
 50
277.6062821055
 51
279.7781075751
  0
LINE
  5
210
330
1F
100
AcDbEntity
  8
0
  6
SLD-Plná
 62
     7
370
    25
100
AcDbLine
 10
6280.9190933384
 20
5600.6924550361
 30
0.0
 11
6280.9232200159
 21
5600.693051743
 31
0.0
  0
ELLIPSE
  5
211
330
1F
100
AcDbEntity
  8
0
  6
SLD-Plná
 62
     7
370
    25
100
AcDbEllipse
 10
6273.9160978753
 20
5603.8671568815
 30
0.0
 11
10.94094276706437
 21
0.04491733692520938
 31
0.0
210
0.0
220
0.0
230
1.0
 40
0.2578391603
 41
0.6236677684819688
 42
0.6882723190681463
  0
LINE
  5
212
330
1F
100
AcDbEntity
  8
0
  6
SLD-Plná
 62
     7
370
    25
100
AcDbLine
 10
6282.3589193231
 20
5605.6937605884
 30
0.0
 11
6282.3556843579
 21
5605.6931047928
 31
0.0
  0
ARC
  5
213
330
1F
100
AcDbEntity
  8
0
  6
SLD-Plná
 62
     7
370
    25
100
AcDbCircle
 10
6277.7706643649
 20
5590.7390668697
 30
0.0
 40
15.64115272417544
100
AcDbArc
 50
72.9540683376
 51
77.1088458849
  0
LINE
  5
214
330
1F
100
AcDbEntity
  8
0
  6
SLD-Plná
 62
     7
370
    25
100
AcDbLine
 10
6281.2601995963
 20
5605.9859945081
 30
0.0
 11
6281.2628370632
 21
5605.9868100513
 31
0.0
  0
ELLIPSE
  5
215
330
1F
100
AcDbEntity
  8
0
  6
SLD-Plná
 62
     7
370
    25
100
AcDbEllipse
 10
6273.9350587154
 20
5603.8620874956
 30
0.0
 11
10.90621175745036
 21
0.04572847446524975
 31
0.0
210
0.0
220
0.0
230
1.0
 40
0.2594837729
 41
0.8329507643806605
 42
0.8975553149667769
  0
LINE
  5
216
330
1F
100
AcDbEntity
  8
0
  6
SLD-Plná
 62
     7
370
    25
100
AcDbLine
 10
6280.7260569019
 20
5606.1030964599
 30
0.0
 11
6280.723419435
 21
5606.1022809167
 31
0.0
  0
ARC
  5
217
330
1F
100
AcDbEntity
  8
0
  6
SLD-Plná
 62
     7
370
    25
100
AcDbCircle
 10
6275.7754825966
 20
5581.5513506229
 30
0.0
 40
25.04456542334193
100
AcDbArc
 50
78.6053801755
 51
81.6404119639
  0
LINE
  5
218
330
1F
100
AcDbEntity
  8
0
  6
SLD-Plná
 62
     7
370
    25
100
AcDbLine
 10
6279.416592674
 20
5606.3298206049
 30
0.0
 11
6279.4185173727
 21
5606.3307602526
 31
0.0
  0
ELLIPSE
  5
219
330
1F
100
AcDbEntity
  8
0
  6
SLD-Plná
 62
     7
370
    25
100
AcDbEllipse
 10
6273.9576774994
 20
5603.8581491992
 30
0.0
 11
10.87392768893915
 21
0.03859601599833695
 31
0.0
210
0.0
220
0.0
230
1.0
 40
0.2610281455
 41
1.043734052517325
 42
1.108338603103149
  0
LINE
  5
21A
330
1F
100
AcDbEntity
  8
0
  6
SLD-Plná
 62
     7
370
    25
100
AcDbLine
 10
6278.800053217
 20
5606.4156205757
 30
0.0
 11
6278.7981285184
 21
5606.414680928
 31
0.0
  0
ARC
  5
21B
330
1F
100
AcDbEntity
  8
0
  6
SLD-Plná
 62
     7
370
    25
100
AcDbCircle
 10
6274.5426791812
 20
5572.6630951541
 30
0.0
 40
34.01879467753209
100
AcDbArc
 50
82.8139817686
 51
85.2882619159
  0
LINE
  5
21C
330
1F
100
AcDbEntity
  8
0
  6
SLD-Plná
 62
     7
370
    25
100
AcDbLine
 10
6277.3370743584
 20
5606.5669260129
 30
0.0
 11
6277.3382021702
 21
5606.567948698
 31
0.0
  0
ELLIPSE
  5
21D
330
1F
100
AcDbEntity
  8
0
  6
SLD-Plná
 62
     7
370
    25
100
AcDbEllipse
 10
6273.982965678
 20
5603.8555141149
 30
0.0
 11
10.84971596450487
 21
0.02468574752856512
 31
0.0
210
0.0
220
0.0
230
1.0
 40
0.2621963879
 41
1.255799251714676
 42
1.320403802300546
  0
LINE
  5
21E
330
1F
100
AcDbEntity
  8
0
  6
SLD-Plná
 62
     7
370
    25
100
AcDbLine
 10
6276.6650838716
 20
5606.6176741322
 30
0.0
 11
6276.6639560598
 21
5606.6166514472
 31
0.0
  0
ARC
  5
21F
330
1F
100
AcDbEntity
  8
0
  6
SLD-Plná
 62
     7
370
    25
100
AcDbCircle
 10
6274.0688240424
 20
5566.4977549576
 30
0.0
 40
40.2027432611804
100
AcDbArc
 50
86.2989200389
 51
88.5123741133
  0
LINE
  5
220
330
1F
100
AcDbEntity
  8
0
  6
SLD-Plná
 62
     7
370
    25
100
AcDbLine
 10
6275.1125295784
 20
5606.6869480881
 30
0.0
 11
6275.1128112126
 21
5606.6880091143
 31
0.0
  0
ELLIPSE
  5
221
330
1F
100
AcDbEntity
  8
0
  6
SLD-Plná
 62
     7
370
    25
100
AcDbEllipse
 10
6274.0098180363
 20
5603.8542974084
 30
0.0
 11
10.83782580517436
 21
0.006404669317817026
 31
0.0
210
0.0
220
0.0
230
1.0
 40
0.2627732824
 41
1.468691978692941
 42
1.533296529279024
  0
LINE
  5
222
330
1F
100
AcDbEntity
  8
0
  6
SLD-Plná
 62
     7
370
    25
100
AcDbLine
 10
6274.4144572707
 20
5606.7004264196
 30
0.0
 11
6274.4141756365
 21
5606.6993653934
 31
0.0
  0
ARC
  5
223
330
1F
100
AcDbEntity
  8
0
  6
SLD-Plná
 62
     7
370
    25
100
AcDbCircle
 10
6274.018678726
 20
5564.8409791329
 30
0.0
 40
41.86025463538292
100
AcDbArc
 50
89.4586597449
 51
91.6132685797
  0
LINE
  5
224
330
1F
100
AcDbEntity
  8
0
  6
SLD-Plná
 62
     7
370
    25
100
AcDbLine
 10
6272.8401816155
 20
5606.6846412898
 30
0.0
 11
6272.8396047634
 21
5606.6856942852
 31
0.0
  0
ELLIPSE
  5
225
330
1F
100
AcDbEntity
  8
0
  6
SLD-Plná
 62
     7
370
    25
100
AcDbEllipse
 10
6274.0370609976
 20
5603.8545522558
 30
0.0
 11
10.84035357187622
 21
-0.01301501858233678
 31
0.0
210
0.0
220
0.0
230
1.0
 40
0.2626504622
 41
1.681800388707894
 42
1.746404939293897
  0
LINE
  5
226
330
1F
100
AcDbEntity
  8
0
  6
SLD-Plná
 62
     7
370
    25
100
AcDbLine
 10
6272.1465365964
 20
5606.6602607657
 30
0.0
 11
6272.1471134486
 21
5606.6592077703
 31
0.0
  0
ARC
  5
227
330
1F
100
AcDbEntity
  8
0
  6
SLD-Plná
 62
     7
370
    25
100
AcDbCircle
 10
6273.8758080398
 20
5568.1834352958
 30
0.0
 40
38.51458752867833
100
AcDbArc
 50
92.5725367224
 51
94.8502332464
  0
LINE
  5
228
330
1F
100
AcDbEntity
  8
0
  6
SLD-Plná
 62
     7
370
    25
100
AcDbLine
 10
6270.6193429797
 20
5606.5601064361
 30
0.0
 11
6270.6179328523
 21
5606.5611053798
 31
0.0
  0
ELLIPSE
  5
229
330
1F
100
AcDbEntity
  8
0
  6
SLD-Plná
 62
     7
370
    25
100
AcDbEllipse
 10
6274.0635039136
 20
5603.8562675189
 30
0.0
 11
10.85685306114374
 21
-0.03012292011317186
 31
0.0
210
0.0
220
0.0
230
1.0
 40
0.2618511147
 41
1.894470931900411
 42
1.959075482486436
  0
LINE
  5
22A
330
1F
100
AcDbEntity
  8
0
  6
SLD-Plná
 62
     7
370
    25
100
AcDbLine
 10
6269.960440865
 20
5606.4989326024
 30
0.0
 11
6269.9618509923
 21
5606.4979336588
 31
0.0
  0
ARC
  5
22B
330
1F
100
AcDbEntity
  8
0
  6
SLD-Plná
 62
     7
370
    25
100
AcDbCircle
 10
6273.1632485532
 20
5575.539604516
 30
0.0
 40
31.12341706258384
100
AcDbArc
 50
95.9039653186
 51
98.5294845039
  0
LINE
  5
22C
330
1F
100
AcDbEntity
  8
0
  6
SLD-Plná
 62
     7
370
    25
100
AcDbLine
 10
6268.547074976
 20
5606.3187862978
 30
0.0
 11
6268.5448932028
 21
5606.3196875311
 31
0.0
  0
ELLIPSE
  5
22D
330
1F
100
AcDbEntity
  8
0
  6
SLD-Plná
 62
     7
370
    25
100
AcDbEllipse
 10
6274.0879911021
 20
5603.8593682324
 30
0.0
 11
10.88441881430663
 21
-0.0419102550495154
 31
0.0
210
0.0
220
0.0
230
1.0
 40
0.260524615
 41
2.106134437385222
 42
2.170738987971411
  0
LINE
  5
22E
330
1F
100
AcDbEntity
  8
0
  6
SLD-Plná
 62
     7
370
    25
100
AcDbLine
 10
6267.9517129499
 20
5606.2234927445
 30
0.0
 11
6267.9538947231
 21
5606.2225915113
 31
0.0
  0
ARC
  5
22F
330
1F
100
AcDbEntity
  8
0
  6
SLD-Plná
 62
     7
370
    25
100
AcDbCircle
 10
6271.6489230553
 20
5584.8114898157
 30
0.0
 40
21.72759789288684
100
AcDbArc
 50
99.7913960006
 51
103.1281292485
  0
LINE
  5
230
330
1F
100
AcDbEntity
  8
0
  6
SLD-Plná
 62
     7
370
    25
100
AcDbLine
 10
6266.71394566
 20
5605.9712277229
 30
0.0
 11
6266.711087595
 21
5605.9719918576
 31
0.0
  0
ELLIPSE
  5
231
330
1F
100
AcDbEntity
  8
0
  6
SLD-Plná
 62
     7
370
    25
100
AcDbEllipse
 10
6274.1094523553
 20
5603.8637188804
 30
0.0
 11
10.91822380102076
 21
-0.04636378618306481
 31
0.0
210
0.0
220
0.0
230
1.0
 40
0.2589130106
 41
2.316411504757851
 42
2.381016055343748
  0
LINE
  5
232
330
1F
100
AcDbEntity
  8
0
  6
SLD-Plná
 62
     7
370
    25
100
AcDbLine
 10
6266.2081439
 20
5605.8459792356
 30
0.0
 11
6266.211001965
 21
5605.8452151009
 31
0.0
  0
ARC
  5
233
330
1F
100
AcDbEntity
  8
0
  6
SLD-Plná
 62
     7
370
    25
100
AcDbCircle
 10
6269.4563243365
 20
5593.5588702257
 30
0.0
 40
12.70772944658281
100
AcDbArc
 50
104.7962076737
 51
109.5685346317
  0
LINE
  5
234
330
1F
100
AcDbEntity
  8
0
  6
SLD-Plná
 62
     7
370
    25
100
AcDbLine
 10
6265.2000715793
 20
5605.5326206889
 30
0.0
 11
6265.1966621335
 21
5605.5332143286
 31
0.0
  0
ELLIPSE
  5
235
330
1F
100
AcDbEntity
  8
0
  6
SLD-Plná
 62
     7
370
    25
100
AcDbEllipse
 10
6274.1269497136
 20
5603.8691293187
 30
0.0
 11
10.9523944078046
 21
-0.04279561360090156
 31
0.0
210
0.0
220
0.0
230
1.0
 40
0.2573006658
 41
2.52517432604633
 42
2.589778876632164
  0
LINE
  5
236
330
1F
100
AcDbEntity
  8
0
  6
SLD-Plná
 62
     7
370
    25
100
AcDbLine
 10
6264.8059360493
 20
5605.3828912274
 30
0.0
 11
6264.8093454951
 21
5605.3822975877
 31
0.0
  0
ARC
  5
237
330
1F
100
AcDbEntity
  8
0
  6
SLD-Plná
 62
     7
370
    25
100
AcDbCircle
 10
6267.0372276803
 20
5599.8832491052
 30
0.0
 40
5.93321103989046
100
AcDbArc
 50
112.0548174881
 51
119.9889153146
  0
LINE
  5
238
330
1F
100
AcDbEntity
  8
0
  6
SLD-Plná
 62
     7
370
    25
100
AcDbLine
 10
6264.0716162955
 20
5605.0221344278
 30
0.0
 11
6264.0678044781
 21
5605.0225316276
 31
0.0
  0
ELLIPSE
  5
239
330
1F
100
AcDbEntity
  8
0
  6
SLD-Plná
 62
     7
370
    25
100
AcDbEllipse
 10
6274.1397184584
 20
5603.8753630851
 30
0.0
 11
10.98104444872752
 21
-0.03190652866669552
 31
0.0
210
0.0
220
0.0
230
1.0
 40
0.2559615462
 41
2.732557277421558
 42
2.797161828007541
  0
LINE
  5
23A
330
1F
100
AcDbEntity
  8
0
  6
SLD-Plná
 62
     7
370
    25
100
AcDbLine
 10
6263.8063726094
 20
5604.8544678881
 30
0.0
 11
6263.8101844268
 21
5604.8540706883
 31
0.0
  0
ARC
  5
23B
330
1F
100
AcDbEntity
  8
0
  6
SLD-Plná
 62
     7
370
    25
100
AcDbCircle
 10
6265.0159860018
 20
5603.0899621824
 30
0.0
 40
2.136828551540527
100
AcDbArc
 50
124.353346159
 51
140.0493168313
  0
LINE
  5
23C
330
1F
100
AcDbEntity
  8
0
  6
SLD-Plná
 62
     7
370
    25
100
AcDbLine
 10
6263.3778987194
 20
5604.4620796388
 30
0.0
 11
6263.3738511252
 21
5604.4622630392
 31
0.0
  0
ELLIPSE
  5
23D
330
1F
100
AcDbEntity
  8
0
  6
SLD-Plná
 62
     7
370
    25
100
AcDbEllipse
 10
6274.1472005344
 20
5603.8821477341
 30
0.0
 11
10.99927778221536
 21
-0.01561040807064274
 31
0.0
210
0.0
220
0.0
230
1.0
 40
0.2551152825
 41
2.938922399848196
 42
3.003526950434278
  0
LINE
  5
23E
330
1F
100
AcDbEntity
  8
0
  6
SLD-Plná
 62
     7
370
    25
100
AcDbLine
 10
6263.2531392992
 20
5604.2838038533
 30
0.0
 11
6263.2571868934
 21
5604.2836204529
 31
0.0
  0
ARC
  5
23F
330
1F
100
AcDbEntity
  8
0
  6
SLD-Plná
 62
     7
370
    25
100
AcDbCircle
 10
6264.0123418031
 20
5603.8591333234
 30
0.0
 40
0.8662841685963848
100
AcDbArc
 50
150.6588200252
 51
169.2386405055
  0
ELLIPSE
  5
240
330
1F
100
AcDbEntity
  8
0
  6
SLD-Plná
 62
     7
370
    25
100
AcDbEllipse
 10
6273.8884417334
 20
5603.8867486776
 30
0.0
 11
11.0039968263336
 21
0.003315449597721454
 31
0.0
210
0.0
220
0.0
230
1.0
 40
0.2548970082
 41
0.0032002505149182
 42
0.0678048011008664
  0
LINE
  5
241
330
1F
100
AcDbEntity
  8
0
  6
SLD-Plná
 62
     7
370
    25
100
AcDbLine
 10
6284.8670956033
 20
5604.0800955419
 30
0.0
 11
6284.8629891314
 21
5604.0800571275
 31
0.0
  0
ARC
  5
242
330
1F
100
AcDbEntity
  8
0
  6
SLD-Plná
 62
     7
370
    25
100
AcDbCircle
 10
6283.8466165318
 20
5603.7856350352
 30
0.0
 40
1.058157658223748
100
AcDbArc
 50
16.1552076731
 51
41.2744292203
  0
LINE
  5
243
330
1F
100
AcDbEntity
  8
0
  6
SLD-Plná
 62
     7
370
    25
100
AcDbLine
 10
6284.6418840345
 20
5604.4836660008
 30
0.0
 11
6284.6458699113
 21
5604.4839245512
 31
0.0
  0
ELLIPSE
  5
244
330
1F
100
AcDbEntity
  8
0
  6
SLD-Plná
 62
     7
370
    25
100
AcDbEllipse
 10
6273.8922686588
 20
5603.8797629452
 30
0.0
 11
10.99440220131328
 21
0.02168364053886763
 31
0.0
210
0.0
220
0.0
230
1.0
 40
0.2553411207
 41
0.2091756219221496
 42
0.2737801725081936
  0
LINE
  5
245
330
1F
100
AcDbEntity
  8
0
  6
SLD-Plná
 62
     7
370
    25
100
AcDbLine
 10
6284.4756953077
 20
5604.6596626074
 30
0.0
 11
6284.4717094309
 21
5604.659404057
 31
0.0
  0
ARC
  5
246
330
1F
100
AcDbEntity
  8
0
  6
SLD-Plná
 62
     7
370
    25
100
AcDbCircle
 10
6282.4084962607
 20
5602.3198668386
 30
0.0
 40
3.119340151685746
100
AcDbArc
 50
48.5912694336
 51
60.780705912
  0
LINE
  5
247
330
1F
100
AcDbEntity
  8
0
  6
SLD-Plná
 62
     7
370
    25
100
AcDbLine
 10
6283.9312133352
 20
5605.04229511
 30
0.0
 11
6283.9349044152
 21
5605.0427624965
 31
0.0
  0
ELLIPSE
  5
248
330
1F
100
AcDbEntity
  8
0
  6
SLD-Plná
 62
     7
370
    25
100
AcDbEllipse
 10
6273.9016236588
 20
5603.8731358005
 30
0.0
 11
10.9721201828761
 21
0.03639319589183287
 31
0.0
210
0.0
220
0.0
230
1.0
 40
0.2563774364
 41
0.4158392854706195
 42
0.4804438360565028
  0
LINE
  5
249
330
1F
100
AcDbEntity
  8
0
  6
SLD-Plná
 62
     7
370
    25
100
AcDbLine
 10
6283.6272765575
 20
5605.205502903
 30
0.0
 11
6283.6235854775
 21
5605.2050355165
 31
0.0
  0
ARC
  5
24A
330
1F
100
AcDbEntity
  8
0
  6
SLD-Plná
 62
     7
370
    25
100
AcDbCircle
 10
6280.1778059877
 20
5598.0481995196
 30
0.0
 40
7.943154145439231
100
AcDbArc
 50
64.2907254346
 51
70.8208033024
  0
LINE
  5
24B
330
1F
100
AcDbEntity
  8
0
  6
SLD-Plná
 62
     7
370
    25
100
AcDbLine
 10
6282.7873206561
 20
5605.5504745728
 30
0.0
 11
6282.7905556213
 21
5605.5511303684
 31
0.0
  0
LINE
  5
24C
330
1F
100
AcDbEntity
  8
0
  6
SLD-Plná
 62
     7
370
    25
100
AcDbLine
 10
6274.6072941428
 20
5608.0188608188
 30
0.0
 11
6274.6034165347
 21
5609.6197067797
 31
0.0
  0
LINE
  5
24D
330
1F
100
AcDbEntity
  8
0
  6
SLD-Plná
 62
     7
370
    25
100
AcDbLine
 10
6276.2107477365
 20
5609.580162424
 30
0.0
 11
6276.2647463505
 21
5607.9780833613
 31
0.0
  0
LINE
  5
24E
330
1F
100
AcDbEntity
  8
0
  6
SLD-Plná
 62
     7
370
    25
100
AcDbLine
 10
6272.2553381551
 20
5607.994929133
 30
0.0
 11
6272.2995042661
 21
5609.5965957506
 31
0.0
  0
LINE
  5
24F
330
1F
100
AcDbEntity
  8
0
  6
SLD-Plná
 62
     7
370
    25
100
AcDbLine
 10
6273.9109478091
 20
5609.622616229
 30
0.0
 11
6273.9170309381
 21
5608.0217610015
 31
0.0
  0
LINE
  5
250
330
1F
100
AcDbEntity
  8
0
  6
SLD-Plná
 62
     7
370
    25
100
AcDbLine
 10
6274.589829417
 20
5609.620105381
 30
0.0
 11
6274.5961238465
 21
5607.5961193895
 31
0.0
  0
LINE
  5
251
330
1F
100
AcDbEntity
  8
0
  6
SLD-Plná
 62
     7
370
    25
100
AcDbLine
 10
6278.4565735363
 20
5609.4451164929
 30
0.0
 11
6278.5571580102
 21
5607.83988865
 31
0.0
  0
LINE
  5
252
330
1F
100
AcDbEntity
  8
0
  6
SLD-Plná
 62
     7
370
    25
100
AcDbLine
 10
6276.9447583519
 20
5607.947271357
 30
0.0
 11
6276.8929325043
 21
5609.5492519695
 31
0.0
  0
LINE
  5
253
330
1F
100
AcDbEntity
  8
0
  6
SLD-Plná
 62
     7
370
    25
100
AcDbLine
 10
6271.7599461416
 20
5609.5798176448
 30
0.0
 11
6271.7053615548
 21
5607.5494413547
 31
0.0
  0
LINE
  5
254
330
1F
100
AcDbEntity
  8
0
  6
SLD-Plná
 62
     7
370
    25
100
AcDbLine
 10
6269.9468033508
 20
5607.8760655772
 30
0.0
 11
6270.0379256646
 21
5609.4804879525
 31
0.0
  0
LINE
  5
255
330
1F
100
AcDbEntity
  8
0
  6
SLD-Plná
 62
     7
370
    25
100
AcDbLine
 10
6271.6138024607
 20
5609.5714325545
 30
0.0
 11
6271.571820318
 21
5607.969846082
 31
0.0
  0
LINE
  5
256
330
1F
100
AcDbEntity
  8
0
  6
SLD-Plná
 62
     7
370
    25
100
AcDbLine
 10
6276.7124854394
 20
5609.5609513857
 30
0.0
 11
6276.7796012424
 21
5607.528121629
 31
0.0
  0
LINE
  5
257
330
1F
100
AcDbEntity
  8
0
  6
SLD-Plná
 62
     7
370
    25
100
AcDbLine
 10
6269.6862584655
 20
5609.4571541103
 30
0.0
 11
6269.5714704786
 21
5607.4117297071
 31
0.0
  0
LINE
  5
258
330
1F
100
AcDbEntity
  8
0
  6
SLD-Plná
 62
     7
370
    25
100
AcDbLine
 10
6280.5931255237
 20
5609.2208037149
 30
0.0
 11
6280.7378191339
 21
5607.6105796798
 31
0.0
  0
LINE
  5
259
330
1F
100
AcDbEntity
  8
0
  6
SLD-Plná
 62
     7
370
    25
100
AcDbLine
 10
6279.2101746559
 20
5607.7819235178
 30
0.0
 11
6279.1116766932
 21
5609.3869661512
 31
0.0
  0
LINE
  5
25A
330
1F
100
AcDbEntity
  8
0
  6
SLD-Plná
 62
     7
370
    25
100
AcDbLine
 10
6267.7385335184
 20
5607.6651969666
 30
0.0
 11
6267.8743683013
 21
5609.2742423446
 31
0.0
  0
LINE
  5
25B
330
1F
100
AcDbEntity
  8
0
  6
SLD-Plná
 62
     7
370
    25
100
AcDbLine
 10
6269.3758750337
 20
5609.4278717123
 30
0.0
 11
6269.2868613589
 21
5607.8236169204
 31
0.0
  0
LINE
  5
25C
330
1F
100
AcDbEntity
  8
0
  6
SLD-Plná
 62
     7
370
    25
100
AcDbLine
 10
6278.7680423701
 20
5609.4221227628
 30
0.0
 11
6278.8950974493
 21
5607.3725559229
 31
0.0
  0
LINE
  5
25D
330
1F
100
AcDbEntity
  8
0
  6
SLD-Plná
 62
     7
370
    25
100
AcDbLine
 10
6267.7204266952
 20
5609.2583292631
 30
0.0
 11
6267.5470863154
 21
5607.1893160694
 31
0.0
  0
LINE
  5
25E
330
1F
100
AcDbEntity
  8
0
  6
SLD-Plná
 62
     7
370
    25
100
AcDbLine
 10
6265.68490359
 20
5607.3675155863
 30
0.0
 11
6265.8621061388
 21
5608.9829373784
 31
0.0
  0
LINE
  5
25F
330
1F
100
AcDbEntity
  8
0
  6
SLD-Plná
 62
     7
370
    25
100
AcDbLine
 10
6267.2522707286
 20
5609.1954686468
 30
0.0
 11
6267.1184173338
 21
5607.586674164
 31
0.0
  0
LINE
  5
260
330
1F
100
AcDbEntity
  8
0
  6
SLD-Plná
 62
     7
370
    25
100
AcDbLine
 10
6282.567794698
 20
5608.9127474148
 30
0.0
 11
6282.7530346076
 21
5607.2958027988
 31
0.0
  0
LINE
  5
261
330
1F
100
AcDbEntity
  8
0
  6
SLD-Plná
 62
     7
370
    25
100
AcDbLine
 10
6281.3477609868
 20
5607.5268887137
 30
0.0
 11
6281.2050162558
 21
5609.1368453404
 31
0.0
  0
LINE
  5
262
330
1F
100
AcDbEntity
  8
0
  6
SLD-Plná
 62
     7
370
    25
100
AcDbLine
 10
6280.7053679987
 20
5609.2083065983
 30
0.0
 11
6280.8905219298
 21
5607.1332528155
 31
0.0
  0
LWPOLYLINE
  5
263
330
1F
100
AcDbEntity
  8
0
  6
SLD-Plná
 62
     7
370
    25
100
AcDbPolyline
 90
       15
 70
   128
 43
0.0
 10
6272.6819249026
 20
5605.3623141011
 10
6274.5470184512
 20
5605.3829256553
 10
6276.3918111445
 20
5605.3089668262
 10
6278.145408634
 20
5605.1432798102
 10
6279.7404211515
 20
5604.8922318664
 10
6281.1155532604
 20
5604.5654706265
 10
6282.217959405
 20
5604.1755533417
 10
6283.0052747355
 20
5603.7374643146
 10
6283.4472431651
 20
5603.2680390608
 10
6283.526880095
 20
5602.7853173295
 10
6283.2411251226
 20
5602.3078498462
 10
6282.6009596513
 20
5601.8539854185
 10
6281.6309848811
 20
5601.4411658018
 10
6280.3684763985
 20
5601.0852554224
 10
6279.732693711
 20
5600.9503502009
  0
LINE
  5
264
330
1F
100
AcDbEntity
  8
0
  6
SLD-Plná
 62
     7
370
    25
100
AcDbLine
 10
6279.3532136474
 20
5600.8803704758
 30
0.0
 11
6278.9985270726
 21
5600.8212127525
 31
0.0
  0
LINE
  5
265
330
1F
100
AcDbEntity
  8
0
  6
SLD-Plná
 62
     7
370
    25
100
AcDbLine
 10
6268.8720342736
 20
5600.8483414315
 30
0.0
 11
6268.5232451514
 21
5600.9091872485
 31
0.0
  0
LWPOLYLINE
  5
266
330
1F
100
AcDbEntity
  8
0
  6
SLD-Plná
 62
     7
370
    25
100
AcDbPolyline
 90
       14
 70
   128
 43
0.0
 10
6268.3048169612
 20
5600.9503502009
 10
6268.2970895207
 20
5600.9518519025
 10
6266.9219574118
 20
5601.2786131424
 10
6265.8195512672
 20
5601.6685304272
 10
6265.0322359367
 20
5602.1066194544
 10
6264.5902675071
 20
5602.5760447082
 10
6264.5106305772
 20
5603.0587664395
 10
6264.7963855496
 20
5603.5362339228
 10
6265.4365510209
 20
5603.9900983505
 10
6266.4065257911
 20
5604.4029179672
 10
6267.6690342737
 20
5604.7588283465
 10
6269.1755589757
 20
5605.0441520522
 10
6270.8682049978
 20
5605.2479242542
 10
6272.6819249026
 20
5605.3623141011
  0
ARC
  5
267
330
1F
100
AcDbEntity
  8
0
  6
SLD-Plná
 62
     7
370
    25
100
AcDbCircle
 10
6280.2515644881
 20
5597.2640837888
 30
0.0
 40
8.038244938183324
100
AcDbArc
 50
64.2734593699
 51
70.8380693671
  0
LINE
  5
268
330
1F
100
AcDbEntity
  8
0
  6
SLD-Plná
 62
     7
370
    25
100
AcDbLine
 10
6283.7407772041
 20
5604.5055460934
 30
0.0
 11
6282.859672469
 21
5604.2270018962
 31
0.0
  0
LINE
  5
269
330
1F
100
AcDbEntity
  8
0
  6
SLD-Plná
 62
     7
370
    25
100
AcDbLine
 10
6282.859672469
 20
5604.2270018962
 30
0.0
 11
6283.1673003267
 21
5604.0642614897
 31
0.0
  0
LINE
  5
26A
330
1F
100
AcDbEntity
  8
0
  6
SLD-Plná
 62
     7
370
    25
100
AcDbLine
 10
6283.1673003267
 20
5604.0642614897
 30
0.0
 11
6284.0484050618
 21
5604.342805687
 31
0.0
  0
ARC
  5
26B
330
1F
100
AcDbEntity
  8
0
  6
SLD-Plná
 62
     7
370
    25
100
AcDbCircle
 10
6282.508994197
 20
5601.5868906506
 30
0.0
 40
3.15671561884562
100
AcDbArc
 50
48.559015198
 51
60.8129601479
  0
LINE
  5
26C
330
1F
100
AcDbEntity
  8
0
  6
SLD-Plná
 62
     7
370
    25
100
AcDbLine
 10
6284.5982609535
 20
5603.9532840918
 30
0.0
 11
6283.6467846925
 21
5603.7245915547
 31
0.0
  0
LINE
  5
26D
330
1F
100
AcDbEntity
  8
0
  6
SLD-Plná
 62
     7
370
    25
100
AcDbLine
 10
6283.6467846925
 20
5603.7245915547
 30
0.0
 11
6283.8169592961
 21
5603.5488534985
 31
0.0
  0
LINE
  5
26E
330
1F
100
AcDbEntity
  8
0
  6
SLD-Plná
 62
     7
370
    25
100
AcDbLine
 10
6283.8169592961
 20
5603.5488534985
 30
0.0
 11
6284.7684355571
 21
5603.7775460356
 31
0.0
  0
ARC
  5
26F
330
1F
100
AcDbEntity
  8
0
  6
SLD-Plná
 62
     7
370
    25
100
AcDbCircle
 10
6283.9643543112
 20
5603.0701432956
 30
0.0
 40
1.070964652374383
100
AcDbArc
 50
16.0894406216
 51
41.3401962721
  0
LINE
  5
270
330
1F
100
AcDbEntity
  8
0
  6
SLD-Plná
 62
     7
370
    25
100
AcDbLine
 10
6284.9933695413
 20
5603.3669478486
 30
0.0
 11
6284.0131058326
 21
5603.190804391
 31
0.0
  0
LINE
  5
271
330
1F
100
AcDbEntity
  8
0
  6
SLD-Plná
 62
     7
370
    25
100
AcDbLine
 10
6284.0131058326
 20
5603.190804391
 30
0.0
 11
6284.0383897354
 21
5603.0097492814
 31
0.0
  0
LINE
  5
272
330
1F
100
AcDbEntity
  8
0
  6
SLD-Plná
 62
     7
370
    25
100
AcDbLine
 10
6284.0383897354
 20
5603.0097492814
 30
0.0
 11
6285.0186534441
 21
5603.185892739
 31
0.0
  0
ARC
  5
273
330
1F
100
AcDbEntity
  8
0
  6
SLD-Plná
 62
     7
370
    25
100
AcDbCircle
 10
6284.1938218969
 20
5603.1833927417
 30
0.0
 40
0.8248353358321945
100
AcDbArc
 50
330.095242785
 51
0.1736583104
  0
LINE
  5
274
330
1F
100
AcDbEntity
  8
0
  6
SLD-Plná
 62
     7
370
    25
100
AcDbLine
 10
6284.9088348264
 20
5602.7721630712
 30
0.0
 11
6283.9426258979
 21
5602.6489694656
 31
0.0
  0
LINE
  5
275
330
1F
100
AcDbEntity
  8
0
  6
SLD-Plná
 62
     7
370
    25
100
AcDbLine
 10
6283.9426258979
 20
5602.6489694656
 30
0.0
 11
6283.8219140719
 21
5602.4705102796
 31
0.0
  0
LINE
  5
276
330
1F
100
AcDbEntity
  8
0
  6
SLD-Plná
 62
     7
370
    25
100
AcDbLine
 10
6283.8219140719
 20
5602.4705102796
 30
0.0
 11
6284.7881230004
 21
5602.5937038853
 31
0.0
  0
ARC
  5
277
330
1F
100
AcDbEntity
  8
0
  6
SLD-Plná
 62
     7
370
    25
100
AcDbCircle
 10
6283.1293713669
 20
5603.9810881055
 30
0.0
 40
2.162473573470462
100
AcDbArc
 50
304.311862268
 51
320.0908007225
  0
LINE
  5
278
330
1F
100
AcDbEntity
  8
0
  6
SLD-Plná
 62
     7
370
    25
100
AcDbLine
 10
6284.3483513813
 20
5602.1949247085
 30
0.0
 11
6283.4384251996
 21
5602.1227675647
 31
0.0
  0
LINE
  5
279
330
1F
100
AcDbEntity
  8
0
  6
SLD-Plná
 62
     7
370
    25
100
AcDbLine
 10
6283.4384251996
 20
5602.1227675647
 30
0.0
 11
6283.1769933309
 21
5601.9547038252
 31
0.0
  0
LINE
  5
27A
330
1F
100
AcDbEntity
  8
0
  6
SLD-Plná
 62
     7
370
    25
100
AcDbLine
 10
6283.1769933309
 20
5601.9547038252
 30
0.0
 11
6284.0869195126
 21
5602.0268609691
 31
0.0
  0
ARC
  5
27B
330
1F
100
AcDbEntity
  8
0
  6
SLD-Plná
 62
     7
370
    25
100
AcDbCircle
 10
6281.0839003136
 20
5607.2261670249
 30
0.0
 40
6.004240815643533
100
AcDbArc
 50
292.0338287171
 51
300.0099040855
  0
LINE
  5
27C
330
1F
100
AcDbEntity
  8
0
  6
SLD-Plná
 62
     7
370
    25
100
AcDbLine
 10
6283.3364150221
 20
5601.6604608469
 30
0.0
 11
6282.5225397276
 21
5601.6351962363
 31
0.0
  0
LINE
  5
27D
330
1F
100
AcDbEntity
  8
0
  6
SLD-Plná
 62
     7
370
    25
100
AcDbLine
 10
6282.5225397276
 20
5601.6351962363
 30
0.0
 11
6282.1318136434
 21
5601.4848731352
 31
0.0
  0
LINE
  5
27E
330
1F
100
AcDbEntity
  8
0
  6
SLD-Plná
 62
     7
370
    25
100
AcDbLine
 10
6282.1318136434
 20
5601.4848731352
 30
0.0
 11
6282.9456889379
 21
5601.5101377457
 31
0.0
  0
ARC
  5
27F
330
1F
100
AcDbEntity
  8
0
  6
SLD-Plná
 62
     7
370
    25
100
AcDbCircle
 10
6278.6358078055
 20
5613.6263080429
 30
0.0
 40
12.85988561548948
100
AcDbArc
 50
284.7836006451
 51
289.5811416603
  0
LINE
  5
280
330
1F
100
AcDbEntity
  8
0
  6
SLD-Plná
 62
     7
370
    25
100
AcDbLine
 10
6281.9172522236
 20
5601.1921301217
 30
0.0
 11
6281.2349980721
 21
5601.2075646872
 31
0.0
  0
LINE
  5
281
330
1F
100
AcDbEntity
  8
0
  6
SLD-Plná
 62
     7
370
    25
100
AcDbLine
 10
6281.2349980721
 20
5601.2075646872
 30
0.0
 11
6280.7320543771
 21
5601.0815520652
 31
0.0
  0
LINE
  5
282
330
1F
100
AcDbEntity
  8
0
  6
SLD-Plná
 62
     7
370
    25
100
AcDbLine
 10
6280.7320543771
 20
5601.0815520652
 30
0.0
 11
6281.4143085286
 21
5601.0661174997
 31
0.0
  0
ARC
  5
283
330
1F
100
AcDbEntity
  8
0
  6
SLD-Plná
 62
     7
370
    25
100
AcDbCircle
 10
6276.4169333649
 20
5622.4785199824
 30
0.0
 40
21.98783160311175
100
AcDbArc
 50
279.7825899516
 51
283.1369352975
  0
LINE
  5
284
330
1F
100
AcDbEntity
  8
0
  6
SLD-Plná
 62
     7
370
    25
100
AcDbLine
 10
6280.1528872099
 20
5600.8104008329
 30
0.0
 11
6279.6320719816
 21
5600.8585624681
 31
0.0
  0
LINE
  5
285
330
1F
100
AcDbEntity
  8
0
  6
SLD-Plná
 62
     7
370
    25
100
AcDbLine
 10
6279.6320719816
 20
5600.8585624681
 30
0.0
 11
6279.0388917287
 21
5600.7623676815
 31
0.0
  0
LINE
  5
286
330
1F
100
AcDbEntity
  8
0
  6
SLD-Plná
 62
     7
370
    25
100
AcDbLine
 10
6279.0388917287
 20
5600.7623676815
 30
0.0
 11
6279.559706957
 21
5600.7142060464
 31
0.0
  0
ARC
  5
287
330
1F
100
AcDbEntity
  8
0
  6
SLD-Plná
 62
     7
370
    25
100
AcDbCircle
 10
6274.8844691662
 20
5631.8615424232
 30
0.0
 40
31.49626028234205
100
AcDbArc
 50
275.8970401376
 51
278.5364096848
  0
LINE
  5
288
330
1F
100
AcDbEntity
  8
0
  6
SLD-Plná
 62
     7
370
    25
100
AcDbLine
 10
6277.275881393
 20
5600.555411999
 30
0.0
 11
6277.1263250307
 21
5600.5412698732
 31
0.0
  0
LINE
  5
289
330
1F
100
AcDbEntity
  8
0
  6
SLD-Plná
 62
     7
370
    25
100
AcDbLine
 10
6277.1263250307
 20
5600.5412698732
 30
0.0
 11
6277.4629392111
 21
5600.4697836049
 31
0.0
  0
ARC
  5
28A
330
1F
100
AcDbEntity
  8
0
  6
SLD-Plná
 62
     7
370
    25
100
AcDbCircle
 10
6274.2700304966
 20
5637.9101020907
 30
0.0
 40
37.57621740385947
100
AcDbArc
 50
274.1692977575
 51
274.8743877819
  0
LWPOLYLINE
  5
28B
330
1F
100
AcDbEntity
  8
0
  6
SLD-Plná
 62
     7
370
    25
100
AcDbPolyline
 90
        3
 70
   128
 43
0.0
 10
6275.1556482801
 20
5600.380299491
 10
6275.1867678409
 20
5600.3612277585
 10
6275.2156441028
 20
5600.3435326088
  0
ARC
  5
28C
330
1F
100
AcDbEntity
  8
0
  6
SLD-Plná
 62
     7
370
    25
100
AcDbCircle
 10
6274.0249270974
 20
5642.3941458385
 30
0.0
 40
42.06746819078324
100
AcDbArc
 50
270.9515125705
 51
271.6219700146
  0
LINE
  5
28D
330
1F
100
AcDbEntity
  8
0
  6
SLD-Plná
 62
     7
370
    25
100
AcDbLine
 10
6272.9452284851
 20
5600.3784427012
 30
0.0
 11
6272.9160392122
 21
5600.3409708325
 31
0.0
  0
ARC
  5
28E
330
1F
100
AcDbEntity
  8
0
  6
SLD-Plná
 62
     7
370
    25
100
AcDbCircle
 10
6273.9999076164
 20
5641.9304137928
 30
0.0
 40
41.60356398756107
100
AcDbArc
 50
267.8990547285
 51
268.5071444319
  0
LINE
  5
28F
330
1F
100
AcDbEntity
  8
0
  6
SLD-Plná
 62
     7
370
    25
100
AcDbLine
 10
6270.8234362145
 20
5600.5077213841
 30
0.0
 11
6270.6646283076
 21
5600.4622102378
 31
0.0
  0
ARC
  5
290
330
1F
100
AcDbEntity
  8
0
  6
SLD-Plná
 62
     7
370
    25
100
AcDbCircle
 10
6273.4885929402
 20
5634.7725332872
 30
0.0
 40
34.42634229767542
100
AcDbArc
 50
262.8074563247
 51
265.2947873598
  0
LINE
  5
291
330
1F
100
AcDbEntity
  8
0
  6
SLD-Plná
 62
     7
370
    25
100
AcDbLine
 10
6269.0192573294
 20
5600.7592837031
 30
0.0
 11
6268.559808849
 21
5600.7019520811
 31
0.0
  0
ARC
  5
292
330
1F
100
AcDbEntity
  8
0
  6
SLD-Plná
 62
     7
370
    25
100
AcDbCircle
 10
6272.2410277192
 20
5625.7777351445
 30
0.0
 40
25.34455106351696
100
AcDbArc
 50
258.5973722086
 51
261.6484199308
  0
LINE
  5
293
330
1F
100
AcDbEntity
  8
0
  6
SLD-Plná
 62
     7
370
    25
100
AcDbLine
 10
6267.2303517082
 20
5600.9334320847
 30
0.0
 11
6267.8599464563
 21
5600.961138488
 31
0.0
  0
LINE
  5
294
330
1F
100
AcDbEntity
  8
0
  6
SLD-Plná
 62
     7
370
    25
100
AcDbLine
 10
6267.8599464563
 20
5600.961138488
 30
0.0
 11
6267.3231662949
 21
5601.0774248965
 31
0.0
  0
LINE
  5
295
330
1F
100
AcDbEntity
  8
0
  6
SLD-Plná
 62
     7
370
    25
100
AcDbLine
 10
6267.3231662949
 20
5601.0774248965
 30
0.0
 11
6266.6935715468
 21
5601.0497184933
 31
0.0
  0
ARC
  5
296
330
1F
100
AcDbEntity
  8
0
  6
SLD-Plná
 62
     7
370
    25
100
AcDbCircle
 10
6270.2219388443
 20
5616.4799017393
 30
0.0
 40
15.82845320267009
100
AcDbArc
 50
252.9430969972
 51
257.1198172254
  0
LINE
  5
297
330
1F
100
AcDbEntity
  8
0
  6
SLD-Plná
 62
     7
370
    25
100
AcDbLine
 10
6265.5791162246
 20
5601.3476801934
 30
0.0
 11
6266.3513409287
 21
5601.3372529332
 31
0.0
  0
LINE
  5
298
330
1F
100
AcDbEntity
  8
0
  6
SLD-Plná
 62
     7
370
    25
100
AcDbLine
 10
6266.3513409287
 20
5601.3372529332
 30
0.0
 11
6265.9197046305
 21
5601.4798831532
 31
0.0
  0
LINE
  5
299
330
1F
100
AcDbEntity
  8
0
  6
SLD-Plná
 62
     7
370
    25
100
AcDbLine
 10
6265.9197046305
 20
5601.4798831532
 30
0.0
 11
6265.1474799264
 21
5601.4903104135
 31
0.0
  0
ARC
  5
29A
330
1F
100
AcDbEntity
  8
0
  6
SLD-Plná
 62
     7
370
    25
100
AcDbCircle
 10
6267.7859461843
 20
5609.083193759
 30
0.0
 40
8.038244938631678
100
AcDbArc
 50
244.2734593701
 51
250.8380693669
  0
LINE
  5
29B
330
1F
100
AcDbEntity
  8
0
  6
SLD-Plná
 62
     7
370
    25
100
AcDbLine
 10
6264.2967334681
 20
5601.841731454
 30
0.0
 11
6265.1778382032
 21
5601.7863287097
 31
0.0
  0
LINE
  5
29C
330
1F
100
AcDbEntity
  8
0
  6
SLD-Plná
 62
     7
370
    25
100
AcDbLine
 10
6265.1778382032
 20
5601.7863287097
 30
0.0
 11
6264.8702103455
 21
5601.9490691162
 31
0.0
  0
LINE
  5
29D
330
1F
100
AcDbEntity
  8
0
  6
SLD-Plná
 62
     7
370
    25
100
AcDbLine
 10
6264.8702103455
 20
5601.9490691162
 30
0.0
 11
6263.9891056104
 21
5602.0044718605
 31
0.0
  0
ARC
  5
29E
330
1F
100
AcDbEntity
  8
0
  6
SLD-Plná
 62
     7
370
    25
100
AcDbCircle
 10
6265.5285164752
 20
5604.7603868969
 30
0.0
 40
3.156715618895097
100
AcDbArc
 50
228.559015198
 51
240.8129601477
  0
LINE
  5
29F
330
1F
100
AcDbEntity
  8
0
  6
SLD-Plná
 62
     7
370
    25
100
AcDbLine
 10
6263.4392497187
 20
5602.3939934557
 30
0.0
 11
6264.3907259797
 21
5602.2887390512
 31
0.0
  0
LINE
  5
2A0
330
1F
100
AcDbEntity
  8
0
  6
SLD-Plná
 62
     7
370
    25
100
AcDbLine
 10
6264.3907259797
 20
5602.2887390512
 30
0.0
 11
6264.2205513761
 21
5602.4644771074
 31
0.0
  0
LINE
  5
2A1
330
1F
100
AcDbEntity
  8
0
  6
SLD-Plná
 62
     7
370
    25
100
AcDbLine
 10
6264.2205513761
 20
5602.4644771074
 30
0.0
 11
6263.2690751151
 21
5602.5697315119
 31
0.0
  0
ARC
  5
2A2
330
1F
100
AcDbEntity
  8
0
  6
SLD-Plná
 62
     7
370
    25
100
AcDbCircle
 10
6264.073156361
 20
5603.2771342519
 30
0.0
 40
1.070964652378798
100
AcDbArc
 50
196.0894406215
 51
221.340196272
  0
LINE
  5
2A3
330
1F
100
AcDbEntity
  8
0
  6
SLD-Plná
 62
     7
370
    25
100
AcDbLine
 10
6263.0441411309
 20
5602.9803296989
 30
0.0
 11
6264.0244048396
 21
5602.8225262149
 31
0.0
  0
LINE
  5
2A4
330
1F
100
AcDbEntity
  8
0
  6
SLD-Plná
 62
     7
370
    25
100
AcDbLine
 10
6264.0244048396
 20
5602.8225262149
 30
0.0
 11
6263.9991209368
 21
5603.0035813245
 31
0.0
  0
LINE
  5
2A5
330
1F
100
AcDbEntity
  8
0
  6
SLD-Plná
 62
     7
370
    25
100
AcDbLine
 10
6263.9991209368
 20
5603.0035813245
 30
0.0
 11
6263.0188572281
 21
5603.1613848085
 31
0.0
  0
ARC
  5
2A6
330
1F
100
AcDbEntity
  8
0
  6
SLD-Plná
 62
     7
370
    25
100
AcDbCircle
 10
6263.8436887753
 20
5603.1638848057
 30
0.0
 40
0.82483533583659
100
AcDbArc
 50
150.0952427851
 51
180.1736583103
  0
LINE
  5
2A7
330
1F
100
AcDbEntity
  8
0
  6
SLD-Plná
 62
     7
370
    25
100
AcDbLine
 10
6263.1286758458
 20
5603.5751144762
 30
0.0
 11
6264.0948847743
 21
5603.3643611403
 31
0.0
  0
LINE
  5
2A8
330
1F
100
AcDbEntity
  8
0
  6
SLD-Plná
 62
     7
370
    25
100
AcDbLine
 10
6264.0948847743
 20
5603.3643611403
 30
0.0
 11
6264.2155966003
 21
5603.5428203262
 31
0.0
  0
LINE
  5
2A9
330
1F
100
AcDbEntity
  8
0
  6
SLD-Plná
 62
     7
370
    25
100
AcDbLine
 10
6264.2155966003
 20
5603.5428203262
 30
0.0
 11
6263.2493876718
 21
5603.7535736622
 31
0.0
  0
ARC
  5
2AA
330
1F
100
AcDbEntity
  8
0
  6
SLD-Plná
 62
     7
370
    25
100
AcDbCircle
 10
6264.9081393053
 20
5602.366189442
 30
0.0
 40
2.162473573403282
100
AcDbArc
 50
124.3118622678
 51
140.0908007227
  0
LINE
  5
2AB
330
1F
100
AcDbEntity
  8
0
  6
SLD-Plná
 62
     7
370
    25
100
AcDbLine
 10
6263.6891592909
 20
5604.1523528389
 30
0.0
 11
6264.5990854726
 21
5603.8905630412
 31
0.0
  0
LINE
  5
2AC
330
1F
100
AcDbEntity
  8
0
  6
SLD-Plná
 62
     7
370
    25
100
AcDbLine
 10
6264.5990854726
 20
5603.8905630412
 30
0.0
 11
6264.8605173413
 21
5604.0586267807
 31
0.0
  0
LINE
  5
2AD
330
1F
100
AcDbEntity
  8
0
  6
SLD-Plná
 62
     7
370
    25
100
AcDbLine
 10
6264.8605173413
 20
5604.0586267807
 30
0.0
 11
6263.9505911596
 21
5604.3204165784
 31
0.0
  0
ARC
  5
2AE
330
1F
100
AcDbEntity
  8
0
  6
SLD-Plná
 62
     7
370
    25
100
AcDbCircle
 10
6266.9536103586
 20
5599.1211105225
 30
0.0
 40
6.004240815688075
100
AcDbArc
 50
112.033828717
 51
120.0099040853
  0
LINE
  5
2AF
330
1F
100
AcDbEntity
  8
0
  6
SLD-Plná
 62
     7
370
    25
100
AcDbLine
 10
6264.7010956501
 20
5604.6868167005
 30
0.0
 11
6265.5149709446
 21
5604.3781343696
 31
0.0
  0
LINE
  5
2B0
330
1F
100
AcDbEntity
  8
0
  6
SLD-Plná
 62
     7
370
    25
100
AcDbLine
 10
6265.5149709446
 20
5604.3781343696
 30
0.0
 11
6265.9056970288
 21
5604.5284574707
 31
0.0
  0
LINE
  5
2B1
330
1F
100
AcDbEntity
  8
0
  6
SLD-Plná
 62
     7
370
    25
100
AcDbLine
 10
6265.9056970288
 20
5604.5284574707
 30
0.0
 11
6265.0918217343
 21
5604.8371398017
 31
0.0
  0
ARC
  5
2B2
330
1F
100
AcDbEntity
  8
0
  6
SLD-Plná
 62
     7
370
    25
100
AcDbCircle
 10
6269.4017028671
 20
5592.7209695033
 30
0.0
 40
12.85988561688237
100
AcDbArc
 50
104.7836006454
 51
109.58114166
  0
LINE
  5
2B3
330
1F
100
AcDbEntity
  8
0
  6
SLD-Plná
 62
     7
370
    25
100
AcDbLine
 10
6266.1202584486
 20
5605.1551474258
 30
0.0
 11
6266.8025126001
 21
5604.8057659186
 31
0.0
  0
LINE
  5
2B4
330
1F
100
AcDbEntity
  8
0
  6
SLD-Plná
 62
     7
370
    25
100
AcDbLine
 10
6266.8025126001
 20
5604.8057659186
 30
0.0
 11
6267.3054562951
 21
5604.9317785406
 31
0.0
  0
LINE
  5
2B5
330
1F
100
AcDbEntity
  8
0
  6
SLD-Plná
 62
     7
370
    25
100
AcDbLine
 10
6267.3054562951
 20
5604.9317785406
 30
0.0
 11
6266.6232021436
 21
5605.2811600477
 31
0.0
  0
ARC
  5
2B6
330
1F
100
AcDbEntity
  8
0
  6
SLD-Plná
 62
     7
370
    25
100
AcDbCircle
 10
6271.6205773068
 20
5583.8687575679
 30
0.0
 40
21.9878316001934
100
AcDbArc
 50
99.7825899514
 51
103.1369352977
  0
LINE
  5
2B7
330
1F
100
AcDbEntity
  8
0
  6
SLD-Plná
 62
     7
370
    25
100
AcDbLine
 10
6267.8846234623
 20
5605.5368767145
 30
0.0
 11
6268.4054386906
 21
5605.1547681378
 31
0.0
  0
LINE
  5
2B8
330
1F
100
AcDbEntity
  8
0
  6
SLD-Plná
 62
     7
370
    25
100
AcDbLine
 10
6268.4054386906
 20
5605.1547681378
 30
0.0
 11
6268.9986189435
 21
5605.2509629243
 31
0.0
  0
LINE
  5
2B9
330
1F
100
AcDbEntity
  8
0
  6
SLD-Plná
 62
     7
370
    25
100
AcDbLine
 10
6268.9986189435
 20
5605.2509629243
 30
0.0
 11
6268.4778037152
 21
5605.6330715011
 31
0.0
  0
ARC
  5
2BA
330
1F
100
AcDbEntity
  8
0
  6
SLD-Plná
 62
     7
370
    25
100
AcDbCircle
 10
6273.1530415057
 20
5574.4857351265
 30
0.0
 40
31.49626028004556
100
AcDbArc
 50
95.8970401376
 51
98.536409685
  0
LINE
  5
2BB
330
1F
100
AcDbEntity
  8
0
  6
SLD-Plná
 62
     7
370
    25
100
AcDbLine
 10
6269.9170794738
 20
5605.8153211652
 30
0.0
 11
6270.2536936541
 21
5605.4098879553
 31
0.0
  0
LINE
  5
2BC
330
1F
100
AcDbEntity
  8
0
  6
SLD-Plná
 62
     7
370
    25
100
AcDbLine
 10
6270.2536936541
 20
5605.4098879553
 30
0.0
 11
6270.9111856415
 21
5605.4720607327
 31
0.0
  0
LINE
  5
2BD
330
1F
100
AcDbEntity
  8
0
  6
SLD-Plná
 62
     7
370
    25
100
AcDbLine
 10
6270.9111856415
 20
5605.4720607327
 30
0.0
 11
6270.5745714611
 21
5605.8774939426
 31
0.0
  0
ARC
  5
2BE
330
1F
100
AcDbEntity
  8
0
  6
SLD-Plná
 62
     7
370
    25
100
AcDbCircle
 10
6273.8741226719
 20
5567.0413839424
 30
0.0
 40
38.97602440140614
100
AcDbArc
 50
92.5665307357
 51
94.8562392331
  0
LINE
  5
2BF
330
1F
100
AcDbEntity
  8
0
  6
SLD-Plná
 62
     7
370
    25
100
AcDbLine
 10
6272.1287984024
 20
5605.9783114192
 30
0.0
 11
6272.26649988
 21
5605.559975411
 31
0.0
  0
LINE
  5
2C0
330
1F
100
AcDbEntity
  8
0
  6
SLD-Plná
 62
     7
370
    25
100
AcDbLine
 10
6272.26649988
 20
5605.559975411
 30
0.0
 11
6272.9595680469
 21
5605.5854089304
 31
0.0
  0
LINE
  5
2C1
330
1F
100
AcDbEntity
  8
0
  6
SLD-Plná
 62
     7
370
    25
100
AcDbLine
 10
6272.9595680469
 20
5605.5854089304
 30
0.0
 11
6272.8218665694
 21
5606.0037449387
 31
0.0
  0
ARC
  5
2C2
330
1F
100
AcDbEntity
  8
0
  6
SLD-Plná
 62
     7
370
    25
100
AcDbCircle
 10
6274.0186820937
 20
5563.6588586477
 30
0.0
 40
42.36179602413605
100
AcDbArc
 50
89.4529789312
 51
91.6189493934
  0
LINE
  5
2C3
330
1F
100
AcDbEntity
  8
0
  6
SLD-Plná
 62
     7
370
    25
100
AcDbLine
 10
6274.4231175181
 20
5606.0187240203
 30
0.0
 11
6274.3558880775
 21
5605.5984709628
 31
0.0
  0
LINE
  5
2C4
330
1F
100
AcDbEntity
  8
0
  6
SLD-Plná
 62
     7
370
    25
100
AcDbLine
 10
6274.3558880775
 20
5605.5984709628
 30
0.0
 11
6275.0542420195
 21
5605.5860536575
 31
0.0
  0
LINE
  5
2C5
330
1F
100
AcDbEntity
  8
0
  6
SLD-Plná
 62
     7
370
    25
100
AcDbLine
 10
6275.0542420195
 20
5605.5860536575
 30
0.0
 11
6275.12147146
 21
5606.006306715
 31
0.0
  0
ARC
  5
2C6
330
1F
100
AcDbEntity
  8
0
  6
SLD-Plná
 62
     7
370
    25
100
AcDbCircle
 10
6274.069404
 20
5565.3354958925
 30
0.0
 40
40.68441592177002
100
AcDbArc
 50
86.2930837752
 51
88.5182103769
  0
LINE
  5
2C7
330
1F
100
AcDbEntity
  8
0
  6
SLD-Plná
 62
     7
370
    25
100
AcDbLine
 10
6276.699764066
 20
5605.9347927438
 30
0.0
 11
6276.4305419565
 21
5605.5236921704
 31
0.0
  0
LINE
  5
2C8
330
1F
100
AcDbEntity
  8
0
  6
SLD-Plná
 62
     7
370
    25
100
AcDbLine
 10
6276.4305419565
 20
5605.5236921704
 30
0.0
 11
6277.1036602551
 21
5605.4739667362
 31
0.0
  0
LINE
  5
2C9
330
1F
100
AcDbEntity
  8
0
  6
SLD-Plná
 62
     7
370
    25
100
AcDbLine
 10
6277.1036602551
 20
5605.4739667362
 30
0.0
 11
6277.3728823646
 21
5605.8850673096
 31
0.0
  0
ARC
  5
2CA
330
1F
100
AcDbEntity
  8
0
  6
SLD-Plná
 62
     7
370
    25
100
AcDbCircle
 10
6274.5489177322
 20
5571.5747442625
 30
0.0
 40
34.42634229545112
100
AcDbArc
 50
82.8074563246
 51
85.2947873598
  0
LINE
  5
2CB
330
1F
100
AcDbEntity
  8
0
  6
SLD-Plná
 62
     7
370
    25
100
AcDbLine
 10
6278.8592376676
 20
5605.7301857894
 30
0.0
 11
6278.3997891871
 21
5605.3389072258
 31
0.0
  0
LINE
  5
2CC
330
1F
100
AcDbEntity
  8
0
  6
SLD-Plná
 62
     7
370
    25
100
AcDbLine
 10
6278.3997891871
 20
5605.3389072258
 30
0.0
 11
6279.0182533428
 21
5605.2540469028
 31
0.0
  0
LINE
  5
2CD
330
1F
100
AcDbEntity
  8
0
  6
SLD-Plná
 62
     7
370
    25
100
AcDbLine
 10
6279.0182533428
 20
5605.2540469028
 30
0.0
 11
6279.4777018232
 21
5605.6453254663
 31
0.0
  0
ARC
  5
2CE
330
1F
100
AcDbEntity
  8
0
  6
SLD-Plná
 62
     7
370
    25
100
AcDbCircle
 10
6275.7964829524
 20
5580.5695423998
 30
0.0
 40
25.34455106676466
100
AcDbArc
 50
78.5973722088
 51
81.6484199306
  0
LINE
  5
2CF
330
1F
100
AcDbEntity
  8
0
  6
SLD-Plná
 62
     7
370
    25
100
AcDbLine
 10
6280.807158964
 20
5605.4138454627
 30
0.0
 11
6280.1775642159
 21
5605.0521921179
 31
0.0
  0
LINE
  5
2D0
330
1F
100
AcDbEntity
  8
0
  6
SLD-Plná
 62
     7
370
    25
100
AcDbLine
 10
6280.1775642159
 20
5605.0521921179
 30
0.0
 11
6280.7143443773
 21
5604.9359057094
 31
0.0
  0
LINE
  5
2D1
330
1F
100
AcDbEntity
  8
0
  6
SLD-Plná
 62
     7
370
    25
100
AcDbLine
 10
6280.7143443773
 20
5604.9359057094
 30
0.0
 11
6281.3439391254
 21
5605.2975590541
 31
0.0
  0
ARC
  5
2D2
330
1F
100
AcDbEntity
  8
0
  6
SLD-Plná
 62
     7
370
    25
100
AcDbCircle
 10
6277.8155718277
 20
5589.8673758073
 30
0.0
 40
15.82845320364391
100
AcDbArc
 50
72.9430969973
 51
77.1198172252
  0
LINE
  5
2D3
330
1F
100
AcDbEntity
  8
0
  6
SLD-Plná
 62
     7
370
    25
100
AcDbLine
 10
6282.4583944476
 20
5604.999597354
 30
0.0
 11
6281.6861697435
 21
5604.6760776727
 31
0.0
  0
LINE
  5
2D4
330
1F
100
AcDbEntity
  8
0
  6
SLD-Plná
 62
     7
370
    25
100
AcDbLine
 10
6281.6861697435
 20
5604.6760776727
 30
0.0
 11
6282.1178060417
 21
5604.5334474527
 31
0.0
  0
LINE
  5
2D5
330
1F
100
AcDbEntity
  8
0
  6
SLD-Plná
 62
     7
370
    25
100
AcDbLine
 10
6282.1178060417
 20
5604.5334474527
 30
0.0
 11
6282.8900307458
 21
5604.856967134
 31
0.0
  0
LINE
  5
2D6
330
1F
100
AcDbEntity
  8
0
  6
SLD-Plná
 62
     7
370
    25
100
AcDbLine
 10
6265.7314024512
 20
5607.3399545824
 30
0.0
 11
6265.6820561217
 21
5606.8876770036
 31
0.0
  0
LINE
  5
2D7
330
1F
100
AcDbEntity
  8
0
  6
SLD-Plná
 62
     7
370
    25
100
AcDbLine
 10
6263.8364807501
 20
5606.9903513397
 30
0.0
 11
6264.0506877499
 21
5608.6137459488
 31
0.0
  0
LINE
  5
2D8
330
1F
100
AcDbEntity
  8
0
  6
SLD-Plná
 62
     7
370
    25
100
AcDbLine
 10
6265.2952797312
 20
5608.8799458928
 30
0.0
 11
6265.1198825312
 21
5607.2648521298
 31
0.0
  0
LINE
  5
2D9
330
1F
100
AcDbEntity
  8
0
  6
SLD-Plná
 62
     7
370
    25
100
AcDbLine
 10
6284.3319581506
 20
5608.5285329613
 30
0.0
 11
6284.5531831382
 21
5606.9033088583
 31
0.0
  0
LINE
  5
2DA
330
1F
100
AcDbEntity
  8
0
  6
SLD-Plná
 62
     7
370
    25
100
AcDbLine
 10
6283.3048828751
 20
5607.1884467481
 30
0.0
 11
6283.1214062247
 21
5608.8050483414
 31
0.0
  0
LINE
  5
2DB
330
1F
100
AcDbEntity
  8
0
  6
SLD-Plná
 62
     7
370
    25
100
AcDbLine
 10
6282.6677970254
 20
5607.2454862249
 30
0.0
 11
6282.7167407106
 21
5606.8161047433
 31
0.0
  0
LINE
  5
2DC
330
1F
100
AcDbEntity
  8
0
  6
SLD-Plná
 62
     7
370
    25
100
AcDbLine
 10
6275.12147146
 20
5606.006306715
 30
0.0
 11
6275.1125295784
 21
5606.6869480881
 31
0.0
  0
LINE
  5
2DD
330
1F
100
AcDbEntity
  8
0
  6
SLD-Plná
 62
     7
370
    25
100
AcDbLine
 10
6276.6639560598
 20
5606.6166514472
 30
0.0
 11
6276.699764066
 21
5605.9347927438
 31
0.0
  0
LWPOLYLINE
  5
2DE
330
1F
100
AcDbEntity
  8
0
  6
SLD-Plná
 62
     7
370
    25
100
AcDbPolyline
 90
        3
 70
   128
 43
0.0
 10
6272.8218665694
 20
5606.0037449387
 10
6272.8359896362
 20
5606.5287973333
 10
6272.8401816155
 20
5606.6846412898
  0
LINE
  5
2DF
330
1F
100
AcDbEntity
  8
0
  6
SLD-Plná
 62
     7
370
    25
100
AcDbLine
 10
6274.4141756365
 20
5606.6993653934
 30
0.0
 11
6274.4231175181
 21
5606.0187240203
 31
0.0
  0
LINE
  5
2E0
330
1F
100
AcDbEntity
  8
0
  6
SLD-Plná
 62
     7
370
    25
100
AcDbLine
 10
6275.0397485372
 20
5606.6898673527
 30
0.0
 11
6275.0542420195
 21
5605.5860536575
 31
0.0
  0
LWPOLYLINE
  5
2E1
330
1F
100
AcDbEntity
  8
0
  6
SLD-Plná
 62
     7
370
    25
100
AcDbPolyline
 90
        3
 70
   128
 43
0.0
 10
6272.1471134486
 20
5606.6592077703
 10
6272.1429214692
 20
5606.5033638138
 10
6272.1287984024
 20
5605.9783114192
  0
LINE
  5
2E2
330
1F
100
AcDbEntity
  8
0
  6
SLD-Plná
 62
     7
370
    25
100
AcDbLine
 10
6272.2962550352
 20
5606.66677433
 30
0.0
 11
6272.26649988
 21
5605.559975411
 31
0.0
  0
LINE
  5
2E3
330
1F
100
AcDbEntity
  8
0
  6
SLD-Plná
 62
     7
370
    25
100
AcDbLine
 10
6270.5745714611
 20
5605.8774939426
 30
0.0
 11
6270.6193429797
 21
5606.5601064361
 31
0.0
  0
ELLIPSE
  5
2E4
330
1F
100
AcDbEntity
  8
0
  6
SLD-Plná
 62
     7
370
    25
100
AcDbEllipse
 10
6273.9250650501
 20
5602.8985677686
 30
0.0
 11
7.452409948113199
 21
0.03161040897521161
 31
0.0
210
0.0
220
0.0
230
1.0
 40
0.2586558582
 41
0.7130629575143371
 42
0.807778438882282
  0
LINE
  5
2E5
330
1F
100
AcDbEntity
  8
0
  6
SLD-Plná
 62
     7
370
    25
100
AcDbLine
 10
6279.0695592375
 20
5604.313600653
 30
0.0
 11
6279.0643349337
 21
5604.3122917029
 31
0.0
  0
ARC
  5
2E6
330
1F
100
AcDbEntity
  8
0
  6
SLD-Plná
 62
     7
370
    25
100
AcDbCircle
 10
6275.4983853086
 20
5589.4187094974
 30
0.0
 40
15.31452864571261
100
AcDbArc
 50
76.5352261646
 51
81.4472436786
  0
LINE
  5
2E7
330
1F
100
AcDbEntity
  8
0
  6
SLD-Plná
 62
     7
370
    25
100
AcDbLine
 10
6277.7759621002
 20
5604.5629305602
 30
0.0
 11
6277.7793678874
 21
5604.5645932828
 31
0.0
  0
ELLIPSE
  5
2E8
330
1F
100
AcDbEntity
  8
0
  6
SLD-Plná
 62
     7
370
    25
100
AcDbEllipse
 10
6273.9576774994
 20
5602.8922233729
 30
0.0
 11
7.418488002022968
 21
0.02633124753083393
 31
0.0
210
0.0
220
0.0
230
1.0
 40
0.2610281455
 41
1.028678587126236
 42
1.123394068494232
  0
LINE
  5
2E9
330
1F
100
AcDbEntity
  8
0
  6
SLD-Plná
 62
     7
370
    25
100
AcDbLine
 10
6277.1609037317
 20
5604.6494536059
 30
0.0
 11
6277.1574979446
 21
5604.6477908832
 31
0.0
  0
ARC
  5
2EA
330
1F
100
AcDbEntity
  8
0
  6
SLD-Plná
 62
     7
370
    25
100
AcDbCircle
 10
6274.2477096551
 20
5580.5223450522
 30
0.0
 40
24.30028815543943
100
AcDbArc
 50
83.1227320314
 51
86.7321186428
  0
LINE
  5
2EB
330
1F
100
AcDbEntity
  8
0
  6
SLD-Plná
 62
     7
370
    25
100
AcDbLine
 10
6275.6329323065
 20
5604.7831192081
 30
0.0
 11
6275.6341861949
 21
5604.7849729444
 31
0.0
  0
ELLIPSE
  5
2EC
330
1F
100
AcDbEntity
  8
0
  6
SLD-Plná
 62
     7
370
    25
100
AcDbEllipse
 10
6273.9962686729
 20
5602.8887978209
 30
0.0
 11
7.396735020492996
 21
0.01084906515825424
 31
0.0
210
0.0
220
0.0
230
1.0
 40
0.262568456
 41
1.347122487901098
 42
1.441837969269102
  0
LINE
  5
2ED
330
1F
100
AcDbEntity
  8
0
  6
SLD-Plná
 62
     7
370
    25
100
AcDbLine
 10
6274.9446728483
 20
5604.8162154639
 30
0.0
 11
6274.94341896
 21
5604.8143617276
 31
0.0
  0
ARC
  5
2EE
330
1F
100
AcDbEntity
  8
0
  6
SLD-Plná
 62
     7
370
    25
100
AcDbCircle
 10
6274.0185058891
 20
5576.4589031208
 30
0.0
 40
28.37053924393827
100
AcDbArc
 50
88.1317589109
 51
91.3867805378
  0
LINE
  5
2EF
330
1F
100
AcDbEntity
  8
0
  6
SLD-Plná
 62
     7
370
    25
100
AcDbLine
 10
6273.3318956243
 20
5604.8211326406
 30
0.0
 11
6273.3308748746
 21
5604.822995934
 31
0.0
  0
ELLIPSE
  5
2F0
330
1F
100
AcDbEntity
  8
0
  6
SLD-Plná
 62
     7
370
    25
100
AcDbEllipse
 10
6274.0370609976
 20
5602.8886264295
 30
0.0
 11
7.395582829969499
 21
-0.008879198202521367
 31
0.0
210
0.0
220
0.0
230
1.0
 40
0.2626504622
 41
1.666744923316864
 42
1.761460404684772
  0
LINE
  5
2F1
330
1F
100
AcDbEntity
  8
0
  6
SLD-Plná
 62
     7
370
    25
100
AcDbLine
 10
6272.6378067076
 20
5604.7975624145
 30
0.0
 11
6272.6388274574
 21
5604.7956991212
 31
0.0
  0
ARC
  5
2F2
330
1F
100
AcDbEntity
  8
0
  6
SLD-Plná
 62
     7
370
    25
100
AcDbCircle
 10
6273.8500594181
 20
5579.8007505107
 30
0.0
 40
25.02427898867759
100
AcDbArc
 50
92.7743299042
 51
96.3136919418
  0
LINE
  5
2F3
330
1F
100
AcDbEntity
  8
0
  6
SLD-Plná
 62
     7
370
    25
100
AcDbLine
 10
6271.0980935564
 20
5604.6732498382
 30
0.0
 11
6271.0948980866
 21
5604.6749402965
 31
0.0
  0
ELLIPSE
  5
2F4
330
1F
100
AcDbEntity
  8
0
  6
SLD-Plná
 62
     7
370
    25
100
AcDbEllipse
 10
6274.0760614367
 20
5602.8917259756
 30
0.0
 11
7.41547980440646
 21
-0.02513049554454483
 31
0.0
210
0.0
220
0.0
230
1.0
 40
0.261240259
 41
1.985402232596797
 42
2.080117713964591
  0
LINE
  5
2F5
330
1F
100
AcDbEntity
  8
0
  6
SLD-Plná
 62
     7
370
    25
100
AcDbLine
 10
6270.4661174403
 20
5604.5953203481
 30
0.0
 11
6270.4693129101
 21
5604.5936298898
 31
0.0
  0
ARC
  5
2F6
330
1F
100
AcDbEntity
  8
0
  6
SLD-Plná
 62
     7
370
    25
100
AcDbCircle
 10
6272.7256383263
 20
5588.4258329736
 30
0.0
 40
16.32448043610043
100
AcDbArc
 50
97.9447015038
 51
102.6517110964
  0
LINE
  5
2F7
330
1F
100
AcDbEntity
  8
0
  6
SLD-Plná
 62
     7
370
    25
100
AcDbLine
 10
6269.1501862128
 20
5604.3539465999
 30
0.0
 11
6269.1451288179
 21
5604.3552987492
 31
0.0
  0
ELLIPSE
  5
2F8
330
1F
100
AcDbEntity
  8
0
  6
SLD-Plná
 62
     7
370
    25
100
AcDbEllipse
 10
6274.1094523553
 20
5602.8977930541
 30
0.0
 11
7.448708009495022
 21
-0.03163063075044192
 31
0.0
210
0.0
220
0.0
230
1.0
 40
0.2589130106
 41
2.301356039367275
 42
2.3960715207351
  0
LINE
  5
2F9
330
1F
100
AcDbEntity
  8
0
  6
SLD-Plná
 62
     7
370
    25
100
AcDbLine
 10
6268.6421851229
 20
5604.2292861272
 30
0.0
 11
6268.6472425178
 21
5604.2279339779
 31
0.0
  0
ARC
  5
2FA
330
1F
100
AcDbEntity
  8
0
  6
SLD-Plná
 62
     7
370
    25
100
AcDbCircle
 10
6270.523835742
 20
5597.2051906694
 30
0.0
 40
7.269148898352085
100
AcDbArc
 50
104.9608273506
 51
113.0402907614
  0
LINE
  5
2FB
330
1F
100
AcDbEntity
  8
0
  6
SLD-Plná
 62
     7
370
    25
100
AcDbLine
 10
6267.6788483364
 20
5603.8944785514
 30
0.0
 11
6267.6724240694
 21
5603.895360034
 31
0.0
  0
ELLIPSE
  5
2FC
330
1F
100
AcDbEntity
  8
0
  6
SLD-Plná
 62
     7
370
    25
100
AcDbEllipse
 10
6274.1339652178
 20
5602.9062337771
 30
0.0
 11
7.482495762887083
 21
-0.0260416809032904
 31
0.0
210
0.0
220
0.0
230
1.0
 40
0.2565815278
 41
2.613964869990835
 42
2.708680351358557
  0
LINE
  5
2FD
330
1F
100
AcDbEntity
  8
0
  6
SLD-Plná
 62
     7
370
    25
100
AcDbLine
 10
6267.3445489588
 20
5603.7352897318
 30
0.0
 11
6267.3509732258
 21
5603.7344082492
 31
0.0
  0
ARC
  5
2FE
330
1F
100
AcDbEntity
  8
0
  6
SLD-Plná
 62
     7
370
    25
100
AcDbCircle
 10
6268.2212871912
 20
5602.0374303258
 30
0.0
 40
1.907139342286317
100
AcDbArc
 50
117.1515229454
 51
136.9290826373
  0
LINE
  5
2FF
330
1F
100
AcDbEntity
  8
0
  6
SLD-Plná
 62
     7
370
    25
100
AcDbLine
 10
6266.8281047299
 20
5603.3398216266
 30
0.0
 11
6266.8209424427
 21
5603.3401461568
 31
0.0
  0
ELLIPSE
  5
300
330
1F
100
AcDbEntity
  8
0
  6
SLD-Plná
 62
     7
370
    25
100
AcDbEllipse
 10
6274.1472005344
 20
5602.9162219078
 30
0.0
 11
7.504005230905022
 21
-0.01064984321146767
 31
0.0
210
0.0
220
0.0
230
1.0
 40
0.2551152825
 41
2.923866934457641
 42
3.018582415825225
  0
LINE
  5
301
330
1F
100
AcDbEntity
  8
0
  6
SLD-Plná
 62
     7
370
    25
100
AcDbLine
 10
6266.7002306167
 20
5603.1616869708
 30
0.0
 11
6266.7073929039
 21
5603.1613624407
 31
0.0
  0
ARC
  5
302
330
1F
100
AcDbEntity
  8
0
  6
SLD-Plná
 62
     7
370
    25
100
AcDbCircle
 10
6267.2216061711
 20
5602.906029154
 30
0.0
 40
0.5741170363575326
100
AcDbArc
 50
153.5932417311
 51
169.3470871783
  0
LWPOLYLINE
  5
303
330
1F
100
AcDbEntity
  8
0
  6
SLD-Plná
 62
     7
370
    25
100
AcDbPolyline
 90
        3
 70
   128
 43
0.0
 10
6281.3562785674
 20
5603.0998142592
 10
6281.3723382628
 20
5603.0477335301
 10
6281.3801266593
 20
5603.0121598643
  0
LINE
  5
304
330
1F
100
AcDbEntity
  8
0
  6
SLD-Plná
 62
     7
370
    25
100
AcDbLine
 10
6281.3562785674
 20
5603.0998142592
 30
0.0
 11
6281.36347778
 21
5603.1000784487
 31
0.0
  0
ELLIPSE
  5
305
330
1F
100
AcDbEntity
  8
0
  6
SLD-Plná
 62
     7
370
    25
100
AcDbEllipse
 10
6273.8896479322
 20
5602.9173040307
 30
0.0
 11
7.505141117520908
 21
0.00871270295647264
 31
0.0
210
0.0
220
0.0
230
1.0
 40
0.255038236
 41
0.0910814291811726
 42
0.1857969105486155
  0
LINE
  5
306
330
1F
100
AcDbEntity
  8
0
  6
SLD-Plná
 62
     7
370
    25
100
AcDbLine
 10
6281.2652102068
 20
5603.2794576898
 30
0.0
 11
6281.2580109941
 21
5603.2791935004
 31
0.0
  0
ARC
  5
307
330
1F
100
AcDbEntity
  8
0
  6
SLD-Plná
 62
     7
370
    25
100
AcDbCircle
 10
6280.0029858906
 20
5602.2702509081
 30
0.0
 40
1.610295986774995
100
AcDbArc
 50
38.796575457
 51
60.949932514
  0
LINE
  5
308
330
1F
100
AcDbEntity
  8
0
  6
SLD-Plná
 62
     7
370
    25
100
AcDbLine
 10
6280.784903295
 20
5603.6779647774
 30
0.0
 11
6280.7914347241
 21
5603.6787918258
 31
0.0
  0
ELLIPSE
  5
309
330
1F
100
AcDbEntity
  8
0
  6
SLD-Plná
 62
     7
370
    25
100
AcDbEllipse
 10
6273.9016236588
 20
5602.9072099743
 30
0.0
 11
7.485477581041779
 21
0.02482842398876528
 31
0.0
210
0.0
220
0.0
230
1.0
 40
0.2563774364
 41
0.4007838200791009
 42
0.4954993014473152
  0
LINE
  5
30A
330
1F
100
AcDbEntity
  8
0
  6
SLD-Plná
 62
     7
370
    25
100
AcDbLine
 10
6280.4838068664
 20
5603.8415322323
 30
0.0
 11
6280.4772754373
 21
5603.8407051838
 31
0.0
  0
ARC
  5
30B
330
1F
100
AcDbEntity
  8
0
  6
SLD-Plná
 62
     7
370
    25
100
AcDbCircle
 10
6277.770650284
 20
5597.9258214194
 30
0.0
 40
6.504742090747976
100
AcDbArc
 50
65.4113730821
 51
74.1134997328
  0
LINE
  5
30C
330
1F
100
AcDbEntity
  8
0
  6
SLD-Plná
 62
     7
370
    25
100
AcDbLine
 10
6279.5512103178
 20
5604.182120296
 30
0.0
 11
6279.5564346216
 21
5604.1834292461
 31
0.0
  0
LINE
  5
30D
330
1F
100
AcDbEntity
  8
0
  6
SLD-Plná
 62
     7
370
    25
100
AcDbLine
 10
6277.3728823646
 20
5605.8850673096
 30
0.0
 11
6277.3370743584
 21
5606.5669260129
 31
0.0
  0
LINE
  5
30E
330
1F
100
AcDbEntity
  8
0
  6
SLD-Plná
 62
     7
370
    25
100
AcDbLine
 10
6278.7981285184
 20
5606.414680928
 30
0.0
 11
6278.8592376676
 21
5605.7301857894
 31
0.0
  0
LINE
  5
30F
330
1F
100
AcDbEntity
  8
0
  6
SLD-Plná
 62
     7
370
    25
100
AcDbLine
 10
6277.0450237021
 20
5606.5911279956
 30
0.0
 11
6277.1036602551
 21
5605.4739667362
 31
0.0
  0
LINE
  5
310
330
1F
100
AcDbEntity
  8
0
  6
SLD-Plná
 62
     7
370
    25
100
AcDbLine
 10
6264.0695401418
 20
5606.8736488293
 30
0.0
 11
6264.0223031305
 21
5606.5142398646
 31
0.0
  0
LINE
  5
311
330
1F
100
AcDbEntity
  8
0
  6
SLD-Plná
 62
     7
370
    25
100
AcDbLine
 10
6269.9618509923
 20
5606.4979336588
 30
0.0
 11
6269.9170794738
 21
5605.8153211652
 31
0.0
  0
LINE
  5
312
330
1F
100
AcDbEntity
  8
0
  6
SLD-Plná
 62
     7
370
    25
100
AcDbLine
 10
6270.3274613548
 20
5606.5351964174
 30
0.0
 11
6270.2536936541
 21
5605.4098879553
 31
0.0
  0
LINE
  5
313
330
1F
100
AcDbEntity
  8
0
  6
SLD-Plná
 62
     7
370
    25
100
AcDbLine
 10
6262.2387793035
 20
5606.5429912624
 30
0.0
 11
6262.4847162671
 21
5608.1757587742
 31
0.0
  0
LINE
  5
314
330
1F
100
AcDbEntity
  8
0
  6
SLD-Plná
 62
     7
370
    25
100
AcDbLine
 10
6263.5530896548
 20
5608.4890726677
 30
0.0
 11
6263.3404675107
 21
5606.8660751445
 31
0.0
  0
LINE
  5
315
330
1F
100
AcDbEntity
  8
0
  6
SLD-Plná
 62
     7
370
    25
100
AcDbLine
 10
6268.4778037152
 20
5605.6330715011
 30
0.0
 11
6268.547074976
 21
5606.3187862978
 31
0.0
  0
LINE
  5
316
330
1F
100
AcDbEntity
  8
0
  6
SLD-Plná
 62
     7
370
    25
100
AcDbLine
 10
6285.8421763223
 20
5608.0776209894
 30
0.0
 11
6286.0939390946
 21
5606.4427623619
 31
0.0
  0
LINE
  5
317
330
1F
100
AcDbEntity
  8
0
  6
SLD-Plná
 62
     7
370
    25
100
AcDbLine
 10
6285.0333494845
 20
5606.7749311853
 30
0.0
 11
6284.8136587188
 21
5608.3997450975
 31
0.0
  0
LINE
  5
318
330
1F
100
AcDbEntity
  8
0
  6
SLD-Plná
 62
     7
370
    25
100
AcDbLine
 10
6284.2820335952
 20
5606.7736661766
 30
0.0
 11
6284.3287862246
 21
5606.4289209445
 31
0.0
  0
LINE
  5
319
330
1F
100
AcDbEntity
  8
0
  6
SLD-Plná
 62
     7
370
    25
100
AcDbLine
 10
6279.4777018232
 20
5605.6453254663
 30
0.0
 11
6279.416592674
 21
5606.3298206049
 31
0.0
  0
LINE
  5
31A
330
1F
100
AcDbEntity
  8
0
  6
SLD-Plná
 62
     7
370
    25
100
AcDbLine
 10
6280.723419435
 20
5606.1022809167
 30
0.0
 11
6280.807158964
 21
5605.4138454627
 31
0.0
  0
LINE
  5
31B
330
1F
100
AcDbEntity
  8
0
  6
SLD-Plná
 62
     7
370
    25
100
AcDbLine
 10
6278.9159362323
 20
5606.4007333699
 30
0.0
 11
6279.0182533428
 21
5605.2540469028
 31
0.0
  0
LINE
  5
31C
330
1F
100
AcDbEntity
  8
0
  6
SLD-Plná
 62
     7
370
    25
100
AcDbLine
 10
6267.9538947231
 20
5606.2225915113
 30
0.0
 11
6267.8846234623
 21
5605.5368767145
 31
0.0
  0
LINE
  5
31D
330
1F
100
AcDbEntity
  8
0
  6
SLD-Plná
 62
     7
370
    25
100
AcDbLine
 10
6268.5227185647
 20
5606.3163392342
 30
0.0
 11
6268.4054386906
 21
5605.1547681378
 31
0.0
  0
LINE
  5
31E
330
1F
100
AcDbEntity
  8
0
  6
SLD-Plná
 62
     7
370
    25
100
AcDbLine
 10
6266.6232021436
 20
5605.2811600477
 30
0.0
 11
6266.71394566
 21
5605.9712277229
 31
0.0
  0
LWPOLYLINE
  5
31F
330
1F
100
AcDbEntity
  8
0
  6
SLD-Plná
 62
     7
370
    25
100
AcDbPolyline
 90
       27
 70
   128
 43
0.0
 10
6273.1732627687
 20
5603.499492069
 10
6274.6249057302
 20
5603.5070137132
 10
6276.0413214341
 20
5603.4244028229
 10
6277.3401929481
 20
5603.2564604429
 10
6278.4460345811
 20
5603.0129467737
 10
6279.2945788368
 20
5602.7080139449
 10
6279.8365114075
 20
5602.3593835439
 10
6280.040337142
 20
5601.9873167024
 10
6279.8942104295
 20
5601.6134365929
 10
6279.4066236234
 20
5601.2594717683
 10
6278.6059134966
 20
5600.9459933777
 10
6277.5386144111
 20
5600.6912196456
 10
6276.2667539103
 20
5600.5099570953
 10
6274.8642479035
 20
5600.4127400474
 10
6273.412604942
 20
5600.4052184032
 10
6271.9961892381
 20
5600.4878292935
 10
6270.6973177241
 20
5600.6557716735
 10
6269.5914760911
 20
5600.8992853426
 10
6268.7429318354
 20
5601.2042181715
 10
6268.2009992647
 20
5601.5528485725
 10
6267.9971735302
 20
5601.924915414
 10
6268.1433002427
 20
5602.2987955235
 10
6268.6308870488
 20
5602.6527603481
 10
6269.4315971756
 20
5602.9662387387
 10
6270.4988962611
 20
5603.2210124708
 10
6271.7707567619
 20
5603.4022750211
 10
6273.1732627687
 20
5603.499492069
  0
ARC
  5
320
330
1F
100
AcDbEntity
  8
0
  6
SLD-Plná
 62
     7
370
    25
100
AcDbCircle
 10
6277.8367622487
 20
5597.1237534907
 30
0.0
 40
6.619311225408131
100
AcDbArc
 50
65.3782664169
 51
74.1466063979
  0
LINE
  5
321
330
1F
100
AcDbEntity
  8
0
  6
SLD-Plná
 62
     7
370
    25
100
AcDbLine
 10
6280.5945371309
 20
5603.1412246205
 30
0.0
 11
6279.7161008274
 21
5602.8636400623
 31
0.0
  0
LINE
  5
322
330
1F
100
AcDbEntity
  8
0
  6
SLD-Plná
 62
     7
370
    25
100
AcDbLine
 10
6279.7161008274
 20
5602.8636400623
 30
0.0
 11
6280.0237286851
 21
5602.7008996559
 31
0.0
  0
LINE
  5
323
330
1F
100
AcDbEntity
  8
0
  6
SLD-Plná
 62
     7
370
    25
100
AcDbLine
 10
6280.0237286851
 20
5602.7008996559
 30
0.0
 11
6280.9021649886
 21
5602.978484214
 31
0.0
  0
ARC
  5
324
330
1F
100
AcDbEntity
  8
0
  6
SLD-Plná
 62
     7
370
    25
100
AcDbCircle
 10
6280.1085262531
 20
5601.5446993983
 30
0.0
 40
1.638780442991937
100
AcDbArc
 50
38.7122240126
 51
61.0342839583
  0
LINE
  5
325
330
1F
100
AcDbEntity
  8
0
  6
SLD-Plná
 62
     7
370
    25
100
AcDbLine
 10
6281.3872617074
 20
5602.5696076762
 30
0.0
 11
6280.4190126969
 21
5602.3677241222
 31
0.0
  0
LINE
  5
326
330
1F
100
AcDbEntity
  8
0
  6
SLD-Plná
 62
     7
370
    25
100
AcDbLine
 10
6280.4190126969
 20
5602.3677241222
 30
0.0
 11
6280.5172802701
 21
5602.188344881
 31
0.0
  0
LINE
  5
327
330
1F
100
AcDbEntity
  8
0
  6
SLD-Plná
 62
     7
370
    25
100
AcDbLine
 10
6280.5172802701
 20
5602.188344881
 30
0.0
 11
6281.4855292806
 21
5602.390228435
 31
0.0
  0
ARC
  5
328
330
1F
100
AcDbEntity
  8
0
  6
SLD-Plná
 62
     7
370
    25
100
AcDbCircle
 10
6280.9887392828
 20
5602.2067155173
 30
0.0
 40
0.5296010695744502
100
AcDbArc
 50
332.5479224504
 51
20.2740972139
  0
LINE
  5
329
330
1F
100
AcDbEntity
  8
0
  6
SLD-Plná
 62
     7
370
    25
100
AcDbLine
 10
6281.458705541
 20
5601.9625659544
 30
0.0
 11
6280.4954227826
 21
5601.8398615076
 31
0.0
  0
LINE
  5
32A
330
1F
100
AcDbEntity
  8
0
  6
SLD-Plná
 62
     7
370
    25
100
AcDbLine
 10
6280.4954227826
 20
5601.8398615076
 30
0.0
 11
6280.3747109566
 21
5601.6614023216
 31
0.0
  0
LINE
  5
32B
330
1F
100
AcDbEntity
  8
0
  6
SLD-Plná
 62
     7
370
    25
100
AcDbLine
 10
6280.3747109566
 20
5601.6614023216
 30
0.0
 11
6281.337993715
 21
5601.7841067684
 31
0.0
  0
ARC
  5
32C
330
1F
100
AcDbEntity
  8
0
  6
SLD-Plná
 62
     7
370
    25
100
AcDbCircle
 10
6279.918464782
 20
5603.1076314654
 30
0.0
 40
1.940819418381311
100
AcDbArc
 50
297.0761266481
 51
317.0044789345
  0
LINE
  5
32D
330
1F
100
AcDbEntity
  8
0
  6
SLD-Plná
 62
     7
370
    25
100
AcDbLine
 10
6280.8018752113
 20
5601.3795209283
 30
0.0
 11
6279.9378515332
 21
5601.3317230891
 31
0.0
  0
LINE
  5
32E
330
1F
100
AcDbEntity
  8
0
  6
SLD-Plná
 62
     7
370
    25
100
AcDbLine
 10
6279.9378515332
 20
5601.3317230891
 30
0.0
 11
6279.6099764225
 21
5601.1716527869
 31
0.0
  0
LINE
  5
32F
330
1F
100
AcDbEntity
  8
0
  6
SLD-Plná
 62
     7
370
    25
100
AcDbLine
 10
6279.6099764225
 20
5601.1716527869
 30
0.0
 11
6280.4740001006
 21
5601.2194506261
 31
0.0
  0
ARC
  5
330
330
1F
100
AcDbEntity
  8
0
  6
SLD-Plná
 62
     7
370
    25
100
AcDbCircle
 10
6277.5752489554
 20
5608.0250161081
 30
0.0
 40
7.397194044519614
100
AcDbArc
 50
284.9301046588
 51
293.0710134531
  0
LINE
  5
331
330
1F
100
AcDbEntity
  8
0
  6
SLD-Plná
 62
     7
370
    25
100
AcDbLine
 10
6279.4810658474
 20
5600.8775451074
 30
0.0
 11
6278.8008779072
 21
5600.8930489955
 31
0.0
  0
LINE
  5
332
330
1F
100
AcDbEntity
  8
0
  6
SLD-Plná
 62
     7
370
    25
100
AcDbLine
 10
6278.8008779072
 20
5600.8930489955
 30
0.0
 11
6278.2979342122
 21
5600.7670363735
 31
0.0
  0
LINE
  5
333
330
1F
100
AcDbEntity
  8
0
  6
SLD-Plná
 62
     7
370
    25
100
AcDbLine
 10
6278.2979342122
 20
5600.7670363735
 30
0.0
 11
6278.9781221524
 21
5600.7515324854
 31
0.0
  0
ARC
  5
334
330
1F
100
AcDbEntity
  8
0
  6
SLD-Plná
 62
     7
370
    25
100
AcDbCircle
 10
6275.3345808681
 20
5616.9593588744
 30
0.0
 40
16.61231559256302
100
AcDbArc
 50
277.9268628305
 51
282.6695497696
  0
LINE
  5
335
330
1F
100
AcDbEntity
  8
0
  6
SLD-Plná
 62
     7
370
    25
100
AcDbLine
 10
6277.6255674725
 20
5600.5057753825
 30
0.0
 11
6277.1957968049
 21
5600.5667797035
 31
0.0
  0
LINE
  5
336
330
1F
100
AcDbEntity
  8
0
  6
SLD-Plná
 62
     7
370
    25
100
AcDbLine
 10
6277.1957968049
 20
5600.5667797035
 30
0.0
 11
6276.5670161586
 21
5600.4871597551
 31
0.0
  0
LINE
  5
337
330
1F
100
AcDbEntity
  8
0
  6
SLD-Plná
 62
     7
370
    25
100
AcDbLine
 10
6276.5670161586
 20
5600.4871597551
 30
0.0
 11
6276.9967868262
 21
5600.4261554341
 31
0.0
  0
ARC
  5
338
330
1F
100
AcDbEntity
  8
0
  6
SLD-Plná
 62
     7
370
    25
100
AcDbCircle
 10
6274.1903558698
 20
5625.7367809674
 30
0.0
 40
25.46573815144266
100
AcDbArc
 50
272.7609356904
 51
276.3270861556
  0
LWPOLYLINE
  5
339
330
1F
100
AcDbEntity
  8
0
  6
SLD-Plná
 62
     7
370
    25
100
AcDbPolyline
 90
        3
 70
   128
 43
0.0
 10
6275.4170091956
 20
5600.3006031646
 10
6275.3873816784
 20
5600.3187804261
 10
6275.2797247479
 20
5600.3848527246
  0
LINE
  5
33A
330
1F
100
AcDbEntity
  8
0
  6
SLD-Plná
 62
     7
370
    25
100
AcDbLine
 10
6275.2797247479
 20
5600.3848527246
 30
0.0
 11
6274.5866565809
 21
5600.3594192051
 31
0.0
  0
LWPOLYLINE
  5
33B
330
1F
100
AcDbEntity
  8
0
  6
SLD-Plná
 62
     7
370
    25
100
AcDbPolyline
 90
        3
 70
   128
 43
0.0
 10
6274.5866565809
 20
5600.3594192051
 10
6274.6943135115
 20
5600.2933469066
 10
6274.7239410287
 20
5600.2751696451
  0
ARC
  5
33C
330
1F
100
AcDbEntity
  8
0
  6
SLD-Plná
 62
     7
370
    25
100
AcDbCircle
 10
6274.01901349
 20
5629.1376629581
 30
0.0
 40
28.87110048258718
100
AcDbArc
 50
268.1194453265
 51
271.3990941223
  0
LINE
  5
33D
330
1F
100
AcDbEntity
  8
0
  6
SLD-Plná
 62
     7
370
    25
100
AcDbLine
 10
6273.0715800887
 20
5600.2821121398
 30
0.0
 11
6273.2402202192
 21
5600.3650763392
 31
0.0
  0
LINE
  5
33E
330
1F
100
AcDbEntity
  8
0
  6
SLD-Plná
 62
     7
370
    25
100
AcDbLine
 10
6273.2402202192
 20
5600.3650763392
 30
0.0
 11
6272.5507068727
 21
5600.3963188587
 31
0.0
  0
LINE
  5
33F
330
1F
100
AcDbEntity
  8
0
  6
SLD-Plná
 62
     7
370
    25
100
AcDbLine
 10
6272.5507068727
 20
5600.3963188587
 30
0.0
 11
6272.3820667422
 21
5600.3133546593
 31
0.0
  0
ARC
  5
340
330
1F
100
AcDbEntity
  8
0
  6
SLD-Plná
 62
     7
370
    25
100
AcDbCircle
 10
6273.7858392845
 20
5625.0024398324
 30
0.0
 40
24.72896083606281
100
AcDbArc
 50
263.1090715853
 51
266.7457790889
  0
LINE
  5
341
330
1F
100
AcDbEntity
  8
0
  6
SLD-Plná
 62
     7
370
    25
100
AcDbLine
 10
6270.8188670944
 20
5600.4521123385
 30
0.0
 11
6271.2769241321
 21
5600.5093863975
 31
0.0
  0
LINE
  5
342
330
1F
100
AcDbEntity
  8
0
  6
SLD-Plná
 62
     7
370
    25
100
AcDbLine
 10
6271.2769241321
 20
5600.5093863975
 30
0.0
 11
6270.6584599765
 21
5600.5942467206
 31
0.0
  0
LINE
  5
343
330
1F
100
AcDbEntity
  8
0
  6
SLD-Plná
 62
     7
370
    25
100
AcDbLine
 10
6270.6584599765
 20
5600.5942467206
 30
0.0
 11
6270.2004029388
 21
5600.5369726616
 31
0.0
  0
ARC
  5
344
330
1F
100
AcDbEntity
  8
0
  6
SLD-Plná
 62
     7
370
    25
100
AcDbCircle
 10
6272.5131264869
 20
5615.9489490988
 30
0.0
 40
15.58453425394258
100
AcDbArc
 50
256.5166061178
 51
261.4658637253
  0
LINE
  5
345
330
1F
100
AcDbEntity
  8
0
  6
SLD-Plná
 62
     7
370
    25
100
AcDbLine
 10
6268.8793814561
 20
5600.7939629569
 30
0.0
 11
6269.5820175867
 21
5600.8036568257
 31
0.0
  0
LINE
  5
346
330
1F
100
AcDbEntity
  8
0
  6
SLD-Plná
 62
     7
370
    25
100
AcDbLine
 10
6269.5820175867
 20
5600.8036568257
 30
0.0
 11
6269.0951422026
 21
5600.9338282326
 31
0.0
  0
LINE
  5
347
330
1F
100
AcDbEntity
  8
0
  6
SLD-Plná
 62
     7
370
    25
100
AcDbLine
 10
6269.0951422026
 20
5600.9338282326
 30
0.0
 11
6268.392506072
 21
5600.9241343637
 31
0.0
  0
ARC
  5
348
330
1F
100
AcDbEntity
  8
0
  6
SLD-Plná
 62
     7
370
    25
100
AcDbCircle
 10
6270.2007484236
 20
5607.2916724044
 30
0.0
 40
6.61931122559229
100
AcDbArc
 50
245.378266417
 51
254.1466063978
  0
LINE
  5
349
330
1F
100
AcDbEntity
  8
0
  6
SLD-Plná
 62
     7
370
    25
100
AcDbLine
 10
6267.4429735413
 20
5601.2742012744
 30
0.0
 11
6268.3214098448
 21
5601.2190823839
 31
0.0
  0
LINE
  5
34A
330
1F
100
AcDbEntity
  8
0
  6
SLD-Plná
 62
     7
370
    25
100
AcDbLine
 10
6268.3214098448
 20
5601.2190823839
 30
0.0
 11
6268.0137819871
 21
5601.3818227904
 31
0.0
  0
LINE
  5
34B
330
1F
100
AcDbEntity
  8
0
  6
SLD-Plná
 62
     7
370
    25
100
AcDbLine
 10
6268.0137819871
 20
5601.3818227904
 30
0.0
 11
6267.1353456836
 21
5601.4369416809
 31
0.0
  0
ARC
  5
34C
330
1F
100
AcDbEntity
  8
0
  6
SLD-Plná
 62
     7
370
    25
100
AcDbCircle
 10
6267.9289844191
 20
5602.8707264966
 30
0.0
 40
1.638780443005269
100
AcDbArc
 50
218.7122240127
 51
241.0342839582
  0
LWPOLYLINE
  5
34D
330
1F
100
AcDbEntity
  8
0
  6
SLD-Plná
 62
     7
370
    25
100
AcDbPolyline
 90
        3
 70
   128
 43
0.0
 10
6266.6502489648
 20
5601.8458182187
 10
6266.8592079159
 20
5601.8175810897
 10
6267.6184979753
 20
5601.7149983241
  0
LINE
  5
34E
330
1F
100
AcDbEntity
  8
0
  6
SLD-Plná
 62
     7
370
    25
100
AcDbLine
 10
6267.6184979753
 20
5601.7149983241
 30
0.0
 11
6267.5202304021
 21
5601.8943775652
 31
0.0
  0
LWPOLYLINE
  5
34F
330
1F
100
AcDbEntity
  8
0
  6
SLD-Plná
 62
     7
370
    25
100
AcDbPolyline
 90
        3
 70
   128
 43
0.0
 10
6267.5202304021
 20
5601.8943775652
 10
6266.7609403427
 20
5601.9969603309
 10
6266.5519813916
 20
5602.0251974599
  0
ARC
  5
350
330
1F
100
AcDbEntity
  8
0
  6
SLD-Plná
 62
     7
370
    25
100
AcDbCircle
 10
6267.0487713894
 20
5602.2087103775
 30
0.0
 40
0.5296010695719975
100
AcDbArc
 50
152.5479224505
 51
200.2740972139
  0
LINE
  5
351
330
1F
100
AcDbEntity
  8
0
  6
SLD-Plná
 62
     7
370
    25
100
AcDbLine
 10
6266.5788051312
 20
5602.4528599405
 30
0.0
 11
6267.5420878896
 21
5602.2428609387
 31
0.0
  0
LINE
  5
352
330
1F
100
AcDbEntity
  8
0
  6
SLD-Plná
 62
     7
370
    25
100
AcDbLine
 10
6267.5420878896
 20
5602.2428609387
 30
0.0
 11
6267.6627997156
 21
5602.4213201246
 31
0.0
  0
LINE
  5
353
330
1F
100
AcDbEntity
  8
0
  6
SLD-Plná
 62
     7
370
    25
100
AcDbLine
 10
6267.6627997156
 20
5602.4213201246
 30
0.0
 11
6266.6995169572
 21
5602.6313191264
 31
0.0
  0
ARC
  5
354
330
1F
100
AcDbEntity
  8
0
  6
SLD-Plná
 62
     7
370
    25
100
AcDbCircle
 10
6268.1190458902
 20
5601.3077944295
 30
0.0
 40
1.940819418378914
100
AcDbArc
 50
117.0761266481
 51
137.0044789346
  0
LINE
  5
355
330
1F
100
AcDbEntity
  8
0
  6
SLD-Plná
 62
     7
370
    25
100
AcDbLine
 10
6267.2356354609
 20
5603.0359049666
 30
0.0
 11
6268.099659139
 21
5602.7509993572
 31
0.0
  0
LINE
  5
356
330
1F
100
AcDbEntity
  8
0
  6
SLD-Plná
 62
     7
370
    25
100
AcDbLine
 10
6268.099659139
 20
5602.7509993572
 30
0.0
 11
6268.4275342497
 21
5602.9110696594
 31
0.0
  0
LINE
  5
357
330
1F
100
AcDbEntity
  8
0
  6
SLD-Plná
 62
     7
370
    25
100
AcDbLine
 10
6268.4275342497
 20
5602.9110696594
 30
0.0
 11
6267.5635105716
 21
5603.1959752688
 31
0.0
  0
ARC
  5
358
330
1F
100
AcDbEntity
  8
0
  6
SLD-Plná
 62
     7
370
    25
100
AcDbCircle
 10
6270.4622617167
 20
5596.3904097869
 30
0.0
 40
7.397194044352
100
AcDbArc
 50
104.9301046587
 51
113.0710134532
  0
LINE
  5
359
330
1F
100
AcDbEntity
  8
0
  6
SLD-Plná
 62
     7
370
    25
100
AcDbLine
 10
6268.5564448248
 20
5603.5378807875
 30
0.0
 11
6269.236632765
 21
5603.1896734508
 31
0.0
  0
LINE
  5
35A
330
1F
100
AcDbEntity
  8
0
  6
SLD-Plná
 62
     7
370
    25
100
AcDbLine
 10
6269.236632765
 20
5603.1896734508
 30
0.0
 11
6269.73957646
 21
5603.3156860728
 31
0.0
  0
LINE
  5
35B
330
1F
100
AcDbEntity
  8
0
  6
SLD-Plná
 62
     7
370
    25
100
AcDbLine
 10
6269.73957646
 20
5603.3156860728
 30
0.0
 11
6269.0593885198
 21
5603.6638934095
 31
0.0
  0
ARC
  5
35C
330
1F
100
AcDbEntity
  8
0
  6
SLD-Plná
 62
     7
370
    25
100
AcDbCircle
 10
6272.702929804
 20
5587.4560670209
 30
0.0
 40
16.61231559212081
100
AcDbArc
 50
97.9268628304
 51
102.6695497697
  0
LINE
  5
35D
330
1F
100
AcDbEntity
  8
0
  6
SLD-Plná
 62
     7
370
    25
100
AcDbLine
 10
6270.4119431997
 20
5603.9096505124
 30
0.0
 11
6270.8417138673
 21
5603.5159427428
 31
0.0
  0
LINE
  5
35E
330
1F
100
AcDbEntity
  8
0
  6
SLD-Plná
 62
     7
370
    25
100
AcDbLine
 10
6270.8417138673
 20
5603.5159427428
 30
0.0
 11
6271.4704945136
 21
5603.5955626912
 31
0.0
  0
LINE
  5
35F
330
1F
100
AcDbEntity
  8
0
  6
SLD-Plná
 62
     7
370
    25
100
AcDbLine
 10
6271.4704945136
 20
5603.5955626912
 30
0.0
 11
6271.040723846
 21
5603.9892704607
 31
0.0
  0
ARC
  5
360
330
1F
100
AcDbEntity
  8
0
  6
SLD-Plná
 62
     7
370
    25
100
AcDbCircle
 10
6273.8471548024
 20
5578.6786449281
 30
0.0
 40
25.46573815079893
100
AcDbArc
 50
92.7609356904
 51
96.3270861557
  0
LINE
  5
361
330
1F
100
AcDbEntity
  8
0
  6
SLD-Plná
 62
     7
370
    25
100
AcDbLine
 10
6272.6205014766
 20
5604.1148227303
 30
0.0
 11
6272.7577859243
 21
5603.6978697216
 31
0.0
  0
LINE
  5
362
330
1F
100
AcDbEntity
  8
0
  6
SLD-Plná
 62
     7
370
    25
100
AcDbLine
 10
6272.7577859243
 20
5603.6978697216
 30
0.0
 11
6273.4508540913
 21
5603.7233032411
 31
0.0
  0
LINE
  5
363
330
1F
100
AcDbEntity
  8
0
  6
SLD-Plná
 62
     7
370
    25
100
AcDbLine
 10
6273.4508540913
 20
5603.7233032411
 30
0.0
 11
6273.3135696435
 21
5604.1402562498
 31
0.0
  0
ARC
  5
364
330
1F
100
AcDbEntity
  8
0
  6
SLD-Plná
 62
     7
370
    25
100
AcDbCircle
 10
6274.0184971822
 20
5575.2777629345
 30
0.0
 40
28.87110048493049
100
AcDbArc
 50
88.1194453266
 51
91.3990941221
  0
LINE
  5
365
330
1F
100
AcDbEntity
  8
0
  6
SLD-Plná
 62
     7
370
    25
100
AcDbLine
 10
6274.9659305835
 20
5604.1333137551
 30
0.0
 11
6274.797290453
 21
5603.7176461071
 31
0.0
  0
LINE
  5
366
330
1F
100
AcDbEntity
  8
0
  6
SLD-Plná
 62
     7
370
    25
100
AcDbLine
 10
6274.797290453
 20
5603.7176461071
 30
0.0
 11
6275.4868037995
 21
5603.6864035875
 31
0.0
  0
LINE
  5
367
330
1F
100
AcDbEntity
  8
0
  6
SLD-Plná
 62
     7
370
    25
100
AcDbLine
 10
6275.4868037995
 20
5603.6864035875
 30
0.0
 11
6275.65544393
 21
5604.1020712355
 31
0.0
  0
ARC
  5
368
330
1F
100
AcDbEntity
  8
0
  6
SLD-Plná
 62
     7
370
    25
100
AcDbCircle
 10
6274.2516713877
 20
5579.4129860632
 30
0.0
 40
24.72896083540742
100
AcDbArc
 50
83.1090715853
 51
86.7457790889
  0
LINE
  5
369
330
1F
100
AcDbEntity
  8
0
  6
SLD-Plná
 62
     7
370
    25
100
AcDbLine
 10
6277.2186435778
 20
5603.9633135563
 30
0.0
 11
6276.7605865401
 21
5603.5733360487
 31
0.0
  0
LINE
  5
36A
330
1F
100
AcDbEntity
  8
0
  6
SLD-Plná
 62
     7
370
    25
100
AcDbLine
 10
6276.7605865401
 20
5603.5733360487
 30
0.0
 11
6277.3790506957
 21
5603.4884757257
 31
0.0
  0
LINE
  5
36B
330
1F
100
AcDbEntity
  8
0
  6
SLD-Plná
 62
     7
370
    25
100
AcDbLine
 10
6277.3790506957
 20
5603.4884757257
 30
0.0
 11
6277.8371077334
 21
5603.8784532333
 31
0.0
  0
ARC
  5
36C
330
1F
100
AcDbEntity
  8
0
  6
SLD-Plná
 62
     7
370
    25
100
AcDbCircle
 10
6275.5243841851
 20
5588.4664767954
 30
0.0
 40
15.58453425461463
100
AcDbArc
 50
76.5166061178
 51
81.4658637252
  0
LINE
  5
36D
330
1F
100
AcDbEntity
  8
0
  6
SLD-Plná
 62
     7
370
    25
100
AcDbLine
 10
6279.1581292161
 20
5603.621462938
 30
0.0
 11
6278.4554930855
 21
5603.2790656205
 31
0.0
  0
LINE
  5
36E
330
1F
100
AcDbEntity
  8
0
  6
SLD-Plná
 62
     7
370
    25
100
AcDbLine
 10
6278.4554930855
 20
5603.2790656205
 30
0.0
 11
6278.9423684696
 21
5603.1488942136
 31
0.0
  0
LINE
  5
36F
330
1F
100
AcDbEntity
  8
0
  6
SLD-Plná
 62
     7
370
    25
100
AcDbLine
 10
6278.9423684696
 20
5603.1488942136
 30
0.0
 11
6279.6450046002
 21
5603.4912915311
 31
0.0
  0
LINE
  5
370
330
1F
100
AcDbEntity
  8
0
  6
SLD-Plná
 62
     7
370
    25
100
AcDbLine
 10
6262.65345034
 20
5606.3761926956
 30
0.0
 11
6262.608695969
 21
5606.0781999141
 31
0.0
  0
LINE
  5
371
330
1F
100
AcDbEntity
  8
0
  6
SLD-Plná
 62
     7
370
    25
100
AcDbLine
 10
6260.9311399623
 20
5606.0364508441
 30
0.0
 11
6261.2027511055
 21
5607.6797605524
 31
0.0
  0
LINE
  5
372
330
1F
100
AcDbEntity
  8
0
  6
SLD-Plná
 62
     7
370
    25
100
AcDbLine
 10
6262.068599001
 20
5608.0324735675
 30
0.0
 11
6261.8239873757
 21
5606.4001624207
 31
0.0
  0
LINE
  5
373
330
1F
100
AcDbEntity
  8
0
  6
SLD-Plná
 62
     7
370
    25
100
AcDbLine
 10
6281.3439391254
 20
5605.2975590541
 30
0.0
 11
6281.2601995963
 21
5605.9859945081
 31
0.0
  0
LINE
  5
374
330
1F
100
AcDbEntity
  8
0
  6
SLD-Plná
 62
     7
370
    25
100
AcDbLine
 10
6282.3556843579
 20
5605.6931047928
 30
0.0
 11
6282.4583944476
 21
5604.999597354
 31
0.0
  0
LINE
  5
375
330
1F
100
AcDbEntity
  8
0
  6
SLD-Plná
 62
     7
370
    25
100
AcDbLine
 10
6280.6660912561
 20
5605.3328130072
 30
0.0
 11
6280.7143443773
 21
5604.9359057094
 31
0.0
  0
LINE
  5
376
330
1F
100
AcDbEntity
  8
0
  6
SLD-Plná
 62
     7
370
    25
100
AcDbLine
 10
6285.6427643824
 20
5606.2690436853
 30
0.0
 11
6285.686964561
 21
5605.9812351691
 31
0.0
  0
LINE
  5
377
330
1F
100
AcDbEntity
  8
0
  6
SLD-Plná
 62
     7
370
    25
100
AcDbLine
 10
6287.0612626296
 20
5607.5711144482
 30
0.0
 11
6287.3373639516
 21
5605.9255034927
 31
0.0
  0
LINE
  5
378
330
1F
100
AcDbEntity
  8
0
  6
SLD-Plná
 62
     7
370
    25
100
AcDbLine
 10
6286.4906002307
 20
5606.296524151
 30
0.0
 11
6286.2401048654
 21
5607.9309155198
 31
0.0
  0
LWPOLYLINE
  5
379
330
1F
100
AcDbEntity
  8
0
  6
SLD-Plná
 62
     7
370
    25
100
AcDbPolyline
 90
        3
 70
   128
 43
0.0
 10
6273.3135696435
 20
5604.1402562498
 10
6273.3277245146
 20
5604.6661633025
 10
6273.3318956243
 20
5604.8211326406
  0
LINE
  5
37A
330
1F
100
AcDbEntity
  8
0
  6
SLD-Plná
 62
     7
370
    25
100
AcDbLine
 10
6274.94341896
 20
5604.8143617276
 30
0.0
 11
6274.9659305835
 21
5604.1333137551
 31
0.0
  0
LINE
  5
37B
330
1F
100
AcDbEntity
  8
0
  6
SLD-Plná
 62
     7
370
    25
100
AcDbLine
 10
6266.211001965
 20
5605.8452151009
 30
0.0
 11
6266.1202584486
 21
5605.1551474258
 31
0.0
  0
LINE
  5
37C
330
1F
100
AcDbEntity
  8
0
  6
SLD-Plná
 62
     7
370
    25
100
AcDbLine
 10
6266.849745977
 20
5605.1651472309
 30
0.0
 11
6266.8025126001
 21
5604.8057659186
 31
0.0
  0
LINE
  5
37D
330
1F
100
AcDbEntity
  8
0
  6
SLD-Plná
 62
     7
370
    25
100
AcDbLine
 10
6275.65544393
 20
5604.1020712355
 30
0.0
 11
6275.6329323065
 21
5604.7831192081
 31
0.0
  0
LINE
  5
37E
330
1F
100
AcDbEntity
  8
0
  6
SLD-Plná
 62
     7
370
    25
100
AcDbLine
 10
6277.1574979446
 20
5604.6477908832
 30
0.0
 11
6277.2186435778
 21
5603.9633135563
 31
0.0
  0
LWPOLYLINE
  5
37F
330
1F
100
AcDbEntity
  8
0
  6
SLD-Plná
 62
     7
370
    25
100
AcDbPolyline
 90
        3
 70
   128
 43
0.0
 10
6272.6388274574
 20
5604.7956991212
 10
6272.6346563476
 20
5604.640729783
 10
6272.6205014766
 20
5604.1148227303
  0
LINE
  5
380
330
1F
100
AcDbEntity
  8
0
  6
SLD-Plná
 62
     7
370
    25
100
AcDbLine
 10
6272.7875379915
 20
5604.8045537757
 30
0.0
 11
6272.7577859243
 21
5603.6978697216
 31
0.0
  0
LINE
  5
381
330
1F
100
AcDbEntity
  8
0
  6
SLD-Plná
 62
     7
370
    25
100
AcDbLine
 10
6265.0918217343
 20
5604.8371398017
 30
0.0
 11
6265.2000715793
 21
5605.5326206889
 31
0.0
  0
LINE
  5
382
330
1F
100
AcDbEntity
  8
0
  6
SLD-Plná
 62
     7
370
    25
100
AcDbLine
 10
6271.040723846
 20
5603.9892704607
 30
0.0
 11
6271.0980935564
 21
5604.6732498382
 31
0.0
  0
LINE
  5
383
330
1F
100
AcDbEntity
  8
0
  6
SLD-Plná
 62
     7
370
    25
100
AcDbLine
 10
6275.4502008798
 20
5604.7950471721
 30
0.0
 11
6275.4868037995
 21
5603.6864035875
 31
0.0
  0
LWPOLYLINE
  5
384
330
1F
100
AcDbEntity
  8
0
  6
SLD-Plná
 62
     7
370
    25
100
AcDbPolyline
 90
       22
 70
   128
 43
0.0
 10
6273.4431881215
 20
5603.0067658993
 10
6274.6652878959
 20
5603.0039974919
 10
6275.8299404151
 20
5602.9081202206
 10
6276.8336611917
 20
5602.7276532016
 10
6277.5872652301
 20
5602.4786317217
 10
6278.0237915042
 20
5602.183182432
 10
6278.104452739
 20
5601.8675572985
 10
6277.8220818298
 20
5601.5598009994
 10
6277.201768671
 20
5601.2872590326
 10
6276.2986308089
 20
5601.0741479477
 10
6275.192916006
 20
5600.9394035998
 10
6273.9828718749
 20
5600.8949986157
 10
6272.7760161468
 20
5600.9448785729
 10
6271.6795832493
 20
5601.0846114185
 10
6270.790996057
 20
5601.3017812758
 10
6270.1892094414
 20
5601.5770916501
 10
6269.9276947843
 20
5601.8860800063
 10
6270.0296888106
 20
5602.2012913731
 10
6270.4861289033
 20
5602.4947178373
 10
6271.2564583573
 20
5602.7402871697
 10
6272.27223002
 20
5602.9161794576
 10
6273.4431881215
 20
5603.0067658993
  0
LINE
  5
385
330
1F
100
AcDbEntity
  8
0
  6
SLD-Plná
 62
     7
370
    25
100
AcDbLine
 10
6270.4693129101
 20
5604.5936298898
 30
0.0
 11
6270.4119431997
 21
5603.9096505124
 31
0.0
  0
LINE
  5
386
330
1F
100
AcDbEntity
  8
0
  6
SLD-Plná
 62
     7
370
    25
100
AcDbLine
 10
6270.9372927287
 20
5604.6567843942
 30
0.0
 11
6270.8417138673
 21
5603.5159427428
 31
0.0
  0
LINE
  5
387
330
1F
100
AcDbEntity
  8
0
  6
SLD-Plná
 62
     7
370
    25
100
AcDbLine
 10
6277.8371077334
 20
5603.8784532333
 30
0.0
 11
6277.7759621002
 21
5604.5629305602
 31
0.0
  0
LINE
  5
388
330
1F
100
AcDbEntity
  8
0
  6
SLD-Plná
 62
     7
370
    25
100
AcDbLine
 10
6279.0643349337
 20
5604.3122917029
 30
0.0
 11
6279.1581292161
 21
5603.621462938
 31
0.0
  0
LINE
  5
389
330
1F
100
AcDbEntity
  8
0
  6
SLD-Plná
 62
     7
370
    25
100
AcDbLine
 10
6269.0593885198
 20
5603.6638934095
 30
0.0
 11
6269.1501862128
 21
5604.3539465999
 31
0.0
  0
LINE
  5
38A
330
1F
100
AcDbEntity
  8
0
  6
SLD-Plná
 62
     7
370
    25
100
AcDbLine
 10
6277.2767447703
 20
5604.6350368402
 30
0.0
 11
6277.3790506957
 21
5603.4884757257
 31
0.0
  0
LINE
  5
38B
330
1F
100
AcDbEntity
  8
0
  6
SLD-Plná
 62
     7
370
    25
100
AcDbLine
 10
6261.5180018764
 20
5605.8446957985
 30
0.0
 11
6261.4760423369
 21
5605.5902939028
 31
0.0
  0
LINE
  5
38C
330
1F
100
AcDbEntity
  8
0
  6
SLD-Plná
 62
     7
370
    25
100
AcDbLine
 10
6283.6235854775
 20
5605.2050355165
 30
0.0
 11
6283.7407772041
 21
5604.5055460934
 31
0.0
  0
LINE
  5
38D
330
1F
100
AcDbEntity
  8
0
  6
SLD-Plná
 62
     7
370
    25
100
AcDbLine
 10
6282.8900307458
 20
5604.856967134
 30
0.0
 11
6282.7873206561
 21
5605.5504745728
 31
0.0
  0
LINE
  5
38E
330
1F
100
AcDbEntity
  8
0
  6
SLD-Plná
 62
     7
370
    25
100
AcDbLine
 10
6282.0727216867
 20
5604.8380216779
 30
0.0
 11
6282.1178060417
 21
5604.5334474527
 31
0.0
  0
LINE
  5
38F
330
1F
100
AcDbEntity
  8
0
  6
SLD-Plná
 62
     7
370
    25
100
AcDbLine
 10
6259.945761147
 20
5605.4832027911
 30
0.0
 11
6260.2363585019
 21
5607.1379644058
 31
0.0
  0
LINE
  5
390
330
1F
100
AcDbEntity
  8
0
  6
SLD-Plná
 62
     7
370
    25
100
AcDbLine
 10
6260.8783608564
 20
5607.5213915775
 30
0.0
 11
6260.6077829
 21
5605.8785862761
 31
0.0
  0
LINE
  5
391
330
1F
100
AcDbEntity
  8
0
  6
SLD-Plná
 62
     7
370
    25
100
AcDbLine
 10
6286.7164836792
 20
5605.7310035327
 30
0.0
 11
6286.7578328618
 21
5605.4840709268
 31
0.0
  0
LINE
  5
392
330
1F
100
AcDbEntity
  8
0
  6
SLD-Plná
 62
     7
370
    25
100
AcDbLine
 10
6287.9591991218
 20
5607.0214852097
 30
0.0
 11
6288.2528404626
 21
5605.3642688807
 31
0.0
  0
LINE
  5
393
330
1F
100
AcDbEntity
  8
0
  6
SLD-Plná
 62
     7
370
    25
100
AcDbLine
 10
6287.6407527638
 20
5605.7650056139
 30
0.0
 11
6287.3656208262
 21
5607.4101037484
 31
0.0
  0
LINE
  5
394
330
1F
100
AcDbEntity
  8
0
  6
SLD-Plná
 62
     7
370
    25
100
AcDbLine
 10
6264.8093454951
 20
5605.3822975877
 30
0.0
 11
6264.7010956501
 21
5604.6868167005
 31
0.0
  0
LINE
  5
395
330
1F
100
AcDbEntity
  8
0
  6
SLD-Plná
 62
     7
370
    25
100
AcDbLine
 10
6265.5588223708
 20
5604.6600182623
 30
0.0
 11
6265.5149709446
 21
5604.3781343696
 31
0.0
  0
LINE
  5
396
330
1F
100
AcDbEntity
  8
0
  6
SLD-Plná
 62
     7
370
    25
100
AcDbLine
 10
6263.9505911596
 20
5604.3204165784
 30
0.0
 11
6264.0716162955
 21
5605.0221344278
 31
0.0
  0
LINE
  5
397
330
1F
100
AcDbEntity
  8
0
  6
SLD-Plná
 62
     7
370
    25
100
AcDbLine
 10
6268.6472425178
 20
5604.2279339779
 30
0.0
 11
6268.5564448248
 21
5603.5378807875
 31
0.0
  0
LINE
  5
398
330
1F
100
AcDbEntity
  8
0
  6
SLD-Plná
 62
     7
370
    25
100
AcDbLine
 10
6269.283856566
 20
5603.5489819035
 30
0.0
 11
6269.236632765
 21
5603.1896734508
 31
0.0
  0
LINE
  5
399
330
1F
100
AcDbEntity
  8
0
  6
SLD-Plná
 62
     7
370
    25
100
AcDbLine
 10
6267.5635105716
 20
5603.1959752688
 30
0.0
 11
6267.6788483364
 21
5603.8944785514
 31
0.0
  0
LINE
  5
39A
330
1F
100
AcDbEntity
  8
0
  6
SLD-Plná
 62
     7
370
    25
100
AcDbLine
 10
6280.4772754373
 20
5603.8407051838
 30
0.0
 11
6280.5945371309
 21
5603.1412246205
 31
0.0
  0
LINE
  5
39B
330
1F
100
AcDbEntity
  8
0
  6
SLD-Plná
 62
     7
370
    25
100
AcDbLine
 10
6279.6450046002
 20
5603.4912915311
 30
0.0
 11
6279.5512103178
 21
5604.182120296
 31
0.0
  0
LINE
  5
39C
330
1F
100
AcDbEntity
  8
0
  6
SLD-Plná
 62
     7
370
    25
100
AcDbLine
 10
6278.8956285987
 20
5603.4935453669
 30
0.0
 11
6278.9423684696
 21
5603.1488942136
 31
0.0
  0
LINE
  5
39D
330
1F
100
AcDbEntity
  8
0
  6
SLD-Plná
 62
     7
370
    25
100
AcDbLine
 10
6278.0664026498
 20
5602.1251530778
 30
0.0
 11
6278.0187553361
 21
5602.0612529568
 31
0.0
  0
LINE
  5
39E
330
1F
100
AcDbEntity
  8
0
  6
SLD-Plná
 62
     7
370
    25
100
AcDbLine
 10
6270.0187553361
 20
5602.0612529568
 30
0.0
 11
6269.9711080224
 21
5602.1251530778
 31
0.0
  0
LINE
  5
39F
330
1F
100
AcDbEntity
  8
0
  6
SLD-Plná
 62
     7
370
    25
100
AcDbLine
 10
6283.1259532678
 20
5604.3111814135
 30
0.0
 11
6283.1673003267
 21
5604.0642614897
 31
0.0
  0
LINE
  5
3A0
330
1F
100
AcDbEntity
  8
0
  6
SLD-Plná
 62
     7
370
    25
100
AcDbLine
 10
6260.6911532605
 20
5605.2844842155
 30
0.0
 11
6260.6522319258
 21
5605.062535696
 31
0.0
  0
LINE
  5
3A1
330
1F
100
AcDbEntity
  8
0
  6
SLD-Plná
 62
     7
370
    25
100
AcDbLine
 10
6284.4717094309
 20
5604.659404057
 30
0.0
 11
6284.5982609535
 21
5603.9532840918
 31
0.0
  0
LINE
  5
3A2
330
1F
100
AcDbEntity
  8
0
  6
SLD-Plná
 62
     7
370
    25
100
AcDbLine
 10
6284.0484050618
 20
5604.342805687
 30
0.0
 11
6283.9312133352
 21
5605.04229511
 31
0.0
  0
LINE
  5
3A3
330
1F
100
AcDbEntity
  8
0
  6
SLD-Plná
 62
     7
370
    25
100
AcDbLine
 10
6259.3069061542
 20
5604.8968699065
 30
0.0
 11
6259.6093342495
 21
5606.5637111535
 31
0.0
  0
LINE
  5
3A4
330
1F
100
AcDbEntity
  8
0
  6
SLD-Plná
 62
     7
370
    25
100
AcDbLine
 10
6260.0116828344
 20
5606.9684112323
 30
0.0
 11
6259.7218010742
 21
5605.3141896464
 31
0.0
  0
LINE
  5
3A5
330
1F
100
AcDbEntity
  8
0
  6
SLD-Plná
 62
     7
370
    25
100
AcDbLine
 10
6287.4767529528
 20
5605.1659332284
 30
0.0
 11
6287.5150227953
 21
5604.9496700512
 31
0.0
  0
LINE
  5
3A6
330
1F
100
AcDbEntity
  8
0
  6
SLD-Plná
 62
     7
370
    25
100
AcDbLine
 10
6264.6390403031
 20
5604.1223467068
 30
0.0
 11
6264.5990854726
 21
5603.8905630412
 31
0.0
  0
LINE
  5
3A7
330
1F
100
AcDbEntity
  8
0
  6
SLD-Plná
 62
     7
370
    25
100
AcDbLine
 10
6263.8101844268
 20
5604.8540706883
 30
0.0
 11
6263.6891592909
 21
5604.1523528389
 31
0.0
  0
LINE
  5
3A8
330
1F
100
AcDbEntity
  8
0
  6
SLD-Plná
 62
     7
370
    25
100
AcDbLine
 10
6288.5138756223
 20
5606.4422669701
 30
0.0
 11
6288.8178265575
 21
5604.7728779848
 31
0.0
  0
LINE
  5
3A9
330
1F
100
AcDbEntity
  8
0
  6
SLD-Plná
 62
     7
370
    25
100
AcDbLine
 10
6288.4554865114
 20
5605.1934633246
 30
0.0
 11
6288.162492663
 21
5606.8501338976
 31
0.0
  0
LINE
  5
3AA
330
1F
100
AcDbEntity
  8
0
  6
SLD-Plná
 62
     7
370
    25
100
AcDbLine
 10
6263.2493876718
 20
5603.7535736622
 30
0.0
 11
6263.3778987194
 21
5604.4620796388
 31
0.0
  0
LINE
  5
3AB
330
1F
100
AcDbEntity
  8
0
  6
SLD-Plná
 62
     7
370
    25
100
AcDbLine
 10
6268.1416103902
 20
5603.0053510008
 30
0.0
 11
6268.099659139
 21
5602.7509993572
 31
0.0
  0
LINE
  5
3AC
330
1F
100
AcDbEntity
  8
0
  6
SLD-Plná
 62
     7
370
    25
100
AcDbLine
 10
6267.3509732258
 20
5603.7344082492
 30
0.0
 11
6267.2356354609
 21
5603.0359049666
 31
0.0
  0
LINE
  5
3AD
330
1F
100
AcDbEntity
  8
0
  6
SLD-Plná
 62
     7
370
    25
100
AcDbLine
 10
6279.9823872215
 20
5602.9477861646
 30
0.0
 11
6280.0237286851
 21
5602.7008996559
 31
0.0
  0
LINE
  5
3AE
330
1F
100
AcDbEntity
  8
0
  6
SLD-Plná
 62
     7
370
    25
100
AcDbLine
 10
6266.6995169572
 20
5602.6313191264
 30
0.0
 11
6266.8281047299
 21
5603.3398216266
 31
0.0
  0
LINE
  5
3AF
330
1F
100
AcDbEntity
  8
0
  6
SLD-Plná
 62
     7
370
    25
100
AcDbLine
 10
6280.9021649886
 20
5602.978484214
 30
0.0
 11
6280.784903295
 21
5603.6779647774
 31
0.0
  0
LWPOLYLINE
  5
3B0
330
1F
100
AcDbEntity
  8
0
  6
SLD-Plná
 62
     7
370
    25
100
AcDbPolyline
 90
        3
 70
   128
 43
0.0
 10
6281.2580109941
 20
5603.2791935004
 10
6281.2874292784
 20
5603.1176897127
 10
6281.3872617074
 20
5602.5696076762
  0
LINE
  5
3B1
330
1F
100
AcDbEntity
  8
0
  6
SLD-Plná
 62
     7
370
    25
100
AcDbLine
 10
6283.7797547253
 20
5603.7565516313
 30
0.0
 11
6283.8169592961
 21
5603.5488534985
 31
0.0
  0
LINE
  5
3B2
330
1F
100
AcDbEntity
  8
0
  6
SLD-Plná
 62
     7
370
    25
100
AcDbLine
 10
6260.1932642494
 20
5604.7049234655
 30
0.0
 11
6260.1575496819
 21
5604.5079204523
 31
0.0
  0
LINE
  5
3B3
330
1F
100
AcDbEntity
  8
0
  6
SLD-Plná
 62
     7
370
    25
100
AcDbLine
 10
6284.7684355571
 20
5603.7775460356
 30
0.0
 11
6284.6418840345
 21
5604.4836660008
 31
0.0
  0
LINE
  5
3B4
330
1F
100
AcDbEntity
  8
0
  6
SLD-Plná
 62
     7
370
    25
100
AcDbLine
 10
6284.8629891314
 20
5604.0800571275
 30
0.0
 11
6284.9933695413
 21
5603.3669478486
 31
0.0
  0
LINE
  5
3B5
330
1F
100
AcDbEntity
  8
0
  6
SLD-Plná
 62
     7
370
    25
100
AcDbLine
 10
6264.1305986639
 20
5603.5613604143
 30
0.0
 11
6264.0948847743
 21
5603.3643611403
 31
0.0
  0
LINE
  5
3B6
330
1F
100
AcDbEntity
  8
0
  6
SLD-Plná
 62
     7
370
    25
100
AcDbLine
 10
6288.6093184142
 20
5606.2744698523
 30
0.0
 11
6288.9149539776
 21
5604.5946570457
 31
0.0
  0
LINE
  5
3B7
330
1F
100
AcDbEntity
  8
0
  6
SLD-Plná
 62
     7
370
    25
100
AcDbLine
 10
6288.9147400248
 20
5604.5959705509
 30
0.0
 11
6288.6110987464
 21
5606.2647942836
 31
0.0
  0
LINE
  5
3B8
330
1F
100
AcDbEntity
  8
0
  6
SLD-Plná
 62
     7
370
    25
100
AcDbLine
 10
6287.90485188
 20
5604.5837644088
 30
0.0
 11
6287.9398898324
 21
5604.3911912654
 31
0.0
  0
LINE
  5
3B9
330
1F
100
AcDbEntity
  8
0
  6
SLD-Plná
 62
     7
370
    25
100
AcDbLine
 10
6259.030305714
 20
5604.291889652
 30
0.0
 11
6259.3371177664
 21
5605.9711408165
 31
0.0
  0
LINE
  5
3BA
330
1F
100
AcDbEntity
  8
0
  6
SLD-Plná
 62
     7
370
    25
100
AcDbLine
 10
6259.4899054242
 20
5606.3871487433
 30
0.0
 11
6259.1878577111
 21
5604.7208698497
 31
0.0
  0
LINE
  5
3BB
330
1F
100
AcDbEntity
  8
0
  6
SLD-Plná
 62
     7
370
    25
100
AcDbLine
 10
6267.5777999931
 20
5602.4398503606
 30
0.0
 11
6267.5420878896
 21
5602.2428609387
 31
0.0
  0
LINE
  5
3BC
330
1F
100
AcDbEntity
  8
0
  6
SLD-Plná
 62
     7
370
    25
100
AcDbLine
 10
6263.2571868934
 20
5604.2836204529
 30
0.0
 11
6263.1286758458
 21
5603.5751144762
 31
0.0
  0
LINE
  5
3BD
330
1F
100
AcDbEntity
  8
0
  6
SLD-Plná
 62
     7
370
    25
100
AcDbLine
 10
6280.4822441213
 20
5602.3809081116
 30
0.0
 11
6280.5172802701
 21
5602.188344881
 31
0.0
  0
LINE
  5
3BE
330
1F
100
AcDbEntity
  8
0
  6
SLD-Plná
 62
     7
370
    25
100
AcDbLine
 10
6266.7073929039
 20
5603.1613624407
 30
0.0
 11
6266.5788051312
 21
5602.4528599405
 31
0.0
  0
LWPOLYLINE
  5
3BF
330
1F
100
AcDbEntity
  8
0
  6
SLD-Plná
 62
     7
370
    25
100
AcDbPolyline
 90
        3
 70
   128
 43
0.0
 10
6281.4855292806
 20
5602.390228435
 10
6281.3856968516
 20
5602.9383104715
 10
6281.3562785674
 20
5603.0998142592
  0
LINE
  5
3C0
330
1F
100
AcDbEntity
  8
0
  6
SLD-Plná
 62
     7
370
    25
100
AcDbLine
 10
6259.0519078549
 20
5604.2894010197
 30
0.0
 11
6259.0194896558
 21
5604.1119257161
 31
0.0
  0
LINE
  5
3C1
330
1F
100
AcDbEntity
  8
0
  6
SLD-Plná
 62
     7
370
    25
100
AcDbLine
 10
6259.3258765174
 20
5605.7919167222
 30
0.0
 11
6259.164844206
 21
5604.9107475472
 31
0.0
  0
LINE
  5
3C2
330
1F
100
AcDbEntity
  8
0
  6
SLD-Plná
 62
     7
370
    25
100
AcDbLine
 10
6259.0513130512
 20
5604.2895048089
 30
0.0
 11
6259.0191002685
 21
5604.1132363885
 31
0.0
  0
LINE
  5
3C3
330
1F
100
AcDbEntity
  8
0
  6
SLD-Plná
 62
     7
370
    25
100
AcDbLine
 10
6285.0186534441
 20
5603.185892739
 30
0.0
 11
6284.9857991798
 21
5603.3655875313
 31
0.0
  0
LINE
  5
3C4
330
1F
100
AcDbEntity
  8
0
  6
SLD-Plná
 62
     7
370
    25
100
AcDbLine
 10
6288.9749258252
 20
5604.1599245882
 30
0.0
 11
6289.0066590048
 21
5603.9859328056
 31
0.0
  0
LINE
  5
3C5
330
1F
100
AcDbEntity
  8
0
  6
SLD-Plná
 62
     7
370
    25
100
AcDbLine
 10
6289.0072049582
 20
5603.9872395481
 30
0.0
 11
6288.9756692141
 21
5604.1600480576
 31
0.0
  0
LINE
  5
3C6
330
1F
100
AcDbEntity
  8
0
  6
SLD-Plná
 62
     7
370
    25
100
AcDbLine
 10
6263.0754706535
 20
5603.1522711427
 30
0.0
 11
6263.0441411309
 21
5602.9803296989
 31
0.0
  0
LINE
  5
3C7
330
1F
100
AcDbEntity
  8
0
  6
SLD-Plná
 62
     7
370
    25
100
AcDbLine
 10
6281.337993715
 20
5601.7841067684
 30
0.0
 11
6281.3095219624
 21
5601.9435627195
 31
0.0
  0
LINE
  5
3C8
330
1F
100
AcDbEntity
  8
0
  6
SLD-Plná
 62
     7
370
    25
100
AcDbLine
 10
6266.6793967672
 20
5602.0079795117
 30
0.0
 11
6266.6502489648
 21
5601.8458182187
 31
0.0
  0
LINE
  5
3C9
330
1F
100
AcDbEntity
  8
0
  6
SLD-Plná
 62
     7
370
    25
100
AcDbLine
 10
6284.7881230004
 20
5602.5937038853
 30
0.0
 11
6284.7596708603
 21
5602.7531443618
 31
0.0
  0
LINE
  5
3CA
330
1F
100
AcDbEntity
  8
0
  6
SLD-Plná
 62
     7
370
    25
100
AcDbLine
 10
6259.2499376097
 20
5603.6671191561
 30
0.0
 11
6259.2208242679
 21
5603.5049716988
 31
0.0
  0
LINE
  5
3CB
330
1F
100
AcDbEntity
  8
0
  6
SLD-Plná
 62
     7
370
    25
100
AcDbLine
 10
6259.2486292759
 20
5603.6672961443
 30
0.0
 11
6259.2196841147
 21
5603.5062512152
 31
0.0
  0
LINE
  5
3CC
330
1F
100
AcDbEntity
  8
0
  6
SLD-Plná
 62
     7
370
    25
100
AcDbLine
 10
6259.1227706474
 20
5603.6831586491
 30
0.0
 11
6259.2261287344
 21
5604.25900067
 31
0.0
  0
LINE
  5
3CD
330
1F
100
AcDbEntity
  8
0
  6
SLD-Plná
 62
     7
370
    25
100
AcDbLine
 10
6288.7008752906
 20
5603.540425608
 30
0.0
 11
6288.7293121016
 21
5603.3809899977
 31
0.0
  0
LINE
  5
3CE
330
1F
100
AcDbEntity
  8
0
  6
SLD-Plná
 62
     7
370
    25
100
AcDbLine
 10
6288.730604518
 20
5603.3822592935
 30
0.0
 11
6288.7023286163
 21
5603.5406109764
 31
0.0
  0
LINE
  5
3CF
330
1F
100
AcDbEntity
  8
0
  6
SLD-Plná
 62
     7
370
    25
100
AcDbLine
 10
6288.8494538017
 20
5603.5593764653
 30
0.0
 11
6288.8496529611
 21
5603.5582593504
 31
0.0
  0
LINE
  5
3D0
330
1F
100
AcDbEntity
  8
0
  6
SLD-Plná
 62
     7
370
    25
100
AcDbLine
 10
6280.4740001006
 20
5601.2194506261
 30
0.0
 11
6280.4517742124
 21
5601.360153321
 31
0.0
  0
LINE
  5
3D1
330
1F
100
AcDbEntity
  8
0
  6
SLD-Plná
 62
     7
370
    25
100
AcDbLine
 10
6267.4658098736
 20
5601.4162061769
 30
0.0
 11
6267.4429735413
 21
5601.2742012744
 31
0.0
  0
LINE
  5
3D2
330
1F
100
AcDbEntity
  8
0
  6
SLD-Plná
 62
     7
370
    25
100
AcDbLine
 10
6263.4662104365
 20
5602.5479239674
 30
0.0
 11
6263.4392497187
 21
5602.3939934557
 31
0.0
  0
LINE
  5
3D3
330
1F
100
AcDbEntity
  8
0
  6
SLD-Plná
 62
     7
370
    25
100
AcDbLine
 10
6284.0869195126
 20
5602.0268609691
 30
0.0
 11
6284.062710422
 21
5602.1722733812
 31
0.0
  0
LINE
  5
3D4
330
1F
100
AcDbEntity
  8
0
  6
SLD-Plná
 62
     7
370
    25
100
AcDbLine
 10
6259.8124145904
 20
5603.0640125857
 30
0.0
 11
6259.7865330543
 21
5602.9136419725
 31
0.0
  0
LINE
  5
3D5
330
1F
100
AcDbEntity
  8
0
  6
SLD-Plná
 62
     7
370
    25
100
AcDbLine
 10
6259.8104174612
 20
5603.0642095846
 30
0.0
 11
6259.7846702096
 21
5602.9148603193
 31
0.0
  0
LINE
  5
3D6
330
1F
100
AcDbEntity
  8
0
  6
SLD-Plná
 62
     7
370
    25
100
AcDbLine
 10
6259.5820241608
 20
5603.0856658755
 30
0.0
 11
6259.5822055399
 21
5603.0867206443
 31
0.0
  0
LINE
  5
3D7
330
1F
100
AcDbEntity
  8
0
  6
SLD-Plná
 62
     7
370
    25
100
AcDbLine
 10
6278.9781221524
 20
5600.7515324854
 30
0.0
 11
6278.9611744901
 21
5600.8893952696
 31
0.0
  0
LINE
  5
3D8
330
1F
100
AcDbEntity
  8
0
  6
SLD-Plná
 62
     7
370
    25
100
AcDbLine
 10
6268.8968135696
 20
5600.9310920059
 30
0.0
 11
6268.8793814561
 21
5600.7939629569
 31
0.0
  0
LINE
  5
3D9
330
1F
100
AcDbEntity
  8
0
  6
SLD-Plná
 62
     7
370
    25
100
AcDbLine
 10
6288.0645124256
 20
5602.9430774907
 30
0.0
 11
6288.0897424694
 21
5602.7947243217
 31
0.0
  0
LINE
  5
3DA
330
1F
100
AcDbEntity
  8
0
  6
SLD-Plná
 62
     7
370
    25
100
AcDbLine
 10
6288.0917495252
 20
5602.795926409
 30
0.0
 11
6288.0666471552
 21
5602.9432722623
 31
0.0
  0
LINE
  5
3DB
330
1F
100
AcDbEntity
  8
0
  6
SLD-Plná
 62
     7
370
    25
100
AcDbLine
 10
6288.3155327599
 20
5602.9659804499
 30
0.0
 11
6288.315709598
 21
5602.9649395536
 31
0.0
  0
LINE
  5
3DC
330
1F
100
AcDbEntity
  8
0
  6
SLD-Plná
 62
     7
370
    25
100
AcDbLine
 10
6264.319549638
 20
5601.9836939606
 30
0.0
 11
6264.2967334681
 21
5601.841731454
 31
0.0
  0
LINE
  5
3DD
330
1F
100
AcDbEntity
  8
0
  6
SLD-Plná
 62
     7
370
    25
100
AcDbLine
 10
6270.8286271123
 20
5600.5708978523
 30
0.0
 11
6270.8188670944
 21
5600.4521123385
 31
0.0
  0
LINE
  5
3DE
330
1F
100
AcDbEntity
  8
0
  6
SLD-Plná
 62
     7
370
    25
100
AcDbLine
 10
6276.9967868262
 20
5600.4261554341
 30
0.0
 11
6276.9879804847
 21
5600.5404647639
 31
0.0
  0
LINE
  5
3DF
330
1F
100
AcDbEntity
  8
0
  6
SLD-Plná
 62
     7
370
    25
100
AcDbLine
 10
6282.9456889379
 20
5601.5101377457
 30
0.0
 11
6282.9253783804
 21
5601.6477012992
 31
0.0
  0
LINE
  5
3E0
330
1F
100
AcDbEntity
  8
0
  6
SLD-Plná
 62
     7
370
    25
100
AcDbLine
 10
6273.0743046335
 20
5600.3725941355
 30
0.0
 11
6273.0715800887
 21
5600.2821121398
 31
0.0
  0
LINE
  5
3E1
330
1F
100
AcDbEntity
  8
0
  6
SLD-Plná
 62
     7
370
    25
100
AcDbLine
 10
6274.7239410287
 20
5600.2751696451
 30
0.0
 11
6274.7217548237
 21
5600.3643769048
 31
0.0
  0
LINE
  5
3E2
330
1F
100
AcDbEntity
  8
0
  6
SLD-Plná
 62
     7
370
    25
100
AcDbLine
 10
6265.5981932402
 20
5601.4842244841
 30
0.0
 11
6265.5791162246
 21
5601.3476801934
 31
0.0
  0
LINE
  5
3E3
330
1F
100
AcDbEntity
  8
0
  6
SLD-Plná
 62
     7
370
    25
100
AcDbLine
 10
6260.7254885833
 20
5602.4944438522
 30
0.0
 11
6260.7026863874
 21
5602.3524970375
 31
0.0
  0
LINE
  5
3E4
330
1F
100
AcDbEntity
  8
0
  6
SLD-Plná
 62
     7
370
    25
100
AcDbLine
 10
6260.7228454391
 20
5602.4946101823
 30
0.0
 11
6260.7001467206
 21
5602.3536257074
 31
0.0
  0
LINE
  5
3E5
330
1F
100
AcDbEntity
  8
0
  6
SLD-Plná
 62
     7
370
    25
100
AcDbLine
 10
6260.3967579084
 20
5602.5141235861
 30
0.0
 11
6260.3969177925
 21
5602.5151204426
 31
0.0
  0
LINE
  5
3E6
330
1F
100
AcDbEntity
  8
0
  6
SLD-Plná
 62
     7
370
    25
100
AcDbLine
 10
6287.1063707099
 20
5602.2426783559
 30
0.0
 11
6287.0842763354
 21
5602.382365025
 31
0.0
  0
LINE
  5
3E7
330
1F
100
AcDbEntity
  8
0
  6
SLD-Plná
 62
     7
370
    25
100
AcDbLine
 10
6287.0815065959
 20
5602.3822112895
 30
0.0
 11
6287.103698435
 21
5602.2415715843
 31
0.0
  0
LINE
  5
3E8
330
1F
100
AcDbEntity
  8
0
  6
SLD-Plná
 62
     7
370
    25
100
AcDbLine
 10
6287.4295721591
 20
5602.4015307988
 30
0.0
 11
6287.4297277722
 21
5602.4005429239
 31
0.0
  0
LINE
  5
3E9
330
1F
100
AcDbEntity
  8
0
  6
SLD-Plná
 62
     7
370
    25
100
AcDbLine
 10
6281.4143085286
 20
5601.0661174997
 30
0.0
 11
6281.3973816033
 21
5601.2038911013
 31
0.0
  0
LINE
  5
3EA
330
1F
100
AcDbEntity
  8
0
  6
SLD-Plná
 62
     7
370
    25
100
AcDbLine
 10
6267.2462583821
 20
5601.0740404311
 30
0.0
 11
6267.2303517082
 21
5600.9334320847
 31
0.0
  0
LINE
  5
3EB
330
1F
100
AcDbEntity
  8
0
  6
SLD-Plná
 62
     7
370
    25
100
AcDbLine
 10
6261.9666767314
 20
5601.9725161605
 30
0.0
 11
6261.9467255315
 21
5601.8353541445
 31
0.0
  0
LINE
  5
3EC
330
1F
100
AcDbEntity
  8
0
  6
SLD-Plná
 62
     7
370
    25
100
AcDbLine
 10
6261.9634474086
 20
5601.9726012203
 30
0.0
 11
6261.9435715776
 21
5601.8363668382
 31
0.0
  0
LINE
  5
3ED
330
1F
100
AcDbEntity
  8
0
  6
SLD-Plná
 62
     7
370
    25
100
AcDbLine
 10
6261.5469104415
 20
5601.9826050491
 30
0.0
 11
6261.5470503379
 21
5601.9835690496
 31
0.0
  0
LINE
  5
3EE
330
1F
100
AcDbEntity
  8
0
  6
SLD-Plná
 62
     7
370
    25
100
AcDbLine
 10
6279.559706957
 20
5600.7142060464
 30
0.0
 11
6279.5475256816
 21
5600.8448517735
 31
0.0
  0
LINE
  5
3EF
330
1F
100
AcDbEntity
  8
0
  6
SLD-Plná
 62
     7
370
    25
100
AcDbLine
 10
6285.7760626676
 20
5601.871852349
 30
0.0
 11
6285.7954596751
 21
5601.7351522417
 31
0.0
  0
LINE
  5
3F0
330
1F
100
AcDbEntity
  8
0
  6
SLD-Plná
 62
     7
370
    25
100
AcDbLine
 10
6285.7987313687
 20
5601.7361379377
 30
0.0
 11
6285.7794041979
 21
5601.8719140509
 31
0.0
  0
LINE
  5
3F1
330
1F
100
AcDbEntity
  8
0
  6
SLD-Plná
 62
     7
370
    25
100
AcDbLine
 10
6286.213387298
 20
5601.879927618
 30
0.0
 11
6286.2135232965
 21
5601.8789667793
 31
0.0
  0
LINE
  5
3F2
330
1F
100
AcDbEntity
  8
0
  6
SLD-Plná
 62
     7
370
    25
100
AcDbLine
 10
6269.1880476724
 20
5600.7361237465
 30
0.0
 11
6269.1782730046
 21
5600.6170917581
 31
0.0
  0
LINE
  5
3F3
330
1F
100
AcDbEntity
  8
0
  6
SLD-Plná
 62
     7
370
    25
100
AcDbLine
 10
6277.4629392111
 20
5600.4697836049
 30
0.0
 11
6277.4593634803
 21
5600.5293674107
 31
0.0
  0
LINE
  5
3F4
330
1F
100
AcDbEntity
  8
0
  6
SLD-Plná
 62
     7
370
    25
100
AcDbLine
 10
6275.2156441028
 20
5600.3435326088
 30
0.0
 11
6275.2146904982
 21
5600.382466163
 31
0.0
  0
LINE
  5
3F5
330
1F
100
AcDbEntity
  8
0
  6
SLD-Plná
 62
     7
370
    25
100
AcDbLine
 10
6263.5054168633
 20
5601.5119607414
 30
0.0
 11
6263.4880181141
 21
5601.3749470678
 31
0.0
  0
LINE
  5
3F6
330
1F
100
AcDbEntity
  8
0
  6
SLD-Plná
 62
     7
370
    25
100
AcDbLine
 10
6263.5016770905
 20
5601.5119099981
 30
0.0
 11
6263.484327534
 21
5601.3758203417
 31
0.0
  0
LINE
  5
3F7
330
1F
100
AcDbEntity
  8
0
  6
SLD-Plná
 62
     7
370
    25
100
AcDbLine
 10
6263.0041611877
 20
5601.5041980147
 30
0.0
 11
6263.0042830855
 21
5601.5051610847
 31
0.0
  0
LINE
  5
3F8
330
1F
100
AcDbEntity
  8
0
  6
SLD-Plná
 62
     7
370
    25
100
AcDbLine
 10
6284.1803250025
 20
5601.425675668
 30
0.0
 11
6284.1972393697
 21
5601.2879360188
 31
0.0
  0
LINE
  5
3F9
330
1F
100
AcDbEntity
  8
0
  6
SLD-Plná
 62
     7
370
    25
100
AcDbLine
 10
6284.2010299221
 20
5601.2887778603
 30
0.0
 11
6284.184159455
 21
5601.4255891699
 31
0.0
  0
LINE
  5
3FA
330
1F
100
AcDbEntity
  8
0
  6
SLD-Plná
 62
     7
370
    25
100
AcDbLine
 10
6284.696924695
 20
5601.4140221436
 30
0.0
 11
6284.6970431615
 21
5601.4130540556
 31
0.0
  0
LINE
  5
3FB
330
1F
100
AcDbEntity
  8
0
  6
SLD-Plná
 62
     7
370
    25
100
AcDbLine
 10
6265.30382009
 20
5601.1265023849
 30
0.0
 11
6265.2886123967
 21
5600.9826125576
 31
0.0
  0
LINE
  5
3FC
330
1F
100
AcDbEntity
  8
0
  6
SLD-Plná
 62
     7
370
    25
100
AcDbLine
 10
6282.3341368413
 20
5601.0520898756
 30
0.0
 11
6282.348391007
 21
5600.9109348632
 31
0.0
  0
LINE
  5
3FD
330
1F
100
AcDbEntity
  8
0
  6
SLD-Plná
 62
     7
370
    25
100
AcDbLine
 10
6265.2996604376
 20
5601.1262488414
 30
0.0
 11
6265.2844760646
 21
5600.9833264013
 31
0.0
  0
LINE
  5
3FE
330
1F
100
AcDbEntity
  8
0
  6
SLD-Plná
 62
     7
370
    25
100
AcDbLine
 10
6264.7326277971
 20
5601.0906824519
 30
0.0
 11
6264.7327341131
 21
5601.0916929641
 31
0.0
  0
LINE
  5
3FF
330
1F
100
AcDbEntity
  8
0
  6
SLD-Plná
 62
     7
370
    25
100
AcDbLine
 10
6282.3526070822
 20
5600.9116136137
 30
0.0
 11
6282.3382664201
 21
5601.0528402137
 31
0.0
  0
LINE
  5
400
330
1F
100
AcDbEntity
  8
0
  6
SLD-Plná
 62
     7
370
    25
100
AcDbLine
 10
6282.91752471
 20
5601.0153063354
 30
0.0
 11
6282.917628141
 21
5601.0142770702
 31
0.0
  0
LINE
  5
401
330
1F
100
AcDbEntity
  8
0
  6
SLD-Plná
 62
     7
370
    25
100
AcDbLine
 10
6267.3139770551
 20
5600.7874747611
 30
0.0
 11
6267.3041717721
 21
5600.6680111917
 31
0.0
  0
LINE
  5
402
330
1F
100
AcDbEntity
  8
0
  6
SLD-Plná
 62
     7
370
    25
100
AcDbLine
 10
6280.2855926745
 20
5600.7283871979
 30
0.0
 11
6280.2944393696
 21
5600.6134317946
 31
0.0
  0
LINE
  5
403
330
1F
100
AcDbEntity
  8
0
  6
SLD-Plná
 62
     7
370
    25
100
AcDbLine
 10
6267.3095728756
 20
5600.7880790647
 30
0.0
 11
6267.2996915383
 21
5600.6685495202
 31
0.0
  0
LINE
  5
404
330
1F
100
AcDbEntity
  8
0
  6
SLD-Plná
 62
     7
370
    25
100
AcDbLine
 10
6266.6897496854
 20
5600.7522404863
 30
0.0
 11
6266.6898431889
 21
5600.7533871685
 31
0.0
  0
LINE
  5
405
330
1F
100
AcDbEntity
  8
0
  6
SLD-Plná
 62
     7
370
    25
100
AcDbLine
 10
6280.2989771538
 20
5600.6139322334
 30
0.0
 11
6280.2900567609
 21
5600.7289524671
 31
0.0
  0
LINE
  5
406
330
1F
100
AcDbEntity
  8
0
  6
SLD-Plná
 62
     7
370
    25
100
AcDbLine
 10
6280.919002113
 20
5600.6936488869
 30
0.0
 11
6280.9190933384
 21
5600.6924550361
 31
0.0
  0
LINE
  5
407
330
1F
100
AcDbEntity
  8
0
  6
SLD-Plná
 62
     7
370
    25
100
AcDbLine
 10
6269.490807178
 20
5600.5401591033
 30
0.0
 11
6269.4850664792
 21
5600.4388894998
 31
0.0
  0
LINE
  5
408
330
1F
100
AcDbEntity
  8
0
  6
SLD-Plná
 62
     7
370
    25
100
AcDbLine
 10
6278.080906992
 20
5600.5013022419
 30
0.0
 11
6278.0859595634
 21
5600.4027523259
 31
0.0
  0
LINE
  5
409
330
1F
100
AcDbEntity
  8
0
  6
SLD-Plná
 62
     7
370
    25
100
AcDbLine
 10
6271.7792272068
 20
5600.3551305211
 30
0.0
 11
6271.7775956525
 21
5600.3008892183
 31
0.0
  0
LINE
  5
40A
330
1F
100
AcDbEntity
  8
0
  6
SLD-Plná
 62
     7
370
    25
100
AcDbLine
 10
6275.7764370034
 20
5600.3206300251
 30
0.0
 11
6275.7773316909
 21
5600.2840840848
 31
0.0
  0
LINE
  5
40B
330
1F
100
AcDbEntity
  8
0
  6
SLD-Plná
 62
     7
370
    25
100
AcDbLine
 10
6269.4861593297
 20
5600.5405716704
 30
0.0
 11
6269.480352662
 21
5600.4392405501
 31
0.0
  0
LINE
  5
40C
330
1F
100
AcDbEntity
  8
0
  6
SLD-Plná
 62
     7
370
    25
100
AcDbLine
 10
6268.8273360163
 20
5600.4972056823
 30
0.0
 11
6268.8274197094
 21
5600.4986972903
 31
0.0
  0
LINE
  5
40D
330
1F
100
AcDbEntity
  8
0
  6
SLD-Plná
 62
     7
370
    25
100
AcDbLine
 10
6274.1253360915
 20
5600.266766122
 30
0.0
 11
6274.1253096152
 21
5600.2574083722
 31
0.0
  0
LINE
  5
40E
330
1F
100
AcDbEntity
  8
0
  6
SLD-Plná
 62
     7
370
    25
100
AcDbLine
 10
6278.7505672697
 20
5600.4571310138
 30
0.0
 11
6278.7506493133
 21
5600.4555122797
 31
0.0
  0
LINE
  5
40F
330
1F
100
AcDbEntity
  8
0
  6
SLD-Plná
 62
     7
370
    25
100
AcDbLine
 10
6278.0907073214
 20
5600.4030636228
 30
0.0
 11
6278.085590464
 21
5600.5016744592
 31
0.0
  0
LINE
  5
410
330
1F
100
AcDbEntity
  8
0
  6
SLD-Plná
 62
     7
370
    25
100
AcDbLine
 10
6271.7755593276
 20
5600.3920634255
 30
0.0
 11
6271.7727643217
 21
5600.3010458387
 31
0.0
  0
LINE
  5
411
330
1F
100
AcDbEntity
  8
0
  6
SLD-Plná
 62
     7
370
    25
100
AcDbLine
 10
6271.0927523203
 20
5600.3318578431
 30
0.0
 11
6271.0928290812
 21
5600.3344624545
 31
0.0
  0
LINE
  5
412
330
1F
100
AcDbEntity
  8
0
  6
SLD-Plná
 62
     7
370
    25
100
AcDbLine
 10
6276.4656148035
 20
5600.3124484617
 30
0.0
 11
6276.4656903543
 21
5600.3092831181
 31
0.0
  0
SPLINE
  5
413
330
1F
100
AcDbEntity
  8
0
  6
SLD-Plná
 62
     7
370
    25
100
AcDbSpline
210
0.0
220
0.0
230
1.0
 70
     8
 71
     3
 72
    27
 73
    23
 74
     0
 42
0.00000001
 43
0.00000001
 40
0.0
 40
0.0
 40
0.0
 40
0.0
 40
0.054247471862399
 40
0.1084924759466528
 40
0.1627638191756489
 40
0.2170330697210211
 40
0.2709373488657701
 40
0.3248402238814684
 40
0.3783684364516107
 40
0.4318959315624534
 40
0.4851947663221154
 40
0.5384935159778269
 40
0.5917015758984124
 40
0.6449101625929464
 40
0.698159187472502
 40
0.7514093670547144
 40
0.8048327208231977
 40
0.8582578695460652
 40
0.9119961834907234
 40
0.965736815345614
 40
0.9732020684410322
 40
1.0
 40
1.0
 40
1.0
 40
1.0
 10
6252.718755336101
 20
5607.095013066939
 30
0.0
 10
6252.778842928922
 20
5607.40744160486
 30
0.0
 10
6252.899015381116
 20
5608.032284467979
 30
0.0
 10
6253.840255622546
 20
5608.944796737675
 30
0.0
 10
6255.332376354153
 20
5609.804261042324
 30
0.0
 10
6257.363946803376
 20
5610.586593879872
 30
0.0
 10
6259.880175971004
 20
5611.265500880438
 30
0.0
 10
6262.785205241201
 20
5611.825201120359
 30
0.0
 10
6266.012982912142
 20
5612.246362483284
 30
0.0
 10
6269.453193572617
 20
5612.523269643315
 30
0.0
 10
6273.02144273812
 20
5612.643241203225
 30
0.0
 10
6276.610399724621
 20
5612.61003104169
 30
0.0
 10
6280.12204845225
 20
5612.418613526334
 30
0.0
 10
6283.463043657096
 20
5612.081101711686
 30
0.0
 10
6286.53184498367
 20
5611.601079443415
 30
0.0
 10
6289.257785406153
 20
5610.997168170024
 30
0.0
 10
6291.546969324313
 20
5610.28161933007
 30
0.0
 10
6293.356815727729
 20
5609.477083343962
 30
0.0
 10
6294.613017164899
 20
5608.603822413506
 30
0.0
 10
6295.100136680523
 20
5607.950597241384
 30
0.0
 10
6295.288452018834
 20
5607.44641263041
 30
0.0
 10
6295.305456099655
 20
5607.249232020598
 30
0.0
 10
6295.3187553361
 20
5607.095013066939
 30
0.0
  0
ARC
  5
414
330
1F
100
AcDbEntity
  8
0
  6
SLD-Plná
 62
     7
370
    25
100
AcDbCircle
 10
6295.0729420422
 20
5607.0993474641
 30
0.0
 40
0.2458515048577688
100
AcDbArc
 50
269.0242395009
 51
358.9898148909
  0
SPLINE
  5
415
330
1F
100
AcDbEntity
  8
0
  6
SLD-Plná
 62
     7
370
    25
100
AcDbSpline
210
0.0
220
0.0
230
1.0
 70
     8
 71
     3
 72
    26
 73
    22
 74
     0
 42
0.00000001
 43
0.00000001
 40
0.0
 40
0.0
 40
0.0
 40
0.0
 40
0.0342606027776211
 40
0.0880064367437456
 40
0.141749892535011
 40
0.1951758895507013
 40
0.2486000567205617
 40
0.3018482974030486
 40
0.3550953653517241
 40
0.4083005316905499
 40
0.4615051640805616
 40
0.5148001066039615
 40
0.5680951353472524
 40
0.6216194806405586
 40
0.6751445534541368
 40
0.7290461137268707
 40
0.7829491013151686
 40
0.8372203309235471
 40
0.8914936973078244
 40
0.9457455790115247
 40
1.0
 40
1.0
 40
1.0
 40
1.0
 10
6295.068755336101
 20
5606.853531610366
 30
0.0
 10
6295.045069631115
 20
5607.049617543061
 30
0.0
 10
6294.984227312867
 20
5607.553310497446
 30
0.0
 10
6294.365217065738
 20
5608.353497965489
 30
0.0
 10
6293.131522829739
 20
5609.220881269504
 30
0.0
 10
6291.340847856155
 20
5610.019469212485
 30
0.0
 10
6289.07909444726
 20
5610.729457637957
 30
0.0
 10
6286.384983320148
 20
5611.328486914816
 30
0.0
 10
6283.352240653303
 20
5611.804515320221
 30
0.0
 10
6280.050430131466
 20
5612.139169635905
 30
0.0
 10
6276.579992414077
 20
5612.32894413903
 30
0.0
 10
6273.033145013016
 20
5612.361870718608
 30
0.0
 10
6269.506761513679
 20
5612.242927923238
 30
0.0
 10
6266.106922624148
 20
5611.968383734954
 30
0.0
 10
6262.91701010533
 20
5611.550753975434
 30
0.0
 10
6260.046080642327
 20
5610.995643008524
 30
0.0
 10
6257.559367332159
 20
5610.322105601697
 30
0.0
 10
6255.55165698706
 20
5609.545681892106
 30
0.0
 10
6254.077044825632
 20
5608.692267050263
 30
0.0
 10
6253.146881403708
 20
5607.785677439589
 30
0.0
 10
6253.028131618305
 20
5607.164251734347
 30
0.0
 10
6252.9687553361
 20
5606.853531610366
 30
0.0
  0
ARC
  5
416
330
1F
100
AcDbEntity
  8
0
  6
SLD-Plná
 62
     7
370
    25
100
AcDbCircle
 10
6252.96456863
 20
5607.0993474641
 30
0.0
 40
0.2458515048577688
100
AcDbArc
 50
181.0101851091
 51
270.9757604993
  0
SPLINE
  5
417
330
1F
100
AcDbEntity
  8
0
  6
SLD-Plná
 62
     7
370
    25
100
AcDbSpline
210
0.0
220
0.0
230
1.0
 70
     8
 71
     3
 72
    27
 73
    23
 74
     0
 42
0.00000001
 43
0.00000001
 40
0.0
 40
0.0
 40
0.0
 40
0.0
 40
0.0536976313183447
 40
0.1089385993527418
 40
0.1626484602818257
 40
0.2179451647140256
 40
0.2711442355135988
 40
0.3259159210609147
 40
0.3786036057020631
 40
0.4328370725481769
 40
0.4852167006935748
 40
0.5391221399753178
 40
0.5913841017936824
 40
0.6451581953998748
 40
0.6974828361315379
 40
0.7513112257910531
 40
0.803881012255509
 40
0.8579511037309001
 40
0.9109583967731409
 40
0.9654685422011501
 40
0.9729262056843024
 40
1.0
 40
1.0
 40
1.0
 40
1.0
 10
6295.3187553361
 20
5648.469303410893
 30
0.0
 10
6295.261301092234
 20
5649.67357624162
 30
0.0
 10
6295.144741298066
 20
5652.116734202169
 30
0.0
 10
6294.202560101316
 20
5655.664164379363
 30
0.0
 10
6292.705391151142
 20
5659.039743470661
 30
0.0
 10
6290.670475733122
 20
5662.074222120868
 30
0.0
 10
6288.137986667122
 20
5664.735846142402
 30
0.0
 10
6285.23571159041
 20
5666.895292037955
 30
0.0
 10
6281.990706914085
 20
5668.541749973259
 30
0.0
 10
6278.564065426209
 20
5669.600981861321
 30
0.0
 10
6274.982349306143
 20
5670.070320696652
 30
0.0
 10
6271.415582027095
 20
5669.931883522626
 30
0.0
 10
6267.893630005054
 20
5669.189800098237
 30
0.0
 10
6264.577798004671
 20
5667.880198005781
 30
0.0
 10
6261.499186080467
 20
5666.016288367126
 30
0.0
 10
6258.79487382255
 20
5663.681035101349
 30
0.0
 10
6256.493883824017
 20
5660.898103393443
 30
0.0
 10
6254.697254849456
 20
5657.785702917135
 30
0.0
 10
6253.427130321314
 20
5654.379026399404
 30
0.0
 10
6252.940869120414
 20
5651.835683559231
 30
0.0
 10
6252.749427105229
 20
5649.849958341488
 30
0.0
 10
6252.732234725279
 20
5649.076062840144
 30
0.0
 10
6252.718755336101
 20
5648.469303410893
 30
0.0
  0
LINE
  5
418
330
1F
100
AcDbEntity
  8
0
  6
SLD-Plná
 62
     7
370
    25
100
AcDbLine
 10
6295.3187553361
 20
5607.0950130669
 30
0.0
 11
6295.3187553361
 21
5648.4693034109
 31
0.0
  0
LINE
  5
419
330
1F
100
AcDbEntity
  8
0
  6
SLD-Plná
 62
     7
370
    25
100
AcDbLine
 10
6252.7187553361
 20
5607.0950130669
 30
0.0
 11
6252.7187553361
 21
5648.4693034109
 31
0.0
  0
SPLINE
  5
41A
330
1F
100
AcDbEntity
  8
0
  6
SLD-Plná
 62
     7
370
    25
100
AcDbSpline
210
0.0
220
0.0
230
1.0
 70
    11
 71
     3
 72
    33
 73
    29
 74
     0
 42
0.00000001
 43
0.00000001
 40
0.0
 40
0.0
 40
0.0
 40
0.0
 40
0.0058094148111157
 40
0.0396466408786359
 40
0.0526673701034567
 40
0.0612748360272019
 40
0.0699615775517255
 40
0.0774851399880761
 40
0.0898056375296013
 40
0.1141553906580348
 40
0.1956683288696365
 40
0.2887332701037649
 40
0.3818134030815347
 40
0.4589287961762505
 40
0.5106248725148207
 40
0.5299546537540502
 40
0.5441981966319127
 40
0.5585922801173291
 40
0.5695404010297568
 40
0.5804714220793389
 40
0.5961737037965497
 40
0.623047079202097
 40
0.6802474928126535
 40
0.7477499913162432
 40
0.8154135152312852
 40
0.893890396179568
 40
0.9722056540268562
 40
1.0
 40
1.0
 40
1.0
 40
1.0
 10
6272.527393904254
 20
5667.933863197967
 30
0.0
 10
6272.554865491338
 20
5667.951625665517
 30
0.0
 10
6272.742346706388
 20
5668.072846510473
 30
0.0
 10
6273.045935059159
 20
5668.225556727682
 30
0.0
 10
6273.523751202395
 20
5668.344567893681
 30
0.0
 10
6273.844718742623
 20
5668.383330580027
 30
0.0
 10
6274.133758094061
 20
5668.385935730218
 30
0.0
 10
6274.444075390405
 20
5668.356004307479
 30
0.0
 10
6274.847434055361
 20
5668.268268701714
 30
0.0
 10
6275.613312317185
 20
5667.947193202764
 30
0.0
 10
6276.274785210388
 20
5667.279580249962
 30
0.0
 10
6276.737802044141
 20
5666.275049834931
 30
0.0
 10
6276.718638101293
 20
5665.193407988538
 30
0.0
 10
6276.321789023182
 20
5664.241486399537
 30
0.0
 10
6275.714075394748
 20
5663.613247811768
 30
0.0
 10
6275.14367404918
 20
5663.297073428473
 30
0.0
 10
6274.735591698644
 20
5663.149587581091
 30
0.0
 10
6274.320995019749
 20
5663.06958764979
 30
0.0
 10
6273.902385214081
 20
5663.057947647791
 30
0.0
 10
6273.485407602686
 20
5663.105673480964
 30
0.0
 10
6272.979640518891
 20
5663.248867433353
 30
0.0
 10
6272.296691349633
 20
5663.619291195404
 30
0.0
 10
6271.71286074765
 20
5664.265948539495
 30
0.0
 10
6271.356957748244
 20
5665.087702058691
 30
0.0
 10
6271.30464343767
 20
5665.974193615413
 30
0.0
 10
6271.518215379357
 20
5666.84787299876
 30
0.0
 10
6271.961714405276
 20
5667.510248291118
 30
0.0
 10
6272.409976219946
 20
5667.845933758256
 30
0.0
 10
6272.527393904254
 20
5667.933863197967
 30
0.0
  0
LWPOLYLINE
  5
41B
330
1F
100
AcDbEntity
  8
0
  6
SLD-Plná
 62
     7
370
    25
100
AcDbPolyline
 90
       18
 70
   128
 43
0.0
 10
6274.0187553361
 20
5611.8352465014
 10
6276.6753360099
 20
5611.7882151737
 10
6279.2824296122
 20
5611.6479972953
 10
6281.791470922
 20
5611.4172048598
 10
6284.155721247
 20
5611.1001370937
 10
6286.3311390769
 20
5610.7027003696
 10
6288.2772004937
 20
5610.2322981817
 10
6289.9576540552
 20
5609.6976932326
 10
6291.3411960911
 20
5609.1088442012
 10
6292.402053831
 20
5608.4767202306
 10
6293.1204655026
 20
5607.8130965944
 10
6293.4830484555
 20
5607.1303353454
 10
6293.4830484555
 20
5606.4411550338
 10
6293.1204655026
 20
5605.7583937848
 10
6292.402053831
 20
5605.0947701487
 10
6291.3411960911
 20
5604.4626461781
 10
6289.9576540552
 20
5603.8737971466
 10
6288.8370494562
 20
5603.5011951016
  0
LWPOLYLINE
  5
41C
330
1F
100
AcDbEntity
  8
0
  6
SLD-Plná
 62
     7
370
    25
100
AcDbPolyline
 90
       18
 70
   128
 43
0.0
 10
6259.1922196764
 20
5603.5036874497
 10
6258.079856617
 20
5603.8737971466
 10
6256.6963145811
 20
5604.4626461781
 10
6255.6354568412
 20
5605.0947701487
 10
6254.9170451696
 20
5605.7583937848
 10
6254.5544622167
 20
5606.4411550338
 10
6254.5544622167
 20
5607.1303353454
 10
6254.9170451696
 20
5607.8130965944
 10
6255.6354568412
 20
5608.4767202306
 10
6256.6963145811
 20
5609.1088442012
 10
6258.079856617
 20
5609.6976932326
 10
6259.7603101785
 20
5610.2322981817
 10
6261.7063715953
 20
5610.7027003696
 10
6263.8817894252
 20
5611.1001370937
 10
6266.2460397502
 20
5611.4172048598
 10
6268.75508106
 20
5611.6479972953
 10
6271.3621746623
 20
5611.7882151737
 10
6274.0187553361
 20
5611.8352465014
  0
ARC
  5
41D
330
1F
100
AcDbEntity
  8
0
  6
SLD-Plná
 62
     7
370
    25
100
AcDbCircle
 10
6274.0187553361
 20
5801.4497555129
 30
0.0
 40
199.7500000000003
100
AcDbArc
 50
263.9508400665
 51
266.3301187995
  0
ARC
  5
41E
330
1F
100
AcDbEntity
  8
0
  6
SLD-Plná
 62
     7
370
    25
100
AcDbCircle
 10
6274.0187553361
 20
5801.4497555129
 30
0.0
 40
199.7500000000004
100
AcDbArc
 50
273.6698812005
 51
276.0491599335
  0
LINE
  5
41F
330
1F
100
AcDbEntity
  8
0
  6
SLD-Plná
 62
     7
370
    25
100
AcDbLine
 10
6252.9687553361
 20
5606.8535316104
 30
0.0
 11
6252.9687553361
 21
5602.8119947522
 31
0.0
  0
LINE
  5
420
330
1F
100
AcDbEntity
  8
0
  6
SLD-Plná
 62
     7
370
    25
100
AcDbLine
 10
6295.0687553361
 20
5602.8119947522
 30
0.0
 11
6295.0687553361
 21
5606.8535316104
 31
0.0
  0
LWPOLYLINE
  5
421
330
1F
100
AcDbEntity
  8
0
  6
SLD-Plná
 62
     7
370
    25
100
AcDbPolyline
 90
        7
 70
   128
 43
0.0
 10
6254.7766949149
 20
5607.2208553234
 10
6254.8000902014
 20
5606.6450522016
 10
6255.1580975697
 20
5605.9709069998
 10
6255.8674433065
 20
5605.3156579055
 10
6256.9149136428
 20
5604.6915109694
 10
6258.2809961882
 20
5604.110092868
 10
6259.037968986
 20
5603.8508970561
  0
LWPOLYLINE
  5
422
330
1F
100
AcDbEntity
  8
0
  6
SLD-Plná
 62
     7
370
    25
100
AcDbPolyline
 90
        9
 70
   128
 43
0.0
 10
6288.9749371282
 20
5603.8430358786
 10
6289.756514484
 20
5604.110092868
 10
6291.1225970294
 20
5604.6915109694
 10
6292.1700673657
 20
5605.3156579055
 10
6292.8794131025
 20
5605.9709069998
 10
6293.2374204708
 20
5606.6450522016
 10
6293.2374204708
 20
5607.3255354611
 10
6292.8794131025
 20
5607.9996806628
 10
6292.3867837797
 20
5608.4877996842
  0
SPLINE
  5
423
330
1F
100
AcDbEntity
  8
0
  6
SLD-Plná
 62
     7
370
    25
100
AcDbSpline
210
0.0
220
0.0
230
1.0
 70
     8
 71
     3
 72
     9
 73
     5
 74
     0
 42
0.00000001
 43
0.00000001
 40
0.0
 40
0.0
 40
0.0
 40
0.0
 40
0.0389714220265245
 40
1.0
 40
1.0
 40
1.0
 40
1.0
 10
6295.068755336101
 20
5602.811994752242
 30
0.0
 10
6295.069665298452
 20
5602.811839075566
 30
0.0
 10
6295.093014776202
 20
5602.807844438797
 30
0.0
 10
6295.116109162082
 20
5602.808663819079
 30
0.0
 10
6295.138303526902
 20
5602.809451266947
 30
0.0
  0
LINE
  5
424
330
1F
100
AcDbEntity
  8
0
  6
SLD-Plná
 62
     7
370
    25
100
AcDbLine
 10
6295.3187553361
 20
5607.0950130669
 30
0.0
 11
6295.3187553361
 21
5602.8286965049
 31
0.0
  0
SPLINE
  5
425
330
1F
100
AcDbEntity
  8
0
  6
SLD-Plná
 62
     7
370
    25
100
AcDbSpline
210
0.0
220
0.0
230
1.0
 70
     8
 71
     3
 72
    11
 73
     7
 74
     0
 42
0.00000001
 43
0.00000001
 40
0.0
 40
0.0
 40
0.0
 40
0.0
 40
0.5628476725646971
 40
0.7626760961576581
 40
0.9252042314347472
 40
1.0
 40
1.0
 40
1.0
 40
1.0
 10
6295.3187553361
 20
5602.828696504938
 30
0.0
 10
6295.314070993551
 20
5602.828192933594
 30
0.0
 10
6295.307723563753
 20
5602.827510578766
 30
0.0
 10
6295.245430330416
 20
5602.820856073517
 30
0.0
 10
6295.203175961067
 20
5602.816345882859
 30
0.0
 10
6295.153849434453
 20
5602.811103479678
 30
0.0
 10
6295.138303526902
 20
5602.809451266947
 30
0.0
  0
SPLINE
  5
426
330
1F
100
AcDbEntity
  8
0
  6
SLD-Plná
 62
     7
370
    25
100
AcDbSpline
210
0.0
220
0.0
230
1.0
 70
     8
 71
     3
 72
    10
 73
     6
 74
     0
 42
0.00000001
 43
0.00000001
 40
0.0
 40
0.0
 40
0.0
 40
0.0
 40
0.0734549670390338
 40
0.2670117792468332
 40
1.0
 40
1.0
 40
1.0
 40
1.0
 10
6252.899207145299
 20
5602.809451266947
 30
0.0
 10
6252.883977992927
 20
5602.81106981021
 30
0.0
 10
6252.828619407453
 20
5602.816953280502
 30
0.0
 10
6252.738729425692
 20
5602.826554556406
 30
0.0
 10
6252.727577559071
 20
5602.827750441917
 30
0.0
 10
6252.718755336101
 20
5602.828696504938
 30
0.0
  0
LINE
  5
427
330
1F
100
AcDbEntity
  8
0
  6
SLD-Plná
 62
     7
370
    25
100
AcDbLine
 10
6252.7187553361
 20
5602.8286965049
 30
0.0
 11
6252.7187553361
 21
5607.0950130669
 31
0.0
  0
SPLINE
  5
428
330
1F
100
AcDbEntity
  8
0
  6
SLD-Plná
 62
     7
370
    25
100
AcDbSpline
210
0.0
220
0.0
230
1.0
 70
     8
 71
     3
 72
     9
 73
     5
 74
     0
 42
0.00000001
 43
0.00000001
 40
0.0
 40
0.0
 40
0.0
 40
0.0
 40
0.9610285779737077
 40
1.0
 40
1.0
 40
1.0
 40
1.0
 10
6252.899207145299
 20
5602.809451266947
 30
0.0
 10
6252.921401510121
 20
5602.808663819079
 30
0.0
 10
6252.944495896002
 20
5602.807844438796
 30
0.0
 10
6252.96784537375
 20
5602.811839075566
 30
0.0
 10
6252.9687553361
 20
5602.811994752242
 30
0.0
  0
ARC
  5
429
330
1F
100
AcDbEntity
  8
0
  6
SLD-Plná
 62
     7
370
    25
100
AcDbCircle
 10
6274.0187553361
 20
5801.6912369695
 30
0.0
 40
200.0000000000001
100
AcDbArc
 50
273.658011944
 51
276.0616060568
  0
ARC
  5
42A
330
1F
100
AcDbEntity
  8
0
  6
SLD-Plná
 62
     7
370
    25
100
AcDbCircle
 10
6274.0187553361
 20
5801.6912369695
 30
0.0
 40
200.0
100
AcDbArc
 50
263.9383939432
 51
266.341988056
  0
SPLINE
  5
42B
330
1F
100
AcDbEntity
  8
0
  6
SLD-Plná
 62
     7
370
    25
100
AcDbSpline
210
0.0
220
0.0
230
1.0
 70
    11
 71
     3
 72
    34
 73
    30
 74
     0
 42
0.00000001
 43
0.00000001
 40
0.0
 40
0.0
 40
0.0
 40
0.0
 40
0.0279752105183374
 40
0.1073860684236823
 40
0.1869376595928058
 40
0.2554433538084812
 40
0.3238083597360799
 40
0.3810294576678478
 40
0.4073102015373189
 40
0.4222339142632954
 40
0.4323855330242282
 40
0.442488106516065
 40
0.4559877549707422
 40
0.4696838387502465
 40
0.4886376052938052
 40
0.5402903251127652
 40
0.6182253104822862
 40
0.7126647472578267
 40
0.8070906369405334
 40
0.8892047263417555
 40
0.913193481615525
 40
0.9249806973941727
 40
0.931994222016896
 40
0.9389379714864899
 40
0.9400286640583284
 40
0.9480918458337352
 40
0.9606283853623024
 40
0.994177699196036
 40
1.0
 40
1.0
 40
1.0
 40
1.0
 10
6272.683941277514
 20
5667.485797429553
 30
0.0
 10
6272.578819089298
 20
5667.406444805079
 30
0.0
 10
6272.175295459358
 20
5667.10184061432
 30
0.0
 10
6271.779646953059
 20
5666.505347073847
 30
0.0
 10
6271.590143879742
 20
5665.718526917017
 30
0.0
 10
6271.635245845841
 20
5664.920129302103
 30
0.0
 10
6271.953194694794
 20
5664.180258913179
 30
0.0
 10
6272.471215130154
 20
5663.597586075799
 30
0.0
 10
6273.081819671809
 20
5663.260743945619
 30
0.0
 10
6273.536652615759
 20
5663.129482165487
 30
0.0
 10
6273.913376321024
 20
5663.085480257581
 30
0.0
 10
6274.292794508647
 20
5663.096283362537
 30
0.0
 10
6274.665041992617
 20
5663.169684836073
 30
0.0
 10
6275.028834769194
 20
5663.303037365316
 30
0.0
 10
6275.541382385176
 20
5663.590706922679
 30
0.0
 10
6276.081772119465
 20
5664.158201303902
 30
0.0
 10
6276.435267258028
 20
5665.015413111372
 30
0.0
 10
6276.453422628805
 20
5665.989586444078
 30
0.0
 10
6276.038086681972
 20
5666.893450680134
 30
0.0
 10
6275.452924819021
 20
5667.49333133446
 30
0.0
 10
6274.766177973088
 20
5667.78550674272
 30
0.0
 10
6274.403260824211
 20
5667.865855121476
 30
0.0
 10
6274.134371493175
 20
5667.89221571397
 30
0.0
 10
6273.964225765536
 20
5667.892005530524
 30
0.0
 10
6273.791331508465
 20
5667.882243252961
 30
0.0
 10
6273.571197092399
 20
5667.855387005294
 30
0.0
 10
6273.141498263895
 20
5667.746376788763
 30
0.0
 10
6272.874801188245
 20
5667.610071097686
 30
0.0
 10
6272.708529627535
 20
5667.501807520088
 30
0.0
 10
6272.683941277514
 20
5667.485797429553
 30
0.0
  0
SPLINE
  5
42C
330
1F
100
AcDbEntity
  8
0
  6
SLD-Plná
 62
     7
370
    25
100
AcDbSpline
210
0.0
220
0.0
230
1.0
 70
     8
 71
     3
 72
     9
 73
     5
 74
     0
 42
0.00000001
 43
0.00000001
 40
0.0
 40
0.0
 40
0.0
 40
0.0
 40
0.9935187911756564
 40
1.0
 40
1.0
 40
1.0
 40
1.0
 10
6272.650560732921
 20
5667.459322307121
 30
0.0
 10
6272.863813083913
 20
5667.60698257304
 30
0.0
 10
6273.078456584251
 20
5667.755606099068
 30
0.0
 10
6273.328061589747
 20
5667.7891677043
 30
0.0
 10
6273.329679331912
 20
5667.789385224072
 30
0.0
  0
LINE
  5
42D
330
1F
100
AcDbEntity
  8
0
  6
SLD-Plná
 62
     8
370
    25
100
AcDbLine
 10
6344.9072842889
 20
4693.9898337203
 30
0.0
 11
6344.190439311
 21
4693.9898337203
 31
0.0
  0
LINE
  5
42E
330
1F
100
AcDbEntity
  8
0
  6
SLD-Plná
 62
     8
370
    25
100
AcDbLine
 10
6203.8470713612
 20
4693.9898337203
 30
0.0
 11
6203.1302263833
 21
4693.9898337203
 31
0.0
  0
ARC
  5
42F
330
1F
100
AcDbEntity
  8
0
  6
SLD-Plná
 62
     7
370
    25
100
AcDbCircle
 10
6592.8756733644
 20
4690.9898337203
 30
0.0
 40
2.660714285713766
100
AcDbArc
 50
180.0
 51
249.9840403971
  0
ARC
  5
430
330
1F
100
AcDbEntity
  8
0
  6
SLD-Plná
 62
     7
370
    25
100
AcDbCircle
 10
6597.054244793
 20
4690.9898337203
 30
0.0
 40
2.660714285713766
100
AcDbArc
 50
290.0159596029
 51
0.0
  0
ARC
  5
431
330
1F
100
AcDbEntity
  8
0
  6
SLD-Plná
 62
     7
370
    25
100
AcDbCircle
 10
6657.8756733644
 20
4690.9898337203
 30
0.0
 40
2.660714285713766
100
AcDbArc
 50
180.0
 51
249.9840403971
  0
ARC
  5
432
330
1F
100
AcDbEntity
  8
0
  6
SLD-Plná
 62
     7
370
    25
100
AcDbCircle
 10
6662.054244793
 20
4690.9898337203
 30
0.0
 40
2.660714285714675
100
AcDbArc
 50
290.0159596029
 51
0.0
  0
LINE
  5
433
330
1F
100
AcDbEntity
  8
0
  6
SLD-Plná
 62
     7
370
    25
100
AcDbLine
 10
6673.033042264
 20
5667.9499710781
 30
0.0
 11
6673.0255941548
 21
5667.9371358367
 31
0.0
  0
LINE
  5
434
330
1F
100
AcDbEntity
  8
0
  6
SLD-Plná
 62
     7
370
    25
100
AcDbLine
 10
6727.8498965614
 20
5610.0059290036
 30
0.0
 11
6727.4207587318
 21
5610.9262180491
 31
0.0
  0
LINE
  5
435
330
1F
100
AcDbEntity
  8
0
  6
SLD-Plná
 62
     7
370
    25
100
AcDbLine
 10
6696.515848574
 20
5602.6452723302
 30
0.0
 11
6696.6043488345
 21
5601.6337097231
 31
0.0
  0
LINE
  5
436
330
1F
100
AcDbEntity
  8
0
  6
SLD-Plná
 62
     7
370
    25
100
AcDbLine
 10
6699.1872084495
 20
5600.3446582471
 30
0.0
 11
6699.6827502577
 21
5600.3880125376
 31
0.0
  0
LINE
  5
437
330
1F
100
AcDbEntity
  8
0
  6
SLD-Plná
 62
     7
370
    25
100
AcDbLine
 10
6725.8067713187
 20
5607.3879228839
 30
0.0
 11
6726.2576002584
 21
5607.5981478711
 31
0.0
  0
LINE
  5
438
330
1F
100
AcDbEntity
  8
0
  6
SLD-Plná
 62
     7
370
    25
100
AcDbLine
 10
6702.3109805608
 20
5600.3266292776
 30
0.0
 11
6703.805272608
 21
5600.4573628917
 31
0.0
  0
LINE
  5
439
330
1F
100
AcDbEntity
  8
0
  6
SLD-Plná
 62
     7
370
    25
100
AcDbLine
 10
6722.2018870586
 20
5605.3867208772
 30
0.0
 11
6723.5613487392
 21
5606.0206482699
 31
0.0
  0
LINE
  5
43A
330
1F
100
AcDbEntity
  8
0
  6
SLD-Plná
 62
     7
370
    25
100
AcDbLine
 10
6705.9505399979
 20
5600.2665701092
 30
0.0
 11
6707.4448320451
 21
5600.3973037233
 31
0.0
  0
LINE
  5
43B
330
1F
100
AcDbEntity
  8
0
  6
SLD-Plná
 62
     7
370
    25
100
AcDbLine
 10
6719.0799657117
 20
5603.5149283931
 30
0.0
 11
6720.4394273923
 21
5604.1488557857
 31
0.0
  0
LINE
  5
43C
330
1F
100
AcDbEntity
  8
0
  6
SLD-Plná
 62
     7
370
    25
100
AcDbLine
 10
6723.5613487392
 20
5606.0206482699
 30
0.0
 11
6723.2439894127
 21
5606.7012275419
 31
0.0
  0
LINE
  5
43D
330
1F
100
AcDbEntity
  8
0
  6
SLD-Plná
 62
     7
370
    25
100
AcDbLine
 10
6705.8850916008
 20
5601.0146487113
 30
0.0
 11
6705.9505399979
 21
5600.2665701092
 31
0.0
  0
LINE
  5
43E
330
1F
100
AcDbEntity
  8
0
  6
SLD-Plná
 62
     7
370
    25
100
AcDbLine
 10
6720.4394273923
 20
5604.1488557857
 30
0.0
 11
6720.1220680658
 21
5604.8294350577
 31
0.0
  0
LINE
  5
43F
330
1F
100
AcDbEntity
  8
0
  6
SLD-Plná
 62
     7
370
    25
100
AcDbLine
 10
6702.2455321637
 20
5601.0747078797
 30
0.0
 11
6702.3109805608
 21
5600.3266292776
 31
0.0
  0
ARC
  5
440
330
1F
100
AcDbEntity
  8
0
  6
SLD-Plná
 62
     7
370
    25
100
AcDbCircle
 10
6673.2149590646
 20
5669.7429781757
 30
0.0
 40
0.2499999856379622
100
AcDbArc
 50
80.0099679844
 51
180.424342916
  0
ARC
  5
441
330
1F
100
AcDbEntity
  8
0
  6
SLD-Plná
 62
     7
370
    25
100
AcDbCircle
 10
6664.9649590788
 20
5601.6912369695
 30
0.0
 40
68.79999999999923
100
AcDbArc
 50
75.7683644771
 51
83.0828127581
  0
ARC
  5
442
330
1F
100
AcDbEntity
  8
0
  6
SLD-Plná
 62
     7
370
    25
100
AcDbCircle
 10
6664.9649590788
 20
5601.6912369695
 30
0.0
 40
68.79999999999974
100
AcDbArc
 50
9.1400786539
 51
63.1443627456
  0
ARC
  5
443
330
1F
100
AcDbEntity
  8
0
  6
SLD-Plná
 62
     7
370
    25
100
AcDbCircle
 10
6732.6438866388
 20
5612.5845699634
 30
0.0
 40
0.2499999656170926
100
AcDbArc
 50
284.5840755083
 51
5.8822911853
  0
LINE
  5
444
330
1F
100
AcDbEntity
  8
0
  6
SLD-Plná
 62
     7
370
    25
100
AcDbLine
 10
6673.2149590788
 20
5601.6912369695
 30
0.0
 11
6692.9224270112
 21
5601.6912369695
 31
0.0
  0
ARC
  5
445
330
1F
100
AcDbEntity
  8
0
  6
SLD-Plná
 62
     7
370
    25
100
AcDbCircle
 10
6673.2149590788
 20
5601.9412369695
 30
0.0
 40
0.25
100
AcDbArc
 50
180.0
 51
270.0
  0
SPLINE
  5
446
330
1F
100
AcDbEntity
  8
0
  6
SLD-Plná
 62
     7
370
    25
100
AcDbSpline
210
0.0
220
0.0
230
1.0
 70
     8
 71
     3
 72
    11
 73
     7
 74
     0
 42
0.00000001
 43
0.00000001
 40
0.0
 40
0.0
 40
0.0
 40
0.0
 40
0.3522206970139884
 40
0.676074841389883
 40
0.9029513653343788
 40
0.9999999999999999
 40
0.9999999999999999
 40
0.9999999999999999
 40
0.9999999999999999
 10
6682.641249893393
 20
5668.152416698917
 30
0.0
 10
6682.508491420298
 20
5668.19261550947
 30
0.0
 10
6682.253666350669
 20
5668.269775667006
 30
0.0
 10
6681.996106064324
 20
5668.345133000702
 30
0.0
 10
6681.882219482612
 20
5668.378387265061
 30
0.0
 10
6681.874814459038
 20
5668.380540953744
 30
0.0
 10
6681.872595898953
 20
5668.381186203243
 30
0.0
  0
ELLIPSE
  5
447
330
1F
100
AcDbEntity
  8
0
  6
SLD-Plná
 62
     7
370
    25
100
AcDbEllipse
 10
6581.5649590788
 20
5736.6019686839
 30
0.0
 11
1.599999999999454
 21
0.0
 31
0.0
210
0.0
220
0.0
230
1.0
 40
0.5
 41
1.169370598836339
 42
3.141592653590958
  0
LINE
  5
448
330
1F
100
AcDbEntity
  8
0
  6
SLD-Plná
 62
     7
370
    25
100
AcDbLine
 10
6582.1901288844
 20
4694.5898337203
 30
0.0
 11
6582.1901288844
 21
5737.3383725667
 31
0.0
  0
LINE
  5
449
330
1F
100
AcDbEntity
  8
0
  6
SLD-Plná
 62
     7
370
    25
100
AcDbLine
 10
6579.9649590788
 20
4694.5898337203
 30
0.0
 11
6579.9649590788
 21
5736.6019686839
 31
0.0
  0
LINE
  5
44A
330
1F
100
AcDbEntity
  8
0
  6
SLD-Plná
 62
     7
370
    25
100
AcDbLine
 10
6582.1901288844
 20
4694.5898337203
 30
0.0
 11
6579.9649590788
 21
4694.5898337203
 31
0.0
  0
LINE
  5
44B
330
1F
100
AcDbEntity
  8
0
  6
SLD-Plná
 62
     7
370
    25
100
AcDbLine
 10
6671.9901288844
 20
4694.5898337203
 30
0.0
 11
6671.9901288844
 21
5699.2205340711
 31
0.0
  0
LINE
  5
44C
330
1F
100
AcDbEntity
  8
0
  6
SLD-Plná
 62
     7
370
    25
100
AcDbLine
 10
6582.1901288844
 20
4694.5898337203
 30
0.0
 11
6671.9901288844
 21
4694.5898337203
 31
0.0
  0
LINE
  5
44D
330
1F
100
AcDbEntity
  8
0
  6
SLD-Plná
 62
     7
370
    25
100
AcDbLine
 10
6671.9901288844
 20
5699.2205340711
 30
0.0
 11
6582.1901288844
 21
5737.3383725667
 31
0.0
  0
SPLINE
  5
44E
330
1F
100
AcDbEntity
  8
0
  6
SLD-Plná
 62
     7
370
    25
100
AcDbSpline
210
0.0
220
0.0
230
1.0
 70
     8
 71
     3
 72
    11
 73
     7
 74
     0
 42
0.00000001
 43
0.00000001
 40
0.0
 40
0.0
 40
0.0
 40
0.0
 40
0.2500000000000245
 40
0.500000000000001
 40
0.7499999999999903
 40
1.0
 40
1.0
 40
1.0
 40
1.0
 10
6581.877543981585
 20
4692.989833720347
 30
0.0
 10
6581.933415642887
 20
4693.013884236807
 30
0.0
 10
6582.045158965489
 20
4693.061985269726
 30
0.0
 10
6582.173659453852
 20
4693.431984010722
 30
0.0
 10
6582.240083253763
 20
4693.960855910078
 30
0.0
 10
6582.206780340838
 20
4694.380174450258
 30
0.0
 10
6582.190128884376
 20
4694.589833720348
 30
0.0
  0
LINE
  5
44F
330
1F
100
AcDbEntity
  8
0
  6
SLD-Plná
 62
     7
370
    25
100
AcDbLine
 10
6581.8775439816
 20
4693.7898337203
 30
0.0
 11
6581.8775439816
 21
4692.9898337203
 31
0.0
  0
SPLINE
  5
450
330
1F
100
AcDbEntity
  8
0
  6
SLD-Plná
 62
     7
370
    25
100
AcDbSpline
210
0.0
220
0.0
230
1.0
 70
     8
 71
     3
 72
    11
 73
     7
 74
     0
 42
0.00000001
 43
0.00000001
 40
0.0
 40
0.0
 40
0.0
 40
0.0
 40
0.2500000000000347
 40
0.5000000000000506
 40
0.750000000000034
 40
1.0
 40
1.0
 40
1.0
 40
1.0
 10
6581.877543981585
 20
4693.789833720348
 30
0.0
 10
6581.892455441286
 20
4693.801858978578
 30
0.0
 10
6581.922278360688
 20
4693.825909495037
 30
0.0
 10
6581.947455492021
 20
4694.010908865535
 30
0.0
 10
6581.941594279127
 20
4694.275344815213
 30
0.0
 10
6581.898894080767
 20
4694.485004085303
 30
0.0
 10
6581.877543981585
 20
4694.589833720348
 30
0.0
  0
SPLINE
  5
451
330
1F
100
AcDbEntity
  8
0
  6
SLD-Plná
 62
     7
370
    25
100
AcDbSpline
210
0.0
220
0.0
230
1.0
 70
     8
 71
     3
 72
    11
 73
     7
 74
     0
 42
0.00000001
 43
0.00000001
 40
0.0
 40
0.0
 40
0.0
 40
0.0
 40
0.2500000000000069
 40
0.5000000000000397
 40
0.7500000000000442
 40
1.0
 40
1.0
 40
1.0
 40
1.0
 10
6671.990128884377
 20
4694.589833720348
 30
0.0
 10
6671.940113674173
 20
4694.380174450258
 30
0.0
 10
6671.840083253764
 20
4693.960855910078
 30
0.0
 10
6671.573659453853
 20
4693.431984010722
 30
0.0
 10
6671.245158965489
 20
4693.061985269726
 30
0.0
 10
6671.000082309553
 20
4693.013884236807
 30
0.0
 10
6670.877543981586
 20
4692.989833720347
 30
0.0
  0
LINE
  5
452
330
1F
100
AcDbEntity
  8
0
  6
SLD-Plná
 62
     7
370
    25
100
AcDbLine
 10
6581.8775439816
 20
4692.9898337203
 30
0.0
 11
6670.8775439816
 21
4692.9898337203
 31
0.0
  0
ARC
  5
453
330
1F
100
AcDbEntity
  8
0
  6
SLD-Plná
 62
     7
370
    25
100
AcDbCircle
 10
6581.5649590788
 20
5737.3090754651
 30
0.0
 40
0.8000000000010914
100
AcDbArc
 50
67.0
 51
180.0000000001
  0
LINE
  5
454
330
1F
100
AcDbEntity
  8
0
  6
SLD-Plná
 62
     7
370
    25
100
AcDbLine
 10
6579.9649590788
 20
5737.3090754651
 30
0.0
 11
6580.7649590788
 21
5737.3090754651
 31
0.0
  0
LINE
  5
455
330
1F
100
AcDbEntity
  8
0
  6
SLD-Plná
 62
     7
370
    25
100
AcDbLine
 10
6582.1901288844
 20
5738.7818832306
 30
0.0
 11
6581.8775439816
 21
5738.0454793479
 31
0.0
  0
ARC
  5
456
330
1F
100
AcDbEntity
  8
0
  6
SLD-Plná
 62
     7
370
    25
100
AcDbCircle
 10
6581.5649590788
 20
5737.3090754651
 30
0.0
 40
1.600000000000364
100
AcDbArc
 50
67.0
 51
180.0000000001
  0
LINE
  5
457
330
1F
100
AcDbEntity
  8
0
  6
SLD-Plná
 62
     7
370
    25
100
AcDbLine
 10
6582.1901288844
 20
5738.7818832306
 30
0.0
 11
6671.9901288844
 21
5700.664044735
 31
0.0
  0
LINE
  5
458
330
1F
100
AcDbEntity
  8
0
  6
SLD-Plná
 62
     7
370
    25
100
AcDbLine
 10
6671.9901288844
 20
5700.664044735
 30
0.0
 11
6671.6775439816
 21
5699.9276408522
 31
0.0
  0
LINE
  5
459
330
1F
100
AcDbEntity
  8
0
  6
SLD-Plná
 62
     7
370
    25
100
AcDbLine
 10
6581.8775439816
 20
5738.0454793479
 30
0.0
 11
6671.6775439816
 21
5699.9276408522
 31
0.0
  0
LINE
  5
45A
330
1F
100
AcDbEntity
  8
0
  6
SLD-Plná
 62
     7
370
    25
100
AcDbLine
 10
6580.7649590788
 20
5737.3090754651
 30
0.0
 11
6580.7649590788
 21
5737.2947890069
 31
0.0
  0
LINE
  5
45B
330
1F
100
AcDbEntity
  8
0
  6
SLD-Plná
 62
     7
370
    25
100
AcDbLine
 10
6579.9649590788
 20
5737.3090754651
 30
0.0
 11
6579.9649590788
 21
5736.6019686839
 31
0.0
  0
LINE
  5
45C
330
1F
100
AcDbEntity
  8
0
  6
SLD-Plná
 62
     7
370
    25
100
AcDbLine
 10
6672.9649590788
 20
4694.5898337203
 30
0.0
 11
6672.9649590788
 21
5699.1912369695
 31
0.0
  0
LINE
  5
45D
330
1F
100
AcDbEntity
  8
0
  6
SLD-Plná
 62
     7
370
    25
100
AcDbLine
 10
6671.9901288844
 20
4694.5898337203
 30
0.0
 11
6672.9649590788
 21
4694.5898337203
 31
0.0
  0
ELLIPSE
  5
45E
330
1F
100
AcDbEntity
  8
0
  6
SLD-Plná
 62
     7
370
    25
100
AcDbEllipse
 10
6671.3649590788
 20
5699.1912369695
 30
0.0
 11
1.600000000000364
 21
0.0
 31
0.0
210
0.0
220
0.0
230
1.0
 40
0.0198920065
 41
0.0
 42
1.169370598844031
  0
ARC
  5
45F
330
1F
100
AcDbEntity
  8
0
  6
SLD-Plná
 62
     7
370
    25
100
AcDbCircle
 10
6671.3649590788
 20
5699.1912369695
 30
0.0
 40
1.600000000000364
100
AcDbArc
 50
0.0
 51
67.0
  0
ARC
  5
460
330
1F
100
AcDbEntity
  8
0
  6
SLD-Plná
 62
     7
370
    25
100
AcDbCircle
 10
6671.3649590788
 20
5699.1912369695
 30
0.0
 40
0.8000000000001819
100
AcDbArc
 50
359.9999999999
 51
67.0
  0
SPLINE
  5
461
330
1F
100
AcDbEntity
  8
0
  6
SLD-Plná
 62
     7
370
    25
100
AcDbSpline
210
0.0
220
0.0
230
1.0
 70
     8
 71
     3
 72
    11
 73
     7
 74
     0
 42
0.00000001
 43
0.00000001
 40
0.0
 40
0.0
 40
0.0
 40
0.0
 40
0.2500000000002401
 40
0.5000000000001247
 40
0.7500000000000682
 40
1.0
 40
1.0
 40
1.0
 40
1.0
 10
6671.364959078794
 20
4692.989833720348
 30
0.0
 10
6671.574618348884
 20
4693.013884236809
 30
0.0
 10
6671.993936889063
 20
4693.061985269731
 30
0.0
 10
6672.522808788418
 20
4693.431984010725
 30
0.0
 10
6672.892807529413
 20
4693.96085591008
 30
0.0
 10
6672.940908562333
 20
4694.38017445026
 30
0.0
 10
6672.964959078792
 20
4694.589833720349
 30
0.0
  0
LINE
  5
462
330
1F
100
AcDbEntity
  8
0
  6
SLD-Plná
 62
     7
370
    25
100
AcDbLine
 10
6671.3649590788
 20
4693.2465684988
 30
0.0
 11
6671.3649590788
 21
4692.9898337203
 31
0.0
  0
SPLINE
  5
463
330
1F
100
AcDbEntity
  8
0
  6
SLD-Plná
 62
     7
370
    25
100
AcDbSpline
210
0.0
220
0.0
230
1.0
 70
     8
 71
     3
 72
    10
 73
     6
 74
     0
 42
0.00000001
 43
0.00000001
 40
0.0
 40
0.0
 40
0.0
 40
0.0
 40
0.2001318540998455
 40
0.6000659270499507
 40
1.0
 40
1.0
 40
1.0
 40
1.0
 10
6671.800768205213
 20
4693.937367727151
 30
0.0
 10
6671.845819948665
 20
4693.964034919004
 30
0.0
 10
6671.980900974725
 20
4694.043992571284
 30
0.0
 10
6672.126922921041
 20
4694.278802789427
 30
0.0
 10
6672.152280359543
 20
4694.486156743375
 30
0.0
 10
6672.164959078793
 20
4694.589833720349
 30
0.0
  0
LINE
  5
464
330
1F
100
AcDbEntity
  8
0
  6
SLD-Plná
 62
     7
370
    25
100
AcDbLine
 10
6670.8775439816
 20
4692.9898337203
 30
0.0
 11
6671.3649590788
 21
4692.9898337203
 31
0.0
  0
LINE
  5
465
330
1F
100
AcDbEntity
  8
0
  6
SLD-Plná
 62
     7
370
    25
100
AcDbLine
 10
6591.9649590787
 20
4688.4898337203
 30
0.0
 11
6597.9649590787
 21
4688.4898337203
 31
0.0
  0
LINE
  5
466
330
1F
100
AcDbEntity
  8
0
  6
SLD-Plná
 62
     7
370
    25
100
AcDbLine
 10
6656.9649590787
 20
4688.4898337203
 30
0.0
 11
6662.9649590787
 21
4688.4898337203
 31
0.0
  0
LINE
  5
467
330
1F
100
AcDbEntity
  8
0
  6
SLD-Plná
 62
     7
370
    25
100
AcDbLine
 10
6582.9649590788
 20
4692.9898337203
 30
0.0
 11
6582.9649590788
 21
4690.9898337203
 31
0.0
  0
ARC
  5
468
330
1F
100
AcDbEntity
  8
0
  6
SLD-Plná
 62
     7
370
    25
100
AcDbCircle
 10
6582.9649590788
 20
4693.9898337203
 30
0.0
 40
3.000000000000909
100
AcDbArc
 50
180.0
 51
270.0
  0
LINE
  5
469
330
1F
100
AcDbEntity
  8
0
  6
SLD-Plná
 62
     7
370
    25
100
AcDbLine
 10
6581.9649590788
 20
4693.9898337203
 30
0.0
 11
6579.9649590788
 21
4693.9898337203
 31
0.0
  0
LINE
  5
46A
330
1F
100
AcDbEntity
  8
0
  6
SLD-Plná
 62
     7
370
    25
100
AcDbLine
 10
6593.5407929828
 20
4690.9898337203
 30
0.0
 11
6593.5407929828
 21
4692.9898337203
 31
0.0
  0
LINE
  5
46B
330
1F
100
AcDbEntity
  8
0
  6
SLD-Plná
 62
     7
370
    25
100
AcDbLine
 10
6582.9649590788
 20
4690.9898337203
 30
0.0
 11
6593.5407929828
 21
4690.9898337203
 31
0.0
  0
LINE
  5
46C
330
1F
100
AcDbEntity
  8
0
  6
SLD-Plná
 62
     7
370
    25
100
AcDbLine
 10
6579.9649590788
 20
4693.9898337203
 30
0.0
 11
6579.9649590788
 21
4694.5898337203
 31
0.0
  0
LINE
  5
46D
330
1F
100
AcDbEntity
  8
0
  6
SLD-Plná
 62
     7
370
    25
100
AcDbLine
 10
6596.2759108823
 20
4692.9898337203
 30
0.0
 11
6596.2759108823
 21
4690.9898337203
 31
0.0
  0
LINE
  5
46E
330
1F
100
AcDbEntity
  8
0
  6
SLD-Plná
 62
     7
370
    25
100
AcDbLine
 10
6596.2759108823
 20
4690.9898337203
 30
0.0
 11
6593.5407929828
 21
4690.9898337203
 31
0.0
  0
LINE
  5
46F
330
1F
100
AcDbEntity
  8
0
  6
SLD-Plná
 62
     7
370
    25
100
AcDbLine
 10
6663.7000769782
 20
4690.9898337203
 30
0.0
 11
6663.7000769782
 21
4692.9898337203
 31
0.0
  0
LINE
  5
470
330
1F
100
AcDbEntity
  8
0
  6
SLD-Plná
 62
     7
370
    25
100
AcDbLine
 10
6596.2759108823
 20
4690.9898337203
 30
0.0
 11
6663.7000769782
 21
4690.9898337203
 31
0.0
  0
LINE
  5
471
330
1F
100
AcDbEntity
  8
0
  6
SLD-Plná
 62
     7
370
    25
100
AcDbLine
 10
6667.9649590788
 20
4692.9898337203
 30
0.0
 11
6667.9649590788
 21
4690.9898337203
 31
0.0
  0
LINE
  5
472
330
1F
100
AcDbEntity
  8
0
  6
SLD-Plná
 62
     7
370
    25
100
AcDbLine
 10
6667.9649590788
 20
4690.9898337203
 30
0.0
 11
6663.7000769782
 21
4690.9898337203
 31
0.0
  0
LINE
  5
473
330
1F
100
AcDbEntity
  8
0
  6
SLD-Plná
 62
     7
370
    25
100
AcDbLine
 10
6727.8498965614
 20
5610.0059290036
 30
0.0
 11
6696.6043488345
 21
5601.6337097231
 31
0.0
  0
LINE
  5
474
330
1F
100
AcDbEntity
  8
0
  6
SLD-Plná
 62
     7
370
    25
100
AcDbLine
 10
6725.6774232099
 20
5607.3532641626
 30
0.0
 11
6725.8067713187
 21
5607.3879228839
 31
0.0
  0
LINE
  5
475
330
1F
100
AcDbEntity
  8
0
  6
SLD-Plná
 62
     7
370
    25
100
AcDbLine
 10
6699.6827502577
 20
5600.3880125376
 30
0.0
 11
6725.6774232099
 21
5607.3532641626
 31
0.0
  0
LINE
  5
476
330
1F
100
AcDbEntity
  8
0
  6
SLD-Plná
 62
     7
370
    25
100
AcDbLine
 10
6698.1887913897
 20
5600.2573681986
 30
0.0
 11
6698.1891837486
 21
5600.2574083722
 31
0.0
  0
LINE
  5
477
330
1F
100
AcDbEntity
  8
0
  6
SLD-Plná
 62
     7
370
    25
100
AcDbLine
 10
6698.1891837486
 20
5600.2574083722
 30
0.0
 11
6699.1852487859
 21
5600.3445801797
 31
0.0
  0
LINE
  5
478
330
1F
100
AcDbEntity
  8
0
  6
SLD-Plná
 62
     7
370
    25
100
AcDbLine
 10
6699.1852487859
 20
5600.3445801797
 30
0.0
 11
6699.1962236463
 21
5600.3475208847
 31
0.0
  0
LINE
  5
479
330
1F
100
AcDbEntity
  8
0
  6
SLD-Plná
 62
     7
370
    25
100
AcDbLine
 10
6699.1962236463
 20
5600.3475208847
 30
0.0
 11
6698.2001586091
 21
5600.2603490772
 31
0.0
  0
LINE
  5
47A
330
1F
100
AcDbEntity
  8
0
  6
SLD-Plná
 62
     7
370
    25
100
AcDbLine
 10
6698.2001586091
 20
5600.2603490772
 30
0.0
 11
6698.1996150189
 21
5600.2602683813
 31
0.0
  0
LINE
  5
47B
330
1F
100
AcDbEntity
  8
0
  6
SLD-Plná
 62
     7
370
    25
100
AcDbLine
 10
6698.1996150189
 20
5600.2602683813
 30
0.0
 11
6698.3517985619
 21
5600.3010458387
 31
0.0
  0
LINE
  5
47C
330
1F
100
AcDbEntity
  8
0
  6
SLD-Plná
 62
     7
370
    25
100
AcDbLine
 10
6698.3517985619
 20
5600.3010458387
 30
0.0
 11
6698.3514564754
 21
5600.3008892183
 31
0.0
  0
LINE
  5
47D
330
1F
100
AcDbEntity
  8
0
  6
SLD-Plná
 62
     7
370
    25
100
AcDbLine
 10
6698.3514564754
 20
5600.3008892183
 30
0.0
 11
6699.3333960734
 21
5600.3842761257
 31
0.0
  0
LINE
  5
47E
330
1F
100
AcDbEntity
  8
0
  6
SLD-Plná
 62
     7
370
    25
100
AcDbLine
 10
6699.3333960734
 20
5600.3842761257
 30
0.0
 11
6699.4499947436
 21
5600.4155186453
 31
0.0
  0
LINE
  5
47F
330
1F
100
AcDbEntity
  8
0
  6
SLD-Plná
 62
     7
370
    25
100
AcDbLine
 10
6699.4499947436
 20
5600.4155186453
 30
0.0
 11
6698.4680551456
 21
5600.3321317379
 31
0.0
  0
LINE
  5
480
330
1F
100
AcDbEntity
  8
0
  6
SLD-Plná
 62
     7
370
    25
100
AcDbLine
 10
6698.4680551456
 20
5600.3321317379
 30
0.0
 11
6698.4667905276
 21
5600.3318578431
 31
0.0
  0
LINE
  5
481
330
1F
100
AcDbEntity
  8
0
  6
SLD-Plná
 62
     7
370
    25
100
AcDbLine
 10
6698.4667905276
 20
5600.3318578431
 30
0.0
 11
6698.867548246
 21
5600.4392405501
 31
0.0
  0
LINE
  5
482
330
1F
100
AcDbEntity
  8
0
  6
SLD-Plná
 62
     7
370
    25
100
AcDbLine
 10
6698.867548246
 20
5600.4392405501
 30
0.0
 11
6698.8664805372
 21
5600.4388894998
 31
0.0
  0
LINE
  5
483
330
1F
100
AcDbEntity
  8
0
  6
SLD-Plná
 62
     7
370
    25
100
AcDbLine
 10
6698.8664805372
 20
5600.4388894998
 30
0.0
 11
6699.8112224285
 21
5600.5123093117
 31
0.0
  0
LINE
  5
484
330
1F
100
AcDbEntity
  8
0
  6
SLD-Plná
 62
     7
370
    25
100
AcDbLine
 10
6699.8112224285
 20
5600.5123093117
 30
0.0
 11
6700.0305738624
 21
5600.5710843513
 31
0.0
  0
LINE
  5
485
330
1F
100
AcDbEntity
  8
0
  6
SLD-Plná
 62
     7
370
    25
100
AcDbLine
 10
6700.0305738624
 20
5600.5710843513
 30
0.0
 11
6699.0858319711
 21
5600.4976645394
 31
0.0
  0
LINE
  5
486
330
1F
100
AcDbEntity
  8
0
  6
SLD-Plná
 62
     7
370
    25
100
AcDbLine
 10
6699.0858319711
 20
5600.4976645394
 30
0.0
 11
6699.0838770644
 21
5600.4972056823
 31
0.0
  0
LINE
  5
487
330
1F
100
AcDbEntity
  8
0
  6
SLD-Plná
 62
     7
370
    25
100
AcDbLine
 10
6699.0838770644
 20
5600.4972056823
 30
0.0
 11
6699.7233409732
 21
5600.6685495202
 31
0.0
  0
LINE
  5
488
330
1F
100
AcDbEntity
  8
0
  6
SLD-Plná
 62
     7
370
    25
100
AcDbLine
 10
6699.7233409732
 20
5600.6685495202
 30
0.0
 11
6699.7215743326
 21
5600.6680111917
 31
0.0
  0
LINE
  5
489
330
1F
100
AcDbEntity
  8
0
  6
SLD-Plná
 62
     7
370
    25
100
AcDbLine
 10
6699.7215743326
 20
5600.6680111917
 30
0.0
 11
6700.6069621806
 21
5600.7255271357
 31
0.0
  0
LINE
  5
48A
330
1F
100
AcDbEntity
  8
0
  6
SLD-Plná
 62
     7
370
    25
100
AcDbLine
 10
6700.6069621806
 20
5600.7255271357
 30
0.0
 11
6700.9236652178
 21
5600.8103874587
 31
0.0
  0
LINE
  5
48B
330
1F
100
AcDbEntity
  8
0
  6
SLD-Plná
 62
     7
370
    25
100
AcDbLine
 10
6700.9236652178
 20
5600.8103874587
 30
0.0
 11
6700.0382773698
 21
5600.7528715148
 31
0.0
  0
LINE
  5
48C
330
1F
100
AcDbEntity
  8
0
  6
SLD-Plná
 62
     7
370
    25
100
AcDbLine
 10
6700.0382773698
 20
5600.7528715148
 30
0.0
 11
6700.0356799109
 21
5600.7522404863
 31
0.0
  0
LINE
  5
48D
330
1F
100
AcDbEntity
  8
0
  6
SLD-Plná
 62
     7
370
    25
100
AcDbLine
 10
6700.0356799109
 20
5600.7522404863
 30
0.0
 11
6700.8981042864
 21
5600.9833264013
 31
0.0
  0
LINE
  5
48E
330
1F
100
AcDbEntity
  8
0
  6
SLD-Plná
 62
     7
370
    25
100
AcDbLine
 10
6700.8981042864
 20
5600.9833264013
 30
0.0
 11
6700.8956826143
 21
5600.9826125576
 31
0.0
  0
LINE
  5
48F
330
1F
100
AcDbEntity
  8
0
  6
SLD-Plná
 62
     7
370
    25
100
AcDbLine
 10
6700.8956826143
 20
5600.9826125576
 30
0.0
 11
6701.7010215761
 21
5601.0186794672
 31
0.0
  0
LINE
  5
490
330
1F
100
AcDbEntity
  8
0
  6
SLD-Plná
 62
     7
370
    25
100
AcDbLine
 10
6701.7010215761
 20
5601.0186794672
 30
0.0
 11
6702.1072779367
 21
5601.1275355309
 31
0.0
  0
LINE
  5
491
330
1F
100
AcDbEntity
  8
0
  6
SLD-Plná
 62
     7
370
    25
100
AcDbLine
 10
6702.1072779367
 20
5601.1275355309
 30
0.0
 11
6701.3019389749
 21
5601.0914686214
 31
0.0
  0
LINE
  5
492
330
1F
100
AcDbEntity
  8
0
  6
SLD-Plná
 62
     7
370
    25
100
AcDbLine
 10
6701.3019389749
 20
5601.0914686214
 30
0.0
 11
6701.2987625219
 21
5601.0906824519
 31
0.0
  0
LINE
  5
493
330
1F
100
AcDbEntity
  8
0
  6
SLD-Plná
 62
     7
370
    25
100
AcDbLine
 10
6701.2987625219
 20
5601.0906824519
 30
0.0
 11
6702.3629116138
 21
5601.3758203417
 31
0.0
  0
LINE
  5
494
330
1F
100
AcDbEntity
  8
0
  6
SLD-Plná
 62
     7
370
    25
100
AcDbLine
 10
6702.3629116138
 20
5601.3758203417
 30
0.0
 11
6702.3598949398
 21
5601.3749470678
 31
0.0
  0
LINE
  5
495
330
1F
100
AcDbEntity
  8
0
  6
SLD-Plná
 62
     7
370
    25
100
AcDbLine
 10
6702.3598949398
 20
5601.3749470678
 30
0.0
 11
6703.0664612416
 21
5601.3845479228
 31
0.0
  0
LINE
  5
496
330
1F
100
AcDbEntity
  8
0
  6
SLD-Plná
 62
     7
370
    25
100
AcDbLine
 10
6703.0664612416
 20
5601.3845479228
 30
0.0
 11
6703.5522675458
 21
5601.5147193297
 31
0.0
  0
LINE
  5
497
330
1F
100
AcDbEntity
  8
0
  6
SLD-Plná
 62
     7
370
    25
100
AcDbLine
 10
6703.5522675458
 20
5601.5147193297
 30
0.0
 11
6702.845701244
 21
5601.5051184747
 31
0.0
  0
LINE
  5
498
330
1F
100
AcDbEntity
  8
0
  6
SLD-Plná
 62
     7
370
    25
100
AcDbLine
 10
6702.845701244
 20
5601.5051184747
 30
0.0
 11
6702.8420236119
 21
5601.5041980147
 31
0.0
  0
LINE
  5
499
330
1F
100
AcDbEntity
  8
0
  6
SLD-Plná
 62
     7
370
    25
100
AcDbLine
 10
6702.8420236119
 20
5601.5041980147
 30
0.0
 11
6704.0816945378
 21
5601.8363668382
 31
0.0
  0
LINE
  5
49A
330
1F
100
AcDbEntity
  8
0
  6
SLD-Plná
 62
     7
370
    25
100
AcDbLine
 10
6704.0816945378
 20
5601.8363668382
 30
0.0
 11
6704.0781575422
 21
5601.8353541445
 31
0.0
  0
LINE
  5
49B
330
1F
100
AcDbEntity
  8
0
  6
SLD-Plná
 62
     7
370
    25
100
AcDbLine
 10
6704.0781575422
 20
5601.8353541445
 30
0.0
 11
6704.669659521
 21
5601.8141236071
 31
0.0
  0
LINE
  5
49C
330
1F
100
AcDbEntity
  8
0
  6
SLD-Plná
 62
     7
370
    25
100
AcDbLine
 10
6704.669659521
 20
5601.8141236071
 30
0.0
 11
6705.2230536053
 21
5601.9624051051
 31
0.0
  0
LINE
  5
49D
330
1F
100
AcDbEntity
  8
0
  6
SLD-Plná
 62
     7
370
    25
100
AcDbLine
 10
6705.2230536053
 20
5601.9624051051
 30
0.0
 11
6704.6315516264
 21
5601.9836356424
 31
0.0
  0
LINE
  5
49E
330
1F
100
AcDbEntity
  8
0
  6
SLD-Plná
 62
     7
370
    25
100
AcDbLine
 10
6704.6315516264
 20
5601.9836356424
 30
0.0
 11
6704.6274629709
 21
5601.9826050491
 31
0.0
  0
LINE
  5
49F
330
1F
100
AcDbEntity
  8
0
  6
SLD-Plná
 62
     7
370
    25
100
AcDbLine
 10
6704.6274629709
 20
5601.9826050491
 30
0.0
 11
6706.0121309183
 21
5602.3536257074
 31
0.0
  0
LINE
  5
4A0
330
1F
100
AcDbEntity
  8
0
  6
SLD-Plná
 62
     7
370
    25
100
AcDbLine
 10
6706.0121309183
 20
5602.3536257074
 30
0.0
 11
6706.0081610936
 21
5602.3524970375
 31
0.0
  0
LINE
  5
4A1
330
1F
100
AcDbEntity
  8
0
  6
SLD-Plná
 62
     7
370
    25
100
AcDbLine
 10
6706.0081610936
 20
5602.3524970375
 30
0.0
 11
6706.471140352
 21
5602.2968289409
 31
0.0
  0
LINE
  5
4A2
330
1F
100
AcDbEntity
  8
0
  6
SLD-Plná
 62
     7
370
    25
100
AcDbLine
 10
6706.471140352
 20
5602.2968289409
 30
0.0
 11
6707.0784958173
 21
5602.4595693474
 31
0.0
  0
LINE
  5
4A3
330
1F
100
AcDbEntity
  8
0
  6
SLD-Plná
 62
     7
370
    25
100
AcDbLine
 10
6707.0784958173
 20
5602.4595693474
 30
0.0
 11
6706.615516559
 21
5602.5152374439
 31
0.0
  0
LINE
  5
4A4
330
1F
100
AcDbEntity
  8
0
  6
SLD-Plná
 62
     7
370
    25
100
AcDbLine
 10
6706.615516559
 20
5602.5152374439
 30
0.0
 11
6706.6111171563
 21
5602.5141235861
 31
0.0
  0
LINE
  5
4A5
330
1F
100
AcDbEntity
  8
0
  6
SLD-Plná
 62
     7
370
    25
100
AcDbLine
 10
6706.6111171563
 20
5602.5141235861
 30
0.0
 11
6708.106687005
 21
5602.9148603193
 31
0.0
  0
LINE
  5
4A6
330
1F
100
AcDbEntity
  8
0
  6
SLD-Plná
 62
     7
370
    25
100
AcDbLine
 10
6708.106687005
 20
5602.9148603193
 30
0.0
 11
6708.1023825014
 21
5602.9136419725
 31
0.0
  0
LINE
  5
4A7
330
1F
100
AcDbEntity
  8
0
  6
SLD-Plná
 62
     7
370
    25
100
AcDbLine
 10
6708.1023825014
 20
5602.9136419725
 30
0.0
 11
6708.4265452976
 21
5602.820778117
 31
0.0
  0
LINE
  5
4A8
330
1F
100
AcDbEntity
  8
0
  6
SLD-Plná
 62
     7
370
    25
100
AcDbLine
 10
6708.4265452976
 20
5602.820778117
 30
0.0
 11
6709.0729070368
 21
5602.993970223
 31
0.0
  0
LINE
  5
4A9
330
1F
100
AcDbEntity
  8
0
  6
SLD-Plná
 62
     7
370
    25
100
AcDbLine
 10
6709.0729070368
 20
5602.993970223
 30
0.0
 11
6708.7487442406
 21
5603.0868340785
 31
0.0
  0
LINE
  5
4AA
330
1F
100
AcDbEntity
  8
0
  6
SLD-Plná
 62
     7
370
    25
100
AcDbLine
 10
6708.7487442406
 20
5603.0868340785
 30
0.0
 11
6708.7441420188
 21
5603.0856658755
 31
0.0
  0
LINE
  5
4AB
330
1F
100
AcDbEntity
  8
0
  6
SLD-Plná
 62
     7
370
    25
100
AcDbLine
 10
6708.7441420188
 20
5603.0856658755
 30
0.0
 11
6710.3137878756
 21
5603.5062512152
 31
0.0
  0
LINE
  5
4AC
330
1F
100
AcDbEntity
  8
0
  6
SLD-Plná
 62
     7
370
    25
100
AcDbLine
 10
6710.3137878756
 20
5603.5062512152
 30
0.0
 11
6710.309255084
 21
5603.5049716988
 31
0.0
  0
LWPOLYLINE
  5
4AD
330
1F
100
AcDbEntity
  8
0
  6
SLD-Plná
 62
     7
370
    25
100
AcDbPolyline
 90
        3
 70
   128
 43
0.0
 10
6710.309255084
 20
5603.5049716988
 10
6710.3564602176
 20
5603.4700834024
 10
6710.4877257985
 20
5603.3730697677
  0
LINE
  5
4AE
330
1F
100
AcDbEntity
  8
0
  6
SLD-Plná
 62
     7
370
    25
100
AcDbLine
 10
6710.4877257985
 20
5603.3730697677
 30
0.0
 11
6711.1571782403
 21
5603.5524490088
 31
0.0
  0
LWPOLYLINE
  5
4AF
330
1F
100
AcDbEntity
  8
0
  6
SLD-Plná
 62
     7
370
    25
100
AcDbPolyline
 90
        3
 70
   128
 43
0.0
 10
6711.1571782403
 20
5603.5524490088
 10
6711.0259126594
 20
5603.6494626435
 10
6710.9787075259
 20
5603.6843509399
  0
LINE
  5
4B0
330
1F
100
AcDbEntity
  8
0
  6
SLD-Plná
 62
     7
370
    25
100
AcDbLine
 10
6710.9787075259
 20
5603.6843509399
 30
0.0
 11
6710.9740154072
 21
5603.6831586491
 31
0.0
  0
LINE
  5
4B1
330
1F
100
AcDbEntity
  8
0
  6
SLD-Plná
 62
     7
370
    25
100
AcDbLine
 10
6710.9740154072
 20
5603.6831586491
 30
0.0
 11
6712.5790873817
 21
5604.1132363885
 31
0.0
  0
LINE
  5
4B2
330
1F
100
AcDbEntity
  8
0
  6
SLD-Plná
 62
     7
370
    25
100
AcDbLine
 10
6712.5790873817
 20
5604.1132363885
 30
0.0
 11
6712.5744383144
 21
5604.1119257161
 31
0.0
  0
LINE
  5
4B3
330
1F
100
AcDbEntity
  8
0
  6
SLD-Plná
 62
     7
370
    25
100
AcDbLine
 10
6712.5744383144
 20
5604.1119257161
 30
0.0
 11
6712.6039287501
 21
5603.9401046396
 31
0.0
  0
LINE
  5
4B4
330
1F
100
AcDbEntity
  8
0
  6
SLD-Plná
 62
     7
370
    25
100
AcDbLine
 10
6712.6039287501
 20
5603.9401046396
 30
0.0
 11
6713.2799877537
 21
5604.1212541036
 31
0.0
  0
LINE
  5
4B5
330
1F
100
AcDbEntity
  8
0
  6
SLD-Plná
 62
     7
370
    25
100
AcDbLine
 10
6713.2799877537
 20
5604.1212541036
 30
0.0
 11
6713.2504973181
 21
5604.2930751801
 31
0.0
  0
LINE
  5
4B6
330
1F
100
AcDbEntity
  8
0
  6
SLD-Plná
 62
     7
370
    25
100
AcDbLine
 10
6713.2504973181
 20
5604.2930751801
 30
0.0
 11
6713.2458304381
 21
5604.291889652
 31
0.0
  0
LINE
  5
4B7
330
1F
100
AcDbEntity
  8
0
  6
SLD-Plná
 62
     7
370
    25
100
AcDbLine
 10
6713.2458304381
 20
5604.291889652
 30
0.0
 11
6714.8468063313
 21
5604.7208698497
 31
0.0
  0
LINE
  5
4B8
330
1F
100
AcDbEntity
  8
0
  6
SLD-Plná
 62
     7
370
    25
100
AcDbLine
 10
6714.8468063313
 20
5604.7208698497
 30
0.0
 11
6714.8421558637
 21
5604.7195588021
 31
0.0
  0
LINE
  5
4B9
330
1F
100
AcDbEntity
  8
0
  6
SLD-Plná
 62
     7
370
    25
100
AcDbLine
 10
6714.8421558637
 20
5604.7195588021
 30
0.0
 11
6714.7230462125
 21
5604.5079204523
 31
0.0
  0
LINE
  5
4BA
330
1F
100
AcDbEntity
  8
0
  6
SLD-Plná
 62
     7
370
    25
100
AcDbLine
 10
6714.7230462125
 20
5604.5079204523
 30
0.0
 11
6715.3890649615
 21
5604.6863796382
 31
0.0
  0
LINE
  5
4BB
330
1F
100
AcDbEntity
  8
0
  6
SLD-Plná
 62
     7
370
    25
100
AcDbLine
 10
6715.3890649615
 20
5604.6863796382
 30
0.0
 11
6715.5081746127
 21
5604.898017988
 31
0.0
  0
LINE
  5
4BC
330
1F
100
AcDbEntity
  8
0
  6
SLD-Plná
 62
     7
370
    25
100
AcDbLine
 10
6715.5081746127
 20
5604.898017988
 30
0.0
 11
6715.5036474856
 21
5604.8968699065
 31
0.0
  0
LINE
  5
4BD
330
1F
100
AcDbEntity
  8
0
  6
SLD-Plná
 62
     7
370
    25
100
AcDbLine
 10
6715.5036474856
 20
5604.8968699065
 30
0.0
 11
6717.0611059579
 21
5605.3141896464
 31
0.0
  0
LINE
  5
4BE
330
1F
100
AcDbEntity
  8
0
  6
SLD-Plná
 62
     7
370
    25
100
AcDbLine
 10
6717.0611059579
 20
5605.3141896464
 30
0.0
 11
6717.0565689997
 21
5605.3129090136
 31
0.0
  0
LINE
  5
4BF
330
1F
100
AcDbEntity
  8
0
  6
SLD-Plná
 62
     7
370
    25
100
AcDbLine
 10
6717.0565689997
 20
5605.3129090136
 30
0.0
 11
6716.7928984808
 21
5605.062535696
 31
0.0
  0
LINE
  5
4C0
330
1F
100
AcDbEntity
  8
0
  6
SLD-Plná
 62
     7
370
    25
100
AcDbLine
 10
6716.7928984808
 20
5605.062535696
 30
0.0
 11
6717.4324773832
 21
5605.2339103464
 31
0.0
  0
LINE
  5
4C1
330
1F
100
AcDbEntity
  8
0
  6
SLD-Plná
 62
     7
370
    25
100
AcDbLine
 10
6717.4324773832
 20
5605.2339103464
 30
0.0
 11
6717.6961479021
 21
5605.484283664
 31
0.0
  0
LINE
  5
4C2
330
1F
100
AcDbEntity
  8
0
  6
SLD-Plná
 62
     7
370
    25
100
AcDbLine
 10
6717.6961479021
 20
5605.484283664
 30
0.0
 11
6717.6918716009
 21
5605.4832027911
 31
0.0
  0
LINE
  5
4C3
330
1F
100
AcDbEntity
  8
0
  6
SLD-Plná
 62
     7
370
    25
100
AcDbLine
 10
6717.6918716009
 20
5605.4832027911
 30
0.0
 11
6719.1674628556
 21
5605.8785862761
 31
0.0
  0
LINE
  5
4C4
330
1F
100
AcDbEntity
  8
0
  6
SLD-Plná
 62
     7
370
    25
100
AcDbLine
 10
6719.1674628556
 20
5605.8785862761
 30
0.0
 11
6719.1631515218
 21
5605.8773660991
 31
0.0
  0
LINE
  5
4C5
330
1F
100
AcDbEntity
  8
0
  6
SLD-Plná
 62
     7
370
    25
100
AcDbLine
 10
6719.1631515218
 20
5605.8773660991
 30
0.0
 11
6718.7625189227
 21
5605.5902939028
 31
0.0
  0
LINE
  5
4C6
330
1F
100
AcDbEntity
  8
0
  6
SLD-Plná
 62
     7
370
    25
100
AcDbLine
 10
6718.7625189227
 20
5605.5902939028
 30
0.0
 11
6719.3599094233
 21
5605.750364205
 31
0.0
  0
LINE
  5
4C7
330
1F
100
AcDbEntity
  8
0
  6
SLD-Plná
 62
     7
370
    25
100
AcDbLine
 10
6719.3599094233
 20
5605.750364205
 30
0.0
 11
6719.7605420224
 21
5606.0374364013
 31
0.0
  0
LINE
  5
4C8
330
1F
100
AcDbEntity
  8
0
  6
SLD-Plná
 62
     7
370
    25
100
AcDbLine
 10
6719.7605420224
 20
5606.0374364013
 30
0.0
 11
6719.756621444
 21
5606.0364508441
 31
0.0
  0
LINE
  5
4C9
330
1F
100
AcDbEntity
  8
0
  6
SLD-Plná
 62
     7
370
    25
100
AcDbLine
 10
6719.756621444
 20
5606.0364508441
 30
0.0
 11
6721.1140115272
 21
5606.4001624207
 31
0.0
  0
LINE
  5
4CA
330
1F
100
AcDbEntity
  8
0
  6
SLD-Plná
 62
     7
370
    25
100
AcDbLine
 10
6721.1140115272
 20
5606.4001624207
 30
0.0
 11
6721.1100323769
 21
5606.399031252
 31
0.0
  0
LINE
  5
4CB
330
1F
100
AcDbEntity
  8
0
  6
SLD-Plná
 62
     7
370
    25
100
AcDbLine
 10
6721.1100323769
 20
5606.399031252
 30
0.0
 11
6720.5834089462
 21
5606.0781999141
 31
0.0
  0
LINE
  5
4CC
330
1F
100
AcDbEntity
  8
0
  6
SLD-Plná
 62
     7
370
    25
100
AcDbLine
 10
6720.5834089462
 20
5606.0781999141
 30
0.0
 11
6721.1239013082
 21
5606.223024406
 31
0.0
  0
LINE
  5
4CD
330
1F
100
AcDbEntity
  8
0
  6
SLD-Plná
 62
     7
370
    25
100
AcDbLine
 10
6721.1239013082
 20
5606.223024406
 30
0.0
 11
6721.650524739
 21
5606.543855744
 31
0.0
  0
LINE
  5
4CE
330
1F
100
AcDbEntity
  8
0
  6
SLD-Plná
 62
     7
370
    25
100
AcDbLine
 10
6721.650524739
 20
5606.543855744
 30
0.0
 11
6721.6470560211
 21
5606.5429912624
 31
0.0
  0
LINE
  5
4CF
330
1F
100
AcDbEntity
  8
0
  6
SLD-Plná
 62
     7
370
    25
100
AcDbLine
 10
6721.6470560211
 20
5606.5429912624
 30
0.0
 11
6722.8528214841
 21
5606.8660751445
 31
0.0
  0
LINE
  5
4D0
330
1F
100
AcDbEntity
  8
0
  6
SLD-Plná
 62
     7
370
    25
100
AcDbLine
 10
6722.8528214841
 20
5606.8660751445
 30
0.0
 11
6722.8492728971
 21
5606.8650593449
 31
0.0
  0
LINE
  5
4D1
330
1F
100
AcDbEntity
  8
0
  6
SLD-Plná
 62
     7
370
    25
100
AcDbLine
 10
6722.8492728971
 20
5606.8650593449
 30
0.0
 11
6722.2107321956
 21
5606.5142398646
 31
0.0
  0
LINE
  5
4D2
330
1F
100
AcDbEntity
  8
0
  6
SLD-Plná
 62
     7
370
    25
100
AcDbLine
 10
6722.2107321956
 20
5606.5142398646
 30
0.0
 11
6722.6810177033
 21
5606.6402524866
 31
0.0
  0
LINE
  5
4D3
330
1F
100
AcDbEntity
  8
0
  6
SLD-Plná
 62
     7
370
    25
100
AcDbLine
 10
6722.6810177033
 20
5606.6402524866
 30
0.0
 11
6723.3195584048
 21
5606.9910719669
 31
0.0
  0
LINE
  5
4D4
330
1F
100
AcDbEntity
  8
0
  6
SLD-Plná
 62
     7
370
    25
100
AcDbLine
 10
6723.3195584048
 20
5606.9910719669
 30
0.0
 11
6723.316626559
 21
5606.9903513397
 31
0.0
  0
LINE
  5
4D5
330
1F
100
AcDbEntity
  8
0
  6
SLD-Plná
 62
     7
370
    25
100
AcDbLine
 10
6723.316626559
 20
5606.9903513397
 30
0.0
 11
6724.3410774544
 21
5607.2648521298
 31
0.0
  0
LINE
  5
4D6
330
1F
100
AcDbEntity
  8
0
  6
SLD-Plná
 62
     7
370
    25
100
AcDbLine
 10
6724.3410774544
 20
5607.2648521298
 30
0.0
 11
6724.3380472086
 21
5607.2639752193
 31
0.0
  0
LINE
  5
4D7
330
1F
100
AcDbEntity
  8
0
  6
SLD-Plná
 62
     7
370
    25
100
AcDbLine
 10
6724.3380472086
 20
5607.2639752193
 30
0.0
 11
6723.6044185718
 21
5606.8876770036
 31
0.0
  0
LINE
  5
4D8
330
1F
100
AcDbEntity
  8
0
  6
SLD-Plná
 62
     7
370
    25
100
AcDbLine
 10
6723.6044185718
 20
5606.8876770036
 30
0.0
 11
6723.9929172351
 21
5606.9917749068
 31
0.0
  0
LINE
  5
4D9
330
1F
100
AcDbEntity
  8
0
  6
SLD-Plná
 62
     7
370
    25
100
AcDbLine
 10
6723.9929172351
 20
5606.9917749068
 30
0.0
 11
6724.726545872
 21
5607.3680731224
 31
0.0
  0
LINE
  5
4DA
330
1F
100
AcDbEntity
  8
0
  6
SLD-Plná
 62
     7
370
    25
100
AcDbLine
 10
6724.726545872
 20
5607.3680731224
 30
0.0
 11
6724.72422269
 21
5607.3675155863
 31
0.0
  0
LINE
  5
4DB
330
1F
100
AcDbEntity
  8
0
  6
SLD-Plná
 62
     7
370
    25
100
AcDbLine
 10
6724.72422269
 20
5607.3675155863
 30
0.0
 11
6725.5421336369
 21
5607.586674164
 31
0.0
  0
LINE
  5
4DC
330
1F
100
AcDbEntity
  8
0
  6
SLD-Plná
 62
     7
370
    25
100
AcDbLine
 10
6725.5421336369
 20
5607.586674164
 30
0.0
 11
6725.5396967468
 21
5607.5859562427
 31
0.0
  0
LINE
  5
4DD
330
1F
100
AcDbEntity
  8
0
  6
SLD-Plná
 62
     7
370
    25
100
AcDbLine
 10
6725.5396967468
 20
5607.5859562427
 30
0.0
 11
6724.7301508908
 21
5607.1893160694
 31
0.0
  0
LINE
  5
4DE
330
1F
100
AcDbEntity
  8
0
  6
SLD-Plná
 62
     7
370
    25
100
AcDbLine
 10
6724.7301508908
 20
5607.1893160694
 30
0.0
 11
6725.0272965834
 21
5607.2689360178
 31
0.0
  0
LINE
  5
4DF
330
1F
100
AcDbEntity
  8
0
  6
SLD-Plná
 62
     7
370
    25
100
AcDbLine
 10
6725.0272965834
 20
5607.2689360178
 30
0.0
 11
6725.8368424394
 21
5607.665576191
 31
0.0
  0
LINE
  5
4E0
330
1F
100
AcDbEntity
  8
0
  6
SLD-Plná
 62
     7
370
    25
100
AcDbLine
 10
6725.8368424394
 20
5607.665576191
 30
0.0
 11
6725.835184726
 21
5607.6651969666
 31
0.0
  0
LINE
  5
4E1
330
1F
100
AcDbEntity
  8
0
  6
SLD-Plná
 62
     7
370
    25
100
AcDbLine
 10
6725.835184726
 20
5607.6651969666
 30
0.0
 11
6726.4264160422
 21
5607.8236169204
 31
0.0
  0
LINE
  5
4E2
330
1F
100
AcDbEntity
  8
0
  6
SLD-Plná
 62
     7
370
    25
100
AcDbLine
 10
6726.4264160422
 20
5607.8236169204
 30
0.0
 11
6726.424632912
 21
5607.8230741735
 31
0.0
  0
LINE
  5
4E3
330
1F
100
AcDbEntity
  8
0
  6
SLD-Plná
 62
     7
370
    25
100
AcDbLine
 10
6726.424632912
 20
5607.8230741735
 30
0.0
 11
6725.5602098868
 21
5607.4117297071
 31
0.0
  0
LINE
  5
4E4
330
1F
100
AcDbEntity
  8
0
  6
SLD-Plná
 62
     7
370
    25
100
AcDbLine
 10
6725.5602098868
 20
5607.4117297071
 30
0.0
 11
6725.7586858956
 21
5607.4649111933
 31
0.0
  0
LINE
  5
4E5
330
1F
100
AcDbEntity
  8
0
  6
SLD-Plná
 62
     7
370
    25
100
AcDbLine
 10
6725.7586858956
 20
5607.4649111933
 30
0.0
 11
6726.6231089208
 21
5607.8762556598
 31
0.0
  0
LINE
  5
4E6
330
1F
100
AcDbEntity
  8
0
  6
SLD-Plná
 62
     7
370
    25
100
AcDbLine
 10
6726.6231089208
 20
5607.8762556598
 30
0.0
 11
6726.6221570944
 21
5607.8760655772
 31
0.0
  0
LINE
  5
4E7
330
1F
100
AcDbEntity
  8
0
  6
SLD-Plná
 62
     7
370
    25
100
AcDbLine
 10
6726.6221570944
 20
5607.8760655772
 30
0.0
 11
6726.9721507028
 21
5607.969846082
 31
0.0
  0
LINE
  5
4E8
330
1F
100
AcDbEntity
  8
0
  6
SLD-Plná
 62
     7
370
    25
100
AcDbLine
 10
6726.9721507028
 20
5607.969846082
 30
0.0
 11
6726.971065639
 21
5607.9694903814
 31
0.0
  0
LWPOLYLINE
  5
4E9
330
1F
100
AcDbEntity
  8
0
  6
SLD-Plná
 62
     7
370
    25
100
AcDbPolyline
 90
        3
 70
   128
 43
0.0
 10
6726.971065639
 20
5607.9694903814
 10
6726.2862955474
 20
5607.6487915561
 10
6726.0741567526
 20
5607.5494413547
  0
LINE
  5
4EA
330
1F
100
AcDbEntity
  8
0
  6
SLD-Plná
 62
     7
370
    25
100
AcDbLine
 10
6726.0741567526
 20
5607.5494413547
 30
0.0
 11
6726.1690759395
 21
5607.5748748742
 31
0.0
  0
LWPOLYLINE
  5
4EB
330
1F
100
AcDbEntity
  8
0
  6
SLD-Plná
 62
     7
370
    25
100
AcDbPolyline
 90
        3
 70
   128
 43
0.0
 10
6726.1690759395
 20
5607.5748748742
 10
6726.3812147342
 20
5607.6742250756
 10
6727.0659848259
 20
5607.9949239009
  0
LINE
  5
4EC
330
1F
100
AcDbEntity
  8
0
  6
SLD-Plná
 62
     7
370
    25
100
AcDbLine
 10
6727.0659848259
 20
5607.9949239009
 30
0.0
 11
6727.0657619237
 21
5607.994929133
 31
0.0
  0
LINE
  5
4ED
330
1F
100
AcDbEntity
  8
0
  6
SLD-Plná
 62
     7
370
    25
100
AcDbLine
 10
6727.0657619237
 20
5607.994929133
 30
0.0
 11
6727.1658998201
 21
5608.0217610015
 31
0.0
  0
LINE
  5
4EE
330
1F
100
AcDbEntity
  8
0
  6
SLD-Plná
 62
     7
370
    25
100
AcDbLine
 10
6727.1658998201
 20
5608.0217610015
 30
0.0
 11
6727.1655399405
 21
5608.0215996134
 31
0.0
  0
LINE
  5
4EF
330
1F
100
AcDbEntity
  8
0
  6
SLD-Plná
 62
     7
370
    25
100
AcDbLine
 10
6727.1655399405
 20
5608.0215996134
 30
0.0
 11
6726.2593364107
 21
5607.5990600945
 31
0.0
  0
LINE
  5
4F0
330
1F
100
AcDbEntity
  8
0
  6
SLD-Plná
 62
     7
370
    25
100
AcDbLine
 10
6726.2593364107
 20
5607.5990600945
 30
0.0
 11
6726.2574149606
 21
5607.5985452436
 31
0.0
  0
LINE
  5
4F1
330
1F
100
AcDbEntity
  8
0
  6
SLD-Plná
 62
     7
370
    25
100
AcDbLine
 10
6714.3444247686
 20
5606.3871487433
 30
0.0
 11
6714.8468063313
 21
5604.7208698497
 31
0.0
  0
LINE
  5
4F2
330
1F
100
AcDbEntity
  8
0
  6
SLD-Plná
 62
     7
370
    25
100
AcDbLine
 10
6713.2458304381
 20
5604.291889652
 30
0.0
 11
6712.7918620494
 21
5605.9711408165
 31
0.0
  0
LINE
  5
4F3
330
1F
100
AcDbEntity
  8
0
  6
SLD-Plná
 62
     7
370
    25
100
AcDbLine
 10
6712.1229886234
 20
5605.7919167222
 30
0.0
 11
6712.5790873817
 21
5604.1132363885
 31
0.0
  0
LINE
  5
4F4
330
1F
100
AcDbEntity
  8
0
  6
SLD-Plná
 62
     7
370
    25
100
AcDbLine
 10
6710.9740154072
 20
5603.6831586491
 30
0.0
 11
6710.5664536876
 21
5605.3748444431
 31
0.0
  0
LINE
  5
4F5
330
1F
100
AcDbEntity
  8
0
  6
SLD-Plná
 62
     7
370
    25
100
AcDbLine
 10
6712.7795288026
 20
5605.967836133
 30
0.0
 11
6713.2799877537
 21
5604.1212541036
 31
0.0
  0
LINE
  5
4F6
330
1F
100
AcDbEntity
  8
0
  6
SLD-Plná
 62
     7
370
    25
100
AcDbLine
 10
6716.5137259099
 20
5606.9684112323
 30
0.0
 11
6717.0611059579
 21
5605.3141896464
 31
0.0
  0
LINE
  5
4F7
330
1F
100
AcDbEntity
  8
0
  6
SLD-Plná
 62
     7
370
    25
100
AcDbLine
 10
6715.5036474856
 20
5604.8968699065
 30
0.0
 11
6715.0033646541
 21
5606.5637111535
 31
0.0
  0
LINE
  5
4F8
330
1F
100
AcDbEntity
  8
0
  6
SLD-Plná
 62
     7
370
    25
100
AcDbLine
 10
6708.7441420188
 20
5603.0856658755
 30
0.0
 11
6708.3819365082
 21
5604.7895048291
 31
0.0
  0
LINE
  5
4F9
330
1F
100
AcDbEntity
  8
0
  6
SLD-Plná
 62
     7
370
    25
100
AcDbLine
 10
6709.9041166047
 20
5605.1973717566
 30
0.0
 11
6710.3137878756
 21
5603.5062512152
 31
0.0
  0
LINE
  5
4FA
330
1F
100
AcDbEntity
  8
0
  6
SLD-Plná
 62
     7
370
    25
100
AcDbLine
 10
6710.0382997517
 20
5605.2333260225
 30
0.0
 11
6710.4877257985
 21
5603.3730697677
 31
0.0
  0
LINE
  5
4FB
330
1F
100
AcDbEntity
  8
0
  6
SLD-Plná
 62
     7
370
    25
100
AcDbLine
 10
6714.83770334
 20
5606.5193223382
 30
0.0
 11
6715.3890649615
 21
5604.6863796382
 31
0.0
  0
LINE
  5
4FC
330
1F
100
AcDbEntity
  8
0
  6
SLD-Plná
 62
     7
370
    25
100
AcDbLine
 10
6708.0270257897
 20
5604.6944067886
 30
0.0
 11
6708.4265452976
 21
5602.820778117
 31
0.0
  0
LINE
  5
4FD
330
1F
100
AcDbEntity
  8
0
  6
SLD-Plná
 62
     7
370
    25
100
AcDbLine
 10
6718.5774766538
 20
5607.5213915775
 30
0.0
 11
6719.1674628556
 21
5605.8785862761
 31
0.0
  0
LINE
  5
4FE
330
1F
100
AcDbEntity
  8
0
  6
SLD-Plná
 62
     7
370
    25
100
AcDbLine
 10
6717.6918716009
 20
5605.4832027911
 30
0.0
 11
6717.1465069681
 21
5607.1379644058
 31
0.0
  0
LINE
  5
4FF
330
1F
100
AcDbEntity
  8
0
  6
SLD-Plná
 62
     7
370
    25
100
AcDbLine
 10
6706.6111171563
 20
5602.5141235861
 30
0.0
 11
6706.2921005743
 21
5604.2295349783
 31
0.0
  0
LINE
  5
500
330
1F
100
AcDbEntity
  8
0
  6
SLD-Plná
 62
     7
370
    25
100
AcDbLine
 10
6707.7424447056
 20
5604.618153517
 30
0.0
 11
6708.106687005
 21
5602.9148603193
 31
0.0
  0
LINE
  5
501
330
1F
100
AcDbEntity
  8
0
  6
SLD-Plná
 62
     7
370
    25
100
AcDbLine
 10
6716.831596718
 20
5607.0535844586
 30
0.0
 11
6717.4324773832
 21
5605.2339103464
 31
0.0
  0
LINE
  5
502
330
1F
100
AcDbEntity
  8
0
  6
SLD-Plná
 62
     7
370
    25
100
AcDbLine
 10
6706.1191721528
 20
5604.1831989474
 30
0.0
 11
6706.471140352
 21
5602.2968289409
 31
0.0
  0
LINE
  5
503
330
1F
100
AcDbEntity
  8
0
  6
SLD-Plná
 62
     7
370
    25
100
AcDbLine
 10
6704.6274629709
 20
5601.9826050491
 30
0.0
 11
6704.3484045823
 21
5603.7087232069
 31
0.0
  0
LINE
  5
504
330
1F
100
AcDbEntity
  8
0
  6
SLD-Plná
 62
     7
370
    25
100
AcDbLine
 10
6705.6912004624
 20
5604.0685242785
 30
0.0
 11
6706.0121309183
 21
5602.3536257074
 31
0.0
  0
LINE
  5
505
330
1F
100
AcDbEntity
  8
0
  6
SLD-Plná
 62
     7
370
    25
100
AcDbLine
 10
6720.4848606076
 20
5608.0324735675
 30
0.0
 11
6721.1140115272
 21
5606.4001624207
 31
0.0
  0
LINE
  5
506
330
1F
100
AcDbEntity
  8
0
  6
SLD-Plná
 62
     7
370
    25
100
AcDbLine
 10
6719.756621444
 20
5606.0364508441
 30
0.0
 11
6719.1685177148
 21
5607.6797605524
 31
0.0
  0
LINE
  5
507
330
1F
100
AcDbEntity
  8
0
  6
SLD-Plná
 62
     7
370
    25
100
AcDbLine
 10
6718.7121126642
 20
5607.5574671877
 30
0.0
 11
6719.3599094233
 21
5605.750364205
 31
0.0
  0
LINE
  5
508
330
1F
100
AcDbEntity
  8
0
  6
SLD-Plná
 62
     7
370
    25
100
AcDbLine
 10
6722.1107997301
 20
5605.3623141011
 30
0.0
 11
6722.2018870586
 21
5605.3867208772
 31
0.0
  0
LINE
  5
509
330
1F
100
AcDbEntity
  8
0
  6
SLD-Plná
 62
     7
370
    25
100
AcDbLine
 10
6703.805272608
 20
5600.4573628917
 30
0.0
 11
6722.1107997301
 21
5605.3623141011
 31
0.0
  0
LINE
  5
50A
330
1F
100
AcDbEntity
  8
0
  6
SLD-Plná
 62
     7
370
    25
100
AcDbLine
 10
6702.3109805608
 20
5600.3266292776
 30
0.0
 11
6702.3181619581
 21
5600.3285535272
 31
0.0
  0
LINE
  5
50B
330
1F
100
AcDbEntity
  8
0
  6
SLD-Plná
 62
     7
370
    25
100
AcDbLine
 10
6702.3181619581
 20
5600.3285535272
 30
0.0
 11
6703.3081546509
 21
5600.4148596431
 31
0.0
  0
LINE
  5
50C
330
1F
100
AcDbEntity
  8
0
  6
SLD-Plná
 62
     7
370
    25
100
AcDbLine
 10
6703.3081546509
 20
5600.4148596431
 30
0.0
 11
6703.3544966651
 21
5600.4272769484
 31
0.0
  0
LINE
  5
50D
330
1F
100
AcDbEntity
  8
0
  6
SLD-Plná
 62
     7
370
    25
100
AcDbLine
 10
6703.3544966651
 20
5600.4272769484
 30
0.0
 11
6702.3645039723
 21
5600.3409708325
 31
0.0
  0
LINE
  5
50E
330
1F
100
AcDbEntity
  8
0
  6
SLD-Plná
 62
     7
370
    25
100
AcDbLine
 10
6702.3645039723
 20
5600.3409708325
 30
0.0
 11
6702.6313977461
 21
5600.4124848036
 31
0.0
  0
LINE
  5
50F
330
1F
100
AcDbEntity
  8
0
  6
SLD-Plná
 62
     7
370
    25
100
AcDbLine
 10
6702.6313977461
 20
5600.4124848036
 30
0.0
 11
6703.5872329034
 21
5600.4896384355
 31
0.0
  0
LINE
  5
510
330
1F
100
AcDbEntity
  8
0
  6
SLD-Plná
 62
     7
370
    25
100
AcDbLine
 10
6703.5872329034
 20
5600.4896384355
 30
0.0
 11
6703.7728107503
 21
5600.5393638697
 31
0.0
  0
LINE
  5
511
330
1F
100
AcDbEntity
  8
0
  6
SLD-Plná
 62
     7
370
    25
100
AcDbLine
 10
6703.7728107503
 20
5600.5393638697
 30
0.0
 11
6702.816975593
 21
5600.4622102378
 31
0.0
  0
LINE
  5
512
330
1F
100
AcDbEntity
  8
0
  6
SLD-Plná
 62
     7
370
    25
100
AcDbLine
 10
6702.816975593
 20
5600.4622102378
 30
0.0
 11
6703.3950012956
 21
5600.6170917581
 31
0.0
  0
LINE
  5
513
330
1F
100
AcDbEntity
  8
0
  6
SLD-Plná
 62
     7
370
    25
100
AcDbLine
 10
6703.3950012956
 20
5600.6170917581
 30
0.0
 11
6704.2768597049
 21
5600.6744233801
 31
0.0
  0
LINE
  5
514
330
1F
100
AcDbEntity
  8
0
  6
SLD-Plná
 62
     7
370
    25
100
AcDbLine
 10
6704.2768597049
 20
5600.6744233801
 30
0.0
 11
6704.593562742
 21
5600.7592837031
 31
0.0
  0
LINE
  5
515
330
1F
100
AcDbEntity
  8
0
  6
SLD-Plná
 62
     7
370
    25
100
AcDbLine
 10
6704.593562742
 20
5600.7592837031
 30
0.0
 11
6703.7117043328
 21
5600.7019520811
 31
0.0
  0
LINE
  5
516
330
1F
100
AcDbEntity
  8
0
  6
SLD-Plná
 62
     7
370
    25
100
AcDbLine
 10
6703.7117043328
 20
5600.7019520811
 30
0.0
 11
6704.5755994673
 21
5600.9334320847
 31
0.0
  0
LINE
  5
517
330
1F
100
AcDbEntity
  8
0
  6
SLD-Plná
 62
     7
370
    25
100
AcDbLine
 10
6704.5755994673
 20
5600.9334320847
 30
0.0
 11
6705.3468950549
 21
5600.961138488
 31
0.0
  0
LINE
  5
518
330
1F
100
AcDbEntity
  8
0
  6
SLD-Plná
 62
     7
370
    25
100
AcDbLine
 10
6705.3468950549
 20
5600.961138488
 30
0.0
 11
6705.7808818399
 21
5601.0774248965
 31
0.0
  0
LINE
  5
519
330
1F
100
AcDbEntity
  8
0
  6
SLD-Plná
 62
     7
370
    25
100
AcDbLine
 10
6705.7808818399
 20
5601.0774248965
 30
0.0
 11
6705.0095862523
 21
5601.0497184933
 31
0.0
  0
LINE
  5
51A
330
1F
100
AcDbEntity
  8
0
  6
SLD-Plná
 62
     7
370
    25
100
AcDbLine
 10
6705.0095862523
 20
5601.0497184933
 30
0.0
 11
6706.1215944558
 21
5601.3476801934
 31
0.0
  0
LINE
  5
51B
330
1F
100
AcDbEntity
  8
0
  6
SLD-Plná
 62
     7
370
    25
100
AcDbLine
 10
6706.1215944558
 20
5601.3476801934
 30
0.0
 11
6706.750573274
 21
5601.3372529332
 31
0.0
  0
LINE
  5
51C
330
1F
100
AcDbEntity
  8
0
  6
SLD-Plná
 62
     7
370
    25
100
AcDbLine
 10
6706.750573274
 20
5601.3372529332
 30
0.0
 11
6707.2828765018
 21
5601.4798831532
 31
0.0
  0
LINE
  5
51D
330
1F
100
AcDbEntity
  8
0
  6
SLD-Plná
 62
     7
370
    25
100
AcDbLine
 10
6707.2828765018
 20
5601.4798831532
 30
0.0
 11
6706.6538976837
 21
5601.4903104135
 31
0.0
  0
LINE
  5
51E
330
1F
100
AcDbEntity
  8
0
  6
SLD-Plná
 62
     7
370
    25
100
AcDbLine
 10
6706.6538976837
 20
5601.4903104135
 30
0.0
 11
6707.9654188619
 21
5601.841731454
 31
0.0
  0
LINE
  5
51F
330
1F
100
AcDbEntity
  8
0
  6
SLD-Plná
 62
     7
370
    25
100
AcDbLine
 10
6707.9654188619
 20
5601.841731454
 30
0.0
 11
6708.4265468885
 21
5601.7863287097
 31
0.0
  0
LINE
  5
520
330
1F
100
AcDbEntity
  8
0
  6
SLD-Plná
 62
     7
370
    25
100
AcDbLine
 10
6708.4265468885
 20
5601.7863287097
 30
0.0
 11
6709.0339023538
 21
5601.9490691162
 31
0.0
  0
LINE
  5
521
330
1F
100
AcDbEntity
  8
0
  6
SLD-Plná
 62
     7
370
    25
100
AcDbLine
 10
6709.0339023538
 20
5601.9490691162
 30
0.0
 11
6708.5727743272
 21
5602.0044718605
 31
0.0
  0
LINE
  5
522
330
1F
100
AcDbEntity
  8
0
  6
SLD-Plná
 62
     7
370
    25
100
AcDbLine
 10
6708.5727743272
 20
5602.0044718605
 30
0.0
 11
6710.0264887111
 21
5602.3939934557
 31
0.0
  0
LINE
  5
523
330
1F
100
AcDbEntity
  8
0
  6
SLD-Plná
 62
     7
370
    25
100
AcDbLine
 10
6710.0264887111
 20
5602.3939934557
 30
0.0
 11
6710.3015678091
 21
5602.2887390512
 31
0.0
  0
LINE
  5
524
330
1F
100
AcDbEntity
  8
0
  6
SLD-Plná
 62
     7
370
    25
100
AcDbLine
 10
6710.3015678091
 20
5602.2887390512
 30
0.0
 11
6710.9574311637
 21
5602.4644771074
 31
0.0
  0
LINE
  5
525
330
1F
100
AcDbEntity
  8
0
  6
SLD-Plná
 62
     7
370
    25
100
AcDbLine
 10
6710.9574311637
 20
5602.4644771074
 30
0.0
 11
6710.6823520657
 21
5602.5697315119
 31
0.0
  0
LINE
  5
526
330
1F
100
AcDbEntity
  8
0
  6
SLD-Plná
 62
     7
370
    25
100
AcDbLine
 10
6710.6823520657
 20
5602.5697315119
 30
0.0
 11
6712.214725361
 21
5602.9803296989
 31
0.0
  0
LINE
  5
527
330
1F
100
AcDbEntity
  8
0
  6
SLD-Plná
 62
     7
370
    25
100
AcDbLine
 10
6712.214725361
 20
5602.9803296989
 30
0.0
 11
6712.2936886244
 21
5602.8225262149
 31
0.0
  0
LINE
  5
528
330
1F
100
AcDbEntity
  8
0
  6
SLD-Plná
 62
     7
370
    25
100
AcDbLine
 10
6712.2936886244
 20
5602.8225262149
 30
0.0
 11
6712.9693954924
 21
5603.0035813245
 31
0.0
  0
LINE
  5
529
330
1F
100
AcDbEntity
  8
0
  6
SLD-Plná
 62
     7
370
    25
100
AcDbLine
 10
6712.9693954924
 20
5603.0035813245
 30
0.0
 11
6712.8904322291
 21
5603.1613848085
 31
0.0
  0
LINE
  5
52A
330
1F
100
AcDbEntity
  8
0
  6
SLD-Plná
 62
     7
370
    25
100
AcDbLine
 10
6712.8904322291
 20
5603.1613848085
 30
0.0
 11
6714.4344923698
 21
5603.5751144762
 31
0.0
  0
LINE
  5
52B
330
1F
100
AcDbEntity
  8
0
  6
SLD-Plná
 62
     7
370
    25
100
AcDbLine
 10
6714.4344923698
 20
5603.5751144762
 30
0.0
 11
6714.3158440953
 21
5603.3643611403
 31
0.0
  0
LINE
  5
52C
330
1F
100
AcDbEntity
  8
0
  6
SLD-Plná
 62
     7
370
    25
100
AcDbLine
 10
6714.3158440953
 20
5603.3643611403
 30
0.0
 11
6714.9818628443
 21
5603.5428203262
 31
0.0
  0
LINE
  5
52D
330
1F
100
AcDbEntity
  8
0
  6
SLD-Plná
 62
     7
370
    25
100
AcDbLine
 10
6714.9818628443
 20
5603.5428203262
 30
0.0
 11
6715.1005111187
 21
5603.7535736622
 31
0.0
  0
LINE
  5
52E
330
1F
100
AcDbEntity
  8
0
  6
SLD-Plná
 62
     7
370
    25
100
AcDbLine
 10
6715.1005111187
 20
5603.7535736622
 30
0.0
 11
6716.5887752673
 21
5604.1523528389
 31
0.0
  0
LINE
  5
52F
330
1F
100
AcDbEntity
  8
0
  6
SLD-Plná
 62
     7
370
    25
100
AcDbLine
 10
6716.5887752673
 20
5604.1523528389
 30
0.0
 11
6716.2796563246
 21
5603.8905630412
 31
0.0
  0
LINE
  5
530
330
1F
100
AcDbEntity
  8
0
  6
SLD-Plná
 62
     7
370
    25
100
AcDbLine
 10
6716.2796563246
 20
5603.8905630412
 30
0.0
 11
6716.9068787393
 21
5604.0586267807
 31
0.0
  0
LINE
  5
531
330
1F
100
AcDbEntity
  8
0
  6
SLD-Plná
 62
     7
370
    25
100
AcDbLine
 10
6716.9068787393
 20
5604.0586267807
 30
0.0
 11
6717.215997682
 21
5604.3204165784
 31
0.0
  0
LINE
  5
532
330
1F
100
AcDbEntity
  8
0
  6
SLD-Plná
 62
     7
370
    25
100
AcDbLine
 10
6717.215997682
 20
5604.3204165784
 30
0.0
 11
6718.5834215538
 21
5604.6868167005
 31
0.0
  0
LINE
  5
533
330
1F
100
AcDbEntity
  8
0
  6
SLD-Plná
 62
     7
370
    25
100
AcDbLine
 10
6718.5834215538
 20
5604.6868167005
 30
0.0
 11
6718.0992972943
 21
5604.3781343696
 31
0.0
  0
LINE
  5
534
330
1F
100
AcDbEntity
  8
0
  6
SLD-Plná
 62
     7
370
    25
100
AcDbLine
 10
6718.0992972943
 20
5604.3781343696
 30
0.0
 11
6718.6603107454
 21
5604.5284574707
 31
0.0
  0
LINE
  5
535
330
1F
100
AcDbEntity
  8
0
  6
SLD-Plná
 62
     7
370
    25
100
AcDbLine
 10
6718.6603107454
 20
5604.5284574707
 30
0.0
 11
6719.1444350049
 21
5604.8371398017
 31
0.0
  0
LINE
  5
536
330
1F
100
AcDbEntity
  8
0
  6
SLD-Plná
 62
     7
370
    25
100
AcDbLine
 10
6719.1444350049
 20
5604.8371398017
 30
0.0
 11
6720.331255615
 21
5605.1551474258
 31
0.0
  0
LINE
  5
537
330
1F
100
AcDbEntity
  8
0
  6
SLD-Plná
 62
     7
370
    25
100
AcDbLine
 10
6720.331255615
 20
5605.1551474258
 30
0.0
 11
6719.6952399624
 21
5604.8057659186
 31
0.0
  0
LINE
  5
538
330
1F
100
AcDbEntity
  8
0
  6
SLD-Plná
 62
     7
370
    25
100
AcDbLine
 10
6719.6952399624
 20
5604.8057659186
 30
0.0
 11
6720.1655254701
 21
5604.9317785406
 31
0.0
  0
LINE
  5
539
330
1F
100
AcDbEntity
  8
0
  6
SLD-Plná
 62
     7
370
    25
100
AcDbLine
 10
6720.1655254701
 20
5604.9317785406
 30
0.0
 11
6720.8015411227
 21
5605.2811600477
 31
0.0
  0
LINE
  5
53A
330
1F
100
AcDbEntity
  8
0
  6
SLD-Plná
 62
     7
370
    25
100
AcDbLine
 10
6720.8015411227
 20
5605.2811600477
 30
0.0
 11
6721.7558887154
 21
5605.5368767145
 31
0.0
  0
LINE
  5
53B
330
1F
100
AcDbEntity
  8
0
  6
SLD-Plná
 62
     7
370
    25
100
AcDbLine
 10
6721.7558887154
 20
5605.5368767145
 30
0.0
 11
6720.9977339761
 21
5605.1547681378
 31
0.0
  0
LINE
  5
53C
330
1F
100
AcDbEntity
  8
0
  6
SLD-Plná
 62
     7
370
    25
100
AcDbLine
 10
6720.9977339761
 20
5605.1547681378
 30
0.0
 11
6721.356737807
 21
5605.2509629243
 31
0.0
  0
LINE
  5
53D
330
1F
100
AcDbEntity
  8
0
  6
SLD-Plná
 62
     7
370
    25
100
AcDbLine
 10
6721.356737807
 20
5605.2509629243
 30
0.0
 11
6722.1148925463
 21
5605.6330715011
 31
0.0
  0
LINE
  5
53E
330
1F
100
AcDbEntity
  8
0
  6
SLD-Plná
 62
     7
370
    25
100
AcDbLine
 10
6722.1148925463
 20
5605.6330715011
 30
0.0
 11
6722.7950575525
 21
5605.8153211652
 31
0.0
  0
LINE
  5
53F
330
1F
100
AcDbEntity
  8
0
  6
SLD-Plná
 62
     7
370
    25
100
AcDbLine
 10
6722.7950575525
 20
5605.8153211652
 30
0.0
 11
6721.9498540971
 21
5605.4098879553
 31
0.0
  0
LINE
  5
540
330
1F
100
AcDbEntity
  8
0
  6
SLD-Plná
 62
     7
370
    25
100
AcDbLine
 10
6721.9498540971
 20
5605.4098879553
 30
0.0
 11
6722.1818860611
 21
5605.4720607327
 31
0.0
  0
LINE
  5
541
330
1F
100
AcDbEntity
  8
0
  6
SLD-Plná
 62
     7
370
    25
100
AcDbLine
 10
6722.1818860611
 20
5605.4720607327
 30
0.0
 11
6723.0270895165
 21
5605.8774939426
 31
0.0
  0
LINE
  5
542
330
1F
100
AcDbEntity
  8
0
  6
SLD-Plná
 62
     7
370
    25
100
AcDbLine
 10
6723.0270895165
 20
5605.8774939426
 30
0.0
 11
6723.4033454615
 21
5605.9783114192
 31
0.0
  0
LINE
  5
543
330
1F
100
AcDbEntity
  8
0
  6
SLD-Plná
 62
     7
370
    25
100
AcDbLine
 10
6723.4033454615
 20
5605.9783114192
 30
0.0
 11
6722.5099881073
 21
5605.559975411
 31
0.0
  0
LINE
  5
544
330
1F
100
AcDbEntity
  8
0
  6
SLD-Plná
 62
     7
370
    25
100
AcDbLine
 10
6722.5099881073
 20
5605.559975411
 30
0.0
 11
6722.6049072941
 21
5605.5854089304
 31
0.0
  0
LINE
  5
545
330
1F
100
AcDbEntity
  8
0
  6
SLD-Plná
 62
     7
370
    25
100
AcDbLine
 10
6722.6049072941
 20
5605.5854089304
 30
0.0
 11
6723.4982646484
 21
5606.0037449387
 31
0.0
  0
LINE
  5
546
330
1F
100
AcDbEntity
  8
0
  6
SLD-Plná
 62
     7
370
    25
100
AcDbLine
 10
6723.4982646484
 20
5606.0037449387
 30
0.0
 11
6723.5613487392
 21
5606.0206482699
 31
0.0
  0
LINE
  5
547
330
1F
100
AcDbEntity
  8
0
  6
SLD-Plná
 62
     7
370
    25
100
AcDbLine
 10
6704.642221406
 20
5601.9832526764
 30
0.0
 11
6704.669659521
 21
5601.8141236071
 31
0.0
  0
LINE
  5
548
330
1F
100
AcDbEntity
  8
0
  6
SLD-Plná
 62
     7
370
    25
100
AcDbLine
 10
6702.8420236119
 20
5601.5041980147
 30
0.0
 11
6702.5987087783
 21
5603.2398936292
 31
0.0
  0
LINE
  5
549
330
1F
100
AcDbEntity
  8
0
  6
SLD-Plná
 62
     7
370
    25
100
AcDbLine
 10
6703.8008923162
 20
5603.5620177373
 30
0.0
 11
6704.0816945378
 21
5601.8363668382
 31
0.0
  0
LINE
  5
54A
330
1F
100
AcDbEntity
  8
0
  6
SLD-Plná
 62
     7
370
    25
100
AcDbLine
 10
6722.1889116482
 20
5608.4890726677
 30
0.0
 11
6722.8528214841
 21
5606.8660751445
 31
0.0
  0
LINE
  5
54B
330
1F
100
AcDbEntity
  8
0
  6
SLD-Plná
 62
     7
370
    25
100
AcDbLine
 10
6721.6470560211
 20
5606.5429912624
 30
0.0
 11
6721.019608279
 21
5608.1757587742
 31
0.0
  0
LINE
  5
54C
330
1F
100
AcDbEntity
  8
0
  6
SLD-Plná
 62
     7
370
    25
100
AcDbLine
 10
6721.0663999753
 20
5606.3724493702
 30
0.0
 11
6721.1239013082
 21
5606.223024406
 31
0.0
  0
LINE
  5
54D
330
1F
100
AcDbEntity
  8
0
  6
SLD-Plná
 62
     7
370
    25
100
AcDbLine
 10
6714.2213569239
 20
5604.2836204529
 30
0.0
 11
6714.4344923698
 21
5603.5751144762
 31
0.0
  0
LINE
  5
54E
330
1F
100
AcDbEntity
  8
0
  6
SLD-Plná
 62
     7
370
    25
100
AcDbLine
 10
6712.8904322291
 20
5603.1613848085
 30
0.0
 11
6712.7035801935
 21
5603.8769334037
 31
0.0
  0
LINE
  5
54F
330
1F
100
AcDbEntity
  8
0
  6
SLD-Plná
 62
     7
370
    25
100
AcDbLine
 10
6712.0278733255
 20
5603.6958782941
 30
0.0
 11
6712.214725361
 21
5602.9803296989
 31
0.0
  0
LINE
  5
550
330
1F
100
AcDbEntity
  8
0
  6
SLD-Plná
 62
     7
370
    25
100
AcDbLine
 10
6710.6823520657
 20
5602.5697315119
 30
0.0
 11
6710.5215845038
 21
5603.2922694207
 31
0.0
  0
LINE
  5
551
330
1F
100
AcDbEntity
  8
0
  6
SLD-Plná
 62
     7
370
    25
100
AcDbLine
 10
6716.3503061856
 20
5604.8540706883
 30
0.0
 11
6716.5887752673
 21
5604.1523528389
 31
0.0
  0
LINE
  5
552
330
1F
100
AcDbEntity
  8
0
  6
SLD-Plná
 62
     7
370
    25
100
AcDbLine
 10
6715.1005111187
 20
5603.7535736622
 30
0.0
 11
6714.8873756729
 21
5604.4620796388
 31
0.0
  0
LINE
  5
553
330
1F
100
AcDbEntity
  8
0
  6
SLD-Plná
 62
     7
370
    25
100
AcDbLine
 10
6712.0631572881
 20
5603.7053326034
 30
0.0
 11
6712.2936886244
 21
5602.8225262149
 31
0.0
  0
LINE
  5
554
330
1F
100
AcDbEntity
  8
0
  6
SLD-Plná
 62
     7
370
    25
100
AcDbLine
 10
6714.7189210001
 20
5604.4169423453
 30
0.0
 11
6714.9818628443
 21
5603.5428203262
 31
0.0
  0
LINE
  5
555
330
1F
100
AcDbEntity
  8
0
  6
SLD-Plná
 62
     7
370
    25
100
AcDbLine
 10
6703.049110023
 20
5601.5078824024
 30
0.0
 11
6703.0664612416
 21
5601.3845479228
 31
0.0
  0
LINE
  5
556
330
1F
100
AcDbEntity
  8
0
  6
SLD-Plná
 62
     7
370
    25
100
AcDbLine
 10
6709.8657211492
 20
5603.1165313645
 30
0.0
 11
6710.0264887111
 21
5602.3939934557
 31
0.0
  0
LINE
  5
557
330
1F
100
AcDbEntity
  8
0
  6
SLD-Plná
 62
     7
370
    25
100
AcDbLine
 10
6710.1032016688
 20
5603.180164078
 30
0.0
 11
6710.3015678091
 21
5602.2887390512
 31
0.0
  0
LINE
  5
558
330
1F
100
AcDbEntity
  8
0
  6
SLD-Plná
 62
     7
370
    25
100
AcDbLine
 10
6708.5727743272
 20
5602.0044718605
 30
0.0
 11
6708.4367522857
 21
5602.7336403115
 31
0.0
  0
LINE
  5
559
330
1F
100
AcDbEntity
  8
0
  6
SLD-Plná
 62
     7
370
    25
100
AcDbLine
 10
6701.2987625219
 20
5601.0906824519
 30
0.0
 11
6701.0860964798
 21
5602.8345903853
 31
0.0
  0
LINE
  5
55A
330
1F
100
AcDbEntity
  8
0
  6
SLD-Plná
 62
     7
370
    25
100
AcDbLine
 10
6702.1180659271
 20
5603.1111057654
 30
0.0
 11
6702.3629116138
 21
5601.3758203417
 31
0.0
  0
LINE
  5
55B
330
1F
100
AcDbEntity
  8
0
  6
SLD-Plná
 62
     7
370
    25
100
AcDbLine
 10
6723.6476703836
 20
5608.8799458928
 30
0.0
 11
6724.3410774544
 21
5607.2648521298
 31
0.0
  0
LINE
  5
55C
330
1F
100
AcDbEntity
  8
0
  6
SLD-Plná
 62
     7
370
    25
100
AcDbLine
 10
6723.316626559
 20
5606.9903513397
 30
0.0
 11
6722.6541986677
 21
5608.6137459488
 31
0.0
  0
LINE
  5
55D
330
1F
100
AcDbEntity
  8
0
  6
SLD-Plná
 62
     7
370
    25
100
AcDbLine
 10
6718.3216758122
 20
5605.3822975877
 30
0.0
 11
6718.5834215538
 21
5604.6868167005
 31
0.0
  0
LINE
  5
55E
330
1F
100
AcDbEntity
  8
0
  6
SLD-Plná
 62
     7
370
    25
100
AcDbLine
 10
6717.215997682
 20
5604.3204165784
 30
0.0
 11
6716.9775286003
 21
5605.0221344278
 31
0.0
  0
LINE
  5
55F
330
1F
100
AcDbEntity
  8
0
  6
SLD-Plná
 62
     7
370
    25
100
AcDbLine
 10
6722.636856724
 20
5606.7483561632
 30
0.0
 11
6722.6810177033
 21
5606.6402524866
 31
0.0
  0
LINE
  5
560
330
1F
100
AcDbEntity
  8
0
  6
SLD-Plná
 62
     7
370
    25
100
AcDbLine
 10
6716.6126975697
 20
5604.9243782478
 30
0.0
 11
6716.9068787393
 21
5604.0586267807
 31
0.0
  0
LINE
  5
561
330
1F
100
AcDbEntity
  8
0
  6
SLD-Plná
 62
     7
370
    25
100
AcDbLine
 10
6707.8293968204
 20
5602.5708999051
 30
0.0
 11
6707.9654188619
 21
5601.841731454
 31
0.0
  0
LINE
  5
562
330
1F
100
AcDbEntity
  8
0
  6
SLD-Plná
 62
     7
370
    25
100
AcDbLine
 10
6708.2586948586
 20
5602.6859299677
 30
0.0
 11
6708.4265468885
 21
5601.7863287097
 31
0.0
  0
LINE
  5
563
330
1F
100
AcDbEntity
  8
0
  6
SLD-Plná
 62
     7
370
    25
100
AcDbLine
 10
6706.6538976837
 20
5601.4903104135
 30
0.0
 11
6706.5402007112
 21
5602.2254608488
 31
0.0
  0
LINE
  5
564
330
1F
100
AcDbEntity
  8
0
  6
SLD-Plná
 62
     7
370
    25
100
AcDbLine
 10
6719.1444350049
 20
5604.8371398017
 30
0.0
 11
6718.8826892633
 21
5605.5326206889
 31
0.0
  0
LINE
  5
565
330
1F
100
AcDbEntity
  8
0
  6
SLD-Plná
 62
     7
370
    25
100
AcDbLine
 10
6720.0493074912
 20
5605.8452151009
 30
0.0
 11
6720.331255615
 21
5605.1551474258
 31
0.0
  0
LINE
  5
566
330
1F
100
AcDbEntity
  8
0
  6
SLD-Plná
 62
     7
370
    25
100
AcDbLine
 10
6718.3374267416
 20
5605.3865180365
 30
0.0
 11
6718.6603107454
 21
5604.5284574707
 31
0.0
  0
LINE
  5
567
330
1F
100
AcDbEntity
  8
0
  6
SLD-Plná
 62
     7
370
    25
100
AcDbLine
 10
6701.6899871251
 20
5601.1088472634
 30
0.0
 11
6701.7010215761
 21
5601.0186794672
 31
0.0
  0
LINE
  5
568
330
1F
100
AcDbEntity
  8
0
  6
SLD-Plná
 62
     7
370
    25
100
AcDbLine
 10
6700.0356799109
 20
5600.7522404863
 30
0.0
 11
6699.8478132218
 21
5602.5027933864
 31
0.0
  0
LINE
  5
569
330
1F
100
AcDbEntity
  8
0
  6
SLD-Plná
 62
     7
370
    25
100
AcDbLine
 10
6700.6841580657
 20
5602.7268913119
 30
0.0
 11
6700.8981042864
 21
5600.9833264013
 31
0.0
  0
LINE
  5
56A
330
1F
100
AcDbEntity
  8
0
  6
SLD-Plná
 62
     7
370
    25
100
AcDbLine
 10
6706.0078974834
 20
5602.0828306287
 30
0.0
 11
6706.1215944558
 21
5601.3476801934
 31
0.0
  0
LINE
  5
56B
330
1F
100
AcDbEntity
  8
0
  6
SLD-Plná
 62
     7
370
    25
100
AcDbLine
 10
6706.7270807658
 20
5601.4890971786
 30
0.0
 11
6706.750573274
 21
5601.3372529332
 31
0.0
  0
LINE
  5
56C
330
1F
100
AcDbEntity
  8
0
  6
SLD-Plná
 62
     7
370
    25
100
AcDbLine
 10
6719.022356566
 20
5603.499492069
 30
0.0
 11
6719.0799657117
 21
5603.5149283931
 31
0.0
  0
LINE
  5
56D
330
1F
100
AcDbEntity
  8
0
  6
SLD-Plná
 62
     7
370
    25
100
AcDbLine
 10
6707.4448320451
 20
5600.3973037233
 30
0.0
 11
6719.022356566
 21
5603.499492069
 31
0.0
  0
LINE
  5
56E
330
1F
100
AcDbEntity
  8
0
  6
SLD-Plná
 62
     7
370
    25
100
AcDbLine
 10
6705.9505399979
 20
5600.2665701092
 30
0.0
 11
6706.0085436459
 21
5600.2821121398
 31
0.0
  0
LINE
  5
56F
330
1F
100
AcDbEntity
  8
0
  6
SLD-Plná
 62
     7
370
    25
100
AcDbLine
 10
6706.0085436459
 20
5600.2821121398
 30
0.0
 11
6706.9835771504
 21
5600.3650763392
 31
0.0
  0
LINE
  5
570
330
1F
100
AcDbEntity
  8
0
  6
SLD-Plná
 62
     7
370
    25
100
AcDbLine
 10
6706.9835771504
 20
5600.3650763392
 30
0.0
 11
6707.1001758207
 21
5600.3963188587
 31
0.0
  0
LINE
  5
571
330
1F
100
AcDbEntity
  8
0
  6
SLD-Plná
 62
     7
370
    25
100
AcDbLine
 10
6707.1001758207
 20
5600.3963188587
 30
0.0
 11
6706.1251423162
 21
5600.3133546593
 31
0.0
  0
LINE
  5
572
330
1F
100
AcDbEntity
  8
0
  6
SLD-Plná
 62
     7
370
    25
100
AcDbLine
 10
6706.1251423162
 20
5600.3133546593
 30
0.0
 11
6706.6429930249
 21
5600.4521123385
 31
0.0
  0
LINE
  5
573
330
1F
100
AcDbEntity
  8
0
  6
SLD-Plná
 62
     7
370
    25
100
AcDbLine
 10
6706.6429930249
 20
5600.4521123385
 30
0.0
 11
6707.5221496202
 21
5600.5093863975
 31
0.0
  0
LINE
  5
574
330
1F
100
AcDbEntity
  8
0
  6
SLD-Plná
 62
     7
370
    25
100
AcDbLine
 10
6707.5221496202
 20
5600.5093863975
 30
0.0
 11
6707.8388526574
 21
5600.5942467206
 31
0.0
  0
LINE
  5
575
330
1F
100
AcDbEntity
  8
0
  6
SLD-Plná
 62
     7
370
    25
100
AcDbLine
 10
6707.8388526574
 20
5600.5942467206
 30
0.0
 11
6706.959696062
 21
5600.5369726616
 31
0.0
  0
LINE
  5
576
330
1F
100
AcDbEntity
  8
0
  6
SLD-Plná
 62
     7
370
    25
100
AcDbLine
 10
6706.959696062
 20
5600.5369726616
 30
0.0
 11
6707.918796901
 21
5600.7939629569
 31
0.0
  0
LINE
  5
577
330
1F
100
AcDbEntity
  8
0
  6
SLD-Plná
 62
     7
370
    25
100
AcDbLine
 10
6707.918796901
 20
5600.7939629569
 30
0.0
 11
6708.6203818094
 21
5600.8036568257
 31
0.0
  0
LINE
  5
578
330
1F
100
AcDbEntity
  8
0
  6
SLD-Plná
 62
     7
370
    25
100
AcDbLine
 10
6708.6203818094
 20
5600.8036568257
 30
0.0
 11
6709.1061881136
 21
5600.9338282326
 31
0.0
  0
LINE
  5
579
330
1F
100
AcDbEntity
  8
0
  6
SLD-Plná
 62
     7
370
    25
100
AcDbLine
 10
6709.1061881136
 20
5600.9338282326
 30
0.0
 11
6708.4046032052
 21
5600.9241343637
 31
0.0
  0
LINE
  5
57A
330
1F
100
AcDbEntity
  8
0
  6
SLD-Plná
 62
     7
370
    25
100
AcDbLine
 10
6708.4046032052
 20
5600.9241343637
 30
0.0
 11
6709.7110707019
 21
5601.2742012744
 31
0.0
  0
LINE
  5
57B
330
1F
100
AcDbEntity
  8
0
  6
SLD-Plná
 62
     7
370
    25
100
AcDbLine
 10
6709.7110707019
 20
5601.2742012744
 30
0.0
 11
6710.1707710994
 21
5601.2190823839
 31
0.0
  0
LINE
  5
57C
330
1F
100
AcDbEntity
  8
0
  6
SLD-Plná
 62
     7
370
    25
100
AcDbLine
 10
6710.1707710994
 20
5601.2190823839
 30
0.0
 11
6710.7781265647
 21
5601.3818227904
 31
0.0
  0
LINE
  5
57D
330
1F
100
AcDbEntity
  8
0
  6
SLD-Plná
 62
     7
370
    25
100
AcDbLine
 10
6710.7781265647
 20
5601.3818227904
 30
0.0
 11
6710.3184261673
 21
5601.4369416809
 31
0.0
  0
LINE
  5
57E
330
1F
100
AcDbEntity
  8
0
  6
SLD-Plná
 62
     7
370
    25
100
AcDbLine
 10
6710.3184261673
 20
5601.4369416809
 30
0.0
 11
6711.8443741805
 21
5601.8458182187
 31
0.0
  0
LWPOLYLINE
  5
57F
330
1F
100
AcDbEntity
  8
0
  6
SLD-Plná
 62
     7
370
    25
100
AcDbPolyline
 90
        3
 70
   128
 43
0.0
 10
6711.8443741805
 20
5601.8458182187
 10
6711.8826129592
 20
5601.8175810897
 10
6712.0215545843
 20
5601.7149983241
  0
LINE
  5
580
330
1F
100
AcDbEntity
  8
0
  6
SLD-Plná
 62
     7
370
    25
100
AcDbLine
 10
6712.0215545843
 20
5601.7149983241
 30
0.0
 11
6712.6910070261
 21
5601.8943775652
 31
0.0
  0
LWPOLYLINE
  5
581
330
1F
100
AcDbEntity
  8
0
  6
SLD-Plná
 62
     7
370
    25
100
AcDbPolyline
 90
        3
 70
   128
 43
0.0
 10
6712.6910070261
 20
5601.8943775652
 10
6712.5520654011
 20
5601.9969603309
 10
6712.5138266223
 20
5602.0251974599
  0
LINE
  5
582
330
1F
100
AcDbEntity
  8
0
  6
SLD-Plná
 62
     7
370
    25
100
AcDbLine
 10
6712.5138266223
 20
5602.0251974599
 30
0.0
 11
6714.1098847285
 21
5602.4528599405
 31
0.0
  0
LINE
  5
583
330
1F
100
AcDbEntity
  8
0
  6
SLD-Plná
 62
     7
370
    25
100
AcDbLine
 10
6714.1098847285
 20
5602.4528599405
 30
0.0
 11
6713.9915646814
 21
5602.2428609387
 31
0.0
  0
LINE
  5
584
330
1F
100
AcDbEntity
  8
0
  6
SLD-Plná
 62
     7
370
    25
100
AcDbLine
 10
6713.9915646814
 20
5602.2428609387
 30
0.0
 11
6714.6575834304
 21
5602.4213201246
 31
0.0
  0
LINE
  5
585
330
1F
100
AcDbEntity
  8
0
  6
SLD-Plná
 62
     7
370
    25
100
AcDbLine
 10
6714.6575834304
 20
5602.4213201246
 30
0.0
 11
6714.7759034775
 21
5602.6313191264
 31
0.0
  0
LINE
  5
586
330
1F
100
AcDbEntity
  8
0
  6
SLD-Plná
 62
     7
370
    25
100
AcDbLine
 10
6714.7759034775
 20
5602.6313191264
 30
0.0
 11
6716.285838389
 21
5603.0359049666
 31
0.0
  0
LINE
  5
587
330
1F
100
AcDbEntity
  8
0
  6
SLD-Plná
 62
     7
370
    25
100
AcDbLine
 10
6716.285838389
 20
5603.0359049666
 30
0.0
 11
6715.8879630766
 21
5602.7509993572
 31
0.0
  0
LINE
  5
588
330
1F
100
AcDbEntity
  8
0
  6
SLD-Plná
 62
     7
370
    25
100
AcDbLine
 10
6715.8879630766
 20
5602.7509993572
 30
0.0
 11
6716.4853535771
 21
5602.9110696594
 31
0.0
  0
LINE
  5
589
330
1F
100
AcDbEntity
  8
0
  6
SLD-Plná
 62
     7
370
    25
100
AcDbLine
 10
6716.4853535771
 20
5602.9110696594
 30
0.0
 11
6716.8832288896
 21
5603.1959752688
 31
0.0
  0
LINE
  5
58A
330
1F
100
AcDbEntity
  8
0
  6
SLD-Plná
 62
     7
370
    25
100
AcDbLine
 10
6716.8832288896
 20
5603.1959752688
 30
0.0
 11
6718.1592376567
 21
5603.5378807875
 31
0.0
  0
LINE
  5
58B
330
1F
100
AcDbEntity
  8
0
  6
SLD-Plná
 62
     7
370
    25
100
AcDbLine
 10
6718.1592376567
 20
5603.5378807875
 30
0.0
 11
6717.5251170819
 21
5603.1896734508
 31
0.0
  0
LINE
  5
58C
330
1F
100
AcDbEntity
  8
0
  6
SLD-Plná
 62
     7
370
    25
100
AcDbLine
 10
6717.5251170819
 20
5603.1896734508
 30
0.0
 11
6717.9954025896
 21
5603.3156860728
 31
0.0
  0
LINE
  5
58D
330
1F
100
AcDbEntity
  8
0
  6
SLD-Plná
 62
     7
370
    25
100
AcDbLine
 10
6717.9954025896
 20
5603.3156860728
 30
0.0
 11
6718.6295231644
 21
5603.6638934095
 31
0.0
  0
LINE
  5
58E
330
1F
100
AcDbEntity
  8
0
  6
SLD-Plná
 62
     7
370
    25
100
AcDbLine
 10
6718.6295231644
 20
5603.6638934095
 30
0.0
 11
6719.5467011587
 21
5603.9096505124
 31
0.0
  0
LINE
  5
58F
330
1F
100
AcDbEntity
  8
0
  6
SLD-Plná
 62
     7
370
    25
100
AcDbLine
 10
6719.5467011587
 20
5603.9096505124
 30
0.0
 11
6718.7427706566
 21
5603.5159427428
 31
0.0
  0
LINE
  5
590
330
1F
100
AcDbEntity
  8
0
  6
SLD-Plná
 62
     7
370
    25
100
AcDbLine
 10
6718.7427706566
 20
5603.5159427428
 30
0.0
 11
6719.0399163493
 21
5603.5955626912
 31
0.0
  0
LINE
  5
591
330
1F
100
AcDbEntity
  8
0
  6
SLD-Plná
 62
     7
370
    25
100
AcDbLine
 10
6719.0399163493
 20
5603.5955626912
 30
0.0
 11
6719.8438468514
 21
5603.9892704607
 31
0.0
  0
LINE
  5
592
330
1F
100
AcDbEntity
  8
0
  6
SLD-Plná
 62
     7
370
    25
100
AcDbLine
 10
6719.8438468514
 20
5603.9892704607
 30
0.0
 11
6720.3124143003
 21
5604.1148227303
 31
0.0
  0
LINE
  5
593
330
1F
100
AcDbEntity
  8
0
  6
SLD-Plná
 62
     7
370
    25
100
AcDbLine
 10
6720.3124143003
 20
5604.1148227303
 30
0.0
 11
6719.4217313849
 21
5603.6978697216
 31
0.0
  0
LINE
  5
594
330
1F
100
AcDbEntity
  8
0
  6
SLD-Plná
 62
     7
370
    25
100
AcDbLine
 10
6719.4217313849
 20
5603.6978697216
 30
0.0
 11
6719.5166505718
 21
5603.7233032411
 31
0.0
  0
LINE
  5
595
330
1F
100
AcDbEntity
  8
0
  6
SLD-Plná
 62
     7
370
    25
100
AcDbLine
 10
6719.5166505718
 20
5603.7233032411
 30
0.0
 11
6720.4073334872
 21
5604.1402562498
 31
0.0
  0
LINE
  5
596
330
1F
100
AcDbEntity
  8
0
  6
SLD-Plná
 62
     7
370
    25
100
AcDbLine
 10
6720.4073334872
 20
5604.1402562498
 30
0.0
 11
6720.4394273923
 21
5604.1488557857
 31
0.0
  0
LINE
  5
597
330
1F
100
AcDbEntity
  8
0
  6
SLD-Plná
 62
     7
370
    25
100
AcDbLine
 10
6705.0095862523
 20
5601.0497184933
 30
0.0
 11
6704.9148181849
 21
5601.7899409135
 31
0.0
  0
LINE
  5
598
330
1F
100
AcDbEntity
  8
0
  6
SLD-Plná
 62
     7
370
    25
100
AcDbLine
 10
6724.8252173324
 20
5609.1954686468
 30
0.0
 11
6725.5421336369
 21
5607.586674164
 31
0.0
  0
LINE
  5
599
330
1F
100
AcDbEntity
  8
0
  6
SLD-Plná
 62
     7
370
    25
100
AcDbLine
 10
6724.72422269
 20
5607.3675155863
 30
0.0
 11
6724.0320398404
 21
5608.9829373784
 31
0.0
  0
LINE
  5
59A
330
1F
100
AcDbEntity
  8
0
  6
SLD-Plná
 62
     7
370
    25
100
AcDbLine
 10
6723.9594614382
 20
5607.0697882114
 30
0.0
 11
6723.9929172351
 21
5606.9917749068
 31
0.0
  0
LINE
  5
59B
330
1F
100
AcDbEntity
  8
0
  6
SLD-Plná
 62
     7
370
    25
100
AcDbLine
 10
6713.8967363082
 20
5603.1613624407
 30
0.0
 11
6714.1098847285
 21
5602.4528599405
 31
0.0
  0
LWPOLYLINE
  5
59C
330
1F
100
AcDbEntity
  8
0
  6
SLD-Plná
 62
     7
370
    25
100
AcDbPolyline
 90
        3
 70
   128
 43
0.0
 10
6712.5138266223
 20
5602.0251974599
 10
6712.3796593935
 20
5602.5806065968
 10
6712.3401242987
 20
5602.7442695098
  0
LINE
  5
59D
330
1F
100
AcDbEntity
  8
0
  6
SLD-Plná
 62
     7
370
    25
100
AcDbLine
 10
6716.0353723809
 20
5603.7344082492
 30
0.0
 11
6716.285838389
 21
5603.0359049666
 31
0.0
  0
LINE
  5
59E
330
1F
100
AcDbEntity
  8
0
  6
SLD-Plná
 62
     7
370
    25
100
AcDbLine
 10
6714.7759034775
 20
5602.6313191264
 30
0.0
 11
6714.5627550572
 21
5603.3398216266
 31
0.0
  0
LINE
  5
59F
330
1F
100
AcDbEntity
  8
0
  6
SLD-Plná
 62
     7
370
    25
100
AcDbLine
 10
6721.4576954282
 20
5606.2225915113
 30
0.0
 11
6721.7558887154
 21
5605.5368767145
 31
0.0
  0
LINE
  5
5A0
330
1F
100
AcDbEntity
  8
0
  6
SLD-Plná
 62
     7
370
    25
100
AcDbLine
 10
6720.8015411227
 20
5605.2811600477
 30
0.0
 11
6720.5195929989
 21
5605.9712277229
 31
0.0
  0
LINE
  5
5A1
330
1F
100
AcDbEntity
  8
0
  6
SLD-Plná
 62
     7
370
    25
100
AcDbLine
 10
6720.1213758218
 20
5605.0398544795
 30
0.0
 11
6720.1655254701
 21
5604.9317785406
 31
0.0
  0
LWPOLYLINE
  5
5A2
330
1F
100
AcDbEntity
  8
0
  6
SLD-Plná
 62
     7
370
    25
100
AcDbPolyline
 90
        3
 70
   128
 43
0.0
 10
6711.6706718568
 20
5602.5648902686
 10
6711.7102069516
 20
5602.4012273556
 10
6711.8443741805
 20
5601.8458182187
  0
LINE
  5
5A3
330
1F
100
AcDbEntity
  8
0
  6
SLD-Plná
 62
     7
370
    25
100
AcDbLine
 10
6711.8073765573
 20
5602.6015201827
 30
0.0
 11
6712.0215545843
 21
5601.7149983241
 31
0.0
  0
LINE
  5
5A4
330
1F
100
AcDbEntity
  8
0
  6
SLD-Plná
 62
     7
370
    25
100
AcDbLine
 10
6710.3184261673
 20
5601.4369416809
 30
0.0
 11
6710.1824371904
 21
5602.1661189916
 31
0.0
  0
LINE
  5
5A5
330
1F
100
AcDbEntity
  8
0
  6
SLD-Plná
 62
     7
370
    25
100
AcDbLine
 10
6714.3948270879
 20
5603.2948254628
 30
0.0
 11
6714.6575834304
 21
5602.4213201246
 31
0.0
  0
LINE
  5
5A6
330
1F
100
AcDbEntity
  8
0
  6
SLD-Plná
 62
     7
370
    25
100
AcDbLine
 10
6700.6000887187
 20
5600.7893675093
 30
0.0
 11
6700.6069621806
 21
5600.7255271357
 31
0.0
  0
LINE
  5
5A7
330
1F
100
AcDbEntity
  8
0
  6
SLD-Plná
 62
     7
370
    25
100
AcDbLine
 10
6704.4808313999
 20
5601.6736545049
 30
0.0
 11
6704.5755994673
 21
5600.9334320847
 31
0.0
  0
LINE
  5
5A8
330
1F
100
AcDbEntity
  8
0
  6
SLD-Plná
 62
     7
370
    25
100
AcDbLine
 10
6705.3340553153
 20
5601.0613740387
 30
0.0
 11
6705.3468950549
 21
5600.961138488
 31
0.0
  0
LINE
  5
5A9
330
1F
100
AcDbEntity
  8
0
  6
SLD-Plná
 62
     7
370
    25
100
AcDbLine
 10
6703.7117043328
 20
5600.7019520811
 30
0.0
 11
6703.6316417226
 21
5601.4461148166
 31
0.0
  0
LINE
  5
5AA
330
1F
100
AcDbEntity
  8
0
  6
SLD-Plná
 62
     7
370
    25
100
AcDbLine
 10
6699.0838770644
 20
5600.4972056823
 30
0.0
 11
6698.9143496476
 21
5602.2526725755
 31
0.0
  0
LINE
  5
5AB
330
1F
100
AcDbEntity
  8
0
  6
SLD-Plná
 62
     7
370
    25
100
AcDbLine
 10
6699.5344763024
 20
5602.4188350118
 30
0.0
 11
6699.7233409732
 21
5600.6685495202
 31
0.0
  0
LINE
  5
5AC
330
1F
100
AcDbEntity
  8
0
  6
SLD-Plná
 62
     7
370
    25
100
AcDbLine
 10
6709.5750817251
 20
5602.0033785851
 30
0.0
 11
6709.7110707019
 21
5601.2742012744
 31
0.0
  0
LINE
  5
5AD
330
1F
100
AcDbEntity
  8
0
  6
SLD-Plná
 62
     7
370
    25
100
AcDbLine
 10
6710.0030374867
 20
5602.1180489859
 30
0.0
 11
6710.1707710994
 21
5601.2190823839
 31
0.0
  0
LINE
  5
5AE
330
1F
100
AcDbEntity
  8
0
  6
SLD-Plná
 62
     7
370
    25
100
AcDbLine
 10
6717.8772354753
 20
5604.2279339779
 30
0.0
 11
6718.1592376567
 21
5603.5378807875
 31
0.0
  0
LINE
  5
5AF
330
1F
100
AcDbEntity
  8
0
  6
SLD-Plná
 62
     7
370
    25
100
AcDbLine
 10
6716.8832288896
 20
5603.1959752688
 30
0.0
 11
6716.6327628815
 21
5603.8944785514
 31
0.0
  0
LINE
  5
5B0
330
1F
100
AcDbEntity
  8
0
  6
SLD-Plná
 62
     7
370
    25
100
AcDbLine
 10
6708.4046032052
 20
5600.9241343637
 30
0.0
 11
6708.3009031801
 21
5601.661963473
 31
0.0
  0
LINE
  5
5B1
330
1F
100
AcDbEntity
  8
0
  6
SLD-Plná
 62
     7
370
    25
100
AcDbLine
 10
6725.0031853413
 20
5607.3230903714
 30
0.0
 11
6725.0272965834
 21
5607.2689360178
 31
0.0
  0
LINE
  5
5B2
330
1F
100
AcDbEntity
  8
0
  6
SLD-Plná
 62
     7
370
    25
100
AcDbLine
 10
6716.1766402021
 20
5603.7722608478
 30
0.0
 11
6716.4853535771
 21
5602.9110696594
 31
0.0
  0
LINE
  5
5B3
330
1F
100
AcDbEntity
  8
0
  6
SLD-Plná
 62
     7
370
    25
100
AcDbLine
 10
6725.6925573806
 20
5609.4278717123
 30
0.0
 11
6726.4264160422
 21
5607.8236169204
 31
0.0
  0
LINE
  5
5B4
330
1F
100
AcDbEntity
  8
0
  6
SLD-Plná
 62
     7
370
    25
100
AcDbLine
 10
6725.835184726
 20
5607.6651969666
 30
0.0
 11
6725.1192047749
 21
5609.2742423446
 31
0.0
  0
LINE
  5
5B5
330
1F
100
AcDbEntity
  8
0
  6
SLD-Plná
 62
     7
370
    25
100
AcDbLine
 10
6721.3265161801
 20
5605.3204737563
 30
0.0
 11
6721.356737807
 21
5605.2509629243
 31
0.0
  0
LINE
  5
5B6
330
1F
100
AcDbEntity
  8
0
  6
SLD-Plná
 62
     7
370
    25
100
AcDbLine
 10
6722.4852863121
 20
5606.4979336588
 30
0.0
 11
6722.7950575525
 21
5605.8153211652
 31
0.0
  0
LINE
  5
5B7
330
1F
100
AcDbEntity
  8
0
  6
SLD-Plná
 62
     7
370
    25
100
AcDbLine
 10
6722.1148925463
 20
5605.6330715011
 30
0.0
 11
6721.8166992591
 21
5606.3187862978
 31
0.0
  0
LINE
  5
5B8
330
1F
100
AcDbEntity
  8
0
  6
SLD-Plná
 62
     7
370
    25
100
AcDbLine
 10
6707.8150968759
 20
5601.5317920661
 30
0.0
 11
6707.918796901
 21
5600.7939629569
 31
0.0
  0
LINE
  5
5B9
330
1F
100
AcDbEntity
  8
0
  6
SLD-Plná
 62
     7
370
    25
100
AcDbLine
 10
6708.6030467732
 20
5600.9268762784
 30
0.0
 11
6708.6203818094
 21
5600.8036568257
 31
0.0
  0
LINE
  5
5BA
330
1F
100
AcDbEntity
  8
0
  6
SLD-Plná
 62
     7
370
    25
100
AcDbLine
 10
6706.959696062
 20
5600.5369726616
 30
0.0
 11
6706.879699926
 21
5601.2811532088
 31
0.0
  0
LINE
  5
5BB
330
1F
100
AcDbEntity
  8
0
  6
SLD-Plná
 62
     7
370
    25
100
AcDbLine
 10
6719.2420311986
 20
5604.5936298898
 30
0.0
 11
6719.5467011587
 21
5603.9096505124
 31
0.0
  0
LINE
  5
5BC
330
1F
100
AcDbEntity
  8
0
  6
SLD-Plná
 62
     7
370
    25
100
AcDbLine
 10
6718.6295231644
 20
5603.6638934095
 30
0.0
 11
6718.3475209829
 21
5604.3539465999
 31
0.0
  0
LINE
  5
5BD
330
1F
100
AcDbEntity
  8
0
  6
SLD-Plná
 62
     7
370
    25
100
AcDbLine
 10
6704.2699880066
 20
5600.7382473732
 30
0.0
 11
6704.2768597049
 21
5600.6744233801
 31
0.0
  0
LINE
  5
5BE
330
1F
100
AcDbEntity
  8
0
  6
SLD-Plná
 62
     7
370
    25
100
AcDbLine
 10
6703.3149386855
 20
5601.3612544936
 30
0.0
 11
6703.3950012956
 21
5600.6170917581
 31
0.0
  0
LINE
  5
5BF
330
1F
100
AcDbEntity
  8
0
  6
SLD-Plná
 62
     7
370
    25
100
AcDbLine
 10
6699.8072120009
 20
5600.5537259743
 30
0.0
 11
6699.8112224285
 21
5600.5123093117
 31
0.0
  0
LINE
  5
5C0
330
1F
100
AcDbEntity
  8
0
  6
SLD-Plná
 62
     7
370
    25
100
AcDbLine
 10
6717.9512827966
 20
5603.4236889274
 30
0.0
 11
6717.9954025896
 21
5603.3156860728
 31
0.0
  0
LINE
  5
5C1
330
1F
100
AcDbEntity
  8
0
  6
SLD-Plná
 62
     7
370
    25
100
AcDbLine
 10
6702.816975593
 20
5600.4622102378
 30
0.0
 11
6702.7467522931
 21
5601.2090094086
 31
0.0
  0
LINE
  5
5C2
330
1F
100
AcDbEntity
  8
0
  6
SLD-Plná
 62
     7
370
    25
100
AcDbLine
 10
6698.4667905276
 20
5600.3318578431
 30
0.0
 11
6698.3086907286
 21
5602.0903867572
 31
0.0
  0
LINE
  5
5C3
330
1F
100
AcDbEntity
  8
0
  6
SLD-Plná
 62
     7
370
    25
100
AcDbLine
 10
6698.6973296179
 20
5602.1945222338
 30
0.0
 11
6698.867548246
 21
5600.4392405501
 31
0.0
  0
LINE
  5
5C4
330
1F
100
AcDbEntity
  8
0
  6
SLD-Plná
 62
     7
370
    25
100
AcDbLine
 10
6725.7431918162
 20
5607.4988035146
 30
0.0
 11
6725.7586858956
 21
5607.4649111933
 31
0.0
  0
LINE
  5
5C5
330
1F
100
AcDbEntity
  8
0
  6
SLD-Plná
 62
     7
370
    25
100
AcDbLine
 10
6726.2283337376
 20
5609.5714325545
 30
0.0
 11
6726.9721507028
 21
5607.969846082
 31
0.0
  0
LINE
  5
5C6
330
1F
100
AcDbEntity
  8
0
  6
SLD-Plná
 62
     7
370
    25
100
AcDbLine
 10
6726.6221570944
 20
5607.8760655772
 30
0.0
 11
6725.8889238623
 21
5609.4804879525
 31
0.0
  0
LINE
  5
5C7
330
1F
100
AcDbEntity
  8
0
  6
SLD-Plná
 62
     7
370
    25
100
AcDbLine
 10
6722.1635797564
 20
5605.5124094009
 30
0.0
 11
6722.1818860611
 21
5605.4720607327
 31
0.0
  0
LWPOLYLINE
  5
5C8
330
1F
100
AcDbEntity
  8
0
  6
SLD-Plná
 62
     7
370
    25
100
AcDbPolyline
 90
        3
 70
   128
 43
0.0
 10
6723.0871694904
 20
5606.6592077703
 10
6723.1595361841
 20
5606.5033638138
 10
6723.4033454615
 20
5605.9783114192
  0
LINE
  5
5C9
330
1F
100
AcDbEntity
  8
0
  6
SLD-Plná
 62
     7
370
    25
100
AcDbLine
 10
6723.0270895165
 20
5605.8774939426
 30
0.0
 11
6722.7173182761
 21
5606.5601064361
 31
0.0
  0
LINE
  5
5CA
330
1F
100
AcDbEntity
  8
0
  6
SLD-Plná
 62
     7
370
    25
100
AcDbLine
 10
6707.5152825688
 20
5600.5731672309
 30
0.0
 11
6707.5221496202
 21
5600.5093863975
 31
0.0
  0
LINE
  5
5CB
330
1F
100
AcDbEntity
  8
0
  6
SLD-Plná
 62
     7
370
    25
100
AcDbLine
 10
6706.5629968889
 20
5601.1962928857
 30
0.0
 11
6706.6429930249
 21
5600.4521123385
 31
0.0
  0
LINE
  5
5CC
330
1F
100
AcDbEntity
  8
0
  6
SLD-Plná
 62
     7
370
    25
100
AcDbLine
 10
6706.1251423162
 20
5600.3133546593
 30
0.0
 11
6706.0579447049
 21
5601.0609645609
 31
0.0
  0
LINE
  5
5CD
330
1F
100
AcDbEntity
  8
0
  6
SLD-Plná
 62
     7
370
    25
100
AcDbLine
 10
6719.0158275943
 20
5603.6496665381
 30
0.0
 11
6719.0399163493
 21
5603.5955626912
 31
0.0
  0
LINE
  5
5CE
330
1F
100
AcDbEntity
  8
0
  6
SLD-Plná
 62
     7
370
    25
100
AcDbLine
 10
6703.5839873624
 20
5600.5241223189
 30
0.0
 11
6703.5872329034
 21
5600.4896384355
 31
0.0
  0
LWPOLYLINE
  5
5CF
330
1F
100
AcDbEntity
  8
0
  6
SLD-Plná
 62
     7
370
    25
100
AcDbPolyline
 90
        3
 70
   128
 43
0.0
 10
6719.9961638365
 20
5604.7956991212
 10
6720.0681437944
 20
5604.640729783
 10
6720.3124143003
 20
5604.1148227303
  0
LINE
  5
5D0
330
1F
100
AcDbEntity
  8
0
  6
SLD-Plná
 62
     7
370
    25
100
AcDbLine
 10
6719.8438468514
 20
5603.9892704607
 30
0.0
 11
6719.5391768913
 21
5604.6732498382
 31
0.0
  0
LINE
  5
5D1
330
1F
100
AcDbEntity
  8
0
  6
SLD-Plná
 62
     7
370
    25
100
AcDbLine
 10
6699.33148845
 20
5600.4054550188
 30
0.0
 11
6699.3333960734
 21
5600.3842761257
 31
0.0
  0
LINE
  5
5D2
330
1F
100
AcDbEntity
  8
0
  6
SLD-Plná
 62
     7
370
    25
100
AcDbLine
 10
6702.5611744462
 20
5601.1592839744
 30
0.0
 11
6702.6313977461
 21
5600.4124848036
 31
0.0
  0
LINE
  5
5D3
330
1F
100
AcDbEntity
  8
0
  6
SLD-Plná
 62
     7
370
    25
100
AcDbLine
 10
6702.3645039723
 20
5600.3409708325
 30
0.0
 11
6702.2988238106
 21
5601.0889873334
 31
0.0
  0
LINE
  5
5D4
330
1F
100
AcDbEntity
  8
0
  6
SLD-Plná
 62
     7
370
    25
100
AcDbLine
 10
6726.1618230453
 20
5607.5904977954
 30
0.0
 11
6726.1690759395
 21
5607.5748748742
 31
0.0
  0
LINE
  5
5D5
330
1F
100
AcDbEntity
  8
0
  6
SLD-Plná
 62
     7
370
    25
100
AcDbLine
 10
6698.1996150189
 20
5600.2602683813
 30
0.0
 11
6698.0457497972
 21
5602.019931947
 31
0.0
  0
LINE
  5
5D6
330
1F
100
AcDbEntity
  8
0
  6
SLD-Plná
 62
     7
370
    25
100
AcDbLine
 10
6698.1933313418
 20
5602.0594763027
 30
0.0
 11
6698.3517985619
 21
5600.3010458387
 31
0.0
  0
LINE
  5
5D7
330
1F
100
AcDbEntity
  8
0
  6
SLD-Plná
 62
     7
370
    25
100
AcDbLine
 10
6726.4193538116
 20
5609.622616229
 30
0.0
 11
6727.1658998201
 21
5608.0217610015
 31
0.0
  0
LINE
  5
5D8
330
1F
100
AcDbEntity
  8
0
  6
SLD-Plná
 62
     7
370
    25
100
AcDbLine
 10
6727.0657619237
 20
5607.994929133
 30
0.0
 11
6726.3222440641
 21
5609.5965957506
 31
0.0
  0
LINE
  5
5D9
330
1F
100
AcDbEntity
  8
0
  6
SLD-Plná
 62
     7
370
    25
100
AcDbLine
 10
6722.5976561527
 20
5605.601028076
 30
0.0
 11
6722.6049072941
 21
5605.5854089304
 31
0.0
  0
LINE
  5
5DA
330
1F
100
AcDbEntity
  8
0
  6
SLD-Plná
 62
     7
370
    25
100
AcDbLine
 10
6706.9816713062
 20
5600.3862354799
 30
0.0
 11
6706.9835771504
 21
5600.3650763392
 31
0.0
  0
LINE
  5
5DB
330
1F
100
AcDbEntity
  8
0
  6
SLD-Plná
 62
     7
370
    25
100
AcDbLine
 10
6719.5094043339
 20
5603.7389118245
 30
0.0
 11
6719.5166505718
 21
5603.7233032411
 31
0.0
  0
LWPOLYLINE
  5
5DC
330
1F
100
AcDbEntity
  8
0
  6
SLD-Plná
 62
     7
370
    25
100
AcDbPolyline
 90
        3
 70
   128
 43
0.0
 10
6723.4982646484
 20
5606.0037449387
 10
6723.254455371
 20
5606.5287973333
 10
6723.1820886773
 20
5606.6846412898
  0
LINE
  5
5DD
330
1F
100
AcDbEntity
  8
0
  6
SLD-Plná
 62
     7
370
    25
100
AcDbLine
 10
6705.9413460346
 20
5601.0297220414
 30
0.0
 11
6706.0085436459
 21
5600.2821121398
 31
0.0
  0
LINE
  5
5DE
330
1F
100
AcDbEntity
  8
0
  6
SLD-Plná
 62
     7
370
    25
100
AcDbLine
 10
6703.3074239383
 20
5600.4231732169
 30
0.0
 11
6703.3081546509
 21
5600.4148596431
 31
0.0
  0
LINE
  5
5DF
330
1F
100
AcDbEntity
  8
0
  6
SLD-Plná
 62
     7
370
    25
100
AcDbLine
 10
6698.0351905058
 20
5602.0171025934
 30
0.0
 11
6698.1891837486
 21
5600.2574083722
 31
0.0
  0
LINE
  5
5E0
330
1F
100
AcDbEntity
  8
0
  6
SLD-Plná
 62
     7
370
    25
100
AcDbLine
 10
6698.0348915844
 20
5602.0170224977
 30
0.0
 11
6698.1887913897
 21
5600.2573681986
 31
0.0
  0
LINE
  5
5E1
330
1F
100
AcDbEntity
  8
0
  6
SLD-Plná
 62
     7
370
    25
100
AcDbLine
 10
6699.1850768106
 20
5600.3465453562
 30
0.0
 11
6699.1852487859
 21
5600.3445801797
 31
0.0
  0
LWPOLYLINE
  5
5E2
330
1F
100
AcDbEntity
  8
0
  6
SLD-Plná
 62
     7
370
    25
100
AcDbPolyline
 90
        3
 70
   128
 43
0.0
 10
6720.4073334872
 20
5604.1402562498
 10
6720.1630629813
 20
5604.6661633025
 10
6720.0910830234
 20
5604.8211326406
  0
LINE
  5
5E3
330
1F
100
AcDbEntity
  8
0
  6
SLD-Plná
 62
     7
370
    25
100
AcDbLine
 10
6702.2524817964
 20
5601.0765700281
 30
0.0
 11
6702.3181619581
 21
5600.3285535272
 31
0.0
  0
SPLINE
  5
5E4
330
1F
100
AcDbEntity
  8
0
  6
SLD-Plná
 62
     7
370
    25
100
AcDbSpline
210
0.0
220
0.0
230
1.0
 70
     8
 71
     3
 72
    18
 73
    14
 74
     0
 42
0.00000001
 43
0.00000001
 40
0.0
 40
0.0
 40
0.0
 40
0.0
 40
0.0793984959892493
 40
0.1878226798351039
 40
0.296248367645571
 40
0.4047913456059765
 40
0.5133375965221532
 40
0.6223775638457841
 40
0.7314226069106066
 40
0.8413592515639206
 40
0.951302466266223
 40
0.9665545784378359
 40
1.0
 40
1.0
 40
1.0
 40
1.0
 10
6673.244988095666
 20
5669.930127905201
 30
0.0
 10
6673.244980457254
 20
5669.92265813197
 30
0.0
 10
6673.244962388062
 20
5669.904987862419
 30
0.0
 10
6673.24424426272
 20
5669.16782946474
 30
0.0
 10
6673.242933161283
 20
5667.870530202106
 30
0.0
 10
6673.240962421795
 20
5666.001763768114
 30
0.0
 10
6673.238324105317
 20
5663.658752301618
 30
0.0
 10
6673.234939373985
 20
5660.88146464405
 30
0.0
 10
6673.230745222197
 20
5657.756276970731
 30
0.0
 10
6673.225649912084
 20
5654.361282652791
 30
0.0
 10
6673.221309926354
 20
5651.818754562655
 30
0.0
 10
6673.218121912889
 20
5650.08914262252
 30
0.0
 10
6673.217073539705
 20
5649.555590815355
 30
0.0
 10
6673.216353517962
 20
5649.189147922918
 30
0.0
  0
LINE
  5
5E5
330
1F
100
AcDbEntity
  8
0
  6
SLD-Plná
 62
     7
370
    25
100
AcDbLine
 10
6673.2149590788
 20
5648.4693034109
 30
0.0
 11
6672.9649590788
 21
5648.4693034109
 31
0.0
  0
SPLINE
  5
5E6
330
1F
100
AcDbEntity
  8
0
  6
SLD-Plná
 62
     7
370
    25
100
AcDbSpline
210
0.0
220
0.0
230
1.0
 70
     8
 71
     3
 72
    17
 73
    13
 74
     0
 42
0.00000001
 43
0.00000001
 40
0.0
 40
0.0
 40
0.0
 40
0.0
 40
0.0954635735330473
 40
0.2069103129285156
 40
0.3152535850268018
 40
0.4267805978778474
 40
0.534390985355494
 40
0.6451651781265922
 40
0.7520337308286231
 40
0.862027437892907
 40
0.9684464239229404
 40
1.0
 40
1.0
 40
1.0
 40
1.0
 10
6712.566887531313
 20
5607.204253723939
 30
0.0
 10
6713.586361398903
 20
5607.475635485792
 30
0.0
 10
6715.79599643726
 20
5608.063835604329
 30
0.0
 10
6719.069060308073
 20
5608.9360747132
 30
0.0
 10
6722.312007826861
 20
5609.800759058505
 30
0.0
 10
6725.229790140104
 20
5610.579155983871
 30
0.0
 10
6727.79375272413
 20
5611.263418091039
 30
0.0
 10
6729.876701844539
 20
5611.819470535543
 30
0.0
 10
6731.480328805754
 20
5612.247653886961
 30
0.0
 10
6732.475145681853
 20
5612.513315097732
 30
0.0
 10
6732.925766909486
 20
5612.633660120497
 30
0.0
 10
6732.847083787136
 20
5612.612646779965
 30
0.0
 10
6732.829089384126
 20
5612.60784114304
 30
0.0
  0
ARC
  5
5E7
330
1F
100
AcDbEntity
  8
0
  6
SLD-Plná
 62
     7
370
    25
100
AcDbCircle
 10
6664.9649590788
 20
5601.6912369695
 30
0.0
 40
47.49999999999964
100
AcDbArc
 50
6.5323227237
 51
79.9979036138
  0
SPLINE
  5
5E8
330
1F
100
AcDbEntity
  8
0
  6
SLD-Plná
 62
     7
370
    25
100
AcDbSpline
210
0.0
220
0.0
230
1.0
 70
     8
 71
     3
 72
     9
 73
     5
 74
     0
 42
0.00000001
 43
0.00000001
 40
0.0
 40
0.0
 40
0.0
 40
0.0
 40
0.2265130335730952
 40
1.0
 40
1.0
 40
1.0
 40
1.0
 10
6683.354201552291
 20
5667.933863197967
 30
0.0
 10
6683.296703584105
 20
5667.951769527966
 30
0.0
 10
6683.042864026716
 20
5668.030821623628
 30
0.0
 10
6682.816228540602
 20
5668.098840525045
 30
0.0
 10
6682.640928945963
 20
5668.151452258761
 30
0.0
  0
SPLINE
  5
5E9
330
1F
100
AcDbEntity
  8
0
  6
SLD-Plná
 62
     7
370
    25
100
AcDbSpline
210
0.0
220
0.0
230
1.0
 70
     8
 71
     3
 72
    17
 73
    13
 74
     0
 42
0.00000001
 43
0.00000001
 40
0.0
 40
0.0
 40
0.0
 40
0.0
 40
0.0078039330385188
 40
0.0330027592537135
 40
0.0692005733809815
 40
0.1311506431492552
 40
0.2630123672710638
 40
0.417006289136883
 40
0.5745628396826271
 40
0.7535174561865932
 40
0.9359268552530117
 40
0.9999999999999999
 40
0.9999999999999999
 40
0.9999999999999999
 40
0.9999999999999999
 10
6696.045949308448
 20
5663.069707698755
 30
0.0
 10
6696.049471075723
 20
5663.068146230915
 30
0.0
 10
6696.064364596328
 20
5663.061542798134
 30
0.0
 10
6695.957415654278
 20
5663.108970652762
 30
0.0
 10
6695.645063219732
 20
5663.247070459413
 30
0.0
 10
6694.793384343544
 20
5663.620631136434
 30
0.0
 10
6693.298236105215
 20
5664.262251697446
 30
0.0
 10
6691.30132975759
 20
5665.085503537538
 30
0.0
 10
6689.049855924686
 20
5665.967785872903
 30
0.0
 10
6686.662199866566
 20
5666.844745288644
 30
0.0
 10
6684.706595767908
 20
5667.507684994334
 30
0.0
 10
6683.633224457117
 20
5667.845935078357
 30
0.0
 10
6683.354201552291
 20
5667.933863197967
 30
0.0
  0
SPLINE
  5
5EA
330
1F
100
AcDbEntity
  8
0
  6
SLD-Plná
 62
     7
370
    25
100
AcDbSpline
210
0.0
220
0.0
230
1.0
 70
    24
 71
     3
 72
    17
 73
    13
 74
     0
 42
0.00000001
 43
0.00000001
 40
0.0
 40
0.0
 40
0.0
 40
0.0
 40
0.0299250292627545
 40
0.1364794085037015
 40
0.2434922673291941
 40
0.3505065807081935
 40
0.4582736169667613
 40
0.5660435069009441
 40
0.674549634356437
 40
0.7830600339332672
 40
0.8915274785318181
 40
1.0
 40
1.0
 40
1.0
 40
1.0
 10
6732.648833711897
 20
5612.327076518
 30
0.0
 10
6732.665818574175
 20
5612.331627598131
 30
0.0
 10
6732.743281621476
 20
5612.352383759097
 30
0.0
 10
6732.307386336385
 20
5612.235585969474
 30
0.0
 10
6731.317527677365
 20
5611.970354141168
 30
0.0
 10
6729.749572721527
 20
5611.550221876983
 30
0.0
 10
6727.680389775155
 20
5610.99578597751
 30
0.0
 10
6725.166036329832
 20
5610.32206700235
 30
0.0
 10
6722.268566351416
 20
5609.54569226154
 30
0.0
 10
6719.083529787074
 20
5608.692264286261
 30
0.0
 10
6715.700104192384
 20
5607.785678130513
 30
0.0
 10
6713.380910168265
 20
5607.164251964659
 30
0.0
 10
6712.221286019098
 20
5606.853531610366
 30
0.0
  0
LINE
  5
5EB
330
1F
100
AcDbEntity
  8
0
  6
SLD-Plná
 62
     7
370
    25
100
AcDbLine
 10
6712.1565812578
 20
5607.0950130669
 30
0.0
 11
6712.2212860191
 21
5606.8535316104
 31
0.0
  0
LINE
  5
5EC
330
1F
100
AcDbEntity
  8
0
  6
SLD-Plná
 62
     7
370
    25
100
AcDbLine
 10
6696.2344710873
 20
5602.8286965049
 30
0.0
 11
6673.2149590788
 21
5602.8286965049
 31
0.0
  0
SPLINE
  5
5ED
330
1F
100
AcDbEntity
  8
0
  6
SLD-Plná
 62
     7
370
    25
100
AcDbSpline
210
0.0
220
0.0
230
1.0
 70
     8
 71
     3
 72
    10
 73
     6
 74
     0
 42
0.00000001
 43
0.00000001
 40
0.0
 40
0.0
 40
0.0
 40
0.0
 40
0.0734549670390338
 40
0.2670117792468332
 40
1.0
 40
1.0
 40
1.0
 40
1.0
 10
6697.090443042456
 20
5602.809451266947
 30
0.0
 10
6697.07473574649
 20
5602.81106981021
 30
0.0
 10
6697.017639089691
 20
5602.816953280502
 30
0.0
 10
6696.724702655315
 20
5602.826554556406
 30
0.0
 10
6696.450998212597
 20
5602.827750441917
 30
0.0
 10
6696.234471087263
 20
5602.828696504938
 30
0.0
  0
LINE
  5
5EE
330
1F
100
AcDbEntity
  8
0
  6
SLD-Plná
 62
     7
370
    25
100
AcDbLine
 10
6692.9224270112
 20
5601.6912369695
 30
0.0
 11
6697.0904430425
 21
5602.8094512669
 31
0.0
  0
LINE
  5
5EF
330
1F
100
AcDbEntity
  8
0
  6
SLD-Plná
 62
     7
370
    25
100
AcDbLine
 10
6696.2344710873
 20
5602.8286965049
 30
0.0
 11
6712.1565812578
 21
5607.0950130669
 31
0.0
  0
SPLINE
  5
5F0
330
1F
100
AcDbEntity
  8
0
  6
SLD-Plná
 62
     7
370
    25
100
AcDbSpline
210
0.0
220
0.0
230
1.0
 70
     8
 71
     3
 72
     9
 73
     5
 74
     0
 42
0.00000001
 43
0.00000001
 40
0.0
 40
0.0
 40
0.0
 40
0.0
 40
0.9610285779737077
 40
1.0
 40
1.0
 40
1.0
 40
1.0
 10
6697.090443042456
 20
5602.809451266947
 30
0.0
 10
6697.106065607542
 20
5602.808663819079
 30
0.0
 10
6697.122321695492
 20
5602.807844438796
 30
0.0
 10
6697.137474593915
 20
5602.811839075566
 30
0.0
 10
6697.138065123914
 20
5602.811994752242
 30
0.0
  0
LINE
  5
5F1
330
1F
100
AcDbEntity
  8
0
  6
SLD-Plná
 62
     7
370
    25
100
AcDbLine
 10
6712.2212860191
 20
5606.8535316104
 30
0.0
 11
6697.1380651239
 21
5602.8119947522
 31
0.0
  0
LINE
  5
5F2
330
1F
100
AcDbEntity
  8
0
  6
SLD-Plná
 62
     7
370
    25
100
AcDbLine
 10
6673.2149590788
 20
5648.4693034109
 30
0.0
 11
6673.2149590788
 21
5602.8286965049
 31
0.0
  0
SPLINE
  5
5F3
330
1F
100
AcDbEntity
  8
0
  6
SLD-Plná
 62
     7
370
    25
100
AcDbSpline
210
0.0
220
0.0
230
1.0
 70
     8
 71
     3
 72
    13
 73
     9
 74
     0
 42
0.00000001
 43
0.00000001
 40
0.0
 40
0.0
 40
0.0
 40
0.0
 40
0.1488376513706481
 40
0.2970790047306294
 40
0.498772277175662
 40
0.7658791801599334
 40
0.9931216623788303
 40
1.0
 40
1.0
 40
1.0
 40
1.0
 10
6673.214959078794
 20
5602.828696504938
 30
0.0
 10
6673.191974574568
 20
5602.830392351317
 30
0.0
 10
6673.146097650438
 20
5602.833777249895
 30
0.0
 10
6673.078958682589
 20
5602.861199132822
 30
0.0
 10
6673.015734587638
 20
5602.909587389786
 30
0.0
 10
6672.974535473687
 20
5602.97711573693
 30
0.0
 10
6672.965045058552
 20
5603.028706570482
 30
0.0
 10
6672.964961532735
 20
5603.052769260553
 30
0.0
 10
6672.964959078794
 20
5603.053476208814
 30
0.0
  0
LINE
  5
5F4
330
1F
100
AcDbEntity
  8
0
  6
SLD-Plná
 62
     7
370
    25
100
AcDbLine
 10
6697.1380651239
 20
5602.8119947522
 30
0.0
 11
6692.9871317756
 21
5601.6997555137
 31
0.0
  0
LINE
  5
5F5
330
1F
100
AcDbEntity
  8
0
  6
SLD-Plná
 62
     8
370
    25
100
AcDbLine
 10
6673.216353518
 20
5649.1891479229
 30
0.0
 11
6673.2149590788
 21
5648.4693034109
 31
0.0
  0
LINE
  5
5F6
330
1F
100
AcDbEntity
  8
0
  6
SLD-Plná
 62
     8
370
    25
100
AcDbLine
 10
6712.1565812578
 20
5607.0950130669
 30
0.0
 11
6712.5668875313
 21
5607.2042537239
 31
0.0
  0
SPLINE
  5
5F7
330
1F
100
AcDbEntity
  8
0
  6
SLD-Plná
 62
     8
370
    25
100
AcDbSpline
210
0.0
220
0.0
230
1.0
 70
     8
 71
     3
 72
    11
 73
     7
 74
     0
 42
0.00000001
 43
0.00000001
 40
0.0
 40
0.0
 40
0.0
 40
0.0
 40
0.3445591584106497
 40
0.6650288844286693
 40
0.8768781747920527
 40
1.0
 40
1.0
 40
1.0
 40
1.0
 10
6682.640928945963
 20
5668.151452258761
 30
0.0
 10
6682.506825543509
 20
5668.192346019081
 30
0.0
 10
6682.247994414065
 20
5668.271274502455
 30
0.0
 10
6682.003465425513
 20
5668.342737157448
 30
0.0
 10
6681.871400404926
 20
5668.381380724613
 30
0.0
 10
6681.87575525418
 20
5668.380101912509
 30
0.0
 10
6681.877355920517
 20
5668.379631872936
 30
0.0
  0
LINE
  5
5F8
330
1F
100
AcDbEntity
  8
0
  6
SLD-Plná
 62
     8
370
    25
100
AcDbLine
 10
6673.2149590788
 20
5602.8286965049
 30
0.0
 11
6673.2149590788
 21
5601.6912369695
 31
0.0
  0
ELLIPSE
  5
5F9
330
1F
100
AcDbEntity
  8
0
  6
SLD-Plná
 62
     7
370
    25
100
AcDbEllipse
 10
6381.7308902996
 20
4489.7578743179
 30
0.0
 11
0.0
 21
1.600000000000364
 31
0.0
210
0.0
220
0.0
230
1.0
 40
0.5
 41
4.310963252425494
 42
6.283185307179586
  0
LINE
  5
5FA
330
1F
100
AcDbEntity
  8
0
  6
SLD-Plná
 62
     7
370
    25
100
AcDbLine
 10
6165.5702164898
 20
4489.1327045123
 30
0.0
 11
6382.4672941824
 21
4489.1327045123
 31
0.0
  0
LINE
  5
5FB
330
1F
100
AcDbEntity
  8
0
  6
SLD-Plná
 62
     7
370
    25
100
AcDbLine
 10
6166.3066203725
 20
4491.3578743179
 30
0.0
 11
6381.7308902997
 21
4491.3578743179
 31
0.0
  0
ELLIPSE
  5
5FC
330
1F
100
AcDbEntity
  8
0
  6
SLD-Plná
 62
     7
370
    25
100
AcDbEllipse
 10
6166.3066203725
 20
4489.7578743179
 30
0.0
 11
0.0
 21
1.600000000000364
 31
0.0
210
0.0
220
0.0
230
1.0
 40
0.5
 41
0.0
 42
1.972222054750993
  0
LINE
  5
5FD
330
1F
100
AcDbEntity
  8
0
  6
SLD-Plná
 62
     7
370
    25
100
AcDbLine
 10
6203.6880549854
 20
4399.3327045123
 30
0.0
 11
6344.3494556867
 21
4399.3327045123
 31
0.0
  0
LINE
  5
5FE
330
1F
100
AcDbEntity
  8
0
  6
SLD-Plná
 62
     7
370
    25
100
AcDbLine
 10
6165.5702164898
 20
4489.1327045123
 30
0.0
 11
6203.6880549854
 21
4399.3327045123
 31
0.0
  0
LINE
  5
5FF
330
1F
100
AcDbEntity
  8
0
  6
SLD-Plná
 62
     7
370
    25
100
AcDbLine
 10
6344.3494556867
 20
4399.3327045123
 30
0.0
 11
6382.4672941824
 21
4489.1327045123
 31
0.0
  0
LINE
  5
600
330
1F
100
AcDbEntity
  8
0
  6
SLD-Plná
 62
     7
370
    25
100
AcDbLine
 10
6164.1267058258
 20
4489.1327045123
 30
0.0
 11
6164.8631097086
 21
4489.4452894151
 31
0.0
  0
LINE
  5
601
330
1F
100
AcDbEntity
  8
0
  6
SLD-Plná
 62
     7
370
    25
100
AcDbLine
 10
6165.5995135914
 20
4491.3578743179
 30
0.0
 11
6165.5995135914
 21
4490.5578743179
 31
0.0
  0
ARC
  5
602
330
1F
100
AcDbEntity
  8
0
  6
SLD-Plná
 62
     7
370
    25
100
AcDbCircle
 10
6165.5995135914
 20
4489.7578743179
 30
0.0
 40
1.600000000000364
100
AcDbArc
 50
90.0
 51
203.0
  0
ARC
  5
603
330
1F
100
AcDbEntity
  8
0
  6
SLD-Plná
 62
     7
370
    25
100
AcDbCircle
 10
6165.5995135914
 20
4489.7578743179
 30
0.0
 40
0.8000000000001819
100
AcDbArc
 50
90.0
 51
203.0
  0
LINE
  5
604
330
1F
100
AcDbEntity
  8
0
  6
SLD-Plná
 62
     7
370
    25
100
AcDbLine
 10
6383.9108048464
 20
4489.1327045123
 30
0.0
 11
6383.1744009636
 21
4489.4452894151
 31
0.0
  0
ARC
  5
605
330
1F
100
AcDbEntity
  8
0
  6
SLD-Plná
 62
     7
370
    25
100
AcDbCircle
 10
6382.4379970808
 20
4489.7578743179
 30
0.0
 40
0.8000000000001819
100
AcDbArc
 50
337.0
 51
90.0
  0
LINE
  5
606
330
1F
100
AcDbEntity
  8
0
  6
SLD-Plná
 62
     7
370
    25
100
AcDbLine
 10
6382.4379970808
 20
4491.3578743179
 30
0.0
 11
6382.4379970808
 21
4490.5578743179
 31
0.0
  0
ARC
  5
607
330
1F
100
AcDbEntity
  8
0
  6
SLD-Plná
 62
     7
370
    25
100
AcDbCircle
 10
6382.4379970808
 20
4489.7578743179
 30
0.0
 40
1.600000000000364
100
AcDbArc
 50
337.0
 51
90.0
  0
LINE
  5
608
330
1F
100
AcDbEntity
  8
0
  6
SLD-Plná
 62
     7
370
    25
100
AcDbLine
 10
6202.2445443215
 20
4399.3327045123
 30
0.0
 11
6202.9809482042
 21
4399.6452894151
 31
0.0
  0
LINE
  5
609
330
1F
100
AcDbEntity
  8
0
  6
SLD-Plná
 62
     7
370
    25
100
AcDbLine
 10
6202.9809482042
 20
4399.6452894151
 30
0.0
 11
6164.8631097086
 21
4489.4452894151
 31
0.0
  0
LINE
  5
60A
330
1F
100
AcDbEntity
  8
0
  6
SLD-Plná
 62
     7
370
    25
100
AcDbLine
 10
6202.2445443215
 20
4399.3327045123
 30
0.0
 11
6164.1267058258
 21
4489.1327045123
 31
0.0
  0
LINE
  5
60B
330
1F
100
AcDbEntity
  8
0
  6
SLD-Plná
 62
     7
370
    25
100
AcDbLine
 10
6383.1744009636
 20
4489.4452894151
 30
0.0
 11
6345.056562468
 21
4399.6452894151
 31
0.0
  0
LINE
  5
60C
330
1F
100
AcDbEntity
  8
0
  6
SLD-Plná
 62
     7
370
    25
100
AcDbLine
 10
6383.9108048464
 20
4489.1327045123
 30
0.0
 11
6345.7929663507
 21
4399.3327045123
 31
0.0
  0
LINE
  5
60D
330
1F
100
AcDbEntity
  8
0
  6
SLD-Plná
 62
     7
370
    25
100
AcDbLine
 10
6345.7929663507
 20
4399.3327045123
 30
0.0
 11
6345.056562468
 21
4399.6452894151
 31
0.0
  0
LINE
  5
60E
330
1F
100
AcDbEntity
  8
0
  6
SLD-Plná
 62
     7
370
    25
100
AcDbLine
 10
6165.6138000495
 20
4490.5578743179
 30
0.0
 11
6165.5995135914
 21
4490.5578743179
 31
0.0
  0
LINE
  5
60F
330
1F
100
AcDbEntity
  8
0
  6
SLD-Plná
 62
     7
370
    25
100
AcDbLine
 10
6166.3066203725
 20
4491.3578743179
 30
0.0
 11
6165.5995135914
 21
4491.3578743179
 31
0.0
  0
LINE
  5
610
330
1F
100
AcDbEntity
  8
0
  6
SLD-Plná
 62
     7
370
    25
100
AcDbLine
 10
6382.4379970808
 20
4490.5578743179
 30
0.0
 11
6382.4237106227
 21
4490.5578743179
 31
0.0
  0
LINE
  5
611
330
1F
100
AcDbEntity
  8
0
  6
SLD-Plná
 62
     7
370
    25
100
AcDbLine
 10
6382.4379970808
 20
4491.3578743179
 30
0.0
 11
6381.7308902996
 21
4491.3578743179
 31
0.0
  0
LINE
  5
612
330
1F
100
AcDbEntity
  8
0
  6
SLD-Plná
 62
     7
370
    25
100
AcDbLine
 10
6203.717352087
 20
4398.3578743179
 30
0.0
 11
6344.3201585852
 21
4398.3578743179
 31
0.0
  0
ELLIPSE
  5
613
330
1F
100
AcDbEntity
  8
0
  6
SLD-Plná
 62
     7
370
    25
100
AcDbEllipse
 10
6344.3201585852
 20
4399.9578743179
 30
0.0
 11
0.0
 21
1.600000000001273
 31
0.0
210
0.0
220
0.0
230
1.0
 40
0.0198920064
 41
3.141592653561211
 42
4.31096325242088
  0
ELLIPSE
  5
614
330
1F
100
AcDbEntity
  8
0
  6
SLD-Plná
 62
     7
370
    25
100
AcDbEllipse
 10
6203.717352087
 20
4399.9578743179
 30
0.0
 11
0.0
 21
1.600000000001273
 31
0.0
210
0.0
220
0.0
230
1.0
 40
0.0198920064
 41
1.972222054756293
 42
3.141592653589787
  0
ARC
  5
615
330
1F
100
AcDbEntity
  8
0
  6
SLD-Plná
 62
     7
370
    25
100
AcDbCircle
 10
6203.717352087
 20
4399.9578743179
 30
0.0
 40
0.7999999999997247
100
AcDbArc
 50
203.0
 51
270.0
  0
ARC
  5
616
330
1F
100
AcDbEntity
  8
0
  6
SLD-Plná
 62
     7
370
    25
100
AcDbCircle
 10
6203.717352087
 20
4399.9578743179
 30
0.0
 40
1.599999999999454
100
AcDbArc
 50
203.0
 51
269.9999999999
  0
ARC
  5
617
330
1F
100
AcDbEntity
  8
0
  6
SLD-Plná
 62
     7
370
    25
100
AcDbCircle
 10
6344.3201585852
 20
4399.9578743179
 30
0.0
 40
0.7999999999997247
100
AcDbArc
 50
270.0000000001
 51
337.0
  0
ARC
  5
618
330
1F
100
AcDbEntity
  8
0
  6
SLD-Plná
 62
     7
370
    25
100
AcDbCircle
 10
6344.3201585852
 20
4399.9578743179
 30
0.0
 40
1.599999999999454
100
AcDbArc
 50
270.0
 51
337.0
  0
SPLINE
  5
619
330
1F
100
AcDbEntity
  8
0
  6
SLD-Plná
 62
     7
370
    25
100
AcDbSpline
210
0.0
220
0.0
230
1.0
 70
     8
 71
     3
 72
    11
 73
     7
 74
     0
 42
0.00000001
 43
0.00000001
 40
0.0
 40
0.0
 40
0.0
 40
0.0
 40
0.0366135006216985
 40
0.3577423337478402
 40
0.6788711668739437
 40
1.0
 40
1.0
 40
1.0
 40
1.0
 10
6344.73090650649
 20
4400.231346328434
 30
0.0
 10
6344.739714248314
 20
4400.222142193801
 30
0.0
 10
6344.825772725699
 20
4400.132210650852
 30
0.0
 10
6344.954659441237
 20
4399.976163182846
 30
0.0
 10
6345.075540900601
 20
4399.781042797988
 30
0.0
 10
6345.062888612178
 20
4399.690540542716
 30
0.0
 10
6345.056562467966
 20
4399.64528941508
 30
0.0
  0
SPLINE
  5
61A
330
1F
100
AcDbEntity
  8
0
  6
SLD-Plná
 62
     7
370
    25
100
AcDbSpline
210
0.0
220
0.0
230
1.0
 70
     8
 71
     3
 72
    11
 73
     7
 74
     0
 42
0.00000001
 43
0.00000001
 40
0.0
 40
0.0
 40
0.0
 40
0.0
 40
0.2500000000000551
 40
0.5000000000001292
 40
0.7500000000001497
 40
1.0
 40
1.0
 40
1.0
 40
1.0
 10
6383.174400963606
 20
4489.44528941508
 30
0.0
 10
6383.152274620112
 20
4489.4239393159
 30
0.0
 10
6383.108021933121
 20
4489.381239117538
 30
0.0
 10
6382.904558009901
 20
4489.375377904645
 30
0.0
 10
6382.627972330005
 20
4489.400555035978
 30
0.0
 10
6382.412865884456
 20
4489.43037795538
 30
0.0
 10
6382.305312661681
 20
4489.445289415081
 30
0.0
  0
SPLINE
  5
61B
330
1F
100
AcDbEntity
  8
0
  6
SLD-Plná
 62
     7
370
    25
100
AcDbSpline
210
0.0
220
0.0
230
1.0
 70
     8
 71
     3
 72
    11
 73
     7
 74
     0
 42
0.00000001
 43
0.00000001
 40
0.0
 40
0.0
 40
0.0
 40
0.0
 40
0.3211288331337751
 40
0.642257666267379
 40
0.9633864994010609
 40
1.0
 40
1.0
 40
1.0
 40
1.0
 10
6202.980948204236
 20
4399.645289415081
 30
0.0
 10
6202.974622060025
 20
4399.690540542717
 30
0.0
 10
6202.961969771601
 20
4399.781042797988
 30
0.0
 10
6203.082851230964
 20
4399.976163182847
 30
0.0
 10
6203.211737946497
 20
4400.132210650845
 30
0.0
 10
6203.297796423875
 20
4400.222142193789
 30
0.0
 10
6203.306604165694
 20
4400.231346328416
 30
0.0
  0
SPLINE
  5
61C
330
1F
100
AcDbEntity
  8
0
  6
SLD-Plná
 62
     7
370
    25
100
AcDbSpline
210
0.0
220
0.0
230
1.0
 70
     8
 71
     3
 72
    11
 73
     7
 74
     0
 42
0.00000001
 43
0.00000001
 40
0.0
 40
0.0
 40
0.0
 40
0.0
 40
0.2500000000000347
 40
0.5000000000000506
 40
0.750000000000034
 40
1.0
 40
1.0
 40
1.0
 40
1.0
 10
6165.732198010521
 20
4489.445289415081
 30
0.0
 10
6165.624644787746
 20
4489.43037795538
 30
0.0
 10
6165.409538342196
 20
4489.400555035978
 30
0.0
 10
6165.1329526623
 20
4489.375377904646
 30
0.0
 10
6164.929488739082
 20
4489.381239117539
 30
0.0
 10
6164.885236052091
 20
4489.4239393159
 30
0.0
 10
6164.863109708596
 20
4489.445289415081
 30
0.0
  0
SPLINE
  5
61D
330
1F
100
AcDbEntity
  8
0
  6
SLD-Plná
 62
     7
370
    25
100
AcDbSpline
210
0.0
220
0.0
230
1.0
 70
     8
 71
     3
 72
    27
 73
    23
 74
     0
 42
0.00000001
 43
0.00000001
 40
0.0
 40
0.0
 40
0.0
 40
0.0
 40
0.0536976313183447
 40
0.1089385993527418
 40
0.1626484602818257
 40
0.2179451647140256
 40
0.2711442355135988
 40
0.3259159210609147
 40
0.3786036057020631
 40
0.4328370725481769
 40
0.4852167006935748
 40
0.5391221399753178
 40
0.5913841017936824
 40
0.6451581953998748
 40
0.6974828361315379
 40
0.7513112257910531
 40
0.803881012255509
 40
0.8579511037309001
 40
0.9109583967731409
 40
0.9654685422011501
 40
0.9729262056843024
 40
1.0
 40
1.0
 40
1.0
 40
1.0
 10
6295.3187553361
 20
4398.107874317872
 30
0.0
 10
6295.261301092234
 20
4398.105558168806
 30
0.0
 10
6295.144741298066
 20
4398.100859301671
 30
0.0
 10
6294.202560101316
 20
4398.095165539718
 30
0.0
 10
6292.705391151142
 20
4398.090305621662
 30
0.0
 10
6290.670475733122
 20
4398.086402810531
 30
0.0
 10
6288.137986667122
 20
4398.083271914311
 30
0.0
 10
6285.23571159041
 20
4398.080915143056
 30
0.0
 10
6281.990706914085
 20
4398.079216162622
 30
0.0
 10
6278.564065426209
 20
4398.078165679733
 30
0.0
 10
6274.982349306143
 20
4398.077710097822
 30
0.0
 10
6271.415582027095
 20
4398.077843804133
 30
0.0
 10
6267.893630005054
 20
4398.078569828086
 30
0.0
 10
6264.577798004671
 20
4398.079889108178
 30
0.0
 10
6261.499186080467
 20
4398.081856921944
 30
0.0
 10
6258.79487382255
 20
4398.084482703771
 30
0.0
 10
6256.493883824017
 20
4398.087872993505
 30
0.0
 10
6254.697254849456
 20
4398.092046618573
 30
0.0
 10
6253.427130321314
 20
4398.097154159619
 30
0.0
 10
6252.940869120414
 20
4398.101487732587
 30
0.0
 10
6252.749427105229
 20
4398.105156180178
 30
0.0
 10
6252.732234725279
 20
4398.10667977198
 30
0.0
 10
6252.718755336101
 20
4398.107874317873
 30
0.0
  0
LINE
  5
61E
330
1F
100
AcDbEntity
  8
0
  6
SLD-Plná
 62
     7
370
    25
100
AcDbLine
 10
6295.3187553361
 20
4359.1662521388
 30
0.0
 11
6295.3187553361
 21
4398.1078743179
 31
0.0
  0
SPLINE
  5
61F
330
1F
100
AcDbEntity
  8
0
  6
SLD-Plná
 62
     7
370
    25
100
AcDbSpline
210
0.0
220
0.0
230
1.0
 70
     8
 71
     3
 72
    27
 73
    23
 74
     0
 42
0.00000001
 43
0.00000001
 40
0.0
 40
0.0
 40
0.0
 40
0.0
 40
0.0534758945253056
 40
0.1084925701878725
 40
0.1619771915737095
 40
0.2170334949426926
 40
0.2701563213070642
 40
0.3248409883375112
 40
0.3775976013566863
 40
0.4318969746654506
 40
0.4844316550922848
 40
0.538494782138701
 40
0.5909439039714229
 40
0.6449116021454576
 40
0.6974050240195669
 40
0.7514109320620281
 40
0.8040802435706711
 40
0.8582595075693643
 40
0.9112430899043005
 40
0.9657384611697343
 40
0.9732033556734532
 40
1.0
 40
1.0
 40
1.0
 40
1.0
 10
6252.718755336101
 20
4359.166252138843
 30
0.0
 10
6252.776046339525
 20
4358.009109479438
 30
0.0
 10
6252.892279050829
 20
4355.661483837877
 30
0.0
 10
6253.830569623076
 20
4352.25347195843
 30
0.0
 10
6255.319755741778
 20
4349.010944021615
 30
0.0
 10
6257.343730313323
 20
4346.092874572953
 30
0.0
 10
6259.863780358566
 20
4343.529623135483
 30
0.0
 10
6262.756876715931
 20
4341.444089550755
 30
0.0
 10
6265.994880157176
 20
4339.849905828893
 30
0.0
 10
6269.420168760854
 20
4338.819526840635
 30
0.0
 10
6273.003659580922
 20
4338.35784570441
 30
0.0
 10
6276.576401110843
 20
4338.483574587119
 30
0.0
 10
6280.106520335343
 20
4339.193525308207
 30
0.0
 10
6283.431812240783
 20
4340.45358935983
 30
0.0
 10
6286.520236353025
 20
4342.250982761258
 30
0.0
 10
6289.232710571023
 20
4344.50480203784
 30
0.0
 10
6291.540500513755
 20
4347.19211149307
 30
0.0
 10
6293.340608705799
 20
4350.195972457773
 30
0.0
 10
6294.612274652286
 20
4353.483011562197
 30
0.0
 10
6295.098407194998
 20
4355.936145376497
 30
0.0
 10
6295.288486883222
 20
4357.845951851709
 30
0.0
 10
6295.305471400612
 20
4358.58681109803
 30
0.0
 10
6295.3187553361
 20
4359.166252138843
 30
0.0
  0
LINE
  5
620
330
1F
100
AcDbEntity
  8
0
  6
SLD-Plná
 62
     7
370
    25
100
AcDbLine
 10
6252.7187553361
 20
4359.1662521388
 30
0.0
 11
6252.7187553361
 21
4398.1078743179
 31
0.0
  0
SPLINE
  5
621
330
1F
100
AcDbEntity
  8
0
  6
SLD-Plná
 62
     7
370
    25
100
AcDbSpline
210
0.0
220
0.0
230
1.0
 70
    11
 71
     3
 72
    33
 73
    29
 74
     0
 42
0.00000001
 43
0.00000001
 40
0.0
 40
0.0
 40
0.0
 40
0.0
 40
0.0058094148111157
 40
0.0396466408786359
 40
0.0526673701034567
 40
0.0612748360272019
 40
0.0699615775517255
 40
0.0774851399880761
 40
0.0898056375296013
 40
0.1141553906580348
 40
0.1956683288696365
 40
0.2887332701037649
 40
0.3818134030815347
 40
0.4589287961762505
 40
0.5106248725148207
 40
0.5299546537540502
 40
0.5441981966319127
 40
0.5585922801173291
 40
0.5695404010297568
 40
0.5804714220793389
 40
0.5961737037965497
 40
0.623047079202097
 40
0.6802474928126535
 40
0.7477499913162432
 40
0.8154135152312852
 40
0.893890396179568
 40
0.9722056540268562
 40
1.0
 40
1.0
 40
1.0
 40
1.0
 10
6272.527393904254
 20
4387.968631844376
 30
0.0
 10
6272.554865491338
 20
4388.02572794066
 30
0.0
 10
6272.742346706388
 20
4388.415383095018
 30
0.0
 10
6273.045935059159
 20
4388.92124238155
 30
0.0
 10
6273.523751202395
 20
4389.325352515172
 30
0.0
 10
6273.844718742623
 20
4389.45813954952
 30
0.0
 10
6274.133758094061
 20
4389.467092725784
 30
0.0
 10
6274.444075390405
 20
4389.364472956874
 30
0.0
 10
6274.847434055361
 20
4389.065715212406
 30
0.0
 10
6275.613312317185
 20
4387.993420200532
 30
0.0
 10
6276.274785210388
 20
4385.905837421
 30
0.0
 10
6276.737802044141
 20
4383.078031866942
 30
0.0
 10
6276.718638101293
 20
4380.279129391333
 30
0.0
 10
6276.321789023182
 20
4377.974428103391
 30
0.0
 10
6275.714075394748
 20
4376.513755301782
 30
0.0
 10
6275.14367404918
 20
4375.791626014469
 30
0.0
 10
6274.735591698644
 20
4375.457142939357
 30
0.0
 10
6274.320995019749
 20
4375.276595097273
 30
0.0
 10
6273.902385214081
 20
4375.250367779479
 30
0.0
 10
6273.485407602686
 20
4375.357980607238
 30
0.0
 10
6272.979640518891
 20
4375.681821321843
 30
0.0
 10
6272.296691349633
 20
4376.526449583897
 30
0.0
 10
6271.71286074765
 20
4378.032949513226
 30
0.0
 10
6271.356957748244
 20
4380.028058747725
 30
0.0
 10
6271.30464343767
 20
4382.288906530249
 30
0.0
 10
6271.518215379357
 20
4384.672060044995
 30
0.0
 10
6271.961714405276
 20
4386.624178009543
 30
0.0
 10
6272.409976219946
 20
4387.689564534652
 30
0.0
 10
6272.527393904254
 20
4387.968631844376
 30
0.0
  0
ARC
  5
622
330
1F
100
AcDbEntity
  8
0
  6
SLD-Plná
 62
     7
370
    25
100
AcDbCircle
 10
6295.0687553361
 20
4398.1078743179
 30
0.0
 40
0.2499999999990905
100
AcDbArc
 50
0.0
 51
90.0
  0
ARC
  5
623
330
1F
100
AcDbEntity
  8
0
  6
SLD-Plná
 62
     7
370
    25
100
AcDbCircle
 10
6252.9687553361
 20
4398.1078743179
 30
0.0
 40
0.2499999999990905
100
AcDbArc
 50
90.0
 51
180.0
  0
SPLINE
  5
624
330
1F
100
AcDbEntity
  8
0
  6
SLD-Plná
 62
     7
370
    25
100
AcDbSpline
210
0.0
220
0.0
230
1.0
 70
     8
 71
     3
 72
    26
 73
    22
 74
     0
 42
0.00000001
 43
0.00000001
 40
0.0
 40
0.0
 40
0.0
 40
0.0
 40
0.0306622369528785
 40
0.1177005289481789
 40
0.2048930716747938
 40
0.2799787560983517
 40
0.354910239086225
 40
0.4176274387418867
 40
0.4464324550721632
 40
0.4627895943873663
 40
0.4739162788389087
 40
0.4849892072101722
 40
0.4997855005008535
 40
0.5147970967817238
 40
0.5355713776589737
 40
0.5921853549983557
 40
0.6776060165069789
 40
0.7811163863828338
 40
0.8846119079639736
 40
0.9746130775615978
 40
1.0
 40
1.0
 40
1.0
 40
1.0
 10
6272.683941277514
 20
4388.035339911649
 30
0.0
 10
6272.578819089297
 20
4387.75704128382
 30
0.0
 10
6272.175295459355
 20
4386.688759939854
 30
0.0
 10
6271.779646953091
 20
4384.746718140836
 30
0.0
 10
6271.590143879632
 20
4382.376823649249
 30
0.0
 10
6271.635245846189
 20
4380.128214241021
 30
0.0
 10
6271.953194693586
 20
4378.145570371071
 30
0.0
 10
6272.471215133024
 20
4376.647464662474
 30
0.0
 10
6273.081819668032
 20
4375.800116287804
 30
0.0
 10
6273.536652622433
 20
4375.472673353528
 30
0.0
 10
6273.913376304575
 20
4375.363245213837
 30
0.0
 10
6274.292794579344
 20
4375.390091240804
 30
0.0
 10
6274.665041625469
 20
4375.572807460778
 30
0.0
 10
6275.028836372923
 20
4375.906406731651
 30
0.0
 10
6275.541367351789
 20
4376.631201348506
 30
0.0
 10
6276.081978267559
 20
4378.087401487356
 30
0.0
 10
6276.433989677809
 20
4380.377324999173
 30
0.0
 10
6276.459223852617
 20
4383.165693843632
 30
0.0
 10
6276.01778647981
 20
4385.956895475517
 30
0.0
 10
6275.500758233213
 20
4388.070385836504
 30
0.0
 10
6274.817971876657
 20
4388.978474017263
 30
0.0
 10
6274.667749752606
 20
4389.178265553854
 30
0.0
  0
SPLINE
  5
625
330
1F
100
AcDbEntity
  8
0
  6
SLD-Plná
 62
     7
370
    25
100
AcDbSpline
210
0.0
220
0.0
230
1.0
 70
     8
 71
     3
 72
    10
 73
     6
 74
     0
 42
0.00000001
 43
0.00000001
 40
0.0
 40
0.0
 40
0.0
 40
0.0
 40
0.025020423079537
 40
0.8558193656320823
 40
1.0
 40
1.0
 40
1.0
 40
1.0
 10
6273.342430963903
 20
4389.149026895943
 30
0.0
 10
6273.334178080769
 20
4389.141825870851
 30
0.0
 10
6273.051889600418
 20
4388.895516018068
 30
0.0
 10
6272.876673211518
 20
4388.474931880272
 30
0.0
 10
6272.708770798996
 20
4388.0919722403
 30
0.0
 10
6272.683941277514
 20
4388.035339911649
 30
0.0
  0
ENDSEC
  0
SECTION
  2
OBJECTS
  0
DICTIONARY
  5
C
330
0
100
AcDbDictionary
281
     1
  3
ACAD_GROUP
350
D
  3
ACAD_LAYOUT
350
1A
  3
ACAD_MLINESTYLE
350
17
  3
ACAD_PLOTSETTINGS
350
19
  3
ACAD_PLOTSTYLENAME
350
E
  3
ACAD_SCALELIST
350
47
  3
DWGPROPS
350
626
  0
DICTIONARY
  5
D
102
{ACAD_REACTORS
330
C
102
}
330
C
100
AcDbDictionary
281
     1
  0
DICTIONARY
  5
1A
102
{ACAD_REACTORS
330
C
102
}
330
C
100
AcDbDictionary
281
     1
  3
Layout1
350
1E
  3
Layout2
350
26
  3
Model
350
22
  0
DICTIONARY
  5
17
102
{ACAD_REACTORS
330
C
102
}
330
C
100
AcDbDictionary
281
     1
  3
Standard
350
18
  0
DICTIONARY
  5
19
102
{ACAD_REACTORS
330
C
102
}
330
C
100
AcDbDictionary
281
     1
  0
ACDBDICTIONARYWDFLT
  5
E
102
{ACAD_REACTORS
330
C
102
}
330
C
100
AcDbDictionary
281
     1
  3
Normal
350
F
100
AcDbDictionaryWithDefault
340
F
  0
DICTIONARY
  5
47
102
{ACAD_REACTORS
330
C
102
}
330
C
100
AcDbDictionary
281
     1
  3
A0
350
48
  3
A1
350
49
  3
A2
350
4A
  3
A3
350
4B
  3
A4
350
4C
  3
A5
350
4D
  3
A6
350
4E
  3
A7
350
4F
  3
A8
350
50
  3
A9
350
51
  3
B0
350
52
  3
B1
350
53
  3
B2
350
54
  3
B3
350
55
  3
B4
350
56
  3
B5
350
57
  3
B6
350
58
  3
B7
350
59
  3
B8
350
5A
  3
B9
350
5B
  3
C0
350
5C
  3
C1
350
5D
  3
C2
350
5E
  3
C3
350
5F
  3
C4
350
60
  3
C5
350
61
  3
C6
350
62
  3
C7
350
63
  3
C8
350
64
  3
C9
350
65
  3
D0
350
66
  3
D1
350
67
  3
D2
350
68
  0
XRECORD
  5
626
102
{ACAD_REACTORS
330
C
102
}
330
C
100
AcDbXrecord
280
     1
  1
DWGPROPS COOKIE
  2

  3

  4

  6

  7

  8
radek.stransky
  9

300
=
301
=
302
=
303
=
304
=
305
=
306
=
307
=
308
=
309
=
 40
0.0
 41
2460860.447437894
 42
2460860.447440035
  1

 90
        0
  0
LAYOUT
  5
1E
102
{ACAD_REACTORS
330
1A
102
}
330
1A
100
AcDbPlotSettings
  1

  2
none_device
  4

  6

 40
0.0
 41
0.0
 42
0.0
 43
0.0
 44
0.0
 45
0.0
 46
0.0
 47
0.0
 48
0.0
 49
0.0
140
0.0
141
0.0
142
1.0
143
1.0
 70
   688
 72
     1
 73
     0
 74
     5
  7

 75
    16
147
1.0
148
0.0
149
0.0
100
AcDbLayout
  1
Layout1
 70
     1
 71
     1
 10
0.0
 20
0.0
 11
420.0
 21
297.0
 12
0.0
 22
0.0
 32
0.0
 14
1.0000000000E+20
 24
1.0000000000E+20
 34
1.0000000000E+20
 15
-1.0000000000E+20
 25
-1.0000000000E+20
 35
-1.0000000000E+20
146
0.0
 13
0.0
 23
0.0
 33
0.0
 16
1.0
 26
0.0
 36
0.0
 17
0.0
 27
1.0
 37
0.0
 76
     0
330
1B
  0
LAYOUT
  5
26
102
{ACAD_REACTORS
330
1A
102
}
330
1A
100
AcDbPlotSettings
  1

  2
none_device
  4

  6

 40
0.0
 41
0.0
 42
0.0
 43
0.0
 44
0.0
 45
0.0
 46
0.0
 47
0.0
 48
0.0
 49
0.0
140
0.0
141
0.0
142
1.0
143
1.0
 70
   688
 72
     1
 73
     0
 74
     5
  7

 75
    16
147
1.0
148
0.0
149
0.0
100
AcDbLayout
  1
Layout2
 70
     1
 71
     2
 10
0.0
 20
0.0
 11
0.0
 21
0.0
 12
0.0
 22
0.0
 32
0.0
 14
0.0
 24
0.0
 34
0.0
 15
0.0
 25
0.0
 35
0.0
146
0.0
 13
0.0
 23
0.0
 33
0.0
 16
1.0
 26
0.0
 36
0.0
 17
0.0
 27
1.0
 37
0.0
 76
     0
330
23
  0
LAYOUT
  5
22
102
{ACAD_REACTORS
330
1A
102
}
330
1A
100
AcDbPlotSettings
  1

  2
none_device
  4
Letter_(8.50_x_11.00_Inches)
  6

 40
6.35
 41
6.35
 42
6.35000508
 43
6.35000508
 44
215.9
 45
279.4
 46
0.0
 47
0.0
 48
0.0
 49
0.0
140
0.0
141
0.0
142
1.0
143
1.0
 70
  1712
 72
     1
 73
     0
 74
     0
  7

 75
     0
147
1.0
148
0.0
149
0.0
100
AcDbLayout
  1
Model
 70
     1
 71
     0
 10
0.0
 20
0.0
 11
20000.0
 21
10000.0
 12
0.0
 22
0.0
 32
0.0
 14
0.0
 24
0.0
 34
0.0
 15
20000.0
 25
10000.0
 35
0.0
146
0.0
 13
0.0
 23
0.0
 33
0.0
 16
1.0
 26
0.0
 36
0.0
 17
0.0
 27
1.0
 37
0.0
 76
     0
330
1F
331
29
  0
MLINESTYLE
  5
18
102
{ACAD_REACTORS
330
17
102
}
330
17
100
AcDbMlineStyle
  2
Standard
 70
     0
  3

 62
   256
 51
90.0
 52
90.0
 71
     2
 49
0.5
 62
   256
  6
BYLAYER
 49
-0.5
 62
   256
  6
BYLAYER
  0
ACDBPLACEHOLDER
  5
F
102
{ACAD_REACTORS
330
E
102
}
330
E
  0
SCALE
  5
48
102
{ACAD_REACTORS
330
47
102
}
330
47
100
AcDbScale
 70
     0
300
1:1
140
1.0
141
1.0
290
     1
  0
SCALE
  5
49
102
{ACAD_REACTORS
330
47
102
}
330
47
100
AcDbScale
 70
     0
300
1:2
140
1.0
141
2.0
290
     0
  0
SCALE
  5
4A
102
{ACAD_REACTORS
330
47
102
}
330
47
100
AcDbScale
 70
     0
300
1:4
140
1.0
141
4.0
290
     0
  0
SCALE
  5
4B
102
{ACAD_REACTORS
330
47
102
}
330
47
100
AcDbScale
 70
     0
300
1:5
140
1.0
141
5.0
290
     0
  0
SCALE
  5
4C
102
{ACAD_REACTORS
330
47
102
}
330
47
100
AcDbScale
 70
     0
300
1:8
140
1.0
141
8.0
290
     0
  0
SCALE
  5
4D
102
{ACAD_REACTORS
330
47
102
}
330
47
100
AcDbScale
 70
     0
300
1:10
140
1.0
141
10.0
290
     0
  0
SCALE
  5
4E
102
{ACAD_REACTORS
330
47
102
}
330
47
100
AcDbScale
 70
     0
300
1:16
140
1.0
141
16.0
290
     0
  0
SCALE
  5
4F
102
{ACAD_REACTORS
330
47
102
}
330
47
100
AcDbScale
 70
     0
300
1:20
140
1.0
141
20.0
290
     0
  0
SCALE
  5
50
102
{ACAD_REACTORS
330
47
102
}
330
47
100
AcDbScale
 70
     0
300
1:30
140
1.0
141
30.0
290
     0
  0
SCALE
  5
51
102
{ACAD_REACTORS
330
47
102
}
330
47
100
AcDbScale
 70
     0
300
1:40
140
1.0
141
40.0
290
     0
  0
SCALE
  5
52
102
{ACAD_REACTORS
330
47
102
}
330
47
100
AcDbScale
 70
     0
300
1:50
140
1.0
141
50.0
290
     0
  0
SCALE
  5
53
102
{ACAD_REACTORS
330
47
102
}
330
47
100
AcDbScale
 70
     0
300
1:100
140
1.0
141
100.0
290
     0
  0
SCALE
  5
54
102
{ACAD_REACTORS
330
47
102
}
330
47
100
AcDbScale
 70
     0
300
2:1
140
2.0
141
1.0
290
     0
  0
SCALE
  5
55
102
{ACAD_REACTORS
330
47
102
}
330
47
100
AcDbScale
 70
     0
300
4:1
140
4.0
141
1.0
290
     0
  0
SCALE
  5
56
102
{ACAD_REACTORS
330
47
102
}
330
47
100
AcDbScale
 70
     0
300
8:1
140
8.0
141
1.0
290
     0
  0
SCALE
  5
57
102
{ACAD_REACTORS
330
47
102
}
330
47
100
AcDbScale
 70
     0
300
10:1
140
10.0
141
1.0
290
     0
  0
SCALE
  5
58
102
{ACAD_REACTORS
330
47
102
}
330
47
100
AcDbScale
 70
     0
300
100:1
140
100.0
141
1.0
290
     0
  0
SCALE
  5
59
102
{ACAD_REACTORS
330
47
102
}
330
47
100
AcDbScale
 70
     0
300
1/128" = 1'-0"
140
0.0078125
141
12.0
290
     0
  0
SCALE
  5
5A
102
{ACAD_REACTORS
330
47
102
}
330
47
100
AcDbScale
 70
     0
300
1/64" = 1'-0"
140
0.015625
141
12.0
290
     0
  0
SCALE
  5
5B
102
{ACAD_REACTORS
330
47
102
}
330
47
100
AcDbScale
 70
     0
300
1/32" = 1'-0"
140
0.03125
141
12.0
290
     0
  0
SCALE
  5
5C
102
{ACAD_REACTORS
330
47
102
}
330
47
100
AcDbScale
 70
     0
300
1/16" = 1'-0"
140
0.0625
141
12.0
290
     0
  0
SCALE
  5
5D
102
{ACAD_REACTORS
330
47
102
}
330
47
100
AcDbScale
 70
     0
300
3/32" = 1'-0"
140
0.09375
141
12.0
290
     0
  0
SCALE
  5
5E
102
{ACAD_REACTORS
330
47
102
}
330
47
100
AcDbScale
 70
     0
300
1/8" = 1'-0"
140
0.125
141
12.0
290
     0
  0
SCALE
  5
5F
102
{ACAD_REACTORS
330
47
102
}
330
47
100
AcDbScale
 70
     0
300
3/16" = 1'-0"
140
0.1875
141
12.0
290
     0
  0
SCALE
  5
60
102
{ACAD_REACTORS
330
47
102
}
330
47
100
AcDbScale
 70
     0
300
1/4" = 1'-0"
140
0.25
141
12.0
290
     0
  0
SCALE
  5
61
102
{ACAD_REACTORS
330
47
102
}
330
47
100
AcDbScale
 70
     0
300
3/8" = 1'-0"
140
0.375
141
12.0
290
     0
  0
SCALE
  5
62
102
{ACAD_REACTORS
330
47
102
}
330
47
100
AcDbScale
 70
     0
300
1/2" = 1'-0"
140
0.5
141
12.0
290
     0
  0
SCALE
  5
63
102
{ACAD_REACTORS
330
47
102
}
330
47
100
AcDbScale
 70
     0
300
3/4" = 1'-0"
140
0.75
141
12.0
290
     0
  0
SCALE
  5
64
102
{ACAD_REACTORS
330
47
102
}
330
47
100
AcDbScale
 70
     0
300
1" = 1'-0"
140
1.0
141
12.0
290
     0
  0
SCALE
  5
65
102
{ACAD_REACTORS
330
47
102
}
330
47
100
AcDbScale
 70
     0
300
1-1/2" = 1'-0"
140
1.5
141
12.0
290
     0
  0
SCALE
  5
66
102
{ACAD_REACTORS
330
47
102
}
330
47
100
AcDbScale
 70
     0
300
3" = 1'-0"
140
3.0
141
12.0
290
     0
  0
SCALE
  5
67
102
{ACAD_REACTORS
330
47
102
}
330
47
100
AcDbScale
 70
     0
300
6" = 1'-0"
140
6.0
141
12.0
290
     0
  0
SCALE
  5
68
102
{ACAD_REACTORS
330
47
102
}
330
47
100
AcDbScale
 70
     0
300
1'-0" = 1'-0"
140
12.0
141
12.0
290
     0
  0
ENDSEC
  0
EOF
