  0
SECTION
  2
HEADER
  9
$ACADVER
  1
AC1015
  9
$ACADMAINTVER
 70
     6
  9
$DWGCODEPAGE
  3
ANSI_1250
  9
$INSBASE
 10
0.0
 20
0.0
 30
0.0
  9
$EXTMIN
 10
0.0
 20
0.0
 30
0.0
  9
$EXTMAX
 10
20000.0
 20
10000.0
 30
0.0
  9
$LIMMIN
 10
0.0
 20
0.0
  9
$LIMMAX
 10
20000.0
 20
10000.0
  9
$ORTHOMODE
 70
     0
  9
$REGENMODE
 70
     1
  9
$FILLMODE
 70
     1
  9
$QTEXTMODE
 70
     0
  9
$MIRRTEXT
 70
     1
  9
$LTSCALE
 40
1.0
  9
$ATTMODE
 70
     1
  9
$TEXTSIZE
 40
2.0
  9
$TRACEWID
 40
1.0
  9
$TEXTSTYLE
  7
Standard
  9
$CLAYER
  8
0
  9
$CELTYPE
  6
ByLayer
  9
$CECOLOR
 62
   256
  9
$CELTSCALE
 40
1.0
  9
$DISPSILH
 70
     0
  9
$DIMSCALE
 40
1.0
  9
$DIMASZ
 40
2.0
  9
$DIMEXO
 40
1.0
  9
$DIMDLI
 40
3.75
  9
$DIMRND
 40
0.0
  9
$DIMDLE
 40
0.0
  9
$DIMEXE
 40
1.0
  9
$DIMTP
 40
0.0
  9
$DIMTM
 40
0.0
  9
$DIMTXT
 40
2.0
  9
$DIMCEN
 40
2.5
  9
$DIMTSZ
 40
0.0
  9
$DIMTOL
 70
     0
  9
$DIMLIM
 70
     0
  9
$DIMTIH
 70
     1
  9
$DIMTOH
 70
     1
  9
$DIMSE1
 70
     0
  9
$DIMSE2
 70
     0
  9
$DIMTAD
 70
     1
  9
$DIMZIN
 70
     0
  9
$DIMBLK
  1

  9
$DIMASO
 70
     1
  9
$DIMSHO
 70
     1
  9
$DIMPOST
  1

  9
$DIMAPOST
  1

  9
$DIMALT
 70
     0
  9
$DIMALTD
 70
     3
  9
$DIMALTF
 40
0.0393700787
  9
$DIMLFAC
 40
1.0
  9
$DIMTOFL
 70
     1
  9
$DIMTVP
 40
0.0
  9
$DIMTIX
 70
     0
  9
$DIMSOXD
 70
     0
  9
$DIMSAH
 70
     0
  9
$DIMBLK1
  1

  9
$DIMBLK2
  1

  9
$DIMSTYLE
  2
ISO-25
  9
$DIMCLRD
 70
     0
  9
$DIMCLRE
 70
     0
  9
$DIMCLRT
 70
     0
  9
$DIMTFAC
 40
1.0
  9
$DIMGAP
 40
1.524
  9
$DIMJUST
 70
     0
  9
$DIMSD1
 70
     0
  9
$DIMSD2
 70
     0
  9
$DIMTOLJ
 70
     0
  9
$DIMTZIN
 70
     0
  9
$DIMALTZ
 70
     0
  9
$DIMALTTZ
 70
     0
  9
$DIMUPT
 70
     0
  9
$DIMDEC
 70
     2
  9
$DIMTDEC
 70
     0
  9
$DIMALTU
 70
     2
  9
$DIMALTTD
 70
     3
  9
$DIMTXSTY
  7
Standard
  9
$DIMAUNIT
 70
     0
  9
$DIMADEC
 70
     2
  9
$DIMALTRND
 40
0.0
  9
$DIMAZIN
 70
     0
  9
$DIMDSEP
 70
    44
  9
$DIMATFIT
 70
     3
  9
$DIMFRAC
 70
     0
  9
$DIMLDRBLK
  1

  9
$DIMLUNIT
 70
     2
  9
$DIMLWD
 70
    -2
  9
$DIMLWE
 70
    -2
  9
$DIMTMOVE
 70
     0
  9
$LUNITS
 70
     2
  9
$LUPREC
 70
     3
  9
$SKETCHINC
 40
1.0
  9
$FILLETRAD
 40
10.0
  9
$AUNITS
 70
     0
  9
$AUPREC
 70
     2
  9
$MENU
  1
.
  9
$ELEVATION
 40
0.0
  9
$PELEVATION
 40
0.0
  9
$THICKNESS
 40
0.0
  9
$LIMCHECK
 70
     0
  9
$CHAMFERA
 40
0.0
  9
$CHAMFERB
 40
0.0
  9
$CHAMFERC
 40
0.0
  9
$CHAMFERD
 40
0.0
  9
$SKPOLY
 70
     0
  9
$TDCREATE
 40
2460318.394882697
  9
$TDUCREATE
 40
2460318.35321603
  9
$TDUPDATE
 40
2460318.394883333
  9
$TDUUPDATE
 40
2460318.353216667
  9
$TDINDWG
 40
0.0000000116
  9
$TDUSRTIMER
 40
0.0000000116
  9
$USRTIMER
 70
     1
  9
$ANGBASE
 50
0.0
  9
$ANGDIR
 70
     0
  9
$PDMODE
 70
     0
  9
$PDSIZE
 40
-1.0
  9
$PLINEWID
 40
0.0
  9
$SPLFRAME
 70
     0
  9
$SPLINETYPE
 70
     6
  9
$SPLINESEGS
 70
     8
  9
$HANDSEED
  5
15D
  9
$SURFTAB1
 70
     6
  9
$SURFTAB2
 70
     6
  9
$SURFTYPE
 70
     6
  9
$SURFU
 70
     6
  9
$SURFV
 70
     6
  9
$UCSBASE
  2

  9
$UCSNAME
  2

  9
$UCSORG
 10
0.0
 20
0.0
 30
0.0
  9
$UCSXDIR
 10
1.0
 20
0.0
 30
0.0
  9
$UCSYDIR
 10
0.0
 20
1.0
 30
0.0
  9
$UCSORTHOREF
  2

  9
$UCSORTHOVIEW
 70
     0
  9
$UCSORGTOP
 10
0.0
 20
0.0
 30
0.0
  9
$UCSORGBOTTOM
 10
0.0
 20
0.0
 30
0.0
  9
$UCSORGLEFT
 10
0.0
 20
0.0
 30
0.0
  9
$UCSORGRIGHT
 10
0.0
 20
0.0
 30
0.0
  9
$UCSORGFRONT
 10
0.0
 20
0.0
 30
0.0
  9
$UCSORGBACK
 10
0.0
 20
0.0
 30
0.0
  9
$PUCSBASE
  2

  9
$PUCSNAME
  2

  9
$PUCSORG
 10
0.0
 20
0.0
 30
0.0
  9
$PUCSXDIR
 10
1.0
 20
0.0
 30
0.0
  9
$PUCSYDIR
 10
0.0
 20
1.0
 30
0.0
  9
$PUCSORTHOREF
  2

  9
$PUCSORTHOVIEW
 70
     0
  9
$PUCSORGTOP
 10
0.0
 20
0.0
 30
0.0
  9
$PUCSORGBOTTOM
 10
0.0
 20
0.0
 30
0.0
  9
$PUCSORGLEFT
 10
0.0
 20
0.0
 30
0.0
  9
$PUCSORGRIGHT
 10
0.0
 20
0.0
 30
0.0
  9
$PUCSORGFRONT
 10
0.0
 20
0.0
 30
0.0
  9
$PUCSORGBACK
 10
0.0
 20
0.0
 30
0.0
  9
$USERI1
 70
     0
  9
$USERI2
 70
     0
  9
$USERI3
 70
     0
  9
$USERI4
 70
     0
  9
$USERI5
 70
     0
  9
$USERR1
 40
0.0
  9
$USERR2
 40
0.0
  9
$USERR3
 40
0.0
  9
$USERR4
 40
0.0
  9
$USERR5
 40
0.0
  9
$WORLDVIEW
 70
     1
  9
$SHADEDGE
 70
     3
  9
$SHADEDIF
 70
    70
  9
$TILEMODE
 70
     1
  9
$MAXACTVP
 70
    64
  9
$PINSBASE
 10
0.0
 20
0.0
 30
0.0
  9
$PLIMCHECK
 70
     0
  9
$PEXTMIN
 10
1.0000000000E+20
 20
1.0000000000E+20
 30
1.0000000000E+20
  9
$PEXTMAX
 10
-1.0000000000E+20
 20
-1.0000000000E+20
 30
-1.0000000000E+20
  9
$PLIMMIN
 10
0.0
 20
0.0
  9
$PLIMMAX
 10
420.0
 20
297.0
  9
$UNITMODE
 70
     0
  9
$VISRETAIN
 70
     1
  9
$PLINEGEN
 70
     0
  9
$PSLTSCALE
 70
     1
  9
$TREEDEPTH
 70
  3020
  9
$CMLSTYLE
  2
Standard
  9
$CMLJUST
 70
     0
  9
$CMLSCALE
 40
20.0
  9
$PROXYGRAPHICS
 70
     1
  9
$MEASUREMENT
 70
     1
  9
$CELWEIGHT
370
    -1
  9
$ENDCAPS
280
     0
  9
$JOINSTYLE
280
     0
  9
$LWDISPLAY
290
     1
  9
$INSUNITS
 70
     4
  9
$HYPERLINKBASE
  1

  9
$STYLESHEET
  1

  9
$XEDIT
290
     1
  9
$CEPSNTYPE
380
     0
  9
$PSTYLEMODE
290
     1
  9
$FINGERPRINTGUID
  2
{1124109d-c47b-4e33-a4c7-eae0d2bb327b}
  9
$VERSIONGUID
  2
{FAEB1C32-E019-11D5-929B-00C0DF256EC4}
  9
$EXTNAMES
290
     1
  9
$PSVPSCALE
 40
0.0
  9
$OLESTARTUP
290
     0
  0
ENDSEC
  0
SECTION
  2
CLASSES
  0
CLASS
  1
ACDBDICTIONARYWDFLT
  2
AcDbDictionaryWithDefault
  3
ObjectDBX Classes
 90
        0
280
     0
281
     0
  0
CLASS
  1
VISUALSTYLE
  2
AcDbVisualStyle
  3
ObjectDBX Classes
 90
     4095
280
     0
281
     0
  0
CLASS
  1
MATERIAL
  2
AcDbMaterial
  3
ObjectDBX Classes
 90
     1153
280
     0
281
     0
  0
CLASS
  1
SCALE
  2
AcDbScale
  3
ObjectDBX Classes
 90
     1153
280
     0
281
     0
  0
CLASS
  1
TABLESTYLE
  2
AcDbTableStyle
  3
ObjectDBX Classes
 90
     4095
280
     0
281
     0
  0
CLASS
  1
MLEADERSTYLE
  2
AcDbMLeaderStyle
  3
ACDB_MLEADERSTYLE_CLASS
 90
     4095
280
     0
281
     0
  0
CLASS
  1
SUN
  2
AcDbSun
  3
SCENEOE
 90
     1153
280
     0
281
     0
  0
CLASS
  1
ACDBPLACEHOLDER
  2
AcDbPlaceHolder
  3
ObjectDBX Classes
 90
        0
280
     0
281
     0
  0
CLASS
  1
LAYOUT
  2
AcDbLayout
  3
ObjectDBX Classes
 90
        0
280
     0
281
     0
  0
ENDSEC
  0
SECTION
  2
TABLES
  0
TABLE
  2
VPORT
  5
8
330
0
100
AcDbSymbolTable
 70
     1
  0
VPORT
  5
29
330
8
100
AcDbSymbolTableRecord
100
AcDbViewportTableRecord
  2
*Active
 70
     0
 10
0.0
 20
0.0
 11
1.0
 21
1.0
 12
10000.0
 22
5000.0
 13
0.0
 23
0.0
 14
10.0
 24
10.0
 15
10.0
 25
10.0
 16
0.0
 26
0.0
 36
1.0
 17
0.0
 27
0.0
 37
0.0
 40
10000.0
 41
2.0
 42
50.0
 43
0.0
 44
0.0
 50
0.0
 51
0.0
 71
     0
 72
  2000
 73
     1
 74
     3
 75
     0
 76
     0
 77
     0
 78
     0
281
     0
 65
     1
110
0.0
120
0.0
130
0.0
111
1.0
121
0.0
131
0.0
112
0.0
122
1.0
132
0.0
 79
     0
146
0.0
  0
ENDTAB
  0
TABLE
  2
LTYPE
  5
5
330
0
100
AcDbSymbolTable
 70
     6
  0
LTYPE
  5
14
330
5
100
AcDbSymbolTableRecord
100
AcDbLinetypeTableRecord
  2
ByBlock
 70
     0
  3

 72
    65
 73
     0
 40
0.0
  0
LTYPE
  5
15
330
5
100
AcDbSymbolTableRecord
100
AcDbLinetypeTableRecord
  2
ByLayer
 70
     0
  3

 72
    65
 73
     0
 40
0.0
  0
LTYPE
  5
16
330
5
100
AcDbSymbolTableRecord
100
AcDbLinetypeTableRecord
  2
Continuous
 70
     0
  3
Solid line
 72
    65
 73
     0
 40
0.0
  0
LTYPE
  5
6E
330
5
100
AcDbSymbolTableRecord
100
AcDbLinetypeTableRecord
  2
HIDDEN
 70
     0
  3
Hidden __ __ __ __ __ __ __ __ __ __ __ __ __ __
 72
    65
 73
     2
 40
1.905
 49
1.27
 74
     0
 49
-0.635
 74
     0
  0
LTYPE
  5
6F
330
5
100
AcDbSymbolTableRecord
100
AcDbLinetypeTableRecord
  2
PHANTOM
 70
     0
  3
Phantom ______  __  __  ______  __  __  ______
 72
    65
 73
     6
 40
12.7
 49
6.35
 74
     0
 49
-1.27
 74
     0
 49
1.27
 74
     0
 49
-1.27
 74
     0
 49
1.27
 74
     0
 49
-1.27
 74
     0
  0
LTYPE
  5
70
330
5
100
AcDbSymbolTableRecord
100
AcDbLinetypeTableRecord
  2
CENTER
 70
     0
  3
Center ____ _ ____ _ ____ _ ____ _ ____ _ ____
 72
    65
 73
     4
 40
10.16
 49
6.35
 74
     0
 49
-1.27
 74
     0
 49
1.27
 74
     0
 49
-1.27
 74
     0
  0
LTYPE
  5
71
330
5
100
AcDbSymbolTableRecord
100
AcDbLinetypeTableRecord
  2
CENTERX2
 70
     0
  3
Center (2x) ________  __  ________  __  _____
 72
    65
 73
     4
 40
20.32
 49
12.7
 74
     0
 49
-2.54
 74
     0
 49
2.54
 74
     0
 49
-2.54
 74
     0
  0
LTYPE
  5
72
330
5
100
AcDbSymbolTableRecord
100
AcDbLinetypeTableRecord
  2
DOT2
 70
     0
  3
Dot (.5x) ........................................
 72
    65
 73
     2
 40
0.635
 49
0.0
 74
     0
 49
-0.635
 74
     0
  0
ENDTAB
  0
TABLE
  2
LAYER
  5
2
330
0
100
AcDbSymbolTable
 70
    13
  0
LAYER
  5
10
330
2
100
AcDbSymbolTableRecord
100
AcDbLayerTableRecord
  2
0
 70
     0
 62
     7
  6
Continuous
370
    -3
390
F
  0
LAYER
  5
73
330
2
100
AcDbSymbolTableRecord
100
AcDbLayerTableRecord
  2
FORMAT
 70
     0
 62
     7
  6
Continuous
370
    -3
390
F
  0
LAYER
  5
74
330
2
100
AcDbSymbolTableRecord
100
AcDbLayerTableRecord
  2
OSA
 70
     0
 62
     7
  6
CENTER
370
    -3
390
F
  0
LAYER
  5
75
330
2
100
AcDbSymbolTableRecord
100
AcDbLayerTableRecord
  2
0_35
 70
     0
 62
     7
  6
Continuous
370
    35
390
F
  0
LAYER
  5
76
330
2
100
AcDbSymbolTableRecord
100
AcDbLayerTableRecord
  2
0_5
 70
     0
 62
     7
  6
Continuous
370
    50
390
F
  0
LAYER
  5
77
330
2
100
AcDbSymbolTableRecord
100
AcDbLayerTableRecord
  2
0_25
 70
     0
 62
     7
  6
Continuous
370
    25
390
F
  0
LAYER
  5
78
330
2
100
AcDbSymbolTableRecord
100
AcDbLayerTableRecord
  2
0_18
 70
     0
 62
     7
  6
Continuous
370
    -3
390
F
  0
LAYER
  5
79
330
2
100
AcDbSymbolTableRecord
100
AcDbLayerTableRecord
  2
SLD-0
 70
     0
 62
   179
  6
Continuous
370
    -3
390
F
  0
LAYER
  5
7A
330
2
100
AcDbSymbolTableRecord
100
AcDbLayerTableRecord
  2
KOTY
 70
     0
 62
     7
  6
Continuous
370
    -3
390
F
  0
LAYER
  5
7B
330
2
100
AcDbSymbolTableRecord
100
AcDbLayerTableRecord
  2
SILNA
 70
     0
 62
   179
  6
Continuous
370
    -3
390
F
  0
LAYER
  5
7C
330
2
100
AcDbSymbolTableRecord
100
AcDbLayerTableRecord
  2
0_18_1
 70
     0
 62
   179
  6
Continuous
370
    -3
390
F
  0
LAYER
  5
7D
330
2
100
AcDbSymbolTableRecord
100
AcDbLayerTableRecord
  2
0_35_1
 70
     0
 62
   179
  6
Continuous
370
    35
390
F
  0
LAYER
  5
7E
330
2
100
AcDbSymbolTableRecord
100
AcDbLayerTableRecord
  2
0_5_1
 70
     0
 62
   179
  6
Continuous
370
    50
390
F
  0
ENDTAB
  0
TABLE
  2
STYLE
  5
3
330
0
100
AcDbSymbolTable
 70
     1
  0
STYLE
  5
11
330
3
100
AcDbSymbolTableRecord
100
AcDbTextStyleTableRecord
  2
Standard
 70
     0
 40
0.0
 41
1.0
 50
0.0
 71
     0
 42
2.0
  3
txt
  4

  0
ENDTAB
  0
TABLE
  2
VIEW
  5
6
330
0
100
AcDbSymbolTable
 70
     0
  0
ENDTAB
  0
TABLE
  2
UCS
  5
7
330
0
100
AcDbSymbolTable
 70
     0
  0
ENDTAB
  0
TABLE
  2
APPID
  5
9
330
0
100
AcDbSymbolTable
 70
     1
  0
APPID
  5
12
330
9
100
AcDbSymbolTableRecord
100
AcDbRegAppTableRecord
  2
ACAD
 70
     0
  0
ENDTAB
  0
TABLE
  2
DIMSTYLE
  5
A
330
0
100
AcDbSymbolTable
 70
     1
100
AcDbDimStyleTable
  0
DIMSTYLE
105
27
330
A
100
AcDbSymbolTableRecord
100
AcDbDimStyleTableRecord
  2
ISO-25
 70
     0
 41
2.5
 42
0.625
 43
3.75
 44
1.25
 73
     0
 74
     0
 77
     1
 78
     8
140
2.5
141
2.5
143
0.0393700787
147
0.625
171
     3
172
     1
178
     0
271
     2
272
     2
274
     3
278
    44
283
     0
284
     8
340
11
  0
ENDTAB
  0
TABLE
  2
BLOCK_RECORD
  5
1
330
0
100
AcDbSymbolTable
 70
     1
  0
BLOCK_RECORD
  5
1F
330
1
100
AcDbSymbolTableRecord
100
AcDbBlockTableRecord
  2
*Model_Space
340
22
  0
BLOCK_RECORD
  5
1B
330
1
100
AcDbSymbolTableRecord
100
AcDbBlockTableRecord
  2
*Paper_Space
340
1E
  0
BLOCK_RECORD
  5
23
330
1
100
AcDbSymbolTableRecord
100
AcDbBlockTableRecord
  2
*Paper_Space0
340
26
  0
ENDTAB
  0
ENDSEC
  0
SECTION
  2
BLOCKS
  0
BLOCK
  5
20
330
1F
100
AcDbEntity
  8
0
100
AcDbBlockBegin
  2
*Model_Space
 70
     0
 10
0.0
 20
0.0
 30
0.0
  3
*Model_Space
  1

  0
ENDBLK
  5
21
330
1F
100
AcDbEntity
  8
0
100
AcDbBlockEnd
  0
BLOCK
  5
1C
330
1B
100
AcDbEntity
 67
     1
  8
0
100
AcDbBlockBegin
  2
*Paper_Space
 70
     0
 10
0.0
 20
0.0
 30
0.0
  3
*Paper_Space
  1

  0
ENDBLK
  5
1D
330
1B
100
AcDbEntity
 67
     1
  8
0
100
AcDbBlockEnd
  0
BLOCK
  5
24
330
23
100
AcDbEntity
  8
0
100
AcDbBlockBegin
  2
*Paper_Space0
 70
     0
 10
0.0
 20
0.0
 30
0.0
  3
*Paper_Space0
  1

  0
ENDBLK
  5
25
330
23
100
AcDbEntity
  8
0
100
AcDbBlockEnd
  0
ENDSEC
  0
SECTION
  2
ENTITIES
  0
LINE
  5
7F
330
1F
100
AcDbEntity
  8
0
  6
Continuous
 62
     7
370
    25
100
AcDbLine
 10
11223.3419352148
 20
7243.4464764466
 30
0.0
 11
11223.3419352148
 21
7379.6964764466
 31
0.0
  0
LINE
  5
80
330
1F
100
AcDbEntity
  8
0
  6
Continuous
 62
     7
370
    25
100
AcDbLine
 10
11191.3419352148
 20
7379.6964764466
 30
0.0
 11
11191.3419352148
 21
7243.4464764466
 31
0.0
  0
ARC
  5
81
330
1F
100
AcDbEntity
  8
0
  6
Continuous
 62
     7
370
    25
100
AcDbCircle
 10
11191.2144558283
 20
7273.5184525285
 30
0.0
 40
1.000000000000432
100
AcDbArc
 50
111.8711542759
 51
171.0689252835
  0
ARC
  5
82
330
1F
100
AcDbEntity
  8
0
  6
Continuous
 62
     7
370
    25
100
AcDbCircle
 10
11223.4694146013
 20
7273.5184525285
 30
0.0
 40
1.000000000000432
100
AcDbArc
 50
8.9310747165
 51
68.1288457241
  0
ARC
  5
83
330
1F
100
AcDbEntity
  8
0
  6
Continuous
 62
     7
370
    25
100
AcDbCircle
 10
11191.2144558283
 20
7349.6245003647
 30
0.0
 40
1.00000000000189
100
AcDbArc
 50
188.9310747165
 51
248.1288457234
  0
ARC
  5
84
330
1F
100
AcDbEntity
  8
0
  6
Continuous
 62
     7
370
    25
100
AcDbCircle
 10
11223.4694146013
 20
7349.6245003647
 30
0.0
 40
1.000000000000093
100
AcDbArc
 50
291.8711542765
 51
351.0689252835
  0
LINE
  5
85
330
1F
100
AcDbEntity
  8
0
  6
Continuous
 62
     7
370
    25
100
AcDbLine
 10
11223.8419352148
 20
7274.4464764466
 30
0.0
 11
11223.8419352148
 21
7348.6964764466
 31
0.0
  0
LINE
  5
86
330
1F
100
AcDbEntity
  8
0
  6
Continuous
 62
     7
370
    25
100
AcDbLine
 10
11190.8419352148
 20
7348.6964764466
 30
0.0
 11
11190.8419352148
 21
7274.4464764466
 31
0.0
  0
LINE
  5
87
330
1F
100
AcDbEntity
  8
0
  6
Continuous
 62
     7
370
    25
100
AcDbLine
 10
11197.3419352148
 20
7230.9268193443
 30
0.0
 11
11197.3419352148
 21
7230.693430879
 31
0.0
  0
SPLINE
  5
88
330
1F
100
AcDbEntity
  8
0
  6
Continuous
 62
     7
370
    25
100
AcDbSpline
210
0.0
220
0.0
230
1.0
 70
     8
 71
     3
 72
    20
 73
    16
 74
     0
 42
0.00000001
 43
0.00000001
 40
0.0
 40
0.0
 40
0.0
 40
0.0
 40
0.1348068943548422
 40
0.2868886252437641
 40
0.4137584423869783
 40
0.514767174685785
 40
0.5880384176757967
 40
0.6318136573985169
 40
0.6431611050452776
 40
0.6511308199205978
 40
0.6606690340458944
 40
0.6773293869736869
 40
0.7192846567795486
 40
0.9248556196470231
 40
0.9999999999999999
 40
0.9999999999999999
 40
0.9999999999999999
 40
0.9999999999999999
 10
11197.35795489075
 20
7230.681603563017
 30
0.0
 10
11197.36524810861
 20
7230.54785133678
 30
0.0
 10
11197.38076913411
 20
7230.263207198273
 30
0.0
 10
11197.53316892951
 20
7229.876514117295
 30
0.0
 10
11197.73086319479
 20
7229.556234833285
 30
0.0
 10
11197.93105298333
 20
7229.332581666285
 30
0.0
 10
11198.09211411438
 20
7229.192632505576
 30
0.0
 10
11198.19844226825
 20
7229.115902273922
 30
0.0
 10
11198.24391151708
 20
7229.085688769585
 30
0.0
 10
11198.25798134991
 20
7229.076540424275
 30
0.0
 10
11198.2683396206
 20
7229.069893046571
 30
0.0
 10
11198.27909104254
 20
7229.063076515096
 30
0.0
 10
11198.29842993002
 20
7229.050989591763
 30
0.0
 10
11198.30517879683
 20
7229.046456960926
 30
0.0
 10
11198.36722661219
 20
7229.008581369296
 30
0.0
 10
11198.38383612339
 20
7228.998442493982
 30
0.0
  0
LINE
  5
89
330
1F
100
AcDbEntity
  8
0
  6
Continuous
 62
     7
370
    25
100
AcDbLine
 10
11217.3419352148
 20
7230.7097320567
 30
0.0
 11
11217.3419352148
 21
7230.8786053261
 31
0.0
  0
SPLINE
  5
8A
330
1F
100
AcDbEntity
  8
0
  6
Continuous
 62
     7
370
    25
100
AcDbSpline
210
0.0
220
0.0
230
1.0
 70
     8
 71
     3
 72
    17
 73
    13
 74
     0
 42
0.00000001
 43
0.00000001
 40
0.0
 40
0.0
 40
0.0
 40
0.0
 40
0.0684475903312626
 40
0.2798219421906816
 40
0.3996066677567298
 40
0.4239261959811446
 40
0.4386474178256338
 40
0.4612466308054531
 40
0.5602365679064296
 40
0.7637474502229806
 40
0.9380681664373985
 40
1.0
 40
1.0
 40
1.0
 40
1.0
 10
11216.22834973847
 20
7228.954458923644
 30
0.0
 10
11216.24929435504
 20
7228.967012451814
 30
0.0
 10
11216.33491845457
 20
7229.018332777583
 30
0.0
 10
11216.38330609726
 20
7229.049905557798
 30
0.0
 10
11216.40853994641
 20
7229.065196143895
 30
0.0
 10
11216.45623450423
 20
7229.096628653665
 30
0.0
 10
11216.49535547262
 20
7229.123451522547
 30
0.0
 10
11216.61303960731
 20
7229.208789326322
 30
0.0
 10
11216.88895894379
 20
7229.453074690906
 30
0.0
 10
11217.17627777289
 20
7229.902421481787
 30
0.0
 10
11217.342965371
 20
7230.380944961183
 30
0.0
 10
11217.3222638888
 20
7230.644193904162
 30
0.0
 10
11217.31683715054
 20
7230.713202639678
 30
0.0
  0
ARC
  5
8B
330
1F
100
AcDbEntity
  8
0
  6
Continuous
 62
     7
370
    25
100
AcDbCircle
 10
11207.3419352148
 20
7243.4464764466
 30
0.0
 40
16.0
100
AcDbArc
 50
180.0
 51
270.0
  0
ARC
  5
8C
330
1F
100
AcDbEntity
  8
0
  6
Continuous
 62
     7
370
    25
100
AcDbCircle
 10
11207.3419352148
 20
7243.4464764466
 30
0.0
 40
16.0
100
AcDbArc
 50
270.0
 51
0.0
  0
ARC
  5
8D
330
1F
100
AcDbEntity
  8
0
  6
Continuous
 62
     7
370
    25
100
AcDbCircle
 10
11207.3419352148
 20
7379.6964764466
 30
0.0
 40
16.0
100
AcDbArc
 50
90.0
 51
180.0
  0
ARC
  5
8E
330
1F
100
AcDbEntity
  8
0
  6
Continuous
 62
     7
370
    25
100
AcDbCircle
 10
11207.3419352148
 20
7379.6964764466
 30
0.0
 40
16.0
100
AcDbArc
 50
0.0
 51
90.0
  0
ARC
  5
8F
330
1F
100
AcDbEntity
  8
0
  6
Continuous
 62
     7
370
    25
100
AcDbCircle
 10
11194.9620598335
 20
7272.5734339157
 30
0.0
 40
4.818026184776732
100
AcDbArc
 50
166.7992142175
 51
174.9772007877
  0
SPLINE
  5
90
330
1F
100
AcDbEntity
  8
0
  6
Continuous
 62
     7
370
    25
100
AcDbSpline
210
0.0
220
0.0
230
1.0
 70
     8
 71
     3
 72
    12
 73
     8
 74
     0
 42
0.00000001
 43
0.00000001
 40
0.0
 40
0.0
 40
0.0
 40
0.0
 40
0.1368848454056231
 40
0.4716412059844236
 40
0.7348721038585322
 40
0.8679172632178281
 40
1.0
 40
1.0
 40
1.0
 40
1.0
 10
11191.34193521482
 20
7256.948571032221
 30
0.0
 10
11191.1611932119
 20
7257.660909335099
 30
0.0
 10
11190.53844073714
 20
7260.115294225136
 30
0.0
 10
11190.09451976953
 20
7264.089392119921
 30
0.0
 10
11189.92896753042
 20
7268.013959868586
 30
0.0
 10
11190.00989272382
 20
7270.966777110641
 30
0.0
 10
11190.11177763474
 20
7272.320738966882
 30
0.0
 10
11190.16253516749
 20
7272.995262433004
 30
0.0
  0
ARC
  5
91
330
1F
100
AcDbEntity
  8
0
  6
Continuous
 62
     7
370
    25
100
AcDbCircle
 10
11219.7218105957
 20
7350.5695189775
 30
0.0
 40
4.818026185294874
100
AcDbArc
 50
346.7992142181
 51
354.9772007872
  0
SPLINE
  5
92
330
1F
100
AcDbEntity
  8
0
  6
Continuous
 62
     7
370
    25
100
AcDbSpline
210
0.0
220
0.0
230
1.0
 70
     8
 71
     3
 72
    12
 73
     8
 74
     0
 42
0.00000001
 43
0.00000001
 40
0.0
 40
0.0
 40
0.0
 40
0.0
 40
0.1368848454350111
 40
0.4716412060512345
 40
0.7348721038922141
 40
0.8679172632346905
 40
1.0
 40
1.0
 40
1.0
 40
1.0
 10
11223.34193521482
 20
7366.194381860887
 30
0.0
 10
11223.52267721778
 20
7365.482043557858
 30
0.0
 10
11224.14542969261
 20
7363.02765866748
 30
0.0
 10
11224.58935066018
 20
7359.053560772509
 30
0.0
 10
11224.75490289921
 20
7355.128993023922
 30
0.0
 10
11224.6739777058
 20
7352.176175782251
 30
0.0
 10
11224.57209279489
 20
7350.822213926199
 30
0.0
 10
11224.52133526215
 20
7350.147690460171
 30
0.0
  0
ARC
  5
93
330
1F
100
AcDbEntity
  8
0
  6
Continuous
 62
     7
370
    25
100
AcDbCircle
 10
11194.9620598333
 20
7350.5695189774
 30
0.0
 40
4.818026184601127
100
AcDbArc
 50
185.022799212
 51
193.2007857825
  0
SPLINE
  5
94
330
1F
100
AcDbEntity
  8
0
  6
Continuous
 62
     7
370
    25
100
AcDbSpline
210
0.0
220
0.0
230
1.0
 70
     8
 71
     3
 72
    12
 73
     8
 74
     0
 42
0.00000001
 43
0.00000001
 40
0.0
 40
0.0
 40
0.0
 40
0.0
 40
0.1310714566948344
 40
0.2630947401295372
 40
0.5285532270889369
 40
0.860510150950738
 40
1.0
 40
1.0
 40
1.0
 40
1.0
 10
11190.16253516749
 20
7350.147690460186
 30
0.0
 10
11190.11212216716
 20
7350.816701798846
 30
0.0
 10
11190.01093007274
 20
7352.159582764139
 30
0.0
 10
11189.92857237579
 20
7355.111749480741
 30
0.0
 10
11190.09253255604
 20
7359.026400520937
 30
0.0
 10
11190.53612717845
 20
7363.009909734666
 30
0.0
 10
11191.15795206941
 20
7365.462519767148
 30
0.0
 10
11191.34193521482
 20
7366.188188544337
 30
0.0
  0
ARC
  5
95
330
1F
100
AcDbEntity
  8
0
  6
Continuous
 62
     7
370
    25
100
AcDbCircle
 10
11219.7218105961
 20
7272.5734339157
 30
0.0
 40
4.818026184869772
100
AcDbArc
 50
5.0227992123
 51
13.2007857824
  0
SPLINE
  5
96
330
1F
100
AcDbEntity
  8
0
  6
Continuous
 62
     7
370
    25
100
AcDbSpline
210
0.0
220
0.0
230
1.0
 70
     8
 71
     3
 72
    12
 73
     8
 74
     0
 42
0.00000001
 43
0.00000001
 40
0.0
 40
0.0
 40
0.0
 40
0.0
 40
0.131071456708279
 40
0.263094740156511
 40
0.5285532271431235
 40
0.8605101509773333
 40
1.0
 40
1.0
 40
1.0
 40
1.0
 10
11224.52133526215
 20
7272.995262433002
 30
0.0
 10
11224.57174826249
 20
7272.32625109427
 30
0.0
 10
11224.67294035691
 20
7270.983370128833
 30
0.0
 10
11224.75529805385
 20
7268.031203411925
 30
0.0
 10
11224.59133787354
 20
7264.116552371665
 30
0.0
 10
11224.14774325109
 20
7260.133043158094
 30
0.0
 10
11223.5259183602
 20
7257.680433125893
 30
0.0
 10
11223.34193521482
 20
7256.954764348843
 30
0.0
  0
LINE
  5
97
330
1F
100
AcDbEntity
  8
0
  6
Continuous
 62
     7
370
    25
100
AcDbLine
 10
11190.8419352148
 20
7274.4464764466
 30
0.0
 11
11191.3419352148
 21
7274.4464764466
 31
0.0
  0
LINE
  5
98
330
1F
100
AcDbEntity
  8
0
  6
Continuous
 62
     7
370
    25
100
AcDbLine
 10
11223.3419352148
 20
7274.4464764466
 30
0.0
 11
11223.8419352148
 21
7274.4464764466
 31
0.0
  0
LINE
  5
99
330
1F
100
AcDbEntity
  8
0
  6
Continuous
 62
     7
370
    25
100
AcDbLine
 10
11190.2713462756
 20
7273.6736987181
 30
0.0
 11
11190.226580016
 21
7273.6736987181
 31
0.0
  0
LINE
  5
9A
330
1F
100
AcDbEntity
  8
0
  6
Continuous
 62
     7
370
    25
100
AcDbLine
 10
11224.4572904136
 20
7273.6736987181
 30
0.0
 11
11224.412524154
 21
7273.6736987181
 31
0.0
  0
LINE
  5
9B
330
1F
100
AcDbEntity
  8
0
  6
Continuous
 62
     7
370
    25
100
AcDbLine
 10
11224.412524154
 20
7349.4692541751
 30
0.0
 11
11224.4572904136
 21
7349.4692541751
 31
0.0
  0
LINE
  5
9C
330
1F
100
AcDbEntity
  8
0
  6
Continuous
 62
     7
370
    25
100
AcDbLine
 10
11190.226580016
 20
7349.4692541751
 30
0.0
 11
11190.2713462756
 21
7349.4692541751
 31
0.0
  0
LINE
  5
9D
330
1F
100
AcDbEntity
  8
0
  6
Continuous
 62
     7
370
    25
100
AcDbLine
 10
11223.8419352148
 20
7348.6964764466
 30
0.0
 11
11223.3419352148
 21
7348.6964764466
 31
0.0
  0
LINE
  5
9E
330
1F
100
AcDbEntity
  8
0
  6
Continuous
 62
     7
370
    25
100
AcDbLine
 10
11191.3419352148
 20
7348.6964764466
 30
0.0
 11
11190.8419352148
 21
7348.6964764466
 31
0.0
  0
SPLINE
  5
9F
330
1F
100
AcDbEntity
  8
0
  6
Continuous
 62
     7
370
    25
100
AcDbSpline
210
0.0
220
0.0
230
1.0
 70
     8
 71
     3
 72
    15
 73
    11
 74
     0
 42
0.00000001
 43
0.00000001
 40
0.0
 40
0.0
 40
0.0
 40
0.0
 40
0.144892653710684
 40
0.2952408057718393
 40
0.4212135185541899
 40
0.549505709487459
 40
0.6645217456360518
 40
0.7846470180725515
 40
0.9232218721728751
 40
1.0
 40
1.0
 40
1.0
 40
1.0
 10
11215.75544580754
 20
7228.674447489615
 30
0.0
 10
11215.24082864207
 20
7228.395649696899
 30
0.0
 10
11214.19221794508
 20
7227.827556816686
 30
0.0
 10
11211.76178403762
 20
7226.954979389447
 30
0.0
 10
11209.03898744893
 20
7226.458904146833
 30
0.0
 10
11206.34689462888
 20
7226.406791199538
 30
0.0
 10
11203.81906790177
 20
7226.75959687252
 30
0.0
 10
11201.5449709538
 20
7227.409269347474
 30
0.0
 10
11199.87814607716
 20
7228.148539376353
 30
0.0
 10
11199.17803116123
 20
7228.536227906015
 30
0.0
 10
11198.92842462211
 20
7228.674447489609
 30
0.0
  0
ARC
  5
A0
330
1F
100
AcDbEntity
  8
0
  6
Continuous
 62
     7
370
    25
100
AcDbCircle
 10
11199.8569595414
 20
7230.2219520824
 30
0.0
 40
1.804701515759463
100
AcDbArc
 50
173.9444994273
 51
239.0353678544
  0
ARC
  5
A1
330
1F
100
AcDbEntity
  8
0
  6
Continuous
 62
     7
370
    25
100
AcDbCircle
 10
11214.8269108883
 20
7230.2219520824
 30
0.0
 40
1.804701515757682
100
AcDbArc
 50
300.9646321455
 51
6.0555005728
  0
SPLINE
  5
A2
330
1F
100
AcDbEntity
  8
0
  6
Continuous
 62
     7
370
    25
100
AcDbSpline
210
0.0
220
0.0
230
1.0
 70
     8
 71
     3
 72
     9
 73
     5
 74
     0
 42
0.00000001
 43
0.00000001
 40
0.0
 40
0.0
 40
0.0
 40
0.0
 40
0.6481801615714454
 40
1.0
 40
1.0
 40
1.0
 40
1.0
 10
11198.92842462211
 20
7228.674447489609
 30
0.0
 10
11198.6771038018
 20
7228.824149072032
 30
0.0
 10
11198.28937083
 20
7229.055105820323
 30
0.0
 10
11198.35149732894
 20
7229.01783138307
 30
0.0
 10
11198.37335466376
 20
7229.004717496579
 30
0.0
  0
SPLINE
  5
A3
330
1F
100
AcDbEntity
  8
0
  6
Continuous
 62
     7
370
    25
100
AcDbSpline
210
0.0
220
0.0
230
1.0
 70
     8
 71
     3
 72
    10
 73
     6
 74
     0
 42
0.00000001
 43
0.00000001
 40
0.0
 40
0.0
 40
0.0
 40
0.0
 40
0.0932025204115511
 40
0.3782425060828023
 40
1.0
 40
1.0
 40
1.0
 40
1.0
 10
11216.2285105556
 20
7228.95418826757
 30
0.0
 10
11216.22593656498
 20
7228.952578517986
 30
0.0
 10
11216.21549057426
 20
7228.9460456934
 30
0.0
 10
11216.04372090855
 20
7228.841186672289
 30
0.0
 10
11215.872705054
 20
7228.74227058931
 30
0.0
 10
11215.75544580754
 20
7228.674447489615
 30
0.0
  0
SPLINE
  5
A4
330
1F
100
AcDbEntity
  8
0
  6
Continuous
 62
     7
370
    25
100
AcDbSpline
210
0.0
220
0.0
230
1.0
 70
     8
 71
     3
 72
    10
 73
     6
 74
     0
 42
0.00000001
 43
0.00000001
 40
0.0
 40
0.0
 40
0.0
 40
0.0
 40
0.0253482362493044
 40
0.1184841541056112
 40
1.0
 40
1.0
 40
1.0
 40
1.0
 10
11224.45729041365
 20
7273.673698718117
 30
0.0
 10
11224.45787029707
 20
7273.667954701035
 30
0.0
 10
11224.46058082085
 20
7273.641105692752
 30
0.0
 10
11224.483286178
 20
7273.414542063758
 30
0.0
 10
11224.50326530423
 20
7273.19438326479
 30
0.0
 10
11224.52133526215
 20
7272.995262433002
 30
0.0
  0
SPLINE
  5
A5
330
1F
100
AcDbEntity
  8
0
  6
Continuous
 62
     7
370
    25
100
AcDbSpline
210
0.0
220
0.0
230
1.0
 70
     8
 71
     3
 72
    10
 73
     6
 74
     0
 42
0.00000001
 43
0.00000001
 40
0.0
 40
0.0
 40
0.0
 40
0.0
 40
0.8815158458947183
 40
0.9746517637506953
 40
0.9999999999999999
 40
0.9999999999999999
 40
0.9999999999999999
 40
0.9999999999999999
 10
11190.16253516749
 20
7272.995262433004
 30
0.0
 10
11190.18060512541
 20
7273.194383264788
 30
0.0
 10
11190.20058425164
 20
7273.414542063749
 30
0.0
 10
11190.22328960878
 20
7273.641105692755
 30
0.0
 10
11190.22600013256
 20
7273.667954701036
 30
0.0
 10
11190.22658001599
 20
7273.673698718117
 30
0.0
  0
SPLINE
  5
A6
330
1F
100
AcDbEntity
  8
0
  6
Continuous
 62
     7
370
    25
100
AcDbSpline
210
0.0
220
0.0
230
1.0
 70
     8
 71
     3
 72
    10
 73
     6
 74
     0
 42
0.00000001
 43
0.00000001
 40
0.0
 40
0.0
 40
0.0
 40
0.0
 40
0.0253482362346917
 40
0.1184841540684282
 40
1.0
 40
1.0
 40
1.0
 40
1.0
 10
11190.22658001599
 20
7349.469254175095
 30
0.0
 10
11190.22600013256
 20
7349.474998192225
 30
0.0
 10
11190.22328960875
 20
7349.501847200744
 30
0.0
 10
11190.20058425175
 20
7349.728410828355
 30
0.0
 10
11190.18060512546
 20
7349.948569627883
 30
0.0
 10
11190.16253516749
 20
7350.147690460186
 30
0.0
  0
SPLINE
  5
A7
330
1F
100
AcDbEntity
  8
0
  6
Continuous
 62
     7
370
    25
100
AcDbSpline
210
0.0
220
0.0
230
1.0
 70
     8
 71
     3
 72
    10
 73
     6
 74
     0
 42
0.00000001
 43
0.00000001
 40
0.0
 40
0.0
 40
0.0
 40
0.0
 40
0.8815158459674518
 40
0.9746517637575552
 40
1.0
 40
1.0
 40
1.0
 40
1.0
 10
11224.52133526215
 20
7350.147690460171
 30
0.0
 10
11224.50326530408
 20
7349.948569626936
 30
0.0
 10
11224.48328617769
 20
7349.728410826384
 30
0.0
 10
11224.46058082094
 20
7349.501847201293
 30
0.0
 10
11224.45787029709
 20
7349.474998192324
 30
0.0
 10
11224.45729041365
 20
7349.469254175095
 30
0.0
  0
ARC
  5
A8
330
1F
100
AcDbEntity
  8
0
  6
Continuous
 62
     7
370
    25
100
AcDbCircle
 10
11162.8419352148
 20
7433.1964764466
 30
0.0
 40
6.5
100
AcDbArc
 50
90.0
 51
180.0
  0
LINE
  5
A9
330
1F
100
AcDbEntity
  8
0
  6
Continuous
 62
     7
370
    25
100
AcDbLine
 10
11156.3419352148
 20
7433.1964764466
 30
0.0
 11
11151.8419352148
 21
7433.1964764466
 31
0.0
  0
ARC
  5
AA
330
1F
100
AcDbEntity
  8
0
  6
Continuous
 62
     7
370
    25
100
AcDbCircle
 10
11162.8419352148
 20
7433.1964764466
 30
0.0
 40
11.0
100
AcDbArc
 50
90.0
 51
180.0
  0
LINE
  5
AB
330
1F
100
AcDbEntity
  8
0
  6
Continuous
 62
     7
370
    25
100
AcDbLine
 10
11162.8419352148
 20
7444.1964764466
 30
0.0
 11
11162.8419352148
 21
7439.6964764466
 31
0.0
  0
LINE
  5
AC
330
1F
100
AcDbEntity
  8
0
  6
Continuous
 62
     7
370
    25
100
AcDbLine
 10
11156.3419352148
 20
7433.1964764466
 30
0.0
 11
11156.3419352148
 21
7224.1964764466
 31
0.0
  0
LINE
  5
AD
330
1F
100
AcDbEntity
  8
0
  6
Continuous
 62
     7
370
    25
100
AcDbLine
 10
11151.8419352148
 20
7224.1964764466
 30
0.0
 11
11156.3419352148
 21
7224.1964764466
 31
0.0
  0
LINE
  5
AE
330
1F
100
AcDbEntity
  8
0
  6
Continuous
 62
     7
370
    25
100
AcDbLine
 10
11151.8419352148
 20
7224.1964764466
 30
0.0
 11
11151.8419352148
 21
7433.1964764466
 31
0.0
  0
LINE
  5
AF
330
1F
100
AcDbEntity
  8
0
  6
Continuous
 62
     7
370
    25
100
AcDbLine
 10
11251.8419352148
 20
7439.6964764466
 30
0.0
 11
11162.8419352148
 21
7439.6964764466
 31
0.0
  0
ARC
  5
B0
330
1F
100
AcDbEntity
  8
0
  6
Continuous
 62
     7
370
    25
100
AcDbCircle
 10
11251.8419352148
 20
7433.1964764466
 30
0.0
 40
6.5
100
AcDbArc
 50
0.0
 51
90.0
  0
LINE
  5
B1
330
1F
100
AcDbEntity
  8
0
  6
Continuous
 62
     7
370
    25
100
AcDbLine
 10
11258.3419352148
 20
7224.1964764466
 30
0.0
 11
11258.3419352148
 21
7433.1964764466
 31
0.0
  0
ARC
  5
B2
330
1F
100
AcDbEntity
  8
0
  6
Continuous
 62
     7
370
    25
100
AcDbCircle
 10
11251.8419352148
 20
7224.1964764466
 30
0.0
 40
6.5
100
AcDbArc
 50
270.0
 51
0.0
  0
LINE
  5
B3
330
1F
100
AcDbEntity
  8
0
  6
Continuous
 62
     7
370
    25
100
AcDbLine
 10
11162.8419352148
 20
7217.6964764466
 30
0.0
 11
11251.8419352148
 21
7217.6964764466
 31
0.0
  0
ARC
  5
B4
330
1F
100
AcDbEntity
  8
0
  6
Continuous
 62
     7
370
    25
100
AcDbCircle
 10
11162.8419352148
 20
7224.1964764466
 30
0.0
 40
6.5
100
AcDbArc
 50
180.0
 51
270.0
  0
LINE
  5
B5
330
1F
100
AcDbEntity
  8
0
  6
Continuous
 62
     7
370
    25
100
AcDbLine
 10
11251.8419352148
 20
7439.6964764466
 30
0.0
 11
11251.8419352148
 21
7444.1964764466
 31
0.0
  0
LINE
  5
B6
330
1F
100
AcDbEntity
  8
0
  6
Continuous
 62
     7
370
    25
100
AcDbLine
 10
11162.8419352148
 20
7444.1964764466
 30
0.0
 11
11251.8419352148
 21
7444.1964764466
 31
0.0
  0
ARC
  5
B7
330
1F
100
AcDbEntity
  8
0
  6
Continuous
 62
     7
370
    25
100
AcDbCircle
 10
11251.8419352148
 20
7433.1964764466
 30
0.0
 40
11.0
100
AcDbArc
 50
0.0
 51
90.0
  0
LINE
  5
B8
330
1F
100
AcDbEntity
  8
0
  6
Continuous
 62
     7
370
    25
100
AcDbLine
 10
11262.8419352148
 20
7433.1964764466
 30
0.0
 11
11258.3419352148
 21
7433.1964764466
 31
0.0
  0
ARC
  5
B9
330
1F
100
AcDbEntity
  8
0
  6
Continuous
 62
     7
370
    25
100
AcDbCircle
 10
11162.8419352148
 20
7224.1964764466
 30
0.0
 40
11.0
100
AcDbArc
 50
180.0
 51
270.0
  0
LINE
  5
BA
330
1F
100
AcDbEntity
  8
0
  6
Continuous
 62
     7
370
    25
100
AcDbLine
 10
11162.8419352148
 20
7217.6964764466
 30
0.0
 11
11162.8419352148
 21
7213.1964764466
 31
0.0
  0
LINE
  5
BB
330
1F
100
AcDbEntity
  8
0
  6
Continuous
 62
     7
370
    25
100
AcDbLine
 10
11258.3419352148
 20
7224.1964764466
 30
0.0
 11
11262.8419352148
 21
7224.1964764466
 31
0.0
  0
LINE
  5
BC
330
1F
100
AcDbEntity
  8
0
  6
Continuous
 62
     7
370
    25
100
AcDbLine
 10
11262.8419352148
 20
7433.1964764466
 30
0.0
 11
11262.8419352148
 21
7224.1964764466
 31
0.0
  0
LINE
  5
BD
330
1F
100
AcDbEntity
  8
0
  6
Continuous
 62
     7
370
    25
100
AcDbLine
 10
11251.8419352148
 20
7213.1964764466
 30
0.0
 11
11251.8419352148
 21
7217.6964764466
 31
0.0
  0
LINE
  5
BE
330
1F
100
AcDbEntity
  8
0
  6
Continuous
 62
     7
370
    25
100
AcDbLine
 10
11251.8419352148
 20
7213.1964764466
 30
0.0
 11
11162.8419352148
 21
7213.1964764466
 31
0.0
  0
ARC
  5
BF
330
1F
100
AcDbEntity
  8
0
  6
Continuous
 62
     7
370
    25
100
AcDbCircle
 10
11251.8419352148
 20
7224.1964764466
 30
0.0
 40
11.0
100
AcDbArc
 50
270.0
 51
0.0
  0
LINE
  5
C0
330
1F
100
AcDbEntity
  8
0
  6
Continuous
 62
     8
370
    25
100
AcDbLine
 10
11190.2713462756
 20
7349.4692541751
 30
0.0
 11
11191.3419352148
 21
7349.4692541751
 31
0.0
  0
LINE
  5
C1
330
1F
100
AcDbEntity
  8
0
  6
Continuous
 62
     8
370
    25
100
AcDbLine
 10
11223.3419352148
 20
7349.4692541751
 30
0.0
 11
11224.412524154
 21
7349.4692541751
 31
0.0
  0
SPLINE
  5
C2
330
1F
100
AcDbEntity
  8
0
  6
Continuous
 62
     8
370
    25
100
AcDbSpline
210
0.0
220
0.0
230
1.0
 70
     8
 71
     3
 72
    10
 73
     6
 74
     0
 42
0.00000001
 43
0.00000001
 40
0.0
 40
0.0
 40
0.0
 40
0.0
 40
0.4053200510629495
 40
0.7011224738776434
 40
1.0
 40
1.0
 40
1.0
 40
1.0
 10
11191.34193521482
 20
7353.415909471636
 30
0.0
 10
11191.06710582075
 20
7352.831562609036
 30
0.0
 10
11190.59170603689
 20
7351.820759623015
 30
0.0
 10
11190.34370031661
 20
7350.450927053333
 30
0.0
 10
11190.2955472894
 20
7349.797604582859
 30
0.0
 10
11190.2713462756
 20
7349.469254175075
 30
0.0
  0
SPLINE
  5
C3
330
1F
100
AcDbEntity
  8
0
  6
Continuous
 62
     8
370
    25
100
AcDbSpline
210
0.0
220
0.0
230
1.0
 70
     8
 71
     3
 72
    11
 73
     7
 74
     0
 42
0.00000001
 43
0.00000001
 40
0.0
 40
0.0
 40
0.0
 40
0.0
 40
0.2297549126269765
 40
0.4604006166730787
 40
0.9339079070442659
 40
1.0
 40
1.0
 40
1.0
 40
1.0
 10
11224.41252415404
 20
7349.469254175076
 30
0.0
 10
11224.3963682657
 20
7349.723655154035
 30
0.0
 10
11224.36399385042
 20
7350.23344345956
 30
0.0
 10
11224.12029523166
 20
7351.60925924281
 30
0.0
 10
11223.80149553805
 20
7352.7281518179
 30
0.0
 10
11223.3920817082
 20
7353.561264450383
 30
0.0
 10
11223.34193521482
 20
7353.663307112494
 30
0.0
  0
LINE
  5
C4
330
1F
100
AcDbEntity
  8
0
  6
Continuous
 62
     8
370
    25
100
AcDbLine
 10
11224.412524154
 20
7273.6736987181
 30
0.0
 11
11223.3419352148
 21
7273.6736987181
 31
0.0
  0
LINE
  5
C5
330
1F
100
AcDbEntity
  8
0
  6
Continuous
 62
     8
370
    25
100
AcDbLine
 10
11191.3419352148
 20
7273.6736987181
 30
0.0
 11
11190.2713462756
 21
7273.6736987181
 31
0.0
  0
SPLINE
  5
C6
330
1F
100
AcDbEntity
  8
0
  6
Continuous
 62
     8
370
    25
100
AcDbSpline
210
0.0
220
0.0
230
1.0
 70
     8
 71
     3
 72
    10
 73
     6
 74
     0
 42
0.00000001
 43
0.00000001
 40
0.0
 40
0.0
 40
0.0
 40
0.0
 40
0.4053200510196797
 40
0.7011224738560285
 40
1.0
 40
1.0
 40
1.0
 40
1.0
 10
11223.34193521482
 20
7269.727043421663
 30
0.0
 10
11223.61676460888
 20
7270.311390284188
 30
0.0
 10
11224.09216439274
 20
7271.322193270156
 30
0.0
 10
11224.34017011302
 20
7272.692025839807
 30
0.0
 10
11224.38832314024
 20
7273.345348310315
 30
0.0
 10
11224.41252415404
 20
7273.673698718117
 30
0.0
  0
SPLINE
  5
C7
330
1F
100
AcDbEntity
  8
0
  6
Continuous
 62
     8
370
    25
100
AcDbSpline
210
0.0
220
0.0
230
1.0
 70
     8
 71
     3
 72
    11
 73
     7
 74
     0
 42
0.00000001
 43
0.00000001
 40
0.0
 40
0.0
 40
0.0
 40
0.0
 40
0.2297549126288714
 40
0.4604006166764589
 40
0.9339079070501836
 40
1.0
 40
1.0
 40
1.0
 40
1.0
 10
11190.2713462756
 20
7273.673698718117
 30
0.0
 10
11190.28750216394
 20
7273.419297739152
 30
0.0
 10
11190.31987657922
 20
7272.909509433613
 30
0.0
 10
11190.56357519799
 20
7271.53369365037
 30
0.0
 10
11190.88237489158
 20
7270.414801075294
 30
0.0
 10
11191.29178872145
 20
7269.581688442818
 30
0.0
 10
11191.34193521482
 20
7269.479645780715
 30
0.0
  0
SPLINE
  5
C8
330
1F
100
AcDbEntity
  8
0
  6
Continuous
 62
     8
370
    25
100
AcDbSpline
210
0.0
220
0.0
230
1.0
 70
     8
 71
     3
 72
     9
 73
     5
 74
     0
 42
0.00000001
 43
0.00000001
 40
0.0
 40
0.0
 40
0.0
 40
0.0
 40
0.3631975940565421
 40
0.9999999999999999
 40
0.9999999999999999
 40
0.9999999999999999
 40
0.9999999999999999
 10
11197.47099937135
 20
7230.693430879048
 30
0.0
 10
11197.43696595462
 20
7230.709876593113
 30
0.0
 10
11197.34326099265
 20
7230.755156942801
 30
0.0
 10
11197.78257300013
 20
7230.54570973506
 30
0.0
 10
11198.06232794345
 20
7230.412333249254
 30
0.0
  0
SPLINE
  5
C9
330
1F
100
AcDbEntity
  8
0
  6
Continuous
 62
     8
370
    25
100
AcDbSpline
210
0.0
220
0.0
230
1.0
 70
     8
 71
     3
 72
     9
 73
     5
 74
     0
 42
0.00000001
 43
0.00000001
 40
0.0
 40
0.0
 40
0.0
 40
0.0
 40
0.3176599420330175
 40
0.9999999999999999
 40
0.9999999999999999
 40
0.9999999999999999
 40
0.9999999999999999
 10
11216.6215424862
 20
7230.412333249261
 30
0.0
 10
11216.7623689528
 20
7230.478124141272
 30
0.0
 10
11217.20569355237
 20
7230.685235216061
 30
0.0
 10
11217.22883565957
 20
7230.699796386711
 30
0.0
 10
11217.24462644634
 20
7230.709732056736
 30
0.0
  0
ARC
  5
CA
330
1F
100
AcDbEntity
  8
0
  6
Continuous
 62
     7
370
    25
100
AcDbCircle
 10
11839.0883964809
 20
7341.589835563
 30
0.0
 40
50.75434464841311
100
AcDbArc
 50
162.6901656172
 51
171.0689252835
  0
ARC
  5
CB
330
1F
100
AcDbEntity
  8
0
  6
Continuous
 62
     7
370
    25
100
AcDbCircle
 10
11704.5797071841
 20
7341.589835563
 30
0.0
 40
50.75434464841513
100
AcDbArc
 50
8.9310747165
 51
17.3106400168
  0
ARC
  5
CC
330
1F
100
AcDbEntity
  8
0
  6
Continuous
 62
     7
370
    25
100
AcDbCircle
 10
11839.0883964809
 20
7281.5531173302
 30
0.0
 40
50.75434464841392
100
AcDbArc
 50
188.9310747165
 51
197.3106400168
  0
ARC
  5
CD
330
1F
100
AcDbEntity
  8
0
  6
Continuous
 62
     7
370
    25
100
AcDbCircle
 10
11704.5797071841
 20
7281.5531173302
 30
0.0
 40
50.7543446484145
100
AcDbArc
 50
342.6901656172
 51
351.0689252835
  0
ARC
  5
CE
330
1F
100
AcDbEntity
  8
0
  6
Continuous
 62
     7
370
    25
100
AcDbCircle
 10
11755.706572446
 20
7273.5184525285
 30
0.0
 40
1.000000000000432
100
AcDbArc
 50
111.8711542759
 51
171.0689252835
  0
ARC
  5
CF
330
1F
100
AcDbEntity
  8
0
  6
Continuous
 62
     7
370
    25
100
AcDbCircle
 10
11787.961531219
 20
7273.5184525285
 30
0.0
 40
1.000000000000432
100
AcDbArc
 50
8.9310747165
 51
68.1288457241
  0
ARC
  5
D0
330
1F
100
AcDbEntity
  8
0
  6
Continuous
 62
     7
370
    25
100
AcDbCircle
 10
11755.706572446
 20
7349.6245003647
 30
0.0
 40
1.000000000000444
100
AcDbArc
 50
188.9310747165
 51
248.1288457236
  0
ARC
  5
D1
330
1F
100
AcDbEntity
  8
0
  6
Continuous
 62
     7
370
    25
100
AcDbCircle
 10
11787.961531219
 20
7349.6245003647
 30
0.0
 40
1.00000000000189
100
AcDbArc
 50
291.8711542764
 51
351.0689252835
  0
LINE
  5
D2
330
1F
100
AcDbEntity
  8
0
  6
Continuous
 62
     7
370
    25
100
AcDbLine
 10
11788.3340518325
 20
7274.4464764466
 30
0.0
 11
11788.3340518325
 21
7348.6964764466
 31
0.0
  0
LINE
  5
D3
330
1F
100
AcDbEntity
  8
0
  6
Continuous
 62
     7
370
    25
100
AcDbLine
 10
11755.3340518325
 20
7348.6964764466
 30
0.0
 11
11755.3340518325
 21
7274.4464764466
 31
0.0
  0
LINE
  5
D4
330
1F
100
AcDbEntity
  8
0
  6
Continuous
 62
     7
370
    25
100
AcDbLine
 10
11743.4985491846
 20
7259.4464764466
 30
0.0
 11
11476.0840518325
 21
7259.4464764466
 31
0.0
  0
LINE
  5
D5
330
1F
100
AcDbEntity
  8
0
  6
Continuous
 62
     7
370
    25
100
AcDbLine
 10
12273.9590518325
 20
7259.4464764466
 30
0.0
 11
11800.1695544805
 21
7259.4464764466
 31
0.0
  0
LINE
  5
D6
330
1F
100
AcDbEntity
  8
0
  6
Continuous
 62
     7
370
    25
100
AcDbLine
 10
11781.7680242681
 20
7227.4464764466
 30
0.0
 11
12273.9590518325
 21
7227.4464764466
 31
0.0
  0
LINE
  5
D7
330
1F
100
AcDbEntity
  8
0
  6
Continuous
 62
     7
370
    25
100
AcDbLine
 10
11476.0840518325
 20
7227.4464764466
 30
0.0
 11
11761.8340518325
 21
7227.4464764466
 31
0.0
  0
LINE
  5
D8
330
1F
100
AcDbEntity
  8
0
  6
Continuous
 62
     7
370
    25
100
AcDbLine
 10
11800.1695544805
 20
7363.6964764466
 30
0.0
 11
12273.9590518325
 21
7363.6964764466
 31
0.0
  0
LINE
  5
D9
330
1F
100
AcDbEntity
  8
0
  6
Continuous
 62
     7
370
    25
100
AcDbLine
 10
11476.0840518325
 20
7363.6964764466
 30
0.0
 11
11743.4985491846
 21
7363.6964764466
 31
0.0
  0
LINE
  5
DA
330
1F
100
AcDbEntity
  8
0
  6
Continuous
 62
     7
370
    25
100
AcDbLine
 10
12273.9590518325
 20
7395.6964764466
 30
0.0
 11
11476.0840518325
 21
7395.6964764466
 31
0.0
  0
ARC
  5
DB
330
1F
100
AcDbEntity
  8
0
  6
Continuous
 62
     7
370
    25
100
AcDbCircle
 10
12273.9590518325
 20
7311.5714764466
 30
0.0
 40
52.125
100
AcDbArc
 50
270.0
 51
90.0
  0
ARC
  5
DC
330
1F
100
AcDbEntity
  8
0
  6
Continuous
 62
     7
370
    25
100
AcDbCircle
 10
12273.9590518325
 20
7311.5714764466
 30
0.0
 40
84.125
100
AcDbArc
 50
270.0
 51
0.0
  0
ARC
  5
DD
330
1F
100
AcDbEntity
  8
0
  6
Continuous
 62
     7
370
    25
100
AcDbCircle
 10
12273.9590518325
 20
7311.5714764466
 30
0.0
 40
84.125
100
AcDbArc
 50
0.0
 51
90.0
  0
SPLINE
  5
DE
330
1F
100
AcDbEntity
  8
0
  6
Continuous
 62
     7
370
    25
100
AcDbSpline
210
0.0
220
0.0
230
1.0
 70
     8
 71
     3
 72
    16
 73
    12
 74
     0
 42
0.00000001
 43
0.00000001
 40
0.0
 40
0.0
 40
0.0
 40
0.0
 40
0.0036767414365595
 40
0.1337532947571878
 40
0.2657140791445771
 40
0.3986415754120236
 40
0.5409308576932378
 40
0.6748140591682065
 40
0.8013077573740306
 40
0.9212188372657173
 40
1.0
 40
1.0
 40
1.0
 40
1.0
 10
11743.50039522068
 20
7363.694890684877
 30
0.0
 10
11743.51584817372
 20
7363.696087093006
 30
0.0
 10
11744.07799904001
 20
7363.73961028652
 30
0.0
 10
11745.20191572418
 20
7363.579325776127
 30
0.0
 10
11746.81992518683
 20
7363.18537249356
 30
0.0
 10
11748.39428360285
 20
7362.474188118963
 30
0.0
 10
11749.82954055798
 20
7361.504000233076
 30
0.0
 10
11751.05591150926
 20
7360.31706628087
 30
0.0
 10
11752.0055199736
 20
7359.020028459038
 30
0.0
 10
11752.66187500166
 20
7357.806385588322
 30
0.0
 10
11752.9156629001
 20
7357.00708293653
 30
0.0
 10
11753.016289404
 20
7356.690160688068
 30
0.0
  0
SPLINE
  5
DF
330
1F
100
AcDbEntity
  8
0
  6
Continuous
 62
     7
370
    25
100
AcDbSpline
210
0.0
220
0.0
230
1.0
 70
     8
 71
     3
 72
    16
 73
    12
 74
     0
 42
0.00000001
 43
0.00000001
 40
0.0
 40
0.0
 40
0.0
 40
0.0
 40
0.0250633505663188
 40
0.1520395859351157
 40
0.2822840737307871
 40
0.4143420099413099
 40
0.5473222101265887
 40
0.6891127291713021
 40
0.8225595976040055
 40
0.9486800928247079
 40
1.0
 40
1.0
 40
1.0
 40
1.0
 10
11753.01817544115
 20
7266.449694561964
 30
0.0
 10
11752.99218714327
 20
7266.347247831057
 30
0.0
 10
11752.83453663125
 20
7265.725784291839
 30
0.0
 10
11752.3060009413
 20
7264.645907890492
 30
0.0
 10
11751.42022738925
 20
7263.262215631858
 30
0.0
 10
11750.28012804061
 20
7262.033576529759
 30
0.0
 10
11748.91788213663
 20
7260.981370527385
 30
0.0
 10
11747.38590169092
 20
7260.173647482643
 30
0.0
 10
11745.76712467428
 20
7259.668745104938
 30
0.0
 10
11744.46484974906
 20
7259.443661396711
 30
0.0
 10
11743.7165659585
 20
7259.466014654775
 30
0.0
 10
11743.50014481566
 20
7259.472479738902
 30
0.0
  0
SPLINE
  5
E0
330
1F
100
AcDbEntity
  8
0
  6
Continuous
 62
     7
370
    25
100
AcDbSpline
210
0.0
220
0.0
230
1.0
 70
     8
 71
     3
 72
    16
 73
    12
 74
     0
 42
0.00000001
 43
0.00000001
 40
0.0
 40
0.0
 40
0.0
 40
0.0
 40
0.0250633506043345
 40
0.1520395859582781
 40
0.2822840737358978
 40
0.4143420099393639
 40
0.5473222101217189
 40
0.6891127291671003
 40
0.8225595975790522
 40
0.9486800928097616
 40
1.0
 40
1.0
 40
1.0
 40
1.0
 10
11790.64992822391
 20
7356.693258331241
 30
0.0
 10
11790.67591652184
 20
7356.795705062303
 30
0.0
 10
11790.83356703391
 20
7357.417168601608
 30
0.0
 10
11791.36210272388
 20
7358.497045002963
 30
0.0
 10
11792.24787627587
 20
7359.880737261435
 30
0.0
 10
11793.38797562443
 20
7361.109376363444
 30
0.0
 10
11794.75022152838
 20
7362.161582365799
 30
0.0
 10
11796.282201974
 20
7362.969305410506
 30
0.0
 10
11797.90097899058
 20
7363.474207788229
 30
0.0
 10
11799.20325391582
 20
7363.69929149649
 30
0.0
 10
11799.95153770648
 20
7363.676938238431
 30
0.0
 10
11800.16795884939
 20
7363.670473154305
 30
0.0
  0
SPLINE
  5
E1
330
1F
100
AcDbEntity
  8
0
  6
Continuous
 62
     7
370
    25
100
AcDbSpline
210
0.0
220
0.0
230
1.0
 70
     8
 71
     3
 72
    16
 73
    12
 74
     0
 42
0.00000001
 43
0.00000001
 40
0.0
 40
0.0
 40
0.0
 40
0.0
 40
0.003676741454621
 40
0.1337532947827485
 40
0.2657140791840045
 40
0.3986415754722085
 40
0.5409308577360072
 40
0.6748140592108332
 40
0.8013077574160516
 40
0.9212188373108168
 40
1.0
 40
1.0
 40
1.0
 40
1.0
 10
11800.16770844437
 20
7259.448062208351
 30
0.0
 10
11800.15225549125
 20
7259.446865800217
 30
0.0
 10
11799.59010462485
 20
7259.403342606703
 30
0.0
 10
11798.46618794052
 20
7259.563627117134
 30
0.0
 10
11796.84817847771
 20
7259.957580399814
 30
0.0
 10
11795.27382006167
 20
7260.668764774541
 30
0.0
 10
11793.8385631066
 20
7261.638952660529
 30
0.0
 10
11792.61219215543
 20
7262.825886612747
 30
0.0
 10
11791.66258369116
 20
7264.12292443464
 30
0.0
 10
11791.00622866324
 20
7265.336567305227
 30
0.0
 10
11790.75244076489
 20
7266.135869956862
 30
0.0
 10
11790.65181426106
 20
7266.452792205146
 30
0.0
  0
SPLINE
  5
E2
330
1F
100
AcDbEntity
  8
0
  6
Continuous
 62
     7
370
    25
100
AcDbSpline
210
0.0
220
0.0
230
1.0
 70
     8
 71
     3
 72
    12
 73
     8
 74
     0
 42
0.00000001
 43
0.00000001
 40
0.0
 40
0.0
 40
0.0
 40
0.0
 40
0.3175121730986899
 40
0.5763704838890541
 40
0.7936369920215974
 40
0.9763540310979877
 40
1.0
 40
1.0
 40
1.0
 40
1.0
 10
11761.83779508693
 20
7227.449481326597
 30
0.0
 10
11761.97336812113
 20
7227.258717190065
 30
0.0
 10
11762.21946985185
 20
7226.912428678953
 30
0.0
 10
11762.72814682701
 20
7226.606732728502
 30
0.0
 10
11763.18996645512
 20
7226.470935733145
 30
0.0
 10
11763.50185489534
 20
7226.433993615199
 30
0.0
 10
11763.6514897843
 20
7226.451293136636
 30
0.0
 10
11763.66863559917
 20
7226.453275390869
 30
0.0
  0
SPLINE
  5
E3
330
1F
100
AcDbEntity
  8
0
  6
Continuous
 62
     7
370
    25
100
AcDbSpline
210
0.0
220
0.0
230
1.0
 70
     8
 71
     3
 72
    12
 73
     8
 74
     0
 42
0.00000001
 43
0.00000001
 40
0.0
 40
0.0
 40
0.0
 40
0.0
 40
0.0362638015428565
 40
0.3338868141876394
 40
0.646350074703686
 40
0.9698243091042917
 40
1.0
 40
1.0
 40
1.0
 40
1.0
 10
11779.99858194518
 20
7226.458532856889
 30
0.0
 10
11780.02488151447
 20
7226.454425158712
 30
0.0
 10
11780.26702599557
 20
7226.416604902702
 30
0.0
 10
11780.75234635741
 20
7226.523139089996
 30
0.0
 10
11781.34804327306
 20
7226.846261479744
 30
0.0
 10
11781.73157227336
 20
7227.199044032243
 30
0.0
 10
11781.82186362973
 20
7227.442588409094
 30
0.0
 10
11781.82956787018
 20
7227.463369184968
 30
0.0
  0
LINE
  5
E4
330
1F
100
AcDbEntity
  8
0
  6
Continuous
 62
     7
370
    25
100
AcDbLine
 10
11763.6640171888
 20
7226.4464764466
 30
0.0
 11
11780.0040864762
 21
7226.4464764466
 31
0.0
  0
ARC
  5
E5
330
1F
100
AcDbEntity
  8
0
  6
Continuous
 62
     7
370
    25
100
AcDbCircle
 10
11879.9036507499
 20
7462.6214143646
 30
0.0
 40
155.6168294137682
100
AcDbArc
 50
226.2828793674
 51
226.6455211881
  0
SPLINE
  5
E6
330
1F
100
AcDbEntity
  8
0
  6
Continuous
 62
     7
370
    25
100
AcDbSpline
210
0.0
220
0.0
230
1.0
 70
     8
 71
     3
 72
    12
 73
     8
 74
     0
 42
0.00000001
 43
0.00000001
 40
0.0
 40
0.0
 40
0.0
 40
0.0
 40
0.109646010634175
 40
0.2200882587366225
 40
0.4421538771255989
 40
0.7198478413315642
 40
1.0
 40
1.0
 40
1.0
 40
1.0
 10
11772.35710720775
 20
7350.147690460186
 30
0.0
 10
11772.78069871976
 20
7350.816722405903
 30
0.0
 10
11773.63095781953
 20
7352.159644734955
 30
0.0
 10
11774.86964943916
 20
7355.111394145458
 30
0.0
 10
11776.88823425315
 20
7359.029627602079
 30
0.0
 10
11779.39224874664
 20
7364.051099780242
 30
0.0
 10
11781.25120193147
 20
7367.511702491873
 30
0.0
 10
11782.18477433834
 20
7369.249628561812
 30
0.0
  0
SPLINE
  5
E7
330
1F
100
AcDbEntity
  8
0
  6
Continuous
 62
     7
370
    25
100
AcDbSpline
210
0.0
220
0.0
230
1.0
 70
     8
 71
     3
 72
    15
 73
    11
 74
     0
 42
0.00000001
 43
0.00000001
 40
0.0
 40
0.0
 40
0.0
 40
0.0
 40
0.1980851880676216
 40
0.421524005936929
 40
0.5713676807432582
 40
0.6344737792034322
 40
0.7673435175883141
 40
0.8053775881599708
 40
0.9595805734466656
 40
1.0
 40
1.0
 40
1.0
 40
1.0
 10
11790.09539728182
 20
7362.239890574091
 30
0.0
 10
11789.9780170073
 20
7362.859739966323
 30
0.0
 10
11789.72823253823
 20
7364.178775485538
 30
0.0
 10
11788.84382553606
 20
7366.283986072148
 30
0.0
 10
11787.7565046831
 20
7367.781161413312
 30
0.0
 10
11786.63550228053
 20
7368.771736588848
 30
0.0
 10
11785.69105755265
 20
7369.252632057525
 30
0.0
 10
11784.27835688237
 20
7369.556242394834
 30
0.0
 10
11783.20771883564
 20
7369.502998620112
 30
0.0
 10
11782.36068697696
 20
7369.293199836323
 30
0.0
 10
11782.18477433834
 20
7369.249628561812
 30
0.0
  0
SPLINE
  5
E8
330
1F
100
AcDbEntity
  8
0
  6
Continuous
 62
     7
370
    25
100
AcDbSpline
210
0.0
220
0.0
230
1.0
 70
     8
 71
     3
 72
    12
 73
     8
 74
     0
 42
0.00000001
 43
0.00000001
 40
0.0
 40
0.0
 40
0.0
 40
0.0
 40
0.2587447527633539
 40
0.5217110423165465
 40
0.7995646833791654
 40
0.8992641139384917
 40
1.0
 40
1.0
 40
1.0
 40
1.0
 10
11790.09539728182
 20
7362.239890574091
 30
0.0
 10
11788.8780791579
 20
7361.056915362443
 30
0.0
 10
11786.42358181843
 20
7358.671664167541
 30
0.0
 10
11782.05362419785
 20
7355.118653671881
 30
0.0
 10
11778.17095494636
 20
7352.403337292656
 30
0.0
 10
11775.13470997805
 20
7350.449687592695
 30
0.0
 10
11773.76136109425
 20
7349.797190007481
 30
0.0
 10
11773.07113584347
 20
7349.469254175075
 30
0.0
  0
SPLINE
  5
E9
330
1F
100
AcDbEntity
  8
0
  6
Continuous
 62
     7
370
    25
100
AcDbSpline
210
0.0
220
0.0
230
1.0
 70
     8
 71
     3
 72
    13
 73
     9
 74
     0
 42
0.00000001
 43
0.00000001
 40
0.0
 40
0.0
 40
0.0
 40
0.0
 40
0.0823503247997615
 40
0.1650199331429371
 40
0.3347376497789037
 40
0.4784782181011567
 40
0.7367941613296836
 40
1.0
 40
1.0
 40
1.0
 40
1.0
 10
11770.59696782158
 20
7349.469254175075
 30
0.0
 10
11770.02596691065
 20
7349.723780647355
 30
0.0
 10
11768.88175123967
 20
7350.23382042608
 30
0.0
 10
11766.75267589405
 20
7351.607079749594
 30
0.0
 10
11764.27744484931
 20
7353.231653721749
 30
0.0
 10
11760.91538196091
 20
7355.699334751471
 30
0.0
 10
11757.26603183361
 20
7358.649487743674
 30
0.0
 10
11754.81148630784
 20
7361.035631971011
 30
0.0
 10
11753.57270638323
 20
7362.23989057409
 30
0.0
  0
ARC
  5
EA
330
1F
100
AcDbEntity
  8
0
  6
Continuous
 62
     7
370
    25
100
AcDbCircle
 10
11663.7644530661
 20
7462.6214142063
 30
0.0
 40
155.6168291950603
100
AcDbArc
 50
313.3544788115
 51
313.7171206327
  0
SPLINE
  5
EB
330
1F
100
AcDbEntity
  8
0
  6
Continuous
 62
     7
370
    25
100
AcDbSpline
210
0.0
220
0.0
230
1.0
 70
     8
 71
     3
 72
    15
 73
    11
 74
     0
 42
0.00000001
 43
0.00000001
 40
0.0
 40
0.0
 40
0.0
 40
0.0
 40
0.1281181454134858
 40
0.248559573170241
 40
0.2920548486860855
 40
0.430112576371915
 40
0.4740954128620198
 40
0.6048031208047664
 40
0.7358287619563407
 40
1.0
 40
1.0
 40
1.0
 40
1.0
 10
11761.4833293267
 20
7369.249628561812
 30
0.0
 10
11760.91781866996
 20
7369.368684685654
 30
0.0
 10
11759.82068221821
 20
7369.599663203412
 30
0.0
 10
11758.49962509573
 20
7369.407464854513
 30
0.0
 10
11757.25954195775
 20
7368.914884268915
 30
0.0
 10
11756.45408607553
 20
7368.307896089982
 30
0.0
 10
11755.56198884652
 20
7367.319301334195
 30
0.0
 10
11754.8620455208
 20
7366.254057764144
 30
0.0
 10
11753.99643245602
 20
7364.346995023562
 30
0.0
 10
11753.74246927942
 20
7363.0840872778
 30
0.0
 10
11753.57270638323
 20
7362.23989057409
 30
0.0
  0
SPLINE
  5
EC
330
1F
100
AcDbEntity
  8
0
  6
Continuous
 62
     7
370
    25
100
AcDbSpline
210
0.0
220
0.0
230
1.0
 70
     8
 71
     3
 72
    12
 73
     8
 74
     0
 42
0.00000001
 43
0.00000001
 40
0.0
 40
0.0
 40
0.0
 40
0.0
 40
0.2777050919702892
 40
0.5578447852820421
 40
0.7781286444478912
 40
0.8894670222130991
 40
1.0
 40
1.0
 40
1.0
 40
1.0
 10
11761.4833293267
 20
7369.249628561812
 30
0.0
 10
11762.40875966299
 20
7367.527022442168
 30
0.0
 10
11764.26773345268
 20
7364.066708358187
 30
0.0
 10
11766.76605088706
 20
7359.056785645415
 30
0.0
 10
11768.78980985632
 20
7355.128634552272
 30
0.0
 10
11770.02725327938
 20
7352.176238894261
 30
0.0
 10
11770.88411888099
 20
7350.822234912573
 30
0.0
 10
11771.3109964573
 20
7350.147690460186
 30
0.0
  0
ARC
  5
ED
330
1F
100
AcDbEntity
  8
0
  6
Continuous
 62
     7
370
    25
100
AcDbCircle
 10
11879.9036497948
 20
7160.5215395308
 30
0.0
 40
155.6168280293526
100
AcDbArc
 50
133.3544788095
 51
133.7171206334
  0
SPLINE
  5
EE
330
1F
100
AcDbEntity
  8
0
  6
Continuous
 62
     7
370
    25
100
AcDbSpline
210
0.0
220
0.0
230
1.0
 70
     8
 71
     3
 72
    13
 73
     9
 74
     0
 42
0.00000001
 43
0.00000001
 40
0.0
 40
0.0
 40
0.0
 40
0.0
 40
0.0823503247996392
 40
0.1650199331428625
 40
0.3347376497788518
 40
0.4784782181410152
 40
0.7367941613502766
 40
1.0
 40
1.0
 40
1.0
 40
1.0
 10
11773.07113584349
 20
7273.673698718117
 30
0.0
 10
11773.64213675442
 20
7273.419172245838
 30
0.0
 10
11774.78635242541
 20
7272.909132467117
 30
0.0
 10
11776.91542777102
 20
7271.535873143603
 30
0.0
 10
11779.39065881601
 20
7269.911299171285
 30
0.0
 10
11782.75272170449
 20
7267.443618141465
 30
0.0
 10
11786.40207183174
 20
7264.493465149255
 30
0.0
 10
11788.85661735731
 20
7262.107320922103
 30
0.0
 10
11790.09539728182
 20
7260.903062319119
 30
0.0
  0
SPLINE
  5
EF
330
1F
100
AcDbEntity
  8
0
  6
Continuous
 62
     7
370
    25
100
AcDbSpline
210
0.0
220
0.0
230
1.0
 70
     8
 71
     3
 72
    15
 73
    11
 74
     0
 42
0.00000001
 43
0.00000001
 40
0.0
 40
0.0
 40
0.0
 40
0.0
 40
0.1281181454135083
 40
0.2485595731702422
 40
0.2920548486860911
 40
0.4301125763719161
 40
0.4740954128620245
 40
0.6048031208047817
 40
0.7358287619563699
 40
1.0
 40
1.0
 40
1.0
 40
1.0
 10
11782.18477433835
 20
7253.893324331399
 30
0.0
 10
11782.75028499509
 20
7253.774268207557
 30
0.0
 10
11783.84742144684
 20
7253.543289689798
 30
0.0
 10
11785.16847856932
 20
7253.735488038697
 30
0.0
 10
11786.4085617073
 20
7254.228068624296
 30
0.0
 10
11787.21401758952
 20
7254.835056803227
 30
0.0
 10
11788.10611481852
 20
7255.823651559016
 30
0.0
 10
11788.80605814425
 20
7256.888895129066
 30
0.0
 10
11789.67167120903
 20
7258.795957869649
 30
0.0
 10
11789.92563438563
 20
7260.05886561541
 30
0.0
 10
11790.09539728182
 20
7260.903062319119
 30
0.0
  0
SPLINE
  5
F0
330
1F
100
AcDbEntity
  8
0
  6
Continuous
 62
     7
370
    25
100
AcDbSpline
210
0.0
220
0.0
230
1.0
 70
     8
 71
     3
 72
    12
 73
     8
 74
     0
 42
0.00000001
 43
0.00000001
 40
0.0
 40
0.0
 40
0.0
 40
0.0
 40
0.2777050919504971
 40
0.5578447852419236
 40
0.7781286444276886
 40
0.8894670222030336
 40
1.0
 40
1.0
 40
1.0
 40
1.0
 10
11782.18477433835
 20
7253.893324331399
 30
0.0
 10
11781.25934400213
 20
7255.615930450916
 30
0.0
 10
11779.40037021257
 20
7259.076244534643
 30
0.0
 10
11776.90205277825
 20
7264.086167247265
 30
0.0
 10
11774.87829380895
 20
7268.014318340463
 30
0.0
 10
11773.64085038579
 20
7270.96671399874
 30
0.0
 10
11772.7839847841
 20
7272.320717980554
 30
0.0
 10
11772.35710720776
 20
7272.995262433004
 30
0.0
  0
SPLINE
  5
F1
330
1F
100
AcDbEntity
  8
0
  6
Continuous
 62
     7
370
    25
100
AcDbSpline
210
0.0
220
0.0
230
1.0
 70
     8
 71
     3
 72
    12
 73
     8
 74
     0
 42
0.00000001
 43
0.00000001
 40
0.0
 40
0.0
 40
0.0
 40
0.0
 40
0.2587447527412075
 40
0.5217110422709904
 40
0.7995646833696887
 40
0.8992641139337733
 40
1.0
 40
1.0
 40
1.0
 40
1.0
 10
11753.57270638323
 20
7260.90306231912
 30
0.0
 10
11754.79002450704
 20
7262.086037530665
 30
0.0
 10
11757.24452184628
 20
7264.471288725354
 30
0.0
 10
11761.61447946673
 20
7268.024299220978
 30
0.0
 10
11765.49714871828
 20
7270.739615600291
 30
0.0
 10
11768.53339368687
 20
7272.693265300444
 30
0.0
 10
11769.90674257073
 20
7273.345762885693
 30
0.0
 10
11770.59696782154
 20
7273.673698718117
 30
0.0
  0
ARC
  5
F2
330
1F
100
AcDbEntity
  8
0
  6
Continuous
 62
     7
370
    25
100
AcDbCircle
 10
11663.7644534293
 20
7160.5215390656
 30
0.0
 40
155.6168286702897
100
AcDbArc
 50
46.2828793676
 51
46.6455211901
  0
SPLINE
  5
F3
330
1F
100
AcDbEntity
  8
0
  6
Continuous
 62
     7
370
    25
100
AcDbSpline
210
0.0
220
0.0
230
1.0
 70
     8
 71
     3
 72
    12
 73
     8
 74
     0
 42
0.00000001
 43
0.00000001
 40
0.0
 40
0.0
 40
0.0
 40
0.0
 40
0.1096460106455801
 40
0.220088258759507
 40
0.4421538771715695
 40
0.7198478413548582
 40
1.0
 40
1.0
 40
1.0
 40
1.0
 10
11771.31099645729
 20
7272.995262433002
 30
0.0
 10
11770.88740494523
 20
7272.326230487213
 30
0.0
 10
11770.03714584539
 20
7270.983308158019
 30
0.0
 10
11768.79845422563
 20
7268.03155874721
 30
0.0
 10
11766.7798694116
 20
7264.113325290522
 30
0.0
 10
11764.27585491817
 20
7259.091853112529
 30
0.0
 10
11762.4169017335
 20
7255.631250401188
 30
0.0
 10
11761.4833293267
 20
7253.893324331399
 30
0.0
  0
SPLINE
  5
F4
330
1F
100
AcDbEntity
  8
0
  6
Continuous
 62
     7
370
    25
100
AcDbSpline
210
0.0
220
0.0
230
1.0
 70
     8
 71
     3
 72
    15
 73
    11
 74
     0
 42
0.00000001
 43
0.00000001
 40
0.0
 40
0.0
 40
0.0
 40
0.0
 40
0.1980851880676648
 40
0.4215240059369652
 40
0.571367680743284
 40
0.634473779203456
 40
0.7673435175883236
 40
0.805377588159981
 40
0.9595805734466595
 40
1.0
 40
1.0
 40
1.0
 40
1.0
 10
11753.57270638323
 20
7260.90306231912
 30
0.0
 10
11753.69008665775
 20
7260.283212926887
 30
0.0
 10
11753.93987112681
 20
7258.964177407673
 30
0.0
 10
11754.82427812898
 20
7256.858966821062
 30
0.0
 10
11755.91159898194
 20
7255.361791479898
 30
0.0
 10
11757.03260138452
 20
7254.371216304362
 30
0.0
 10
11757.9770461124
 20
7253.890320835685
 30
0.0
 10
11759.38974678268
 20
7253.586710498376
 30
0.0
 10
11760.4603848294
 20
7253.639954273099
 30
0.0
 10
11761.30741668809
 20
7253.849753056887
 30
0.0
 10
11761.4833293267
 20
7253.893324331399
 30
0.0
  0
SPLINE
  5
F5
330
1F
100
AcDbEntity
  8
0
  6
Continuous
 62
     7
370
    25
100
AcDbSpline
210
0.0
220
0.0
230
1.0
 70
     8
 71
     3
 72
    10
 73
     6
 74
     0
 42
0.00000001
 43
0.00000001
 40
0.0
 40
0.0
 40
0.0
 40
0.0
 40
0.0253482362492785
 40
0.1184841541055878
 40
0.9999999999999999
 40
0.9999999999999999
 40
0.9999999999999999
 40
0.9999999999999999
 10
11771.83405183252
 20
7273.673698718117
 30
0.0
 10
11771.82965235632
 20
7273.667954701035
 30
0.0
 10
11771.80908807676
 20
7273.641105692752
 30
0.0
 10
11771.63545046952
 20
7273.414542063758
 30
0.0
 10
11771.46508348669
 20
7273.19438326479
 30
0.0
 10
11771.31099645729
 20
7272.995262433002
 30
0.0
  0
SPLINE
  5
F6
330
1F
100
AcDbEntity
  8
0
  6
Continuous
 62
     7
370
    25
100
AcDbSpline
210
0.0
220
0.0
230
1.0
 70
     8
 71
     3
 72
    10
 73
     6
 74
     0
 42
0.00000001
 43
0.00000001
 40
0.0
 40
0.0
 40
0.0
 40
0.0
 40
0.8815158458947183
 40
0.9746517637506953
 40
0.9999999999999999
 40
0.9999999999999999
 40
0.9999999999999999
 40
0.9999999999999999
 10
11772.35710720776
 20
7272.995262433004
 30
0.0
 10
11772.20302017835
 20
7273.194383264788
 30
0.0
 10
11772.03265319551
 20
7273.414542063749
 30
0.0
 10
11771.85901558829
 20
7273.641105692755
 30
0.0
 10
11771.83845130873
 20
7273.667954701036
 30
0.0
 10
11771.83405183252
 20
7273.673698718117
 30
0.0
  0
LINE
  5
F7
330
1F
100
AcDbEntity
  8
0
  6
Continuous
 62
     7
370
    25
100
AcDbLine
 10
11761.4833293267
 20
7253.8933243314
 30
0.0
 11
11782.1847743383
 21
7253.8933243314
 31
0.0
  0
SPLINE
  5
F8
330
1F
100
AcDbEntity
  8
0
  6
Continuous
 62
     7
370
    25
100
AcDbSpline
210
0.0
220
0.0
230
1.0
 70
     8
 71
     3
 72
    10
 73
     6
 74
     0
 42
0.00000001
 43
0.00000001
 40
0.0
 40
0.0
 40
0.0
 40
0.0
 40
0.0253482362346917
 40
0.1184841540684282
 40
1.0
 40
1.0
 40
1.0
 40
1.0
 10
11771.83405183252
 20
7349.469254175095
 30
0.0
 10
11771.83845130866
 20
7349.474998192225
 30
0.0
 10
11771.85901558789
 20
7349.501847200744
 30
0.0
 10
11772.03265319693
 20
7349.728410828355
 30
0.0
 10
11772.20302017901
 20
7349.948569627883
 30
0.0
 10
11772.35710720775
 20
7350.147690460186
 30
0.0
  0
SPLINE
  5
F9
330
1F
100
AcDbEntity
  8
0
  6
Continuous
 62
     7
370
    25
100
AcDbSpline
210
0.0
220
0.0
230
1.0
 70
     8
 71
     3
 72
    10
 73
     6
 74
     0
 42
0.00000001
 43
0.00000001
 40
0.0
 40
0.0
 40
0.0
 40
0.0
 40
0.8815158459317716
 40
0.9746517637653899
 40
1.0
 40
1.0
 40
1.0
 40
1.0
 10
11771.3109964573
 20
7350.147690460186
 30
0.0
 10
11771.46508348603
 20
7349.948569627883
 30
0.0
 10
11771.63545046811
 20
7349.728410828353
 30
0.0
 10
11771.80908807716
 20
7349.501847200745
 30
0.0
 10
11771.82965235639
 20
7349.474998192225
 30
0.0
 10
11771.83405183252
 20
7349.469254175095
 30
0.0
  0
LINE
  5
FA
330
1F
100
AcDbEntity
  8
0
  6
Continuous
 62
     7
370
    25
100
AcDbLine
 10
11782.1847743383
 20
7369.2496285618
 30
0.0
 11
11761.4833293267
 21
7369.2496285618
 31
0.0
  0
LINE
  5
FB
330
1F
100
AcDbEntity
  8
0
  6
Continuous
 62
     7
370
    25
100
AcDbLine
 10
11771.8340518325
 20
7273.6736987181
 30
0.0
 11
11770.5969678215
 21
7273.6736987181
 31
0.0
  0
LINE
  5
FC
330
1F
100
AcDbEntity
  8
0
  6
Continuous
 62
     7
370
    25
100
AcDbLine
 10
11773.0711358435
 20
7273.6736987181
 30
0.0
 11
11771.8340518325
 21
7273.6736987181
 31
0.0
  0
LINE
  5
FD
330
1F
100
AcDbEntity
  8
0
  6
Continuous
 62
     7
370
    25
100
AcDbLine
 10
11770.5969678216
 20
7349.4692541751
 30
0.0
 11
11771.8340518325
 21
7349.4692541751
 31
0.0
  0
LINE
  5
FE
330
1F
100
AcDbEntity
  8
0
  6
Continuous
 62
     7
370
    25
100
AcDbLine
 10
11771.8340518325
 20
7349.4692541751
 30
0.0
 11
11773.0711358435
 21
7349.4692541751
 31
0.0
  0
LINE
  5
FF
330
1F
100
AcDbEntity
  8
0
  6
Continuous
 62
     7
370
    25
100
AcDbLine
 10
11755.3340518325
 20
7274.4464764466
 30
0.0
 11
11788.3340518325
 21
7274.4464764466
 31
0.0
  0
LINE
  5
100
330
1F
100
AcDbEntity
  8
0
  6
Continuous
 62
     7
370
    25
100
AcDbLine
 10
11771.8340518325
 20
7348.6964764466
 30
0.0
 11
11755.3340518325
 21
7348.6964764466
 31
0.0
  0
LINE
  5
101
330
1F
100
AcDbEntity
  8
0
  6
Continuous
 62
     7
370
    25
100
AcDbLine
 10
11788.3340518325
 20
7348.6964764466
 30
0.0
 11
11771.8340518325
 21
7348.6964764466
 31
0.0
  0
SPLINE
  5
102
330
1F
100
AcDbEntity
  8
0
  6
Continuous
 62
     7
370
    25
100
AcDbSpline
210
0.0
220
0.0
230
1.0
 70
     8
 71
     3
 72
    14
 73
    10
 74
     0
 42
0.00000001
 43
0.00000001
 40
0.0
 40
0.0
 40
0.0
 40
0.0
 40
0.2162442862170775
 40
0.4162146207458095
 40
0.5271318635427933
 40
0.6380098209128
 40
0.7381756384077304
 40
0.8382634594374045
 40
1.0
 40
1.0
 40
1.0
 40
1.0
 10
11761.4833293267
 20
7248.133590127291
 30
0.0
 10
11759.99260134914
 20
7248.213954198889
 30
0.0
 10
11757.12333349162
 20
7248.368634362544
 30
0.0
 10
11753.67382949908
 20
7249.583674250565
 30
0.0
 10
11751.19651265495
 20
7250.952489565911
 30
0.0
 10
11749.48370291818
 20
7252.179462808037
 30
0.0
 10
11748.04579718151
 20
7253.464910643574
 30
0.0
 10
11746.59984855006
 20
7255.017219957254
 30
0.0
 10
11745.97412040311
 20
7256.052956982199
 30
0.0
 10
11745.58758988623
 20
7256.69276193514
 30
0.0
  0
LINE
  5
103
330
1F
100
AcDbEntity
  8
0
  6
Continuous
 62
     7
370
    25
100
AcDbLine
 10
11782.1847743383
 20
7248.1335901273
 30
0.0
 11
11761.4833293267
 21
7248.1335901273
 31
0.0
  0
SPLINE
  5
104
330
1F
100
AcDbEntity
  8
0
  6
Continuous
 62
     7
370
    25
100
AcDbSpline
210
0.0
220
0.0
230
1.0
 70
     8
 71
     3
 72
    15
 73
    11
 74
     0
 42
0.00000001
 43
0.00000001
 40
0.0
 40
0.0
 40
0.0
 40
0.0
 40
0.1008708408686829
 40
0.2018688199748902
 40
0.2192472864790118
 40
0.3427391087601923
 40
0.4663559958897723
 40
0.6689218693002991
 40
0.8607866532974472
 40
1.0
 40
1.0
 40
1.0
 40
1.0
 10
11798.08051377882
 20
7256.69276193514
 30
0.0
 10
11797.85797974042
 20
7256.302814465953
 30
0.0
 10
11797.41263118031
 20
7255.522428035356
 30
0.0
 10
11796.64989428889
 20
7254.589342527104
 30
0.0
 10
11795.71197264091
 20
7253.567750269168
 30
0.0
 10
11794.53289979105
 20
7252.452511560477
 30
0.0
 10
11792.1830095035
 20
7250.709588975797
 30
0.0
 10
11789.01230163511
 20
7249.129807824226
 30
0.0
 10
11785.4207227203
 20
7248.247681714693
 30
0.0
 10
11783.14266370197
 20
7248.167362952179
 30
0.0
 10
11782.18477433835
 20
7248.133590127291
 30
0.0
  0
SPLINE
  5
105
330
1F
100
AcDbEntity
  8
0
  6
Continuous
 62
     7
370
    25
100
AcDbSpline
210
0.0
220
0.0
230
1.0
 70
     8
 71
     3
 72
    11
 73
     7
 74
     0
 42
0.00000001
 43
0.00000001
 40
0.0
 40
0.0
 40
0.0
 40
0.0
 40
0.2477105748728659
 40
0.4946393628833735
 40
0.7615262587517134
 40
1.0
 40
1.0
 40
1.0
 40
1.0
 10
11761.83405183252
 20
7227.446476446606
 30
0.0
 10
11761.9252727904
 20
7227.504954206771
 30
0.0
 10
11762.10742680829
 20
7227.62172516839
 30
0.0
 10
11763.51582325593
 20
7228.454602089211
 30
0.0
 10
11765.49021082804
 20
7229.516536025492
 30
0.0
 10
11767.2682405535
 20
7230.125140129979
 30
0.0
 10
11768.10727187002
 20
7230.412333249261
 30
0.0
  0
SPLINE
  5
106
330
1F
100
AcDbEntity
  8
0
  6
Continuous
 62
     7
370
    25
100
AcDbSpline
210
0.0
220
0.0
230
1.0
 70
     8
 71
     3
 72
    14
 73
    10
 74
     0
 42
0.00000001
 43
0.00000001
 40
0.0
 40
0.0
 40
0.0
 40
0.0
 40
0.1045512014369017
 40
0.3648007843297375
 40
0.5144441642529408
 40
0.6688749595430838
 40
0.8097538758357161
 40
0.956243282719252
 40
1.0
 40
1.0
 40
1.0
 40
1.0
 10
11775.56083179505
 20
7230.412333249254
 30
0.0
 10
11775.93731134254
 20
7230.295114506835
 30
0.0
 10
11777.25092641649
 20
7229.886114049787
 30
0.0
 10
11778.83535087784
 20
7229.147889181782
 30
0.0
 10
11780.21026675938
 20
7228.416038536869
 30
0.0
 10
11781.06262454886
 20
7227.91983980378
 30
0.0
 10
11781.59131152913
 20
7227.598201940047
 30
0.0
 10
11781.88489052663
 20
7227.415008102777
 30
0.0
 10
11781.78987735249
 20
7227.47388384028
 30
0.0
 10
11781.76802426814
 20
7227.487425293551
 30
0.0
  0
SPLINE
  5
107
330
1F
100
AcDbEntity
  8
0
  6
Continuous
 62
     7
370
    25
100
AcDbSpline
210
0.0
220
0.0
230
1.0
 70
     8
 71
     3
 72
    11
 73
     7
 74
     0
 42
0.00000001
 43
0.00000001
 40
0.0
 40
0.0
 40
0.0
 40
0.0
 40
0.1033543362529693
 40
0.4595195061846461
 40
0.8164260154744455
 40
0.9999999999999999
 40
0.9999999999999999
 40
0.9999999999999999
 40
0.9999999999999999
 10
11768.10727187002
 20
7230.412333249261
 30
0.0
 10
11768.34841007931
 20
7230.477636279364
 30
0.0
 10
11769.42052485333
 20
7230.767977422591
 30
0.0
 10
11771.5150418753
 20
7231.05472790214
 30
0.0
 10
11773.85520869544
 20
7230.856010428172
 30
0.0
 10
11775.12839468174
 20
7230.524821452853
 30
0.0
 10
11775.56083179505
 20
7230.412333249254
 30
0.0
  0
SPLINE
  5
108
330
1F
100
AcDbEntity
  8
0
  6
Continuous
 62
     7
370
    25
100
AcDbSpline
210
0.0
220
0.0
230
1.0
 70
     8
 71
     3
 72
    14
 73
    10
 74
     0
 42
0.00000001
 43
0.00000001
 40
0.0
 40
0.0
 40
0.0
 40
0.0
 40
0.2162442862170874
 40
0.4162146207458288
 40
0.5271318635428168
 40
0.6380098209128312
 40
0.7381756384077658
 40
0.8382634594374402
 40
0.9999999999999999
 40
0.9999999999999999
 40
0.9999999999999999
 40
0.9999999999999999
 10
11782.18477433834
 20
7375.00936276592
 30
0.0
 10
11783.67550231591
 20
7374.928998694322
 30
0.0
 10
11786.54477017343
 20
7374.774318530666
 30
0.0
 10
11789.99427416597
 20
7373.559278642645
 30
0.0
 10
11792.4715910101
 20
7372.1904633273
 30
0.0
 10
11794.18440074687
 20
7370.963490085173
 30
0.0
 10
11795.62230648354
 20
7369.678042249636
 30
0.0
 10
11797.06825511499
 20
7368.125732935956
 30
0.0
 10
11797.69398326194
 20
7367.089995911011
 30
0.0
 10
11798.08051377882
 20
7366.450190958071
 30
0.0
  0
LINE
  5
109
330
1F
100
AcDbEntity
  8
0
  6
Continuous
 62
     7
370
    25
100
AcDbLine
 10
11761.4833293267
 20
7375.0093627659
 30
0.0
 11
11782.1847743383
 21
7375.0093627659
 31
0.0
  0
SPLINE
  5
10A
330
1F
100
AcDbEntity
  8
0
  6
Continuous
 62
     7
370
    25
100
AcDbSpline
210
0.0
220
0.0
230
1.0
 70
     8
 71
     3
 72
    15
 73
    11
 74
     0
 42
0.00000001
 43
0.00000001
 40
0.0
 40
0.0
 40
0.0
 40
0.0
 40
0.1008708408686863
 40
0.2018688199748972
 40
0.2192472864790061
 40
0.3427391087601907
 40
0.4663559958897759
 40
0.6689218693003087
 40
0.8607866532974717
 40
1.0
 40
1.0
 40
1.0
 40
1.0
 10
11745.58758988623
 20
7366.450190958071
 30
0.0
 10
11745.81012392463
 20
7366.840138427258
 30
0.0
 10
11746.25547248474
 20
7367.620524857855
 30
0.0
 10
11747.01820937616
 20
7368.553610366106
 30
0.0
 10
11747.95613102414
 20
7369.575202624043
 30
0.0
 10
11749.135203874
 20
7370.690441332733
 30
0.0
 10
11751.48509416155
 20
7372.433363917415
 30
0.0
 10
11754.65580202994
 20
7374.013145068984
 30
0.0
 10
11758.24738094475
 20
7374.895271178518
 30
0.0
 10
11760.52543996308
 20
7374.975589941031
 30
0.0
 10
11761.4833293267
 20
7375.00936276592
 30
0.0
  0
LINE
  5
10B
330
1F
100
AcDbEntity
  8
0
  6
Continuous
 62
     7
370
    25
100
AcDbLine
 10
11761.4833293267
 20
7375.0093627659
 30
0.0
 11
11761.4833293267
 21
7369.2496285618
 31
0.0
  0
ARC
  5
10C
330
1F
100
AcDbEntity
  8
0
  6
Continuous
 62
     7
370
    25
100
AcDbCircle
 10
11744.5365377586
 20
7354.7794960909
 30
0.0
 40
11.71792768610785
100
AcDbArc
 50
39.5435844172
 51
84.8538772101
  0
ARC
  5
10D
330
1F
100
AcDbEntity
  8
0
  6
Continuous
 62
     7
370
    25
100
AcDbCircle
 10
11799.1315659064
 20
7268.3634568023
 30
0.0
 40
11.71792768610316
100
AcDbArc
 50
219.5435844172
 51
264.8538772102
  0
LINE
  5
10E
330
1F
100
AcDbEntity
  8
0
  6
Continuous
 62
     7
370
    25
100
AcDbLine
 10
11782.1847743383
 20
7253.8933243314
 30
0.0
 11
11782.1847743383
 21
7248.1335901273
 31
0.0
  0
ARC
  5
10F
330
1F
100
AcDbEntity
  8
0
  6
Continuous
 62
     7
370
    25
100
AcDbCircle
 10
11744.5365377586
 20
7268.3634568023
 30
0.0
 40
11.71792768609306
100
AcDbArc
 50
275.1461227898
 51
320.4564155828
  0
LINE
  5
110
330
1F
100
AcDbEntity
  8
0
  6
Continuous
 62
     7
370
    25
100
AcDbLine
 10
11761.4833293267
 20
7253.8933243314
 30
0.0
 11
11761.4833293267
 21
7248.1335901273
 31
0.0
  0
ARC
  5
111
330
1F
100
AcDbEntity
  8
0
  6
Continuous
 62
     7
370
    25
100
AcDbCircle
 10
11799.1315659064
 20
7354.7794960909
 30
0.0
 40
11.71792768611281
100
AcDbArc
 50
95.1461227899
 51
140.4564155828
  0
LINE
  5
112
330
1F
100
AcDbEntity
  8
0
  6
Continuous
 62
     7
370
    25
100
AcDbLine
 10
11782.1847743383
 20
7375.0093627659
 30
0.0
 11
11782.1847743383
 21
7369.2496285618
 31
0.0
  0
ARC
  5
113
330
1F
100
AcDbEntity
  8
0
  6
Continuous
 62
     7
370
    25
100
AcDbCircle
 10
11771.8609401642
 20
7230.9934519544
 30
0.0
 40
3.798384473969534
100
AcDbArc
 50
188.8003003923
 51
217.6273932697
  0
SPLINE
  5
114
330
1F
100
AcDbEntity
  8
0
  6
Continuous
 62
     7
370
    25
100
AcDbSpline
210
0.0
220
0.0
230
1.0
 70
     8
 71
     3
 72
    11
 73
     7
 74
     0
 42
0.00000001
 43
0.00000001
 40
0.0
 40
0.0
 40
0.0
 40
0.0
 40
0.3200414952027855
 40
0.7005569397999398
 40
0.7391746959945809
 40
1.0
 40
1.0
 40
1.0
 40
1.0
 10
11774.81547580255
 20
7228.674447489609
 30
0.0
 10
11774.20423523425
 20
7228.80836241021
 30
0.0
 10
11772.8662561646
 20
7229.101496358076
 30
0.0
 10
11771.27976351182
 20
7229.080482569003
 30
0.0
 10
11769.9119063177
 20
7228.916766324314
 30
0.0
 10
11769.345760516
 20
7228.787255721821
 30
0.0
 10
11768.85262786252
 20
7228.674447489615
 30
0.0
  0
SPLINE
  5
115
330
1F
100
AcDbEntity
  8
0
  6
Continuous
 62
     7
370
    25
100
AcDbSpline
210
0.0
220
0.0
230
1.0
 70
     8
 71
     3
 72
    10
 73
     6
 74
     0
 42
0.00000001
 43
0.00000001
 40
0.0
 40
0.0
 40
0.0
 40
0.0
 40
0.2587151728003628
 40
0.6816723990930458
 40
0.9999999999999999
 40
0.9999999999999999
 40
0.9999999999999999
 40
0.9999999999999999
 10
11768.10727187002
 20
7230.412333249261
 30
0.0
 10
11768.72696179046
 20
7230.510337696808
 30
0.0
 10
11770.35974393533
 20
7230.768563475213
 30
0.0
 10
11773.00496781895
 20
7230.802761668541
 30
0.0
 10
11774.7930019488
 20
7230.529625325809
 30
0.0
 10
11775.56083179505
 20
7230.412333249254
 30
0.0
  0
ARC
  5
116
330
1F
100
AcDbEntity
  8
0
  6
Continuous
 62
     7
370
    25
100
AcDbCircle
 10
11771.8071635009
 20
7230.9934519544
 30
0.0
 40
3.798384473999552
100
AcDbArc
 50
322.3726067303
 51
351.1996996074
  0
LINE
  5
117
330
1F
100
AcDbEntity
  8
0
  6
Continuous
 62
     7
370
    25
100
AcDbLine
 10
11471.5840518325
 20
7433.1964764466
 30
0.0
 11
11458.0840518325
 21
7433.1964764466
 31
0.0
  0
LINE
  5
118
330
1F
100
AcDbEntity
  8
0
  6
Continuous
 62
     7
370
    25
100
AcDbLine
 10
11471.5840518325
 20
7224.1964764466
 30
0.0
 11
11471.5840518325
 21
7433.1964764466
 31
0.0
  0
LINE
  5
119
330
1F
100
AcDbEntity
  8
0
  6
Continuous
 62
     7
370
    25
100
AcDbLine
 10
11458.0840518325
 20
7224.1964764466
 30
0.0
 11
11471.5840518325
 21
7224.1964764466
 31
0.0
  0
LINE
  5
11A
330
1F
100
AcDbEntity
  8
0
  6
Continuous
 62
     7
370
    25
100
AcDbLine
 10
11458.0840518325
 20
7433.1964764466
 30
0.0
 11
11458.0840518325
 21
7224.1964764466
 31
0.0
  0
LINE
  5
11B
330
1F
100
AcDbEntity
  8
0
  6
Continuous
 62
     7
370
    25
100
AcDbLine
 10
11471.5840518325
 20
7224.1964764466
 30
0.0
 11
11471.5840518325
 21
7213.1964764466
 31
0.0
  0
LINE
  5
11C
330
1F
100
AcDbEntity
  8
0
  6
Continuous
 62
     7
370
    25
100
AcDbLine
 10
11471.5840518325
 20
7213.1964764466
 30
0.0
 11
11458.0840518325
 21
7213.1964764466
 31
0.0
  0
LINE
  5
11D
330
1F
100
AcDbEntity
  8
0
  6
Continuous
 62
     7
370
    25
100
AcDbLine
 10
11458.0840518325
 20
7213.1964764466
 30
0.0
 11
11458.0840518325
 21
7224.1964764466
 31
0.0
  0
LINE
  5
11E
330
1F
100
AcDbEntity
  8
0
  6
Continuous
 62
     7
370
    25
100
AcDbLine
 10
11458.0840518325
 20
7444.1964764466
 30
0.0
 11
11471.5840518325
 21
7444.1964764466
 31
0.0
  0
LINE
  5
11F
330
1F
100
AcDbEntity
  8
0
  6
Continuous
 62
     7
370
    25
100
AcDbLine
 10
11471.5840518325
 20
7444.1964764466
 30
0.0
 11
11471.5840518325
 21
7433.1964764466
 31
0.0
  0
LINE
  5
120
330
1F
100
AcDbEntity
  8
0
  6
Continuous
 62
     7
370
    25
100
AcDbLine
 10
11458.0840518325
 20
7433.1964764466
 30
0.0
 11
11458.0840518325
 21
7444.1964764466
 31
0.0
  0
LINE
  5
121
330
1F
100
AcDbEntity
  8
0
  6
Continuous
 62
     7
370
    25
100
AcDbLine
 10
11471.5840518325
 20
7224.1964764466
 30
0.0
 11
11476.0840518325
 21
7224.1964764466
 31
0.0
  0
LINE
  5
122
330
1F
100
AcDbEntity
  8
0
  6
Continuous
 62
     7
370
    25
100
AcDbLine
 10
11476.0840518325
 20
7217.6964764466
 30
0.0
 11
11476.0840518325
 21
7224.1964764466
 31
0.0
  0
ARC
  5
123
330
1F
100
AcDbEntity
  8
0
  6
Continuous
 62
     7
370
    25
100
AcDbCircle
 10
11471.5840518325
 20
7217.6964764466
 30
0.0
 40
4.5
100
AcDbArc
 50
270.0
 51
0.0
  0
LINE
  5
124
330
1F
100
AcDbEntity
  8
0
  6
Continuous
 62
     7
370
    25
100
AcDbLine
 10
11476.0840518325
 20
7433.1964764466
 30
0.0
 11
11471.5840518325
 21
7433.1964764466
 31
0.0
  0
LINE
  5
125
330
1F
100
AcDbEntity
  8
0
  6
Continuous
 62
     7
370
    25
100
AcDbLine
 10
11476.0840518325
 20
7433.1964764466
 30
0.0
 11
11476.0840518325
 21
7224.1964764466
 31
0.0
  0
LINE
  5
126
330
1F
100
AcDbEntity
  8
0
  6
Continuous
 62
     7
370
    25
100
AcDbLine
 10
11476.0840518325
 20
7433.1964764466
 30
0.0
 11
11476.0840518325
 21
7439.6964764466
 31
0.0
  0
ARC
  5
127
330
1F
100
AcDbEntity
  8
0
  6
Continuous
 62
     7
370
    25
100
AcDbCircle
 10
11471.5840518325
 20
7439.6964764466
 30
0.0
 40
4.5
100
AcDbArc
 50
0.0
 51
90.0
  0
LINE
  5
128
330
1F
100
AcDbEntity
  8
0
  6
Continuous
 62
     8
370
    25
100
AcDbLine
 10
11773.0711358435
 20
7349.4692541751
 30
0.0
 11
11788.9494070314
 21
7349.4692541751
 31
0.0
  0
SPLINE
  5
129
330
1F
100
AcDbEntity
  8
0
  6
Continuous
 62
     8
370
    25
100
AcDbSpline
210
0.0
220
0.0
230
1.0
 70
     8
 71
     3
 72
    13
 73
     9
 74
     0
 42
0.00000001
 43
0.00000001
 40
0.0
 40
0.0
 40
0.0
 40
0.0
 40
0.0356427196208011
 40
0.1879582092823742
 40
0.3936193185747973
 40
0.6152691976475804
 40
0.8426778100612735
 40
1.0
 40
1.0
 40
1.0
 40
1.0
 10
11790.61984132118
 20
7356.697624490931
 30
0.0
 10
11790.62144972013
 20
7356.688500147558
 30
0.0
 10
11790.62993144627
 20
7356.640383862956
 30
0.0
 10
11790.57720146327
 20
7356.937620995255
 30
0.0
 10
11790.44651090742
 20
7357.724479156971
 30
0.0
 10
11790.26117449713
 20
7359.121657704557
 30
0.0
 10
11790.12271242876
 20
7360.680594589669
 30
0.0
 10
11790.10332506525
 20
7361.787329915778
 30
0.0
 10
11790.09539728182
 20
7362.239890574091
 30
0.0
  0
LINE
  5
12A
330
1F
100
AcDbEntity
  8
0
  6
Continuous
 62
     8
370
    25
100
AcDbLine
 10
11754.7186966337
 20
7349.4692541751
 30
0.0
 11
11770.5969678216
 21
7349.4692541751
 31
0.0
  0
SPLINE
  5
12B
330
1F
100
AcDbEntity
  8
0
  6
Continuous
 62
     8
370
    25
100
AcDbSpline
210
0.0
220
0.0
230
1.0
 70
     8
 71
     3
 72
    12
 73
     8
 74
     0
 42
0.00000001
 43
0.00000001
 40
0.0
 40
0.0
 40
0.0
 40
0.0
 40
0.2128507048789894
 40
0.4283469878708679
 40
0.7423936079649981
 40
0.888989748688246
 40
0.9999999999999999
 40
0.9999999999999999
 40
0.9999999999999999
 40
0.9999999999999999
 10
11753.57270638323
 20
7362.23989057409
 30
0.0
 10
11753.55889762093
 20
7361.630812526842
 30
0.0
 10
11753.53110846353
 20
7360.405086039045
 30
0.0
 10
11753.34360421734
 20
7358.557267652811
 30
0.0
 10
11753.15146373088
 20
7357.288033447822
 30
0.0
 10
11753.05205823903
 20
7356.718704491004
 30
0.0
 10
11753.04940288588
 20
7356.703958004599
 30
0.0
 10
11753.04825861528
 20
7356.69760330529
 30
0.0
  0
LINE
  5
12C
330
1F
100
AcDbEntity
  8
0
  6
Continuous
 62
     8
370
    25
100
AcDbLine
 10
11788.9494070314
 20
7273.6736987181
 30
0.0
 11
11773.0711358435
 21
7273.6736987181
 31
0.0
  0
SPLINE
  5
12D
330
1F
100
AcDbEntity
  8
0
  6
Continuous
 62
     8
370
    25
100
AcDbSpline
210
0.0
220
0.0
230
1.0
 70
     8
 71
     3
 72
    12
 73
     8
 74
     0
 42
0.00000001
 43
0.00000001
 40
0.0
 40
0.0
 40
0.0
 40
0.0
 40
0.2128507048789947
 40
0.4283469878708935
 40
0.7423936079650248
 40
0.8889897486882814
 40
1.0
 40
1.0
 40
1.0
 40
1.0
 10
11790.09539728182
 20
7260.903062319119
 30
0.0
 10
11790.10920604412
 20
7261.512140366367
 30
0.0
 10
11790.13699520152
 20
7262.737866854167
 30
0.0
 10
11790.32449944771
 20
7264.585685240399
 30
0.0
 10
11790.51663993417
 20
7265.854919445389
 30
0.0
 10
11790.61604542601
 20
7266.424248402207
 30
0.0
 10
11790.61870077917
 20
7266.438994888612
 30
0.0
 10
11790.61984504977
 20
7266.445349587922
 30
0.0
  0
LINE
  5
12E
330
1F
100
AcDbEntity
  8
0
  6
Continuous
 62
     8
370
    25
100
AcDbLine
 10
11770.5969678215
 20
7273.6736987181
 30
0.0
 11
11754.7186966337
 21
7273.6736987181
 31
0.0
  0
SPLINE
  5
12F
330
1F
100
AcDbEntity
  8
0
  6
Continuous
 62
     8
370
    25
100
AcDbSpline
210
0.0
220
0.0
230
1.0
 70
     8
 71
     3
 72
    13
 73
     9
 74
     0
 42
0.00000001
 43
0.00000001
 40
0.0
 40
0.0
 40
0.0
 40
0.0
 40
0.0356427196208297
 40
0.1879582092823937
 40
0.393619318574815
 40
0.6152691976475807
 40
0.8426778100612586
 40
1.0
 40
1.0
 40
1.0
 40
1.0
 10
11753.04826234387
 20
7266.445328402279
 30
0.0
 10
11753.04665394492
 20
7266.454452745653
 30
0.0
 10
11753.03817221878
 20
7266.502569030255
 30
0.0
 10
11753.09090220178
 20
7266.205331897955
 30
0.0
 10
11753.22159275763
 20
7265.41847373624
 30
0.0
 10
11753.40692916792
 20
7264.021295188654
 30
0.0
 10
11753.54539123629
 20
7262.462358303542
 30
0.0
 10
11753.56477859979
 20
7261.355622977433
 30
0.0
 10
11753.57270638323
 20
7260.90306231912
 30
0.0
  0
LINE
  5
130
330
1F
100
AcDbEntity
  8
0
  6
Continuous
 62
     8
370
    25
100
AcDbLine
 10
12273.9590518325
 20
7227.4464764466
 30
0.0
 11
12273.9590518325
 21
7259.4464764466
 31
0.0
  0
SPLINE
  5
131
330
1F
100
AcDbEntity
  8
0
  6
Continuous
 62
     8
370
    25
100
AcDbSpline
210
0.0
220
0.0
230
1.0
 70
     8
 71
     3
 72
    12
 73
     8
 74
     0
 42
0.00000001
 43
0.00000001
 40
0.0
 40
0.0
 40
0.0
 40
0.0
 40
0.2796293367433549
 40
0.5664410223949583
 40
0.7744950830097864
 40
0.9884315499011137
 40
1.0
 40
1.0
 40
1.0
 40
1.0
 10
11745.58758988623
 20
7256.69276193514
 30
0.0
 10
11745.31657486759
 20
7257.14706142116
 30
0.0
 10
11744.7675837423
 20
7258.067329188242
 30
0.0
 10
11744.0279534955
 20
7258.884655076838
 30
0.0
 10
11743.61154580886
 20
7259.329790753514
 30
0.0
 10
11743.47044766943
 20
7259.470747229814
 30
0.0
 10
11743.49717791719
 20
7259.443549844996
 30
0.0
 10
11743.49854918457
 20
7259.442154613382
 30
0.0
  0
SPLINE
  5
132
330
1F
100
AcDbEntity
  8
0
  6
Continuous
 62
     8
370
    25
100
AcDbSpline
210
0.0
220
0.0
230
1.0
 70
     8
 71
     3
 72
    11
 73
     7
 74
     0
 42
0.00000001
 43
0.00000001
 40
0.0
 40
0.0
 40
0.0
 40
0.0
 40
0.1249908712528337
 40
0.3655447016164524
 40
0.6145198053287936
 40
0.9999999999999999
 40
0.9999999999999999
 40
0.9999999999999999
 40
0.9999999999999999
 10
11800.16955448048
 20
7259.442154613382
 30
0.0
 10
11800.16188323861
 20
7259.434569109162
 30
0.0
 10
11800.13944814564
 20
7259.412384762029
 30
0.0
 10
11799.83466120427
 20
7259.093316386142
 30
0.0
 10
11799.09530832635
 20
7258.310027424237
 30
0.0
 10
11798.46405097544
 20
7257.304000410335
 30
0.0
 10
11798.08051377882
 20
7256.69276193514
 30
0.0
  0
LINE
  5
133
330
1F
100
AcDbEntity
  8
0
  6
Continuous
 62
     8
370
    25
100
AcDbLine
 10
12273.9590518325
 20
7395.6964764466
 30
0.0
 11
12273.9590518325
 21
7363.6964764466
 31
0.0
  0
SPLINE
  5
134
330
1F
100
AcDbEntity
  8
0
  6
Continuous
 62
     8
370
    25
100
AcDbSpline
210
0.0
220
0.0
230
1.0
 70
     8
 71
     3
 72
    11
 73
     7
 74
     0
 42
0.00000001
 43
0.00000001
 40
0.0
 40
0.0
 40
0.0
 40
0.0
 40
0.1249908712528247
 40
0.3655447016164399
 40
0.6145198053287775
 40
0.9999999999999999
 40
0.9999999999999999
 40
0.9999999999999999
 40
0.9999999999999999
 10
11743.49854918457
 20
7363.70079827983
 30
0.0
 10
11743.50622042643
 20
7363.708383784049
 30
0.0
 10
11743.52865551941
 20
7363.730568131183
 30
0.0
 10
11743.83344246077
 20
7364.049636507068
 30
0.0
 10
11744.5727953387
 20
7364.832925468974
 30
0.0
 10
11745.20405268961
 20
7365.838952482876
 30
0.0
 10
11745.58758988623
 20
7366.450190958071
 30
0.0
  0
SPLINE
  5
135
330
1F
100
AcDbEntity
  8
0
  6
Continuous
 62
     8
370
    25
100
AcDbSpline
210
0.0
220
0.0
230
1.0
 70
     8
 71
     3
 72
    12
 73
     8
 74
     0
 42
0.00000001
 43
0.00000001
 40
0.0
 40
0.0
 40
0.0
 40
0.0
 40
0.2796293367433589
 40
0.5664410223949644
 40
0.7744950830097946
 40
0.9884315499011225
 40
1.0
 40
1.0
 40
1.0
 40
1.0
 10
11798.08051377882
 20
7366.450190958071
 30
0.0
 10
11798.35152879746
 20
7365.995891472051
 30
0.0
 10
11798.90051992275
 20
7365.075623704968
 30
0.0
 10
11799.64015016955
 20
7364.258297816372
 30
0.0
 10
11800.05655785619
 20
7363.813162139697
 30
0.0
 10
11800.19765599562
 20
7363.672205663397
 30
0.0
 10
11800.17092574786
 20
7363.699403048216
 30
0.0
 10
11800.16955448048
 20
7363.70079827983
 30
0.0
  0
SPLINE
  5
136
330
1F
100
AcDbEntity
  8
0
  6
Continuous
 62
     8
370
    25
100
AcDbSpline
210
0.0
220
0.0
230
1.0
 70
     8
 71
     3
 72
    11
 73
     7
 74
     0
 42
0.00000001
 43
0.00000001
 40
0.0
 40
0.0
 40
0.0
 40
0.0
 40
0.2897879106099573
 40
0.5904869159361105
 40
0.8424346047677216
 40
1.0
 40
1.0
 40
1.0
 40
1.0
 10
11768.85262786252
 20
7228.674447489615
 30
0.0
 10
11767.98650789132
 20
7228.394487110976
 30
0.0
 10
11766.22165679885
 20
7227.824025285228
 30
0.0
 10
11764.55501463563
 20
7226.968728228518
 30
0.0
 10
11763.63287325688
 20
7226.483900992763
 30
0.0
 10
11763.65516664765
 20
7226.494926440864
 30
0.0
 10
11763.6637443148
 20
7226.499168622994
 30
0.0
  0
SPLINE
  5
137
330
1F
100
AcDbEntity
  8
0
  6
Continuous
 62
     8
370
    25
100
AcDbSpline
210
0.0
220
0.0
230
1.0
 70
     8
 71
     3
 72
    12
 73
     8
 74
     0
 42
0.00000001
 43
0.00000001
 40
0.0
 40
0.0
 40
0.0
 40
0.0
 40
0.0990194207592668
 40
0.3290494501148718
 40
0.5692978612948476
 40
0.8464451080967111
 40
0.9999999999999999
 40
0.9999999999999999
 40
0.9999999999999999
 40
0.9999999999999999
 10
11780.00435938664
 20
7226.499168603407
 30
0.0
 10
11780.0294323363
 20
7226.485625182644
 30
0.0
 10
11780.11275175216
 20
7226.440619312882
 30
0.0
 10
11779.49559001991
 20
7226.775312091898
 30
0.0
 10
11778.24550256653
 20
7227.404177189534
 30
0.0
 10
11776.60212291026
 20
7228.149216991553
 30
0.0
 10
11775.28504379937
 20
7228.536405997375
 30
0.0
 10
11774.81547580255
 20
7228.674447489609
 30
0.0
  0
LINE
  5
138
330
1F
100
AcDbEntity
  8
0
  6
Continuous
 62
     7
370
    25
100
AcDbLine
 10
11191.3419352148
 20
7000.4574760044
 30
0.0
 11
11191.3419352148
 21
6202.5824760044
 31
0.0
  0
LINE
  5
139
330
1F
100
AcDbEntity
  8
0
  6
Continuous
 62
     7
370
    25
100
AcDbLine
 10
11223.3419352148
 20
6202.5824760044
 30
0.0
 11
11223.3419352148
 21
7000.4574760044
 31
0.0
  0
ARC
  5
13A
330
1F
100
AcDbEntity
  8
0
  6
Continuous
 62
     7
370
    25
100
AcDbCircle
 10
11207.3419352148
 20
6134.4574760044
 30
0.0
 40
16.0
100
AcDbArc
 50
180.0
 51
0.0
  0
LINE
  5
13B
330
1F
100
AcDbEntity
  8
0
  6
Continuous
 62
     7
370
    25
100
AcDbLine
 10
11223.3419352148
 20
6134.4574760044
 30
0.0
 11
11223.3419352148
 21
6202.5824760044
 31
0.0
  0
LINE
  5
13C
330
1F
100
AcDbEntity
  8
0
  6
Continuous
 62
     7
370
    25
100
AcDbLine
 10
11191.3419352148
 20
6202.5824760044
 30
0.0
 11
11191.3419352148
 21
6134.4574760044
 31
0.0
  0
SPLINE
  5
13D
330
1F
100
AcDbEntity
  8
0
  6
Continuous
 62
     7
370
    25
100
AcDbSpline
210
0.0
220
0.0
230
1.0
 70
     8
 71
     3
 72
    11
 73
     7
 74
     0
 42
0.00000001
 43
0.00000001
 40
0.0
 40
0.0
 40
0.0
 40
0.0
 40
0.1276535643024647
 40
0.4611813622887952
 40
0.7833087572270537
 40
0.9999999999999999
 40
0.9999999999999999
 40
0.9999999999999999
 40
0.9999999999999999
 10
11223.34193521482
 20
6693.516827511272
 30
0.0
 10
11223.46182288973
 20
6693.858611083433
 30
0.0
 10
11223.89494797745
 20
6695.093392221577
 30
0.0
 10
11224.33582786557
 20
6697.253692238613
 30
0.0
 10
11224.69025670733
 20
6699.687472049871
 30
0.0
 10
11224.68241516616
 20
6701.207142935059
 30
0.0
 10
11224.67926161284
 20
6701.818293607419
 30
0.0
  0
SPLINE
  5
13E
330
1F
100
AcDbEntity
  8
0
  6
Continuous
 62
     7
370
    25
100
AcDbSpline
210
0.0
220
0.0
230
1.0
 70
     8
 71
     3
 72
    11
 73
     7
 74
     0
 42
0.00000001
 43
0.00000001
 40
0.0
 40
0.0
 40
0.0
 40
0.0
 40
0.1276535641948331
 40
0.4611813621836582
 40
0.7833087571238403
 40
1.0
 40
1.0
 40
1.0
 40
1.0
 10
11191.34193521482
 20
6715.89812449764
 30
0.0
 10
11191.22204754
 20
6715.556340925767
 30
0.0
 10
11190.78892245235
 20
6714.321559787905
 30
0.0
 10
11190.34804256423
 20
6712.161259771151
 30
0.0
 10
11189.99361372235
 20
6709.727479959597
 30
0.0
 10
11190.00145526348
 20
6708.207809074102
 30
0.0
 10
11190.00460881678
 20
6707.596658401446
 30
0.0
  0
SPLINE
  5
13F
330
1F
100
AcDbEntity
  8
0
  6
Continuous
 62
     7
370
    25
100
AcDbSpline
210
0.0
220
0.0
230
1.0
 70
     8
 71
     3
 72
    11
 73
     7
 74
     0
 42
0.00000001
 43
0.00000001
 40
0.0
 40
0.0
 40
0.0
 40
0.0
 40
0.064026098741987
 40
0.3946479648043496
 40
0.7228933550573603
 40
1.0
 40
1.0
 40
1.0
 40
1.0
 10
11224.69606173724
 20
6707.594333508994
 30
0.0
 10
11224.70308784815
 20
6707.774917535146
 30
0.0
 10
11224.74639581828
 20
6708.888012348005
 30
0.0
 10
11224.52645940713
 20
6710.942974150311
 30
0.0
 10
11224.08404614976
 20
6713.553665114029
 30
0.0
 10
11223.57497034268
 20
6715.199139732494
 30
0.0
 10
11223.34193521482
 20
6715.952374089282
 30
0.0
  0
SPLINE
  5
140
330
1F
100
AcDbEntity
  8
0
  6
Continuous
 62
     7
370
    25
100
AcDbSpline
210
0.0
220
0.0
230
1.0
 70
     8
 71
     3
 72
    11
 73
     7
 74
     0
 42
0.00000001
 43
0.00000001
 40
0.0
 40
0.0
 40
0.0
 40
0.0
 40
0.0640260983438957
 40
0.39464796442747
 40
0.7228933546650966
 40
0.9999999999999999
 40
0.9999999999999999
 40
0.9999999999999999
 40
0.9999999999999999
 10
11189.9878086923
 20
6701.820618499872
 30
0.0
 10
11189.98078258141
 20
6701.640034474839
 30
0.0
 10
11189.93747461122
 20
6700.526939663031
 30
0.0
 10
11190.15741102212
 20
6698.471977861671
 30
0.0
 10
11190.59982427941
 20
6695.861286896729
 30
0.0
 10
11191.10890008669
 20
6694.21581227714
 30
0.0
 10
11191.34193521482
 20
6693.462577919239
 30
0.0
  0
LINE
  5
141
330
1F
100
AcDbEntity
  8
0
  6
Continuous
 62
     7
370
    25
100
AcDbLine
 10
11224.7186773834
 20
6701.8201003093
 30
0.0
 11
11224.7186773834
 21
6707.5949500899
 31
0.0
  0
LINE
  5
142
330
1F
100
AcDbEntity
  8
0
  6
Continuous
 62
     7
370
    25
100
AcDbLine
 10
11189.9651930462
 20
6707.5948516995
 30
0.0
 11
11189.9651930462
 21
6701.8200019189
 31
0.0
  0
LINE
  5
143
330
1F
100
AcDbEntity
  8
0
  6
Continuous
 62
     7
370
    25
100
AcDbLine
 10
11224.7186773834
 20
6701.8200019189
 30
0.0
 11
11224.7186773834
 21
6701.8201003093
 31
0.0
  0
LINE
  5
144
330
1F
100
AcDbEntity
  8
0
  6
Continuous
 62
     7
370
    25
100
AcDbLine
 10
11189.9651930462
 20
6707.5949500899
 30
0.0
 11
11189.9651930462
 21
6707.5948516995
 31
0.0
  0
LINE
  5
145
330
1F
100
AcDbEntity
  8
0
  6
Continuous
 62
     7
370
    25
100
AcDbLine
 10
11162.8419352148
 20
7018.4574760044
 30
0.0
 11
11162.8419352148
 21
7004.9574760044
 31
0.0
  0
LINE
  5
146
330
1F
100
AcDbEntity
  8
0
  6
Continuous
 62
     7
370
    25
100
AcDbLine
 10
11251.8419352148
 20
7004.9574760044
 30
0.0
 11
11251.8419352148
 21
7018.4574760044
 31
0.0
  0
LINE
  5
147
330
1F
100
AcDbEntity
  8
0
  6
Continuous
 62
     7
370
    25
100
AcDbLine
 10
11162.8419352148
 20
7004.9574760044
 30
0.0
 11
11251.8419352148
 21
7004.9574760044
 31
0.0
  0
LINE
  5
148
330
1F
100
AcDbEntity
  8
0
  6
Continuous
 62
     7
370
    25
100
AcDbLine
 10
11251.8419352148
 20
7018.4574760044
 30
0.0
 11
11162.8419352148
 21
7018.4574760044
 31
0.0
  0
LINE
  5
149
330
1F
100
AcDbEntity
  8
0
  6
Continuous
 62
     7
370
    25
100
AcDbLine
 10
11262.8419352148
 20
7018.4574760044
 30
0.0
 11
11262.8419352148
 21
7004.9574760044
 31
0.0
  0
LINE
  5
14A
330
1F
100
AcDbEntity
  8
0
  6
Continuous
 62
     7
370
    25
100
AcDbLine
 10
11262.8419352148
 20
7004.9574760044
 30
0.0
 11
11251.8419352148
 21
7004.9574760044
 31
0.0
  0
LINE
  5
14B
330
1F
100
AcDbEntity
  8
0
  6
Continuous
 62
     7
370
    25
100
AcDbLine
 10
11251.8419352148
 20
7018.4574760044
 30
0.0
 11
11262.8419352148
 21
7018.4574760044
 31
0.0
  0
LINE
  5
14C
330
1F
100
AcDbEntity
  8
0
  6
Continuous
 62
     7
370
    25
100
AcDbLine
 10
11162.8419352148
 20
7004.9574760044
 30
0.0
 11
11151.8419352148
 21
7004.9574760044
 31
0.0
  0
LINE
  5
14D
330
1F
100
AcDbEntity
  8
0
  6
Continuous
 62
     7
370
    25
100
AcDbLine
 10
11151.8419352148
 20
7004.9574760044
 30
0.0
 11
11151.8419352148
 21
7018.4574760044
 31
0.0
  0
LINE
  5
14E
330
1F
100
AcDbEntity
  8
0
  6
Continuous
 62
     7
370
    25
100
AcDbLine
 10
11151.8419352148
 20
7018.4574760044
 30
0.0
 11
11162.8419352148
 21
7018.4574760044
 31
0.0
  0
LINE
  5
14F
330
1F
100
AcDbEntity
  8
0
  6
Continuous
 62
     7
370
    25
100
AcDbLine
 10
11251.8419352148
 20
7000.4574760044
 30
0.0
 11
11258.3419352148
 21
7000.4574760044
 31
0.0
  0
LINE
  5
150
330
1F
100
AcDbEntity
  8
0
  6
Continuous
 62
     7
370
    25
100
AcDbLine
 10
11251.8419352148
 20
7000.4574760044
 30
0.0
 11
11251.8419352148
 21
7004.9574760044
 31
0.0
  0
ARC
  5
151
330
1F
100
AcDbEntity
  8
0
  6
Continuous
 62
     7
370
    25
100
AcDbCircle
 10
11258.3419352148
 20
7004.9574760044
 30
0.0
 40
4.5
100
AcDbArc
 50
270.0
 51
0.0
  0
LINE
  5
152
330
1F
100
AcDbEntity
  8
0
  6
Continuous
 62
     7
370
    25
100
AcDbLine
 10
11251.8419352148
 20
7000.4574760044
 30
0.0
 11
11162.8419352148
 21
7000.4574760044
 31
0.0
  0
LINE
  5
153
330
1F
100
AcDbEntity
  8
0
  6
Continuous
 62
     7
370
    25
100
AcDbLine
 10
11162.8419352148
 20
7004.9574760044
 30
0.0
 11
11162.8419352148
 21
7000.4574760044
 31
0.0
  0
LINE
  5
154
330
1F
100
AcDbEntity
  8
0
  6
Continuous
 62
     7
370
    25
100
AcDbLine
 10
11156.3419352148
 20
7000.4574760044
 30
0.0
 11
11162.8419352148
 21
7000.4574760044
 31
0.0
  0
ARC
  5
155
330
1F
100
AcDbEntity
  8
0
  6
Continuous
 62
     7
370
    25
100
AcDbCircle
 10
11156.3419352148
 20
7004.9574760044
 30
0.0
 40
4.5
100
AcDbArc
 50
180.0
 51
270.0
  0
LINE
  5
156
330
1F
100
AcDbEntity
  8
0
  6
Continuous
 62
     8
370
    25
100
AcDbLine
 10
11207.3419352148
 20
6202.5824760044
 30
0.0
 11
11191.3419352148
 21
6202.5824760044
 31
0.0
  0
LINE
  5
157
330
1F
100
AcDbEntity
  8
0
  6
Continuous
 62
     8
370
    25
100
AcDbLine
 10
11223.3419352148
 20
6202.5824760044
 30
0.0
 11
11207.3419352148
 21
6202.5824760044
 31
0.0
  0
SPLINE
  5
158
330
1F
100
AcDbEntity
  8
0
  6
Continuous
 62
     8
370
    25
100
AcDbSpline
210
0.0
220
0.0
230
1.0
 70
     8
 71
     3
 72
    10
 73
     6
 74
     0
 42
0.00000001
 43
0.00000001
 40
0.0
 40
0.0
 40
0.0
 40
0.0
 40
0.1904754190570468
 40
0.656289277905258
 40
1.0
 40
1.0
 40
1.0
 40
1.0
 10
11223.34193521482
 20
6695.977953516894
 30
0.0
 10
11223.52209872575
 20
6696.358176141469
 30
0.0
 10
11224.14285798738
 20
6697.668245613744
 30
0.0
 10
11224.60533466133
 20
6699.62086371214
 30
0.0
 10
11224.67766692601
 20
6701.164238761157
 30
0.0
 10
11224.70837800695
 20
6701.819530231051
 30
0.0
  0
SPLINE
  5
159
330
1F
100
AcDbEntity
  8
0
  6
Continuous
 62
     8
370
    25
100
AcDbSpline
210
0.0
220
0.0
230
1.0
 70
     8
 71
     3
 72
    10
 73
     6
 74
     0
 42
0.00000001
 43
0.00000001
 40
0.0
 40
0.0
 40
0.0
 40
0.0
 40
0.190475419042898
 40
0.6562892778744653
 40
0.9999999999999999
 40
0.9999999999999999
 40
0.9999999999999999
 40
0.9999999999999999
 10
11191.34193521482
 20
6713.43699849198
 30
0.0
 10
11191.1617717039
 20
6713.056775867433
 30
0.0
 10
11190.5410124423
 20
6711.746706395217
 30
0.0
 10
11190.07853576833
 20
6709.794088296818
 30
0.0
 10
11190.00620350363
 20
6708.250713247769
 30
0.0
 10
11189.97549242269
 20
6707.595421777816
 30
0.0
  0
SPLINE
  5
15A
330
1F
100
AcDbEntity
  8
0
  6
Continuous
 62
     8
370
    25
100
AcDbSpline
210
0.0
220
0.0
230
1.0
 70
     8
 71
     3
 72
    10
 73
     6
 74
     0
 42
0.00000001
 43
0.00000001
 40
0.0
 40
0.0
 40
0.0
 40
0.0
 40
0.3441919027321886
 40
0.8059620348451173
 40
1.0
 40
1.0
 40
1.0
 40
1.0
 10
11224.70722211591
 20
6707.592841135541
 30
0.0
 10
11224.67705505395
 20
6708.248983831051
 30
0.0
 10
11224.60641566222
 20
6709.785411904532
 30
0.0
 10
11224.14508500459
 20
6711.737690151292
 30
0.0
 10
11223.52531142589
 20
6713.046714051562
 30
0.0
 10
11223.34193521482
 20
6713.434022983864
 30
0.0
  0
SPLINE
  5
15B
330
1F
100
AcDbEntity
  8
0
  6
Continuous
 62
     8
370
    25
100
AcDbSpline
210
0.0
220
0.0
230
1.0
 70
     8
 71
     3
 72
    10
 73
     6
 74
     0
 42
0.00000001
 43
0.00000001
 40
0.0
 40
0.0
 40
0.0
 40
0.0
 40
0.3441919027523499
 40
0.8059620348548718
 40
1.0
 40
1.0
 40
1.0
 40
1.0
 10
11189.97664831373
 20
6701.822110873314
 30
0.0
 10
11190.0068153757
 20
6701.165968177766
 30
0.0
 10
11190.07745476743
 20
6699.629540104266
 30
0.0
 10
11190.53878542507
 20
6697.677261857507
 30
0.0
 10
11191.15855900376
 20
6696.368237957277
 30
0.0
 10
11191.34193521482
 20
6695.980929024995
 30
0.0
  0
ENDSEC
  0
SECTION
  2
OBJECTS
  0
DICTIONARY
  5
C
330
0
100
AcDbDictionary
281
     1
  3
ACAD_GROUP
350
D
  3
ACAD_LAYOUT
350
1A
  3
ACAD_MLINESTYLE
350
17
  3
ACAD_PLOTSETTINGS
350
19
  3
ACAD_PLOTSTYLENAME
350
E
  3
ACAD_SCALELIST
350
47
  3
DWGPROPS
350
15C
  0
DICTIONARY
  5
D
102
{ACAD_REACTORS
330
C
102
}
330
C
100
AcDbDictionary
281
     1
  0
DICTIONARY
  5
1A
102
{ACAD_REACTORS
330
C
102
}
330
C
100
AcDbDictionary
281
     1
  3
Layout1
350
1E
  3
Layout2
350
26
  3
Model
350
22
  0
DICTIONARY
  5
17
102
{ACAD_REACTORS
330
C
102
}
330
C
100
AcDbDictionary
281
     1
  3
Standard
350
18
  0
DICTIONARY
  5
19
102
{ACAD_REACTORS
330
C
102
}
330
C
100
AcDbDictionary
281
     1
  0
ACDBDICTIONARYWDFLT
  5
E
102
{ACAD_REACTORS
330
C
102
}
330
C
100
AcDbDictionary
281
     1
  3
Normal
350
F
100
AcDbDictionaryWithDefault
340
F
  0
DICTIONARY
  5
47
102
{ACAD_REACTORS
330
C
102
}
330
C
100
AcDbDictionary
281
     1
  3
A0
350
48
  3
A1
350
49
  3
A2
350
4A
  3
A3
350
4B
  3
A4
350
4C
  3
A5
350
4D
  3
A6
350
4E
  3
A7
350
4F
  3
A8
350
50
  3
A9
350
51
  3
B0
350
52
  3
B1
350
53
  3
B2
350
54
  3
B3
350
55
  3
B4
350
56
  3
B5
350
57
  3
B6
350
58
  3
B7
350
59
  3
B8
350
5A
  3
B9
350
5B
  3
C0
350
5C
  3
C1
350
5D
  3
C2
350
5E
  3
C3
350
5F
  3
C4
350
60
  3
C5
350
61
  3
C6
350
62
  3
C7
350
63
  3
C8
350
64
  3
C9
350
65
  3
D0
350
66
  3
D1
350
67
  3
D2
350
68
  0
XRECORD
  5
15C
102
{ACAD_REACTORS
330
C
102
}
330
C
100
AcDbXrecord
280
     1
  1
DWGPROPS COOKIE
  2

  3

  4

  6

  7

  8
radek.stransky
  9

300
=
301
=
302
=
303
=
304
=
305
=
306
=
307
=
308
=
309
=
 40
0.0
 41
2460318.35321603
 42
2460318.353216667
  1

 90
        0
  0
LAYOUT
  5
1E
102
{ACAD_REACTORS
330
1A
102
}
330
1A
100
AcDbPlotSettings
  1

  2
none_device
  4

  6

 40
0.0
 41
0.0
 42
0.0
 43
0.0
 44
0.0
 45
0.0
 46
0.0
 47
0.0
 48
0.0
 49
0.0
140
0.0
141
0.0
142
1.0
143
1.0
 70
   688
 72
     1
 73
     0
 74
     5
  7

 75
    16
147
1.0
148
0.0
149
0.0
100
AcDbLayout
  1
Layout1
 70
     1
 71
     1
 10
0.0
 20
0.0
 11
420.0
 21
297.0
 12
0.0
 22
0.0
 32
0.0
 14
1.0000000000E+20
 24
1.0000000000E+20
 34
1.0000000000E+20
 15
-1.0000000000E+20
 25
-1.0000000000E+20
 35
-1.0000000000E+20
146
0.0
 13
0.0
 23
0.0
 33
0.0
 16
1.0
 26
0.0
 36
0.0
 17
0.0
 27
1.0
 37
0.0
 76
     0
330
1B
  0
LAYOUT
  5
26
102
{ACAD_REACTORS
330
1A
102
}
330
1A
100
AcDbPlotSettings
  1

  2
none_device
  4

  6

 40
0.0
 41
0.0
 42
0.0
 43
0.0
 44
0.0
 45
0.0
 46
0.0
 47
0.0
 48
0.0
 49
0.0
140
0.0
141
0.0
142
1.0
143
1.0
 70
   688
 72
     1
 73
     0
 74
     5
  7

 75
    16
147
1.0
148
0.0
149
0.0
100
AcDbLayout
  1
Layout2
 70
     1
 71
     2
 10
0.0
 20
0.0
 11
0.0
 21
0.0
 12
0.0
 22
0.0
 32
0.0
 14
0.0
 24
0.0
 34
0.0
 15
0.0
 25
0.0
 35
0.0
146
0.0
 13
0.0
 23
0.0
 33
0.0
 16
1.0
 26
0.0
 36
0.0
 17
0.0
 27
1.0
 37
0.0
 76
     0
330
23
  0
LAYOUT
  5
22
102
{ACAD_REACTORS
330
1A
102
}
330
1A
100
AcDbPlotSettings
  1

  2
none_device
  4
Letter_(8.50_x_11.00_Inches)
  6

 40
6.35
 41
6.35
 42
6.35000508
 43
6.35000508
 44
215.9
 45
279.4
 46
0.0
 47
0.0
 48
0.0
 49
0.0
140
0.0
141
0.0
142
1.0
143
1.0
 70
  1712
 72
     1
 73
     0
 74
     0
  7

 75
     0
147
1.0
148
0.0
149
0.0
100
AcDbLayout
  1
Model
 70
     1
 71
     0
 10
0.0
 20
0.0
 11
20000.0
 21
10000.0
 12
0.0
 22
0.0
 32
0.0
 14
0.0
 24
0.0
 34
0.0
 15
20000.0
 25
10000.0
 35
0.0
146
0.0
 13
0.0
 23
0.0
 33
0.0
 16
1.0
 26
0.0
 36
0.0
 17
0.0
 27
1.0
 37
0.0
 76
     0
330
1F
331
29
  0
MLINESTYLE
  5
18
102
{ACAD_REACTORS
330
17
102
}
330
17
100
AcDbMlineStyle
  2
Standard
 70
     0
  3

 62
   256
 51
90.0
 52
90.0
 71
     2
 49
0.5
 62
   256
  6
BYLAYER
 49
-0.5
 62
   256
  6
BYLAYER
  0
ACDBPLACEHOLDER
  5
F
102
{ACAD_REACTORS
330
E
102
}
330
E
  0
SCALE
  5
48
102
{ACAD_REACTORS
330
47
102
}
330
47
100
AcDbScale
 70
     0
300
1:1
140
1.0
141
1.0
290
     1
  0
SCALE
  5
49
102
{ACAD_REACTORS
330
47
102
}
330
47
100
AcDbScale
 70
     0
300
1:2
140
1.0
141
2.0
290
     0
  0
SCALE
  5
4A
102
{ACAD_REACTORS
330
47
102
}
330
47
100
AcDbScale
 70
     0
300
1:4
140
1.0
141
4.0
290
     0
  0
SCALE
  5
4B
102
{ACAD_REACTORS
330
47
102
}
330
47
100
AcDbScale
 70
     0
300
1:5
140
1.0
141
5.0
290
     0
  0
SCALE
  5
4C
102
{ACAD_REACTORS
330
47
102
}
330
47
100
AcDbScale
 70
     0
300
1:8
140
1.0
141
8.0
290
     0
  0
SCALE
  5
4D
102
{ACAD_REACTORS
330
47
102
}
330
47
100
AcDbScale
 70
     0
300
1:10
140
1.0
141
10.0
290
     0
  0
SCALE
  5
4E
102
{ACAD_REACTORS
330
47
102
}
330
47
100
AcDbScale
 70
     0
300
1:16
140
1.0
141
16.0
290
     0
  0
SCALE
  5
4F
102
{ACAD_REACTORS
330
47
102
}
330
47
100
AcDbScale
 70
     0
300
1:20
140
1.0
141
20.0
290
     0
  0
SCALE
  5
50
102
{ACAD_REACTORS
330
47
102
}
330
47
100
AcDbScale
 70
     0
300
1:30
140
1.0
141
30.0
290
     0
  0
SCALE
  5
51
102
{ACAD_REACTORS
330
47
102
}
330
47
100
AcDbScale
 70
     0
300
1:40
140
1.0
141
40.0
290
     0
  0
SCALE
  5
52
102
{ACAD_REACTORS
330
47
102
}
330
47
100
AcDbScale
 70
     0
300
1:50
140
1.0
141
50.0
290
     0
  0
SCALE
  5
53
102
{ACAD_REACTORS
330
47
102
}
330
47
100
AcDbScale
 70
     0
300
1:100
140
1.0
141
100.0
290
     0
  0
SCALE
  5
54
102
{ACAD_REACTORS
330
47
102
}
330
47
100
AcDbScale
 70
     0
300
2:1
140
2.0
141
1.0
290
     0
  0
SCALE
  5
55
102
{ACAD_REACTORS
330
47
102
}
330
47
100
AcDbScale
 70
     0
300
4:1
140
4.0
141
1.0
290
     0
  0
SCALE
  5
56
102
{ACAD_REACTORS
330
47
102
}
330
47
100
AcDbScale
 70
     0
300
8:1
140
8.0
141
1.0
290
     0
  0
SCALE
  5
57
102
{ACAD_REACTORS
330
47
102
}
330
47
100
AcDbScale
 70
     0
300
10:1
140
10.0
141
1.0
290
     0
  0
SCALE
  5
58
102
{ACAD_REACTORS
330
47
102
}
330
47
100
AcDbScale
 70
     0
300
100:1
140
100.0
141
1.0
290
     0
  0
SCALE
  5
59
102
{ACAD_REACTORS
330
47
102
}
330
47
100
AcDbScale
 70
     0
300
1/128" = 1'-0"
140
0.0078125
141
12.0
290
     0
  0
SCALE
  5
5A
102
{ACAD_REACTORS
330
47
102
}
330
47
100
AcDbScale
 70
     0
300
1/64" = 1'-0"
140
0.015625
141
12.0
290
     0
  0
SCALE
  5
5B
102
{ACAD_REACTORS
330
47
102
}
330
47
100
AcDbScale
 70
     0
300
1/32" = 1'-0"
140
0.03125
141
12.0
290
     0
  0
SCALE
  5
5C
102
{ACAD_REACTORS
330
47
102
}
330
47
100
AcDbScale
 70
     0
300
1/16" = 1'-0"
140
0.0625
141
12.0
290
     0
  0
SCALE
  5
5D
102
{ACAD_REACTORS
330
47
102
}
330
47
100
AcDbScale
 70
     0
300
3/32" = 1'-0"
140
0.09375
141
12.0
290
     0
  0
SCALE
  5
5E
102
{ACAD_REACTORS
330
47
102
}
330
47
100
AcDbScale
 70
     0
300
1/8" = 1'-0"
140
0.125
141
12.0
290
     0
  0
SCALE
  5
5F
102
{ACAD_REACTORS
330
47
102
}
330
47
100
AcDbScale
 70
     0
300
3/16" = 1'-0"
140
0.1875
141
12.0
290
     0
  0
SCALE
  5
60
102
{ACAD_REACTORS
330
47
102
}
330
47
100
AcDbScale
 70
     0
300
1/4" = 1'-0"
140
0.25
141
12.0
290
     0
  0
SCALE
  5
61
102
{ACAD_REACTORS
330
47
102
}
330
47
100
AcDbScale
 70
     0
300
3/8" = 1'-0"
140
0.375
141
12.0
290
     0
  0
SCALE
  5
62
102
{ACAD_REACTORS
330
47
102
}
330
47
100
AcDbScale
 70
     0
300
1/2" = 1'-0"
140
0.5
141
12.0
290
     0
  0
SCALE
  5
63
102
{ACAD_REACTORS
330
47
102
}
330
47
100
AcDbScale
 70
     0
300
3/4" = 1'-0"
140
0.75
141
12.0
290
     0
  0
SCALE
  5
64
102
{ACAD_REACTORS
330
47
102
}
330
47
100
AcDbScale
 70
     0
300
1" = 1'-0"
140
1.0
141
12.0
290
     0
  0
SCALE
  5
65
102
{ACAD_REACTORS
330
47
102
}
330
47
100
AcDbScale
 70
     0
300
1-1/2" = 1'-0"
140
1.5
141
12.0
290
     0
  0
SCALE
  5
66
102
{ACAD_REACTORS
330
47
102
}
330
47
100
AcDbScale
 70
     0
300
3" = 1'-0"
140
3.0
141
12.0
290
     0
  0
SCALE
  5
67
102
{ACAD_REACTORS
330
47
102
}
330
47
100
AcDbScale
 70
     0
300
6" = 1'-0"
140
6.0
141
12.0
290
     0
  0
SCALE
  5
68
102
{ACAD_REACTORS
330
47
102
}
330
47
100
AcDbScale
 70
     0
300
1'-0" = 1'-0"
140
12.0
141
12.0
290
     0
  0
ENDSEC
  0
EOF
