  0
SECTION
  2
HEADER
  9
$ACADVER
  1
AC1015
  9
$ACADMAINTVER
 70
     6
  9
$DWGCODEPAGE
  3
ANSI_1250
  9
$INSBASE
 10
0.0
 20
0.0
 30
0.0
  9
$EXTMIN
 10
0.0
 20
0.0
 30
0.0
  9
$EXTMAX
 10
20000.0
 20
10000.0
 30
0.0
  9
$LIMMIN
 10
0.0
 20
0.0
  9
$LIMMAX
 10
20000.0
 20
10000.0
  9
$ORTHOMODE
 70
     0
  9
$REGENMODE
 70
     1
  9
$FILLMODE
 70
     1
  9
$QTEXTMODE
 70
     0
  9
$MIRRTEXT
 70
     1
  9
$LTSCALE
 40
1.0
  9
$ATTMODE
 70
     1
  9
$TEXTSIZE
 40
2.0
  9
$TRACEWID
 40
1.0
  9
$TEXTSTYLE
  7
Standard
  9
$CLAYER
  8
0
  9
$CELTYPE
  6
ByLayer
  9
$CECOLOR
 62
   256
  9
$CELTSCALE
 40
1.0
  9
$DISPSILH
 70
     0
  9
$DIMSCALE
 40
1.0
  9
$DIMASZ
 40
2.0
  9
$DIMEXO
 40
1.0
  9
$DIMDLI
 40
3.75
  9
$DIMRND
 40
0.0
  9
$DIMDLE
 40
0.0
  9
$DIMEXE
 40
1.0
  9
$DIMTP
 40
0.0
  9
$DIMTM
 40
0.0
  9
$DIMTXT
 40
2.0
  9
$DIMCEN
 40
2.5
  9
$DIMTSZ
 40
0.0
  9
$DIMTOL
 70
     0
  9
$DIMLIM
 70
     0
  9
$DIMTIH
 70
     1
  9
$DIMTOH
 70
     1
  9
$DIMSE1
 70
     0
  9
$DIMSE2
 70
     0
  9
$DIMTAD
 70
     1
  9
$DIMZIN
 70
     0
  9
$DIMBLK
  1

  9
$DIMASO
 70
     1
  9
$DIMSHO
 70
     1
  9
$DIMPOST
  1

  9
$DIMAPOST
  1

  9
$DIMALT
 70
     0
  9
$DIMALTD
 70
     3
  9
$DIMALTF
 40
0.0393700787
  9
$DIMLFAC
 40
1.0
  9
$DIMTOFL
 70
     1
  9
$DIMTVP
 40
0.0
  9
$DIMTIX
 70
     0
  9
$DIMSOXD
 70
     0
  9
$DIMSAH
 70
     0
  9
$DIMBLK1
  1

  9
$DIMBLK2
  1

  9
$DIMSTYLE
  2
ISO-25
  9
$DIMCLRD
 70
     0
  9
$DIMCLRE
 70
     0
  9
$DIMCLRT
 70
     0
  9
$DIMTFAC
 40
1.0
  9
$DIMGAP
 40
1.524
  9
$DIMJUST
 70
     0
  9
$DIMSD1
 70
     0
  9
$DIMSD2
 70
     0
  9
$DIMTOLJ
 70
     0
  9
$DIMTZIN
 70
     0
  9
$DIMALTZ
 70
     0
  9
$DIMALTTZ
 70
     0
  9
$DIMUPT
 70
     0
  9
$DIMDEC
 70
     2
  9
$DIMTDEC
 70
     0
  9
$DIMALTU
 70
     2
  9
$DIMALTTD
 70
     3
  9
$DIMTXSTY
  7
Standard
  9
$DIMAUNIT
 70
     0
  9
$DIMADEC
 70
     2
  9
$DIMALTRND
 40
0.0
  9
$DIMAZIN
 70
     0
  9
$DIMDSEP
 70
    44
  9
$DIMATFIT
 70
     3
  9
$DIMFRAC
 70
     0
  9
$DIMLDRBLK
  1

  9
$DIMLUNIT
 70
     2
  9
$DIMLWD
 70
    -2
  9
$DIMLWE
 70
    -2
  9
$DIMTMOVE
 70
     0
  9
$LUNITS
 70
     2
  9
$LUPREC
 70
     3
  9
$SKETCHINC
 40
1.0
  9
$FILLETRAD
 40
10.0
  9
$AUNITS
 70
     0
  9
$AUPREC
 70
     2
  9
$MENU
  1
.
  9
$ELEVATION
 40
0.0
  9
$PELEVATION
 40
0.0
  9
$THICKNESS
 40
0.0
  9
$LIMCHECK
 70
     0
  9
$CHAMFERA
 40
0.0
  9
$CHAMFERB
 40
0.0
  9
$CHAMFERC
 40
0.0
  9
$CHAMFERD
 40
0.0
  9
$SKPOLY
 70
     0
  9
$TDCREATE
 40
2459922.559104965
  9
$TDUCREATE
 40
2459922.517438299
  9
$TDUPDATE
 40
2459922.559105359
  9
$TDUUPDATE
 40
2459922.517438692
  9
$TDINDWG
 40
0.0000000116
  9
$TDUSRTIMER
 40
0.0000000116
  9
$USRTIMER
 70
     1
  9
$ANGBASE
 50
0.0
  9
$ANGDIR
 70
     0
  9
$PDMODE
 70
     0
  9
$PDSIZE
 40
-1.0
  9
$PLINEWID
 40
0.0
  9
$SPLFRAME
 70
     0
  9
$SPLINETYPE
 70
     6
  9
$SPLINESEGS
 70
     8
  9
$HANDSEED
  5
1A6
  9
$SURFTAB1
 70
     6
  9
$SURFTAB2
 70
     6
  9
$SURFTYPE
 70
     6
  9
$SURFU
 70
     6
  9
$SURFV
 70
     6
  9
$UCSBASE
  2

  9
$UCSNAME
  2

  9
$UCSORG
 10
0.0
 20
0.0
 30
0.0
  9
$UCSXDIR
 10
1.0
 20
0.0
 30
0.0
  9
$UCSYDIR
 10
0.0
 20
1.0
 30
0.0
  9
$UCSORTHOREF
  2

  9
$UCSORTHOVIEW
 70
     0
  9
$UCSORGTOP
 10
0.0
 20
0.0
 30
0.0
  9
$UCSORGBOTTOM
 10
0.0
 20
0.0
 30
0.0
  9
$UCSORGLEFT
 10
0.0
 20
0.0
 30
0.0
  9
$UCSORGRIGHT
 10
0.0
 20
0.0
 30
0.0
  9
$UCSORGFRONT
 10
0.0
 20
0.0
 30
0.0
  9
$UCSORGBACK
 10
0.0
 20
0.0
 30
0.0
  9
$PUCSBASE
  2

  9
$PUCSNAME
  2

  9
$PUCSORG
 10
0.0
 20
0.0
 30
0.0
  9
$PUCSXDIR
 10
1.0
 20
0.0
 30
0.0
  9
$PUCSYDIR
 10
0.0
 20
1.0
 30
0.0
  9
$PUCSORTHOREF
  2

  9
$PUCSORTHOVIEW
 70
     0
  9
$PUCSORGTOP
 10
0.0
 20
0.0
 30
0.0
  9
$PUCSORGBOTTOM
 10
0.0
 20
0.0
 30
0.0
  9
$PUCSORGLEFT
 10
0.0
 20
0.0
 30
0.0
  9
$PUCSORGRIGHT
 10
0.0
 20
0.0
 30
0.0
  9
$PUCSORGFRONT
 10
0.0
 20
0.0
 30
0.0
  9
$PUCSORGBACK
 10
0.0
 20
0.0
 30
0.0
  9
$USERI1
 70
     0
  9
$USERI2
 70
     0
  9
$USERI3
 70
     0
  9
$USERI4
 70
     0
  9
$USERI5
 70
     0
  9
$USERR1
 40
0.0
  9
$USERR2
 40
0.0
  9
$USERR3
 40
0.0
  9
$USERR4
 40
0.0
  9
$USERR5
 40
0.0
  9
$WORLDVIEW
 70
     1
  9
$SHADEDGE
 70
     3
  9
$SHADEDIF
 70
    70
  9
$TILEMODE
 70
     1
  9
$MAXACTVP
 70
    64
  9
$PINSBASE
 10
0.0
 20
0.0
 30
0.0
  9
$PLIMCHECK
 70
     0
  9
$PEXTMIN
 10
1.0000000000E+20
 20
1.0000000000E+20
 30
1.0000000000E+20
  9
$PEXTMAX
 10
-1.0000000000E+20
 20
-1.0000000000E+20
 30
-1.0000000000E+20
  9
$PLIMMIN
 10
0.0
 20
0.0
  9
$PLIMMAX
 10
420.0
 20
297.0
  9
$UNITMODE
 70
     0
  9
$VISRETAIN
 70
     1
  9
$PLINEGEN
 70
     0
  9
$PSLTSCALE
 70
     1
  9
$TREEDEPTH
 70
  3020
  9
$CMLSTYLE
  2
Standard
  9
$CMLJUST
 70
     0
  9
$CMLSCALE
 40
20.0
  9
$PROXYGRAPHICS
 70
     1
  9
$MEASUREMENT
 70
     1
  9
$CELWEIGHT
370
    -1
  9
$ENDCAPS
280
     0
  9
$JOINSTYLE
280
     0
  9
$LWDISPLAY
290
     1
  9
$INSUNITS
 70
     4
  9
$HYPERLINKBASE
  1

  9
$STYLESHEET
  1

  9
$XEDIT
290
     1
  9
$CEPSNTYPE
380
     0
  9
$PSTYLEMODE
290
     1
  9
$FINGERPRINTGUID
  2
{0e500266-d10d-4243-ba7a-72ebcc24aa8e}
  9
$VERSIONGUID
  2
{FAEB1C32-E019-11D5-929B-00C0DF256EC4}
  9
$EXTNAMES
290
     1
  9
$PSVPSCALE
 40
0.0
  9
$OLESTARTUP
290
     0
  0
ENDSEC
  0
SECTION
  2
CLASSES
  0
CLASS
  1
ACDBDICTIONARYWDFLT
  2
AcDbDictionaryWithDefault
  3
ObjectDBX Classes
 90
        0
280
     0
281
     0
  0
CLASS
  1
VISUALSTYLE
  2
AcDbVisualStyle
  3
ObjectDBX Classes
 90
     4095
280
     0
281
     0
  0
CLASS
  1
MATERIAL
  2
AcDbMaterial
  3
ObjectDBX Classes
 90
     1153
280
     0
281
     0
  0
CLASS
  1
SCALE
  2
AcDbScale
  3
ObjectDBX Classes
 90
     1153
280
     0
281
     0
  0
CLASS
  1
TABLESTYLE
  2
AcDbTableStyle
  3
ObjectDBX Classes
 90
     4095
280
     0
281
     0
  0
CLASS
  1
MLEADERSTYLE
  2
AcDbMLeaderStyle
  3
ACDB_MLEADERSTYLE_CLASS
 90
     4095
280
     0
281
     0
  0
CLASS
  1
SUN
  2
AcDbSun
  3
SCENEOE
 90
     1153
280
     0
281
     0
  0
CLASS
  1
ACDBPLACEHOLDER
  2
AcDbPlaceHolder
  3
ObjectDBX Classes
 90
        0
280
     0
281
     0
  0
CLASS
  1
LAYOUT
  2
AcDbLayout
  3
ObjectDBX Classes
 90
        0
280
     0
281
     0
  0
ENDSEC
  0
SECTION
  2
TABLES
  0
TABLE
  2
VPORT
  5
8
330
0
100
AcDbSymbolTable
 70
     1
  0
VPORT
  5
29
330
8
100
AcDbSymbolTableRecord
100
AcDbViewportTableRecord
  2
*Active
 70
     0
 10
0.0
 20
0.0
 11
1.0
 21
1.0
 12
10000.0
 22
5000.0
 13
0.0
 23
0.0
 14
10.0
 24
10.0
 15
10.0
 25
10.0
 16
0.0
 26
0.0
 36
1.0
 17
0.0
 27
0.0
 37
0.0
 40
10000.0
 41
2.0
 42
50.0
 43
0.0
 44
0.0
 50
0.0
 51
0.0
 71
     0
 72
  2000
 73
     1
 74
     3
 75
     0
 76
     0
 77
     0
 78
     0
281
     0
 65
     1
110
0.0
120
0.0
130
0.0
111
1.0
121
0.0
131
0.0
112
0.0
122
1.0
132
0.0
 79
     0
146
0.0
  0
ENDTAB
  0
TABLE
  2
LTYPE
  5
5
330
0
100
AcDbSymbolTable
 70
     6
  0
LTYPE
  5
14
330
5
100
AcDbSymbolTableRecord
100
AcDbLinetypeTableRecord
  2
ByBlock
 70
     0
  3

 72
    65
 73
     0
 40
0.0
  0
LTYPE
  5
15
330
5
100
AcDbSymbolTableRecord
100
AcDbLinetypeTableRecord
  2
ByLayer
 70
     0
  3

 72
    65
 73
     0
 40
0.0
  0
LTYPE
  5
16
330
5
100
AcDbSymbolTableRecord
100
AcDbLinetypeTableRecord
  2
Continuous
 70
     0
  3
Solid line
 72
    65
 73
     0
 40
0.0
  0
LTYPE
  5
6E
330
5
100
AcDbSymbolTableRecord
100
AcDbLinetypeTableRecord
  2
HIDDEN
 70
     0
  3
Hidden __ __ __ __ __ __ __ __ __ __ __ __ __ __
 72
    65
 73
     2
 40
1.905
 49
1.27
 74
     0
 49
-0.635
 74
     0
  0
LTYPE
  5
6F
330
5
100
AcDbSymbolTableRecord
100
AcDbLinetypeTableRecord
  2
PHANTOM
 70
     0
  3
Phantom ______  __  __  ______  __  __  ______
 72
    65
 73
     6
 40
12.7
 49
6.35
 74
     0
 49
-1.27
 74
     0
 49
1.27
 74
     0
 49
-1.27
 74
     0
 49
1.27
 74
     0
 49
-1.27
 74
     0
  0
LTYPE
  5
70
330
5
100
AcDbSymbolTableRecord
100
AcDbLinetypeTableRecord
  2
CENTER
 70
     0
  3
Center ____ _ ____ _ ____ _ ____ _ ____ _ ____
 72
    65
 73
     4
 40
10.16
 49
6.35
 74
     0
 49
-1.27
 74
     0
 49
1.27
 74
     0
 49
-1.27
 74
     0
  0
LTYPE
  5
71
330
5
100
AcDbSymbolTableRecord
100
AcDbLinetypeTableRecord
  2
CENTERX2
 70
     0
  3
Center (2x) ________  __  ________  __  _____
 72
    65
 73
     4
 40
20.32
 49
12.7
 74
     0
 49
-2.54
 74
     0
 49
2.54
 74
     0
 49
-2.54
 74
     0
  0
LTYPE
  5
72
330
5
100
AcDbSymbolTableRecord
100
AcDbLinetypeTableRecord
  2
DOT2
 70
     0
  3
Dot (.5x) ........................................
 72
    65
 73
     2
 40
0.635
 49
0.0
 74
     0
 49
-0.635
 74
     0
  0
ENDTAB
  0
TABLE
  2
LAYER
  5
2
330
0
100
AcDbSymbolTable
 70
    13
  0
LAYER
  5
10
330
2
100
AcDbSymbolTableRecord
100
AcDbLayerTableRecord
  2
0
 70
     0
 62
     7
  6
Continuous
370
    -3
390
F
  0
LAYER
  5
73
330
2
100
AcDbSymbolTableRecord
100
AcDbLayerTableRecord
  2
FORMAT
 70
     0
 62
     7
  6
Continuous
370
    -3
390
F
  0
LAYER
  5
74
330
2
100
AcDbSymbolTableRecord
100
AcDbLayerTableRecord
  2
OSA
 70
     0
 62
     7
  6
CENTER
370
    -3
390
F
  0
LAYER
  5
75
330
2
100
AcDbSymbolTableRecord
100
AcDbLayerTableRecord
  2
0_35
 70
     0
 62
     7
  6
Continuous
370
    35
390
F
  0
LAYER
  5
76
330
2
100
AcDbSymbolTableRecord
100
AcDbLayerTableRecord
  2
0_5
 70
     0
 62
     7
  6
Continuous
370
    50
390
F
  0
LAYER
  5
77
330
2
100
AcDbSymbolTableRecord
100
AcDbLayerTableRecord
  2
0_25
 70
     0
 62
     7
  6
Continuous
370
    25
390
F
  0
LAYER
  5
78
330
2
100
AcDbSymbolTableRecord
100
AcDbLayerTableRecord
  2
0_18
 70
     0
 62
     7
  6
Continuous
370
    -3
390
F
  0
LAYER
  5
79
330
2
100
AcDbSymbolTableRecord
100
AcDbLayerTableRecord
  2
SLD-0
 70
     0
 62
   179
  6
Continuous
370
    -3
390
F
  0
LAYER
  5
7A
330
2
100
AcDbSymbolTableRecord
100
AcDbLayerTableRecord
  2
KOTY
 70
     0
 62
     7
  6
Continuous
370
    -3
390
F
  0
LAYER
  5
7B
330
2
100
AcDbSymbolTableRecord
100
AcDbLayerTableRecord
  2
SILNA
 70
     0
 62
   179
  6
Continuous
370
    -3
390
F
  0
LAYER
  5
7C
330
2
100
AcDbSymbolTableRecord
100
AcDbLayerTableRecord
  2
0_18_1
 70
     0
 62
   179
  6
Continuous
370
    -3
390
F
  0
LAYER
  5
7D
330
2
100
AcDbSymbolTableRecord
100
AcDbLayerTableRecord
  2
0_35_1
 70
     0
 62
   179
  6
Continuous
370
    35
390
F
  0
LAYER
  5
7E
330
2
100
AcDbSymbolTableRecord
100
AcDbLayerTableRecord
  2
0_5_1
 70
     0
 62
   179
  6
Continuous
370
    50
390
F
  0
ENDTAB
  0
TABLE
  2
STYLE
  5
3
330
0
100
AcDbSymbolTable
 70
     1
  0
STYLE
  5
11
330
3
100
AcDbSymbolTableRecord
100
AcDbTextStyleTableRecord
  2
Standard
 70
     0
 40
0.0
 41
1.0
 50
0.0
 71
     0
 42
2.0
  3
txt
  4

  0
ENDTAB
  0
TABLE
  2
VIEW
  5
6
330
0
100
AcDbSymbolTable
 70
     0
  0
ENDTAB
  0
TABLE
  2
UCS
  5
7
330
0
100
AcDbSymbolTable
 70
     0
  0
ENDTAB
  0
TABLE
  2
APPID
  5
9
330
0
100
AcDbSymbolTable
 70
     1
  0
APPID
  5
12
330
9
100
AcDbSymbolTableRecord
100
AcDbRegAppTableRecord
  2
ACAD
 70
     0
  0
ENDTAB
  0
TABLE
  2
DIMSTYLE
  5
A
330
0
100
AcDbSymbolTable
 70
     1
100
AcDbDimStyleTable
  0
DIMSTYLE
105
27
330
A
100
AcDbSymbolTableRecord
100
AcDbDimStyleTableRecord
  2
ISO-25
 70
     0
 41
2.5
 42
0.625
 43
3.75
 44
1.25
 73
     0
 74
     0
 77
     1
 78
     8
140
2.5
141
2.5
143
0.0393700787
147
0.625
171
     3
172
     1
178
     0
271
     2
272
     2
274
     3
278
    44
283
     0
284
     8
340
11
  0
ENDTAB
  0
TABLE
  2
BLOCK_RECORD
  5
1
330
0
100
AcDbSymbolTable
 70
     1
  0
BLOCK_RECORD
  5
1F
330
1
100
AcDbSymbolTableRecord
100
AcDbBlockTableRecord
  2
*Model_Space
340
22
  0
BLOCK_RECORD
  5
1B
330
1
100
AcDbSymbolTableRecord
100
AcDbBlockTableRecord
  2
*Paper_Space
340
1E
  0
BLOCK_RECORD
  5
23
330
1
100
AcDbSymbolTableRecord
100
AcDbBlockTableRecord
  2
*Paper_Space0
340
26
  0
ENDTAB
  0
ENDSEC
  0
SECTION
  2
BLOCKS
  0
BLOCK
  5
20
330
1F
100
AcDbEntity
  8
0
100
AcDbBlockBegin
  2
*Model_Space
 70
     0
 10
0.0
 20
0.0
 30
0.0
  3
*Model_Space
  1

  0
ENDBLK
  5
21
330
1F
100
AcDbEntity
  8
0
100
AcDbBlockEnd
  0
BLOCK
  5
1C
330
1B
100
AcDbEntity
 67
     1
  8
0
100
AcDbBlockBegin
  2
*Paper_Space
 70
     0
 10
0.0
 20
0.0
 30
0.0
  3
*Paper_Space
  1

  0
ENDBLK
  5
1D
330
1B
100
AcDbEntity
 67
     1
  8
0
100
AcDbBlockEnd
  0
BLOCK
  5
24
330
23
100
AcDbEntity
  8
0
100
AcDbBlockBegin
  2
*Paper_Space0
 70
     0
 10
0.0
 20
0.0
 30
0.0
  3
*Paper_Space0
  1

  0
ENDBLK
  5
25
330
23
100
AcDbEntity
  8
0
100
AcDbBlockEnd
  0
ENDSEC
  0
SECTION
  2
ENTITIES
  0
LWPOLYLINE
  5
7F
330
1F
100
AcDbEntity
  8
0
  6
Continuous
 62
     7
370
    25
100
AcDbPolyline
 90
       34
 70
   128
 43
0.0
 10
6361.1536518286
 20
5387.2894081011
 10
6361.1727807681
 20
5386.655499704
 10
6360.9789321599
 20
5383.1795643534
 10
6360.4855157987
 20
5379.5508122693
 10
6359.6871691587
 20
5375.7610449583
 10
6358.5756382023
 20
5371.7945101598
 10
6357.149267003
 20
5367.6795999426
 10
6355.3417656726
 20
5363.3538848844
 10
6353.2653878837
 20
5359.0912534174
 10
6350.8409263821
 20
5354.7029363987
 10
6348.0449645096
 20
5350.1566294346
 10
6344.843997872
 20
5345.4091358956
 10
6341.1921112841
 20
5340.4041274235
 10
6337.0239668081
 20
5335.0628320612
 10
6332.2403122064
 20
5329.2654164289
 10
6326.6743566632
 20
5322.8083860158
 10
6319.9976876737
 20
5315.2853933363
 10
6311.3550926372
 20
5305.5356841446
 10
6300.2782137955
 20
5292.8015180617
 10
6293.4665985139
 20
5284.9795664372
 10
6290.0968249325
 20
5281.2338319406
 10
6287.0540724208
 20
5278.1346031015
 10
6284.3468382529
 20
5275.6902004277
 10
6281.8154194618
 20
5273.6948639126
 10
6279.4116545832
 20
5272.0650716678
 10
6277.3308229777
 20
5270.8907320823
 10
6275.3992644864
 20
5270.0043363022
 10
6273.6893638165
 20
5269.3810548799
 10
6271.7041396013
 20
5268.8175362238
 10
6269.4198704424
 20
5268.3258704429
 10
6266.8411335621
 20
5267.9289872143
 10
6263.9664722077
 20
5267.6463887201
 10
6260.8351215581
 20
5267.5021720456
 10
6260.1211475386
 20
5267.5087719985
  0
LWPOLYLINE
  5
80
330
1F
100
AcDbEntity
  8
0
  6
Continuous
 62
     7
370
    25
100
AcDbPolyline
 90
       34
 70
   128
 43
0.0
 10
6260.1170196431
 20
5267.5015128783
 10
6259.75047288
 20
5267.4943036996
 10
6256.5385058025
 20
5267.6066104138
 10
6253.3079531221
 20
5267.8997072786
 10
6250.7279923572
 20
5268.2855698725
 10
6248.4521262019
 20
5268.7651859271
 10
6246.6222110101
 20
5269.2703071278
 10
6244.7349687345
 20
5269.941978758
 10
6243.0218088273
 20
5270.7083465384
 10
6241.0039797752
 20
5271.8046210812
 10
6238.8144693053
 20
5273.2246032642
 10
6236.3346404606
 20
5275.0883066087
 10
6233.7578241016
 20
5277.3012466042
 10
6230.9534816595
 20
5280.0141247022
 10
6227.7324717437
 20
5283.4427425596
 10
6223.7147618708
 20
5287.9392399963
 10
6219.0453525004
 20
5293.2071042449
 10
6207.2550680134
 20
5306.4844544715
 10
6197.2779134823
 20
5317.4899237978
 10
6190.7645625892
 20
5324.742110072
 10
6185.2199394435
 20
5331.1382331909
 10
6180.5126492183
 20
5336.843487265
 10
6176.4603299867
 20
5342.0620583599
 10
6172.9437400001
 20
5346.9252768607
 10
6169.8845892146
 20
5351.5189412735
 10
6166.9527970125
 20
5356.3861258767
 10
6164.4900821631
 20
5361.009245515
 10
6162.446309827
 20
5365.4413979496
 10
6160.7817065118
 20
5369.7327591986
 10
6159.4283557985
 20
5374.0077462368
 10
6158.4218560447
 20
5378.1403126132
 10
6157.7825991936
 20
5382.0157635831
 10
6157.4843087088
 20
5385.6743135794
 10
6157.4942065114
 20
5387.0137328872
  0
LWPOLYLINE
  5
81
330
1F
100
AcDbEntity
  8
0
  6
Continuous
 62
     7
370
    25
100
AcDbPolyline
 90
       44
 70
   128
 43
0.0
 10
6411.019906684
 20
5345.7214801398
 10
6411.085277613
 20
5347.7653596476
 10
6411.1384185219
 20
5350.6536542303
 10
6411.1552246117
 20
5353.7441362543
 10
6411.123734769
 20
5357.1533877531
 10
6411.0271243128
 20
5360.8533760059
 10
6410.8927201203
 20
5363.9657952949
 10
6410.7621927741
 20
5366.2415478464
 10
6410.5952567237
 20
5368.6221714366
 10
6410.3129073676
 20
5371.8940180948
 10
6409.8669798669
 20
5376.0015610799
 10
6409.345432864
 20
5379.8850503563
 10
6408.8247695723
 20
5383.1599900226
 10
6408.2945620975
 20
5386.0777848931
 10
6407.5744604645
 20
5389.5616376759
 10
6406.5942945606
 20
5393.6725435625
 10
6405.5551294766
 20
5397.4613350055
 10
6404.5426059842
 20
5400.7317043893
 10
6403.4955465045
 20
5403.7778242686
 10
6402.3825402939
 20
5406.7252057812
 10
6401.2106096032
 20
5409.5699169056
 10
6398.2866841064
 20
5415.7943608027
 10
6395.1174268906
 20
5421.5131438864
 10
6391.7246259657
 20
5426.8091651007
 10
6389.0583694133
 20
5430.519396628
 10
6386.478727491
 20
5433.8033377861
 10
6384.0978127891
 20
5436.6045305458
 10
6381.9759167918
 20
5438.9355409002
 10
6380.2373642588
 20
5440.7390156392
 10
6377.8169007731
 20
5443.1026684072
 10
6374.6194234203
 20
5445.9930787635
 10
6370.5652500575
 20
5449.3362258928
 10
6365.5743832056
 20
5453.0391543227
 10
6359.5718896113
 20
5456.9930599493
 10
6352.4927632878
 20
5461.0790705493
 10
6344.2895942795
 20
5465.1687316758
 10
6334.9327602981
 20
5469.1295052184
 10
6324.4136026405
 20
5472.8281544219
 10
6314.7667857232
 20
5475.6158798165
 10
6304.3344814865
 20
5478.0545499879
 10
6293.1396165493
 20
5480.0662697297
 10
6281.2115746229
 20
5481.568511342
 10
6268.5870536012
 20
5482.4683000251
 10
6258.6464414934
 20
5482.6072186976
  0
LWPOLYLINE
  5
82
330
1F
100
AcDbEntity
  8
0
  6
Continuous
 62
     7
370
    25
100
AcDbPolyline
 90
       39
 70
   128
 43
0.0
 10
6258.6468368221
 20
5482.6047088358
 10
6248.3585392997
 20
5482.3927517666
 10
6235.4426865318
 20
5481.3685283452
 10
6223.2824811123
 20
5479.7230184811
 10
6211.9168713488
 20
5477.5582635151
 10
6201.3759172325
 20
5474.9654074371
 10
6191.681964138
 20
5472.0306373804
 10
6181.1844799708
 20
5468.1765577845
 10
6171.9282645691
 20
5464.0965555612
 10
6163.8960760357
 20
5459.9372200523
 10
6157.047228703
 20
5455.8425581154
 10
6151.3229741858
 20
5451.9502311409
 10
6147.3572832597
 20
5448.9519009545
 10
6144.071697171
 20
5446.2470295446
 10
6141.4168218327
 20
5443.8925455444
 10
6139.3444169376
 20
5441.9348661959
 10
6137.81093239
 20
5440.4104244222
 10
6136.6166807369
 20
5439.1743915201
 10
6133.9990013467
 20
5436.3044033513
 10
6131.0742760508
 20
5432.8102414842
 10
6127.8155377763
 20
5428.502159137
 10
6125.1387405893
 20
5424.5698744573
 10
6122.1985531076
 20
5419.7353561163
 10
6119.1308617489
 20
5413.9314944821
 10
6116.1102980874
 20
5407.117476471
 10
6113.6956020132
 20
5400.4400206243
 10
6111.971859879
 20
5394.5902112748
 10
6110.7575996198
 20
5389.6043382821
 10
6109.9217354979
 20
5385.5304623735
 10
6109.5275720551
 20
5383.3482698745
 10
6109.0771278941
 20
5380.5718924537
 10
6108.51020106
 20
5376.466908779
 10
6108.0014777057
 20
5371.8199513167
 10
6107.6718904319
 20
5367.8661067098
 10
6107.4630644203
 20
5364.5315178484
 10
6107.2347104775
 20
5358.4821043098
 10
6107.1852222446
 20
5352.4322887978
 10
6107.2161336453
 20
5349.75924469
 10
6107.2608983448
 20
5347.9839435934
  0
LWPOLYLINE
  5
83
330
1F
100
AcDbEntity
  8
0
  6
Continuous
 62
     7
370
    25
100
AcDbPolyline
 90
       16
 70
   128
 43
0.0
 10
6161.403154753
 20
5368.1306604427
 10
6161.9019644512
 20
5369.0012892721
 10
6163.4555217375
 20
5371.2226094867
 10
6165.3039103354
 20
5373.4473523315
 10
6167.457154377
 20
5375.6777938369
 10
6169.9241856627
 20
5377.9099622194
 10
6172.7106721746
 20
5380.1345675077
 10
6175.8176078753
 20
5382.3380263159
 10
6179.2399930041
 20
5384.50312132
 10
6182.9654912668
 20
5386.6094638212
 10
6186.9770124454
 20
5388.6357053353
 10
6191.2762025049
 20
5390.5710034951
 10
6195.8170653804
 20
5392.3878902067
 10
6200.6121691088
 20
5394.0864973107
 10
6205.6507734019
 20
5395.6567850656
 10
6205.8138244658
 20
5395.7010953456
  0
LWPOLYLINE
  5
84
330
1F
100
AcDbEntity
  8
0
  6
Continuous
 62
     7
370
    25
100
AcDbPolyline
 90
       15
 70
   128
 43
0.0
 10
6312.4085775266
 20
5396.0030585982
 10
6313.2669712482
 20
5395.7717116862
 10
6318.4555595633
 20
5394.15964541
 10
6323.3896399581
 20
5392.4088933028
 10
6328.0537438159
 20
5390.5313151928
 10
6332.4368058357
 20
5388.5384350468
 10
6336.5412712543
 20
5386.4365342958
 10
6340.3846227032
 20
5384.2226450239
 10
6343.8966191483
 20
5381.9444773584
 10
6347.0563328338
 20
5379.629662908
 10
6349.8538284526
 20
5377.3028105638
 10
6352.2885398335
 20
5374.9848419121
 10
6354.3676086761
 20
5372.6922498131
 10
6356.1041969079
 20
5370.4360654691
 10
6357.3997466304
 20
5368.4022036931
  0
LWPOLYLINE
  5
85
330
1F
100
AcDbEntity
  8
0
  6
Continuous
 62
     7
370
    25
100
AcDbPolyline
 90
        3
 70
   128
 43
0.0
 10
6106.5923430778
 20
5180.3875521727
 10
6108.5470644126
 20
5172.7855141153
 10
6109.945963194
 20
5167.6228603724
  0
LINE
  5
86
330
1F
100
AcDbEntity
  8
0
  6
Continuous
 62
     7
370
    25
100
AcDbLine
 10
6106.4451560247
 20
5180.9599721692
 30
0.0
 11
6106.5923430778
 21
5180.3875521727
 31
0.0
  0
LWPOLYLINE
  5
87
330
1F
100
AcDbEntity
  8
0
  6
Continuous
 62
     7
370
    25
100
AcDbPolyline
 90
       54
 70
   128
 43
0.0
 10
6258.5782098081
 20
5483.9981212044
 10
6254.4505024682
 20
5483.9866212604
 10
6247.5226016143
 20
5483.7443404583
 10
6241.6495621437
 20
5483.377255408
 10
6236.8305252605
 20
5482.9651829622
 10
6233.0618953832
 20
5482.5728695915
 10
6231.2378383756
 20
5482.360747023
 10
6229.8211376142
 20
5482.185933858
 10
6228.5333768035
 20
5482.0193689806
 10
6227.8105488108
 20
5481.9226680107
 10
6226.8848742718
 20
5481.7954526229
 10
6225.6848698623
 20
5481.6248730904
 10
6224.2112964086
 20
5481.406625692
 10
6220.5244193376
 20
5480.8178609804
 10
6215.7971039625
 20
5479.9724274778
 10
6210.7106030044
 20
5478.9467697759
 10
6204.8250387244
 20
5477.605777542
 10
6198.4808012107
 20
5475.9684315263
 10
6192.8778143001
 20
5474.3496990446
 10
6188.3575602246
 20
5472.9200732524
 10
6184.5725831492
 20
5471.6343160644
 10
6181.5089890153
 20
5470.5324333735
 10
6179.1540624753
 20
5469.6471764116
 10
6177.4971751878
 20
5469.0037349985
 10
6176.2389632224
 20
5468.5033943012
 10
6174.3788799434
 20
5467.7446399665
 10
6171.3563124258
 20
5466.4612578728
 10
6167.4566281585
 20
5464.7070002615
 10
6163.2787394898
 20
5462.6922693553
 10
6159.1239641607
 20
5460.5338221253
 10
6155.0025250705
 20
5458.2211266352
 10
6150.9265152253
 20
5455.7430470899
 10
6142.9722884997
 20
5450.2446296906
 10
6135.5803225953
 20
5444.105551789
 10
6128.9751500412
 20
5437.4084486481
 10
6125.4032649427
 20
5433.1439707671
 10
6122.1332833766
 20
5428.7896094053
 10
6119.4638697608
 20
5424.8885950358
 10
6117.3990532767
 20
5421.6429955037
 10
6115.8688349115
 20
5419.1037099183
 10
6113.161193298
 20
5414.3185434572
 10
6110.1980328113
 20
5408.611681214
 10
6107.070031528
 20
5401.9540028089
 10
6103.9069476601
 20
5394.386899574
 10
6100.8130798579
 20
5385.9200970976
 10
6097.8819791889
 20
5376.5418774594
 10
6095.2050620851
 20
5366.2477730113
 10
6092.8705507795
 20
5355.0394914373
 10
6090.9618035521
 20
5342.9231697037
 10
6089.5587287132
 20
5329.9079292103
 10
6088.8299392861
 20
5318.3821985861
 10
6088.5428185863
 20
5306.2432677974
 10
6088.7146815649
 20
5293.9663877483
 10
6089.0810474463
 20
5286.3595247402
  0
LWPOLYLINE
  5
88
330
1F
100
AcDbEntity
  8
0
  6
Continuous
 62
     7
370
    25
100
AcDbPolyline
 90
       48
 70
   128
 43
0.0
 10
6429.2450518331
 20
5287.3237703187
 10
6429.6701673383
 20
5299.5534893582
 10
6429.4974154646
 20
5315.1223784756
 10
6428.5258669723
 20
5330.7780276142
 10
6427.4633878321
 20
5340.6501028332
 10
6426.0222549646
 20
5350.5325163351
 10
6424.175996679
 20
5360.4096666692
 10
6421.894617095
 20
5370.2609761694
 10
6419.2304257733
 20
5379.7815435913
 10
6416.5084680347
 20
5388.0597867634
 10
6413.6595074824
 20
5395.6197436691
 10
6410.749376035
 20
5402.4713714851
 10
6407.8419861523
 20
5408.6274237345
 10
6405.0013004598
 20
5414.1054110509
 10
6402.3557868774
 20
5418.8041537814
 10
6401.0669311794
 20
5420.9654511036
 10
6400.0466634918
 20
5422.6194030287
 10
6398.7822574916
 20
5424.6005915207
 10
6396.9295234899
 20
5427.3701955958
 10
6394.4212834682
 20
5430.8771926045
 10
6391.1647220253
 20
5435.039806333
 10
6387.1679870778
 20
5439.5914157736
 10
6382.7510475069
 20
5443.9831431291
 10
6377.9471550657
 20
5448.1597796443
 10
6372.778449692
 20
5452.1122838789
 10
6367.6453589315
 20
5455.5960597538
 10
6362.2318749144
 20
5458.8824593371
 10
6356.5902366225
 20
5461.9557181851
 10
6351.5441551552
 20
5464.4459722081
 10
6347.4868455432
 20
5466.2935252754
 10
6344.4688524642
 20
5467.5873038248
 10
6342.0430595327
 20
5468.5811114374
 10
6338.8681394446
 20
5469.8231003964
 10
6334.8946910704
 20
5471.2889389305
 10
6330.1048578704
 20
5472.9319640212
 10
6324.9564053697
 20
5474.5529319141
 10
6320.4149477585
 20
5475.8632839857
 10
6316.0131811079
 20
5477.0307374711
 10
6311.7571279725
 20
5478.0666518076
 10
6307.652042838
 20
5478.9817399313
 10
6303.7023833028
 20
5479.7861300528
 10
6299.6511770468
 20
5480.5353834117
 10
6294.8646746147
 20
5481.3237190881
 10
6288.7104583303
 20
5482.1862973772
 10
6281.6188834012
 20
5482.9734455721
 10
6273.5875465832
 20
5483.6017393576
 10
6264.6197819591
 20
5483.9757707274
 10
6258.5782349052
 20
5483.9821916186
  0
LWPOLYLINE
  5
89
330
1F
100
AcDbEntity
  8
0
  6
Continuous
 62
     7
370
    25
100
AcDbPolyline
 90
        6
 70
   128
 43
0.0
 10
6407.1448783925
 20
5161.5342422661
 10
6407.5208980467
 20
5162.9023641963
 10
6408.5057379742
 20
5166.6219033014
 10
6409.5722448875
 20
5170.7387895626
 10
6411.0632022739
 20
5176.5835935279
 10
6412.2168507575
 20
5181.1772843837
  0
LWPOLYLINE
  5
8A
330
1F
100
AcDbEntity
  8
0
  6
Continuous
 62
     7
370
    25
100
AcDbPolyline
 90
       42
 70
   128
 43
0.0
 10
6089.9626994714
 20
5283.7920552897
 10
6089.9847050161
 20
5283.7573493338
 10
6090.1152386232
 20
5283.5473111973
 10
6090.359278221
 20
5283.1467993122
 10
6090.823299967
 20
5282.3568958441
 10
6091.4065960597
 20
5281.328443651
 10
6092.1294499541
 20
5280.0106974402
 10
6092.975055807
 20
5278.4158388475
 10
6093.9275353985
 20
5276.5549251229
 10
6094.9646720121
 20
5274.4514777846
 10
6096.0631950138
 20
5272.0908889087
 10
6097.1613982527
 20
5269.5728135975
 10
6098.2955091927
 20
5266.8014860081
 10
6099.4485199426
 20
5263.7929257116
 10
6100.6029489582
 20
5260.5649729632
 10
6101.7401435128
 20
5257.1394174514
 10
6102.8405467045
 20
5253.5421973386
 10
6103.8841952659
 20
5249.803159421
 10
6104.8507415772
 20
5245.9580964413
 10
6105.7213260676
 20
5242.0442167038
 10
6106.4796087412
 20
5238.0966994972
 10
6107.1129908824
 20
5234.1434114935
 10
6107.6326511036
 20
5230.2055372214
 10
6108.0550433244
 20
5226.2934802776
 10
6108.393071974
 20
5222.3594909563
 10
6108.6492310745
 20
5218.4403373827
 10
6108.827392512
 20
5214.5752106807
 10
6108.9327718763
 20
5210.8050845427
 10
6108.9718556026
 20
5207.1741116435
 10
6108.9523969006
 20
5203.7229598711
 10
6108.8829416975
 20
5200.4858787589
 10
6108.7723811802
 20
5197.492097972
 10
6108.6296255144
 20
5194.7655210803
 10
6108.4633657732
 20
5192.3252324488
 10
6108.2796716754
 20
5190.1667818448
 10
6108.079783109
 20
5188.2532724691
 10
6107.8746756886
 20
5186.6457631583
 10
6107.6757424111
 20
5185.3748461587
 10
6107.5204678028
 20
5184.5677735096
 10
6107.4085194801
 20
5184.0942394383
 10
6107.3545876714
 20
5183.9103827019
 10
6107.3597402154
 20
5183.9230824547
  0
LWPOLYLINE
  5
8B
330
1F
100
AcDbEntity
  8
0
  6
Continuous
 62
     7
370
    25
100
AcDbPolyline
 90
       42
 70
   128
 43
0.0
 10
6411.7036820831
 20
5184.6479270442
 10
6411.6865532278
 20
5184.7039743822
 10
6411.6143959617
 20
5184.9888006047
 10
6411.4985535548
 20
5185.5457651697
 10
6411.3449803991
 20
5186.4385719813
 10
6411.1678508356
 20
5187.6778629666
 10
6410.9799861257
 20
5189.2548641088
 10
6410.7922918861
 20
5191.1493759796
 10
6410.613728152
 20
5193.3376798984
 10
6410.4514718386
 20
5195.7975609225
 10
6410.3146196038
 20
5198.4538388876
 10
6410.2057098135
 20
5201.3638857919
 10
6410.1328093147
 20
5204.517442081
 10
6410.104713982
 20
5207.8938052809
 10
6410.1303929378
 20
5211.4674327497
 10
6410.2186950693
 20
5215.2076792532
 10
6410.3779799675
 20
5219.0791812055
 10
6410.6155689708
 20
5223.0406088864
 10
6410.9372095541
 20
5227.0467983136
 10
6411.3472617892
 20
5231.0564749242
 10
6411.8485291552
 20
5235.0305472464
 10
6412.445006343
 20
5238.9118566355
 10
6413.1570185302
 20
5242.7727786303
 10
6413.9824385532
 20
5246.6348409889
 10
6414.9064891776
 20
5250.4556813732
 10
6415.9140084282
 20
5254.2019719749
 10
6416.9877418367
 20
5257.8390245543
 10
6418.1083370791
 20
5261.3307764263
 10
6419.255046638
 20
5264.6419446494
 10
6420.4079607823
 20
5267.7435526251
 10
6421.5477871593
 20
5270.610683157
 10
6422.6562551658
 20
5273.2226712648
 10
6423.716213049
 20
5275.5627485429
 10
6424.7222413325
 20
5277.6650166428
 10
6425.6630613957
 20
5279.5632232795
 10
6426.4857902614
 20
5281.1697744463
 10
6427.1928578522
 20
5282.5093117197
 10
6427.7695618296
 20
5283.571555647
 10
6428.2039094985
 20
5284.351190814
 10
6428.5137105144
 20
5284.8983709775
 10
6428.6104856416
 20
5285.0711747853
 10
6428.6143983813
 20
5285.078311258
  0
LWPOLYLINE
  5
8C
330
1F
100
AcDbEntity
  8
0
  6
Continuous
 62
     7
370
    25
100
AcDbPolyline
 90
       44
 70
   128
 43
0.0
 10
6260.2028008411
 20
5252.9848107437
 10
6265.8296079482
 20
5253.1298416346
 10
6271.416079239
 20
5253.5093292491
 10
6278.1216075243
 20
5254.3064148692
 10
6284.6334670227
 20
5255.5048202691
 10
6290.7877311907
 20
5257.1396098517
 10
6291.1627183061
 20
5257.2589934618
 10
6296.7867471813
 20
5259.3992364808
 10
6301.9357223829
 20
5261.9936831883
 10
6306.5961663823
 20
5264.9576259772
 10
6311.3537436785
 20
5268.667749152
 10
6315.6921187201
 20
5272.6582753628
 10
6319.7153128456
 20
5276.8331063285
 10
6330.8532135811
 20
5288.8617408198
 10
6341.9570367393
 20
5300.9434982539
 10
6352.7813844927
 20
5313.1420564317
 10
6363.0808590141
 20
5325.5210931537
 10
6372.6100624761
 20
5338.1442862209
 10
6381.1235970514
 20
5351.075313434
 10
6385.4366706217
 20
5358.7872444148
 10
6389.1366322075
 20
5366.7354024107
 10
6392.1129829005
 20
5374.8782379829
 10
6394.2552237929
 20
5383.1742016924
 10
6395.4528559766
 20
5391.5817441006
 10
6395.6486443692
 20
5398.18731941
 10
6395.1064939411
 20
5404.8433932035
 10
6393.7346769743
 20
5411.4760634855
 10
6391.441465751
 20
5418.0114282607
 10
6388.795028135
 20
5423.225808436
 10
6385.4399931993
 20
5428.2924370014
 10
6381.4438747871
 20
5433.1482739238
 10
6376.8741867414
 20
5437.7302791698
 10
6370.7733126164
 20
5442.802781736
 10
6364.0302517566
 20
5447.4935905742
 10
6356.7516518845
 20
5451.784120416
 10
6349.0441607225
 20
5455.6557859927
 10
6339.6346603319
 20
5459.6204652489
 10
6329.7428871027
 20
5463.042622946
 10
6319.4796751344
 20
5465.9141010741
 10
6308.9558585267
 20
5468.2267416237
 10
6296.6390416705
 20
5470.2240572452
 10
6284.1155851602
 20
5471.6086375507
 10
6271.4760270372
 20
5472.4595005543
 10
6258.8109053428
 20
5472.8556642702
  0
LWPOLYLINE
  5
8D
330
1F
100
AcDbEntity
  8
0
  6
Continuous
 62
     7
370
    25
100
AcDbPolyline
 90
        4
 70
   128
 43
0.0
 10
6260.1667553501
 20
5261.7833653458
 10
6260.1816627834
 20
5258.9974012165
 10
6260.1942179303
 20
5255.8324570695
 10
6260.2028008411
 20
5252.9848107437
  0
LWPOLYLINE
  5
8E
330
1F
100
AcDbEntity
  8
0
  6
Continuous
 62
     7
370
    25
100
AcDbPolyline
 90
       41
 70
   128
 43
0.0
 10
6258.8189287209
 20
5471.7435594813
 10
6271.2741280949
 20
5471.30820043
 10
6283.6893125711
 20
5470.3477589138
 10
6295.9513372186
 20
5468.8139536919
 10
6307.9470571062
 20
5466.6585035236
 10
6317.9636999685
 20
5464.2703883968
 10
6327.6858007409
 20
5461.3692655141
 10
6337.0055197357
 20
5457.9715400576
 10
6345.8150172656
 20
5454.0936172092
 10
6352.8103921329
 20
5450.4482078598
 10
6359.3737903925
 20
5446.4575248033
 10
6365.4086007637
 20
5442.1419697683
 10
6370.818211966
 20
5437.5219444831
 10
6375.8807106412
 20
5432.1451965707
 10
6379.9952928334
 20
5426.4231447623
 10
6383.0404547015
 20
5420.4547011805
 10
6384.9138410286
 20
5414.726340032
 10
6385.9787219823
 20
5408.8915308409
 10
6386.3178195889
 20
5403.0119573167
 10
6386.0138558746
 20
5397.1493031688
 10
6384.7483061493
 20
5389.4158570304
 10
6382.6108435914
 20
5381.740874205
 10
6379.7062704642
 20
5374.153017608
 10
6376.1393890307
 20
5366.6809501549
 10
6372.0150015541
 20
5359.3533347611
 10
6363.6062727538
 20
5346.5375660422
 10
6354.1934364567
 20
5334.0070773454
 10
6344.0221030261
 20
5321.6985187696
 10
6333.3378828253
 20
5309.5485404139
 10
6322.3863862177
 20
5297.493792377
 10
6311.4132235665
 20
5285.4709247579
 10
6305.7298821097
 20
5279.5608764695
 10
6299.3203965185
 20
5273.9767295883
 10
6295.407928604
 20
5271.1780374108
 10
6291.0987264466
 20
5268.6229158691
 10
6286.37800098
 20
5266.4157723384
 10
6281.17220143
 20
5264.6247448541
 10
6275.6191670281
 20
5263.28080138
 10
6269.8754163
 20
5262.3735209781
 10
6265.041564493
 20
5261.9391090888
 10
6260.1667553501
 20
5261.7833653458
  0
LINE
  5
8F
330
1F
100
AcDbEntity
  8
0
  6
Continuous
 62
     7
370
    25
100
AcDbLine
 10
6258.8109053428
 20
5472.8556642702
 30
0.0
 11
6258.8189287209
 21
5471.7435594813
 31
0.0
  0
LWPOLYLINE
  5
90
330
1F
100
AcDbEntity
  8
0
  6
Continuous
 62
     7
370
    25
100
AcDbPolyline
 90
       44
 70
   128
 43
0.0
 10
6258.8189287209
 20
5471.7435594813
 10
6246.485322662
 20
5471.2453547353
 10
6234.2291639402
 20
5470.2358989073
 10
6221.8705065079
 20
5468.6222968548
 10
6209.7579332604
 20
5466.3708595144
 10
6199.8847186984
 20
5463.9631423888
 10
6190.3360678996
 20
5461.065986479
 10
6180.9454508211
 20
5457.576478848
 10
6172.0527133449
 20
5453.5845823609
 10
6165.1817745092
 20
5449.9446237512
 10
6158.7567462288
 20
5445.9832949244
 10
6152.6973674121
 20
5441.5872817004
 10
6147.2632167097
 20
5436.8670424675
 10
6143.4673299477
 20
5432.9068242799
 10
6140.1830448438
 20
5428.7629009454
 10
6137.4051536744
 20
5424.317388035
 10
6135.2605537897
 20
5419.7288325576
 10
6133.4770444643
 20
5414.0557052916
 10
6132.4872727914
 20
5408.3012305225
 10
6132.2061508009
 20
5402.3534391771
 10
6132.5864739765
 20
5396.4068903095
 10
6133.6576659447
 20
5390.029454198
 10
6135.3399448448
 20
5383.6996879164
 10
6137.549815251
 20
5377.4413574264
 10
6141.834947345
 20
5367.968958736
 10
6147.0700504822
 20
5358.6943608845
 10
6153.4673448629
 20
5349.1346614754
 10
6160.5787964928
 20
5339.7756035526
 10
6168.2134789265
 20
5330.5790795867
 10
6176.1804657185
 20
5321.5069820486
 10
6192.2989575358
 20
5303.3006792755
 10
6208.6180985871
 20
5285.1697875167
 10
6214.3627787011
 20
5279.3149670182
 10
6217.4971906912
 20
5276.4758188035
 10
6220.8580406071
 20
5273.746874939
 10
6226.8425090304
 20
5269.7144866301
 10
6230.2458299514
 20
5267.8827369394
 10
6233.8970217538
 20
5266.2620298598
 10
6237.7161002399
 20
5264.9171961271
 10
6241.7255947648
 20
5263.8232575311
 10
6246.0355376193
 20
5262.9449364269
 10
6250.4508827558
 20
5262.3166170107
 10
6255.2707023648
 20
5261.9117076654
 10
6260.1667553501
 20
5261.7833653458
  0
LWPOLYLINE
  5
91
330
1F
100
AcDbEntity
  8
0
  6
Continuous
 62
     7
370
    25
100
AcDbPolyline
 90
       44
 70
   128
 43
0.0
 10
6260.2028008411
 20
5252.9848107437
 10
6254.5740780055
 20
5253.0968686776
 10
6248.982000852
 20
5253.4436088516
 10
6242.2644605112
 20
5254.2013717328
 10
6235.7345505384
 20
5255.3615714058
 10
6229.555913053
 20
5256.9602318822
 10
6229.1791584276
 20
5257.0774132728
 10
6223.5239989868
 20
5259.1846140278
 10
6218.3383517325
 20
5261.7487855671
 10
6213.6371218357
 20
5264.6853034305
 10
6208.8297815303
 20
5268.3674062794
 10
6204.4388788043
 20
5272.3323601625
 10
6200.3614308062
 20
5276.4834603819
 10
6189.0680577972
 20
5288.4463826919
 10
6177.8082688215
 20
5300.4626261587
 10
6166.8266446279
 20
5312.5973039701
 10
6156.3677659653
 20
5324.9155293141
 10
6146.6762135825
 20
5337.4824153785
 10
6137.9965682282
 20
5350.3630753511
 10
6133.5849658984
 20
5358.0494474854
 10
6129.7843456694
 20
5365.9756326055
 10
6126.7056507877
 20
5374.100729985
 10
6124.4598244997
 20
5382.3838388978
 10
6123.1578100519
 20
5390.7840586174
 10
6122.8804056964
 20
5397.3882477136
 10
6123.3407201613
 20
5404.0472582174
 10
6124.6314554789
 20
5410.6877284185
 10
6126.8453136812
 20
5417.2362966063
 10
6129.4288450089
 20
5422.4659979208
 10
6132.7230013646
 20
5427.5521052225
 10
6136.6608949585
 20
5432.4311847498
 10
6141.1756380007
 20
5437.0398027415
 10
6147.2155589319
 20
5442.1478716396
 10
6153.9021005563
 20
5446.8780223575
 10
6161.1288413815
 20
5451.2110454428
 10
6168.7893599153
 20
5455.1277314429
 10
6178.1505957388
 20
5459.1473993741
 10
6188.0006036335
 20
5462.6273904121
 10
6198.22867603
 20
5465.558897543
 10
6208.7241053588
 20
5467.9331137533
 10
6221.0162815008
 20
5470.0025211618
 10
6233.5224761903
 20
5471.4604255682
 10
6246.1511854601
 20
5472.3853116964
 10
6258.8109053428
 20
5472.8556642702
  0
LWPOLYLINE
  5
92
330
1F
100
AcDbEntity
  8
0
  6
Continuous
 62
     7
370
    25
100
AcDbPolyline
 90
       39
 70
   128
 43
0.0
 10
6260.1450864285
 20
5265.1588818153
 10
6264.9431242784
 20
5265.3521928263
 10
6270.0304228337
 20
5265.9492264353
 10
6274.9368473315
 20
5266.9892319133
 10
6279.6400263004
 20
5268.6122797489
 10
6283.8528713784
 20
5270.729607358
 10
6288.711333082
 20
5274.0318687951
 10
6292.9722753539
 20
5277.669779438
 10
6300.6300851034
 20
5285.3785610199
 10
6307.6458943884
 20
5293.3477348697
 10
6314.4102543856
 20
5301.4190907318
 10
6321.3137162719
 20
5309.4344183505
 10
6330.799354321
 20
5320.0295302648
 10
6340.0745880762
 20
5330.7007214958
 10
6348.8121740459
 20
5341.5513759601
 10
6354.2203905098
 20
5349.0407299077
 10
6359.0953269895
 20
5356.705953409
 10
6363.3109959963
 20
5364.5277693482
 10
6366.7414100418
 20
5372.4869006092
 10
6369.2605816373
 20
5380.564070076
 10
6370.4935004782
 20
5386.7005912984
 10
6371.0936726578
 20
5392.8931150826
 10
6370.9565928742
 20
5399.0874316046
 10
6369.9777558254
 20
5405.2293310406
 10
6368.0676700132
 20
5411.1144841946
 10
6365.093340115
 20
5416.8330799418
 10
6361.0127347052
 20
5422.2297652499
 10
6355.9113242221
 20
5427.194671041
 10
6349.9532703077
 20
5431.7765345697
 10
6343.3209838229
 20
5435.9392312599
 10
6334.3140545728
 20
5440.5284894029
 10
6324.5631204237
 20
5444.4819690464
 10
6314.2511629184
 20
5447.751456627
 10
6303.7584942268
 20
5450.2655727877
 10
6292.9098277464
 20
5452.1654286346
 10
6281.8215659498
 20
5453.5095595993
 10
6270.6101113096
 20
5454.3565011133
 10
6259.3918662984
 20
5454.7647886081
 10
6258.9278693178
 20
5454.7731358564
  0
LWPOLYLINE
  5
93
330
1F
100
AcDbEntity
  8
0
  6
Continuous
 62
     7
370
    25
100
AcDbPolyline
 90
       39
 70
   128
 43
0.0
 10
6260.1450864285
 20
5265.1588818153
 10
6255.3447471862
 20
5265.3240744812
 10
6250.2499748702
 20
5265.8912798203
 10
6245.3303826542
 20
5266.9025000853
 10
6240.606542854
 20
5268.4979315683
 10
6236.3666726249
 20
5270.5904970364
 10
6231.4659971176
 20
5273.8641691833
 10
6227.158509291
 20
5277.4769787001
 10
6219.4020173138
 20
5285.1406042466
 10
6212.2841585734
 20
5293.0683736641
 10
6205.416427786
 20
5301.0997944591
 10
6198.4103196674
 20
5309.0743741383
 10
6188.7890115911
 20
5319.6135124541
 10
6179.3771231407
 20
5330.2299599564
 10
6170.5005581911
 20
5341.0290139503
 10
6164.9963920425
 20
5348.4864001873
 10
6160.0232278958
 20
5356.1227737811
 10
6155.7072959931
 20
5363.9195964848
 10
6152.1748265764
 20
5371.8583300517
 10
6149.5520498876
 20
5379.9204362349
 10
6148.2403928536
 20
5386.049503149
 10
6147.5607396863
 20
5392.2382776982
 10
6147.6182877374
 20
5398.4331643804
 10
6148.5182343586
 20
5404.5805676934
 10
6150.3526909905
 20
5410.4766904453
 10
6153.2534900513
 20
5416.2124973212
 10
6157.2646559072
 20
5421.6328873885
 10
6162.3021319032
 20
5426.6274949413
 10
6168.2011368521
 20
5431.2440935996
 10
6174.7797305435
 20
5435.4454914248
 10
6183.727401221
 20
5440.0873473802
 10
6193.427211344
 20
5444.0978077751
 10
6203.696805248
 20
5447.4275887949
 10
6214.1568014806
 20
5450.0030855679
 10
6224.9806683773
 20
5451.9664308741
 10
6236.0512563286
 20
5453.3754759569
 10
6247.2514157246
 20
5454.2880720594
 10
6258.4639969557
 20
5454.7620704246
 10
6258.9278693178
 20
5454.7731358564
  0
LINE
  5
94
330
1F
100
AcDbEntity
  8
0
  6
Continuous
 62
     7
370
    25
100
AcDbLine
 10
6361.0566810172
 20
5387.4323968062
 30
0.0
 11
6361.0590729034
 21
5387.2904528633
 31
0.0
  0
LWPOLYLINE
  5
95
330
1F
100
AcDbEntity
  8
0
  6
Continuous
 62
     7
370
    25
100
AcDbPolyline
 90
        4
 70
   128
 43
0.0
 10
6258.9278693178
 20
5454.7731358564
 10
6258.9417439072
 20
5452.21141298
 10
6258.9544625624
 20
5449.0740170551
 10
6258.9607947656
 20
5447.1076026565
  0
LINE
  5
96
330
1F
100
AcDbEntity
  8
0
  6
Continuous
 62
     7
370
    25
100
AcDbLine
 10
6157.5824130427
 20
5387.1852617986
 30
0.0
 11
6157.5813700435
 21
5387.0134460466
 31
0.0
  0
LWPOLYLINE
  5
97
330
1F
100
AcDbEntity
  8
0
  6
Continuous
 62
     7
370
    25
100
AcDbPolyline
 90
       16
 70
   128
 43
0.0
 10
6356.2476058387
 20
5176.4787345436
 10
6356.2475779238
 20
5176.4786843235
 10
6350.8202210476
 20
5167.148368497
 10
6345.0016057517
 20
5158.1468554414
 10
6337.9919719059
 20
5148.7242504669
 10
6330.2993087784
 20
5139.9825919176
 10
6321.9391774244
 20
5132.086265721
 10
6312.927138899
 20
5125.1996578046
 10
6306.4973543383
 20
5121.183141155
 10
6299.7334893737
 20
5117.63314807
 10
6292.633245386
 20
5114.5604193417
 10
6285.1943237561
 20
5111.9756957619
 10
6278.1745072956
 20
5110.100545306
 10
6270.8677186713
 20
5108.7689926025
 10
6263.4023084207
 20
5108.1250378996
 10
6260.1973603239
 20
5108.0933160077
  0
LWPOLYLINE
  5
98
330
1F
100
AcDbEntity
  8
0
  6
Continuous
 62
     7
370
    25
100
AcDbPolyline
 90
       20
 70
   128
 43
0.0
 10
6260.2028008411
 20
5252.9848107437
 10
6260.2318374494
 20
5241.4466826678
 10
6260.2588021123
 20
5229.9791731617
 10
6260.2833268588
 20
5218.6651620192
 10
6260.305043718
 20
5207.5875290338
 10
6260.323584719
 20
5196.8291539993
 10
6260.3388035486
 20
5186.2997202563
 10
6260.3502259991
 20
5176.2049524823
 10
6260.3576426198
 20
5166.6633023306
 10
6260.3608439598
 20
5157.7932214549
 10
6260.3597272716
 20
5149.6476249464
 10
6260.3545050135
 20
5142.2207128108
 10
6260.3454407201
 20
5135.541406806
 10
6260.3327979257
 20
5129.6386286901
 10
6260.3142136367
 20
5123.7834721719
 10
6260.2917435708
 20
5118.8232227495
 10
6260.2658797492
 20
5114.6951229006
 10
6260.2371141929
 20
5111.3364151029
 10
6260.2059389232
 20
5108.6843418341
 10
6260.1973603239
 20
5108.0933160077
  0
LWPOLYLINE
  5
99
330
1F
100
AcDbEntity
  8
0
  6
Continuous
 62
     7
370
    25
100
AcDbPolyline
 90
       16
 70
   128
 43
0.0
 10
6163.4932880109
 20
5175.9140627897
 10
6163.4933163203
 20
5175.9140127343
 10
6168.9947927922
 20
5166.6157128106
 10
6174.8869203973
 20
5157.6485062535
 10
6181.9767969507
 20
5148.2672056469
 10
6189.7479994006
 20
5139.5708483298
 10
6198.183487278
 20
5131.7237247238
 10
6207.2662201138
 20
5124.8901252504
 10
6213.7403693045
 20
5120.9114105394
 10
6220.5454722087
 20
5117.4011676037
 10
6227.6826921064
 20
5114.3701473766
 10
6235.1531922777
 20
5111.8291007917
 10
6242.1958466043
 20
5109.9951461966
 10
6249.5188182627
 20
5108.7064512225
 10
6256.9920508723
 20
5108.1062591173
 10
6260.1973603239
 20
5108.0933160077
  0
LWPOLYLINE
  5
9A
330
1F
100
AcDbEntity
  8
0
  6
Continuous
 62
     7
370
    25
100
AcDbPolyline
 90
       11
 70
   128
 43
0.0
 10
6244.1227498229
 20
5410.1841173349
 10
6244.0755577812
 20
5409.9236032055
 10
6243.8909907945
 20
5409.5982302232
 10
6243.1751160806
 20
5408.9541873572
 10
6241.4044923942
 20
5407.9522492908
 10
6239.5242102626
 20
5407.1515921966
 10
6231.9686298314
 20
5404.3574726724
 10
6224.3305834237
 20
5401.7846557549
 10
6215.7769892288
 20
5398.8493934278
 10
6207.1677101121
 20
5396.0865822526
 10
6205.8045012049
 20
5395.7375259237
  0
LWPOLYLINE
  5
9B
330
1F
100
AcDbEntity
  8
0
  6
Continuous
 62
     7
370
    25
100
AcDbPolyline
 90
       11
 70
   128
 43
0.0
 10
6274.019642929
 20
5410.2716999699
 10
6274.0683604944
 20
5410.0114668067
 10
6274.2548306504
 20
5409.6871807738
 10
6274.9744664785
 20
5409.0473432209
 10
6276.7509300583
 20
5408.0557963095
 10
6278.6358709102
 20
5407.2661693966
 10
6286.2076922071
 20
5404.5163654372
 10
6293.860681469
 20
5401.9883434484
 10
6302.4313263456
 20
5399.1032464002
 10
6311.0566448093
 20
5396.390923798
 10
6312.4203714237
 20
5396.0502361329
  0
LINE
  5
9C
330
1F
100
AcDbEntity
  8
0
  6
Continuous
 62
     7
370
    25
100
AcDbLine
 10
6259.049288619
 20
5416.8996593258
 30
0.0
 11
6258.9607947656
 21
5447.1076026565
 31
0.0
  0
LINE
  5
9D
330
1F
100
AcDbEntity
  8
0
  6
Continuous
 62
     7
370
    25
100
AcDbLine
 10
6274.0065064044
 20
5414.7559367405
 30
0.0
 11
6274.019642929
 21
5410.2716999699
 31
0.0
  0
LWPOLYLINE
  5
9E
330
1F
100
AcDbEntity
  8
0
  6
Continuous
 62
     7
370
    25
100
AcDbPolyline
 90
        3
 70
   128
 43
0.0
 10
6274.006506912
 20
5414.7557634685
 10
6265.1803102891
 20
5416.4046697807
 10
6259.049288619
 20
5416.8996593258
  0
LINE
  5
9F
330
1F
100
AcDbEntity
  8
0
  6
Continuous
 62
     7
370
    25
100
AcDbLine
 10
6244.1096132983
 20
5414.6683541055
 30
0.0
 11
6244.1227498229
 21
5410.1841173349
 31
0.0
  0
LWPOLYLINE
  5
A0
330
1F
100
AcDbEntity
  8
0
  6
Continuous
 62
     7
370
    25
100
AcDbPolyline
 90
        3
 70
   128
 43
0.0
 10
6244.1096138059
 20
5414.6681808335
 10
6252.9225720776
 20
5416.3687608651
 10
6259.049288619
 20
5416.8996593258
  0
ARC
  5
A1
330
1F
100
AcDbEntity
  8
0
  6
Continuous
 62
     7
370
    25
100
AcDbCircle
 10
6240.5185292193
 20
5295.5515264074
 30
0.0
 40
126.5780938024759
100
AcDbArc
 50
28.6071243574
 51
50.5394081994
  0
ARC
  5
A2
330
1F
100
AcDbEntity
  8
0
  6
Continuous
 62
     7
370
    25
100
AcDbCircle
 10
6277.7137107775
 20
5296.2134265729
 30
0.0
 40
125.7822703153045
100
AcDbArc
 50
129.7534106521
 51
151.5580292653
  0
LWPOLYLINE
  5
A3
330
1F
100
AcDbEntity
  8
0
  6
Continuous
 62
     7
370
    25
100
AcDbPolyline
 90
       11
 70
   128
 43
0.0
 10
6260.1837622179
 20
5072.728718711
 10
6260.173752548
 20
5078.0207847406
 10
6260.1661234062
 20
5083.0866059862
 10
6260.1610182354
 20
5087.8309185811
 10
6260.1585213725
 20
5092.2037808904
 10
6260.1586203999
 20
5096.168978967
 10
6260.1613135638
 20
5099.6519184198
 10
6260.1666114239
 20
5102.6123331774
 10
6260.1744280704
 20
5105.0295632105
 10
6260.1846166296
 20
5106.8580887353
 10
6260.1973603239
 20
5108.0933160077
  0
LWPOLYLINE
  5
A4
330
1F
100
AcDbEntity
  8
0
  6
Continuous
 62
     7
370
    25
100
AcDbPolyline
 90
       48
 70
   128
 43
0.0
 10
6260.1837622179
 20
5072.728718711
 10
6256.4521743401
 20
5072.7996141201
 10
6248.9276939611
 20
5073.6070402549
 10
6241.5229751562
 20
5075.2666368327
 10
6234.3844709932
 20
5077.7375910673
 10
6229.9421944134
 20
5079.7496170306
 10
6221.8753312378
 20
5084.3293302442
 10
6214.2942610345
 20
5089.6951724642
 10
6207.1549346112
 20
5095.6340665689
 10
6200.4133027756
 20
5101.9329354369
 10
6191.2888715477
 20
5111.5160569982
 10
6182.8473930878
 20
5121.628494311
 10
6175.0255168904
 20
5132.126466834
 10
6167.75989245
 20
5142.8661940261
 10
6157.7463024174
 20
5159.2667009826
 10
6148.5690112062
 20
5176.0802850342
 10
6140.0743277008
 20
5193.2434574953
 10
6132.1085607853
 20
5210.6927296804
 10
6124.7930167185
 20
5228.1690593976
 10
6118.2040572103
 20
5245.9335331289
 10
6112.4541056721
 20
5263.9469051227
 10
6108.6794962264
 20
5277.900113194
 10
6105.5238234188
 20
5291.9777906925
 10
6103.0774173197
 20
5306.1530491361
 10
6101.4306079995
 20
5320.3990000424
 10
6100.7000714043
 20
5333.971493822
 10
6100.8439989252
 20
5347.6275341263
 10
6101.911674882
 20
5361.2852024777
 10
6103.9523835947
 20
5374.8625803987
 10
6106.326199706
 20
5385.5898107222
 10
6109.4229832357
 20
5396.206417136
 10
6113.2761590231
 20
5406.6061789973
 10
6117.9191519074
 20
5416.6828756634
 10
6122.8157809364
 20
5425.3290547718
 10
6128.5151082326
 20
5433.5619722642
 10
6135.0153008857
 20
5441.2081413704
 10
6142.3145259855
 20
5448.0940753202
 10
6149.7117830325
 20
5453.7408557286
 10
6157.6006605782
 20
5458.7885462939
 10
6165.8646108051
 20
5463.270798845
 10
6174.3870858957
 20
5467.2212652105
 10
6186.262687871
 20
5471.8359889394
 10
6198.4703225901
 20
5475.6688076048
 10
6210.926951039
 20
5478.7408107484
 10
6223.5495342035
 20
5481.0730879118
 10
6236.2550330696
 20
5482.6867286367
 10
6247.4042832571
 20
5483.5210001356
 10
6258.5844936684
 20
5483.8133915088
  0
LINE
  5
A5
330
1F
100
AcDbEntity
  8
0
  6
Continuous
 62
     7
370
    25
100
AcDbLine
 10
6258.5844936684
 20
5483.8133915088
 30
0.0
 11
6258.5975826522
 21
5483.0877688121
 31
0.0
  0
LWPOLYLINE
  5
A6
330
1F
100
AcDbEntity
  8
0
  6
Continuous
 62
     7
370
    25
100
AcDbPolyline
 90
       48
 70
   128
 43
0.0
 10
6260.1837622179
 20
5072.728718711
 10
6263.9147298251
 20
5072.8214755982
 10
6271.43331444
 20
5073.6729702342
 10
6278.8261453373
 20
5075.3759160788
 10
6285.9470322455
 20
5077.8886430501
 10
6290.3749583071
 20
5079.9266541791
 10
6298.4089906264
 20
5084.5535347973
 10
6305.9512675847
 20
5089.9636807043
 10
6313.0472129679
 20
5095.9442768886
 10
6319.7422505618
 20
5102.2825083388
 10
6328.7945455029
 20
5111.918878429
 10
6337.1584168607
 20
5122.0805468379
 10
6344.898202586
 20
5132.6241070864
 10
6352.0782406296
 20
5143.4061526954
 10
6361.9592791566
 20
5159.8649407577
 10
6371.0001850004
 20
5176.7318948266
 10
6379.3561450756
 20
5193.9444310715
 10
6387.1823462966
 20
5211.4399656618
 10
6394.3595693239
 20
5228.9587517883
 10
6400.808445473
 20
5246.7614197225
 10
6406.4164073822
 20
5264.8080646047
 10
6410.0806424999
 20
5278.7830646932
 10
6413.1244625866
 20
5292.8789035412
 10
6415.457886671
 20
5307.0681644471
 10
6416.9909337817
 20
5321.3234307095
 10
6417.6133651952
 20
5334.8998879947
 10
6417.3614231782
 20
5348.5547686034
 10
6416.1865981718
 20
5362.2058675717
 10
6414.0403806171
 20
5375.7709799361
 10
6411.5840673455
 20
5386.4840604462
 10
6408.4063219898
 20
5397.0822856934
 10
6404.4742911008
 20
5407.4592408734
 10
6399.7551212288
 20
5417.5085111818
 10
6394.793088849
 20
5426.1258094449
 10
6389.0314387054
 20
5434.325152124
 10
6382.4734805104
 20
5441.9330675141
 10
6375.1225239761
 20
5448.7760839103
 10
6367.683138262
 20
5454.3794005293
 10
6359.7567497172
 20
5459.3807604384
 10
6351.4595558882
 20
5463.8144972915
 10
6342.9077543219
 20
5467.7149447424
 10
6330.9977157049
 20
5472.2599886865
 10
6318.7612697148
 20
5476.0211986737
 10
6306.2813686245
 20
5479.0201505153
 10
6293.6409647068
 20
5481.2784200228
 10
6280.9230102345
 20
5482.8175830077
 10
6269.7672039099
 20
5483.5865120773
 10
6258.5844936684
 20
5483.8133915088
  0
LWPOLYLINE
  5
A7
330
1F
100
AcDbEntity
  8
0
  6
Continuous
 62
     7
370
    25
100
AcDbPolyline
 90
        3
 70
   128
 43
0.0
 10
6255.9845169155
 20
5483.9908950809
 10
6258.4540640165
 20
5484.0174754229
 10
6258.5765454815
 20
5484.0178673415
  0
LWPOLYLINE
  5
A8
330
1F
100
AcDbEntity
  8
0
  6
Continuous
 62
     7
370
    25
100
AcDbPolyline
 90
        3
 70
   128
 43
0.0
 10
6258.5765454815
 20
5484.0178673415
 10
6258.5768865932
 20
5484.0237248034
 10
6258.5844936684
 20
5483.8133915088
  0
LWPOLYLINE
  5
A9
330
1F
100
AcDbEntity
  8
0
  6
Continuous
 62
     7
370
    25
100
AcDbPolyline
 90
       19
 70
   128
 43
0.0
 10
6260.183762218
 20
5072.728718711
 10
6260.1892542886
 20
5070.0535502963
 10
6260.2156931295
 20
5056.2897093917
 10
6260.2385990574
 20
5042.836387084
 10
6260.2580372287
 20
5029.7495134511
 10
6260.2740728001
 20
5017.0850185705
 10
6260.2872196911
 20
5004.362233391
 10
6260.2965475876
 20
4992.1283294586
 10
6260.3016249702
 20
4980.5347828859
 10
6260.3020203199
 20
4969.7330697854
 10
6260.2973021173
 20
4959.8746662698
 10
6260.2914997322
 20
4954.2654765154
 10
6260.2832203714
 20
4949.1403585831
 10
6260.2722797843
 20
4944.5907262961
 10
6260.2584937204
 20
4940.707993478
 10
6260.2436313759
 20
4937.8895321492
 10
6260.2261807278
 20
4935.7200423336
 10
6260.2062037008
 20
4934.2628253433
 10
6260.1837622198
 20
4933.5811824903
  0
LWPOLYLINE
  5
AA
330
1F
100
AcDbEntity
  8
0
  6
Continuous
 62
     7
370
    25
100
AcDbPolyline
 90
       23
 70
   128
 43
0.0
 10
6108.176042749
 20
5174.2284414302
 10
6115.3951355884
 20
5148.8769920608
 10
6124.2659082194
 20
5122.2514657928
 10
6134.3431123403
 20
5096.0436040234
 10
6145.6233750254
 20
5070.3478417376
 10
6153.9237203554
 20
5053.3531644845
 10
6162.7716918546
 20
5036.630942658
 10
6172.1164151337
 20
5020.1855834591
 10
6181.4748426503
 20
5003.7107452099
 10
6190.6738235835
 20
4987.1437968647
 10
6200.1834485232
 20
4970.7591552659
 10
6203.7414637437
 20
4965.1733866821
 10
6207.6041392745
 20
4959.7964095914
 10
6211.9432793298
 20
4954.6197652934
 10
6216.7486106358
 20
4949.878627975
 10
6220.7449543959
 20
4946.6517618017
 10
6225.0132252219
 20
4943.7937419103
 10
6229.6514365373
 20
4941.2397146313
 10
6234.4815545104
 20
4939.0682978279
 10
6240.6144968518
 20
4936.9072784516
 10
6246.9121306212
 20
4935.2838154606
 10
6253.5126875296
 20
4934.1584546142
 10
6260.1837622198
 20
4933.5811824903
  0
LWPOLYLINE
  5
AB
330
1F
100
AcDbEntity
  8
0
  6
Continuous
 62
     7
370
    25
100
AcDbPolyline
 90
       33
 70
   128
 43
0.0
 10
6089.0261113439
 20
5286.3996387448
 10
6089.458987679
 20
5285.8220448176
 10
6089.9278083289
 20
5285.0719590766
 10
6090.5568522549
 20
5284.021093665
 10
6092.1898232116
 20
5281.1575453253
 10
6094.3291212184
 20
5277.1353328979
 10
6096.7378812014
 20
5272.1682151317
 10
6099.3206904843
 20
5266.149261373
 10
6100.6433696143
 20
5262.6914403265
 10
6101.9200711524
 20
5259.0346787674
 10
6103.1613933338
 20
5255.0895028453
 10
6104.3113128616
 20
5250.9841039293
 10
6105.3675774457
 20
5246.6845130649
 10
6106.3029928742
 20
5242.2803549999
 10
6107.1327409807
 20
5237.6668236528
 10
6107.8256168313
 20
5233.0121963836
 10
6108.3795579476
 20
5228.3856190983
 10
6108.8065588661
 20
5223.7892906504
 10
6109.1219352844
 20
5219.1200314528
 10
6109.322810149
 20
5214.5585166718
 10
6109.4202569538
 20
5210.2824782251
 10
6109.4349242161
 20
5206.1761365289
 10
6109.3757793272
 20
5202.1536482865
 10
6109.2533167412
 20
5198.3806243439
 10
6109.0912291132
 20
5195.1048274934
 10
6108.8917819957
 20
5192.1019069072
 10
6108.6558016441
 20
5189.317122149
 10
6108.3945294822
 20
5186.8746470438
 10
6108.1319492216
 20
5184.9140570732
 10
6107.8611292366
 20
5183.2837924102
 10
6107.5810747177
 20
5181.9657918648
 10
6107.3060139797
 20
5181.0237270282
 10
6106.8596258826
 20
5180.3083822805
  0
LWPOLYLINE
  5
AC
330
1F
100
AcDbEntity
  8
0
  6
Continuous
 62
     7
370
    25
100
AcDbPolyline
 90
        6
 70
   128
 43
0.0
 10
6106.6274066935
 20
5180.2491761014
 10
6100.395844192
 20
5206.4136870053
 10
6095.3106182647
 20
5232.8777428025
 10
6092.2219897453
 20
5253.3194678093
 10
6089.9734893816
 20
5273.9037541051
 10
6089.1355798474
 20
5285.7992970876
  0
LINE
  5
AD
330
1F
100
AcDbEntity
  8
0
  6
Continuous
 62
     7
370
    25
100
AcDbLine
 10
6106.8596258826
 20
5180.3083822805
 30
0.0
 11
6106.6274066935
 21
5180.2491761014
 31
0.0
  0
LWPOLYLINE
  5
AE
330
1F
100
AcDbEntity
  8
0
  6
Continuous
 62
     7
370
    25
100
AcDbPolyline
 90
       23
 70
   128
 43
0.0
 10
6260.1837622198
 20
4933.5811824903
 10
6266.3788095275
 20
4934.135661736
 10
6272.5131897263
 20
4935.1624340356
 10
6278.7023196103
 20
4936.7104212415
 10
6284.7389594719
 20
4938.7720017699
 10
6289.4635234695
 20
4940.8239301468
 10
6294.0151482392
 20
4943.2337826024
 10
6298.4684465971
 20
4946.0990564856
 10
6302.6410999883
 20
4949.3582875886
 10
6307.2400242229
 20
4953.7563905253
 10
6311.4114172395
 20
4958.5663553975
 10
6315.3009150182
 20
4963.8204707078
 10
6318.8676988099
 20
4969.3014921786
 10
6327.8049568701
 20
4984.7249511629
 10
6336.3107102788
 20
5000.4020286272
 10
6344.9956880188
 20
5015.9767641186
 10
6353.8289698591
 20
5031.4909033999
 10
6362.2860575436
 20
5047.2152686572
 10
6370.2635677473
 20
5063.1825624455
 10
6381.4223570174
 20
5087.9576097967
 10
6391.44351337
 20
5113.2146636701
 10
6400.3985252277
 20
5139.1023047902
 10
6407.0802155855
 20
5161.5534810571
  0
LINE
  5
AF
330
1F
100
AcDbEntity
  8
0
  6
Continuous
 62
     7
370
    25
100
AcDbLine
 10
6429.2810677442
 20
5287.3225843097
 30
0.0
 11
6429.3386936789
 21
5287.3965808881
 31
0.0
  0
LINE
  5
B0
330
1F
100
AcDbEntity
  8
0
  6
Continuous
 62
     7
370
    25
100
AcDbLine
 10
6412.3256731491
 20
5181.1447159692
 30
0.0
 11
6412.1986865894
 21
5181.1820047386
 31
0.0
  0
LWPOLYLINE
  5
B1
330
1F
100
AcDbEntity
  8
0
  6
Continuous
 62
     7
370
    25
100
AcDbPolyline
 90
        7
 70
   128
 43
0.0
 10
6429.1996101718
 20
5286.8441439377
 10
6428.3530300186
 20
5273.9576389561
 10
6427.0472754283
 20
5260.5712857985
 10
6425.3577461807
 20
5247.1818187745
 10
6423.3324351025
 20
5233.8386792771
 10
6417.9383355654
 20
5205.1391234456
 10
6412.3256731491
 20
5181.1447159692
  0
ARC
  5
B2
330
1F
100
AcDbEntity
  8
0
  6
Continuous
 62
     7
370
    25
100
AcDbCircle
 10
6261.0067558494
 20
5316.201296053
 30
0.0
 40
99.90617889709547
100
AcDbArc
 50
91.1199525295
 51
99.7372428351
  0
ARC
  5
B3
330
1F
100
AcDbEntity
  8
0
  6
Continuous
 62
     7
370
    25
100
AcDbCircle
 10
6257.6865653485
 20
5316.1915695908
 30
0.0
 40
99.9061788960327
100
AcDbArc
 50
80.5984509757
 51
89.2157412815
  0
LINE
  5
B4
330
1F
100
AcDbEntity
  8
0
  6
Continuous
 62
     7
370
    25
100
AcDbLine
 10
6259.0540281539
 20
5416.0883894956
 30
0.0
 11
6259.049288619
 21
5416.8996593258
 31
0.0
  0
ARC
  5
B5
330
1F
100
AcDbEntity
  8
0
  6
Continuous
 62
     7
370
    25
100
AcDbCircle
 10
6094.0195192832
 20
5286.6602890048
 30
0.0
 40
5.000206136385721
100
AcDbArc
 50
182.9880631286
 51
220.6347856703
  0
ARC
  5
B6
330
1F
100
AcDbEntity
  8
0
  6
Continuous
 62
     7
370
    25
100
AcDbCircle
 10
6424.3440010624
 20
5287.6280322485
 30
0.0
 40
5.000052406311558
100
AcDbArc
 50
319.6984844637
 51
357.3468424933
  0
ARC
  5
B7
330
1F
100
AcDbEntity
  8
0
  6
Continuous
 62
     7
370
    25
100
AcDbCircle
 10
6096.6868170415
 20
5282.6264407229
 30
0.0
 40
6.619634159886104
100
AcDbArc
 50
199.3890806548
 51
246.4789413566
  0
ARC
  5
B8
330
1F
100
AcDbEntity
  8
0
  6
Continuous
 62
     7
370
    25
100
AcDbCircle
 10
6111.2195405116
 20
5181.4777625604
 30
0.0
 40
4.753642570741168
100
AcDbArc
 50
141.7701159953
 51
194.9782045212
  0
ARC
  5
B9
330
1F
100
AcDbEntity
  8
0
  6
Continuous
 62
     7
370
    25
100
AcDbCircle
 10
6407.6237091277
 20
5182.2779738793
 30
0.0
 40
4.836604092661621
100
AcDbArc
 50
346.449129661
 51
34.5373212682
  0
LWPOLYLINE
  5
BA
330
1F
100
AcDbEntity
  8
0
  6
Continuous
 62
     8
370
    25
100
AcDbPolyline
 90
        4
 70
   128
 43
0.0
 10
6260.1197612871
 20
5267.3696771735
 10
6260.1229971497
 20
5267.431144561
 10
6260.1351968885
 20
5266.4879955465
 10
6260.1450864285
 20
5265.1588818153
  0
LWPOLYLINE
  5
BB
330
1F
100
AcDbEntity
  8
0
  6
Continuous
 62
     8
370
    25
100
AcDbPolyline
 90
       18
 70
   128
 43
0.0
 10
6258.9607947656
 20
5447.1076026565
 10
6259.1677320683
 20
5447.1036547075
 10
6269.8035738477
 20
5446.7053150318
 10
6280.4358157873
 20
5445.8743288012
 10
6290.9452140933
 20
5444.5403271613
 10
6301.2125249717
 20
5442.6329412576
 10
6311.1185046287
 20
5440.0818022357
 10
6320.5883769933
 20
5436.8276095364
 10
6329.507968676
 20
5432.8774222255
 10
6337.6927363334
 20
5428.2622660661
 10
6343.50897702
 20
5424.1584435342
 10
6348.6776152422
 20
5419.5862850281
 10
6353.0145620306
 20
5414.5458573852
 10
6356.3083938438
 20
5409.1159744096
 10
6358.6580637135
 20
5403.369069907
 10
6360.1661522501
 20
5397.540110749
 10
6360.9918466157
 20
5391.2799254249
 10
6361.0566810172
 20
5387.4323968062
  0
LWPOLYLINE
  5
BC
330
1F
100
AcDbEntity
  8
0
  6
Continuous
 62
     8
370
    25
100
AcDbPolyline
 90
       21
 70
   128
 43
0.0
 10
6258.9607947656
 20
5447.1076026565
 10
6258.7539148684
 20
5447.1024424344
 10
6245.6801148901
 20
5446.4831147221
 10
6232.7233532104
 20
5445.1946549692
 10
6223.9153194556
 20
5443.8373916441
 10
6215.2714020926
 20
5442.0427590738
 10
6206.8922575819
 20
5439.7764725373
 10
6199.8587772754
 20
5437.3890583344
 10
6193.128975982
 20
5434.626153205
 10
6186.58010193
 20
5431.408106844
 10
6180.4635128354
 20
5427.8016647037
 10
6176.1364131547
 20
5424.7818668052
 10
6172.1551439392
 20
5421.5180071016
 10
6168.4819063824
 20
5417.8970580619
 10
6165.3050531904
 20
5413.9959643463
 10
6162.8110978998
 20
5409.9929916993
 10
6160.8604808759
 20
5405.7996525742
 10
6159.3712683145
 20
5401.387424426
 10
6158.3481110618
 20
5396.9488869125
 10
6157.6040052347
 20
5390.7421953215
 10
6157.5824130427
 20
5387.1852617986
  0
LWPOLYLINE
  5
BD
330
1F
100
AcDbEntity
  8
0
  6
Continuous
 62
     8
370
    25
100
AcDbPolyline
 90
        7
 70
   128
 43
0.0
 10
6258.6466026897
 20
5482.6184583564
 10
6258.6557228419
 20
5482.6551175713
 10
6258.6859760023
 20
5482.1344209627
 10
6258.7143105805
 20
5481.0410101579
 10
6258.7445819728
 20
5479.2210018855
 10
6258.7766292569
 20
5476.5550631592
 10
6258.8109053428
 20
5472.8556642702
  0
LWPOLYLINE
  5
BE
330
1F
100
AcDbEntity
  8
0
  6
Continuous
 62
     8
370
    25
100
AcDbPolyline
 90
       15
 70
   128
 43
0.0
 10
6410.9925911876
 20
5345.7221546761
 10
6410.9870037265
 20
5344.6273265581
 10
6410.0602509247
 20
5331.7230824212
 10
6408.2090360105
 20
5317.960507446
 10
6405.6006687613
 20
5304.3120684136
 10
6402.3372553506
 20
5290.8029794321
 10
6398.5209019517
 20
5277.4584546093
 10
6392.5481030176
 20
5259.4754538796
 10
6385.8318679649
 20
5241.6767262883
 10
6378.5493858833
 20
5223.9958555529
 10
6368.0174474267
 20
5200.0669719904
 10
6362.3588648695
 20
5188.1765370259
 10
6356.247633735
 20
5176.4787850142
 10
6356.2476058387
 20
5176.4787345436
 10
6356.2476058387
 20
5176.4787345436
  0
LWPOLYLINE
  5
BF
330
1F
100
AcDbEntity
  8
0
  6
Continuous
 62
     8
370
    25
100
AcDbPolyline
 90
       15
 70
   128
 43
0.0
 10
6107.3506701266
 20
5347.9859274813
 10
6107.4068545535
 20
5343.7379916928
 10
6108.4375985773
 20
5330.8394820223
 10
6110.3994977276
 20
5317.0880775248
 10
6113.1180010764
 20
5303.455243504
 10
6116.4908084274
 20
5289.9655952617
 10
6120.4156195838
 20
5276.6437480993
 10
6126.5348067899
 20
5258.6961707162
 10
6133.3952936511
 20
5240.9372159895
 10
6140.8196157819
 20
5223.2994286829
 10
6151.5400228952
 20
5199.432803644
 10
6157.2912064203
 20
5187.5757934697
 10
6163.4932597229
 20
5175.9141130957
 10
6163.4932880109
 20
5175.9140627897
 10
6163.4932880109
 20
5175.9140627897
  0
LWPOLYLINE
  5
C0
330
1F
100
AcDbEntity
  8
0
  6
Continuous
 62
     8
370
    25
100
AcDbPolyline
 90
       16
 70
   128
 43
0.0
 10
6160.7317760528
 20
5369.8904803738
 10
6161.7227435603
 20
5372.3507852659
 10
6163.9494296069
 20
5376.3699092161
 10
6166.7275255861
 20
5380.1647983326
 10
6170.1402420057
 20
5383.8338311089
 10
6174.0074997886
 20
5387.240411165
 10
6179.2537642513
 20
5391.0627439512
 10
6184.9799339295
 20
5394.5283971143
 10
6191.3004987503
 20
5397.7383423991
 10
6197.9883952972
 20
5400.5849564912
 10
6205.0192226321
 20
5403.0665502823
 10
6212.3199785277
 20
5405.1672839386
 10
6220.0122583821
 20
5406.9301691408
 10
6227.8716762437
 20
5408.3295148366
 10
6235.9441460196
 20
5409.4072752847
 10
6244.1227498229
 20
5410.1841173349
  0
LWPOLYLINE
  5
C1
330
1F
100
AcDbEntity
  8
0
  6
Continuous
 62
     8
370
    25
100
AcDbPolyline
 90
       16
 70
   128
 43
0.0
 10
6358.0157188909
 20
5370.1792099515
 10
6356.8762240354
 20
5372.9224853417
 10
6354.6029628753
 20
5376.9284267437
 10
6351.7803832053
 20
5380.7069087395
 10
6348.3240026434
 20
5384.3558185682
 10
6344.4157654866
 20
5387.7396203934
 10
6339.1231297383
 20
5391.5310795819
 10
6333.3546474683
 20
5394.9630592826
 10
6326.9947424894
 20
5398.135857264
 10
6320.2718926099
 20
5400.943184715
 10
6313.2105786851
 20
5403.383495726
 10
6305.8839958073
 20
5405.4413787466
 10
6298.170028507
 20
5407.1591315093
 10
6290.2934037385
 20
5408.5123786331
 10
6282.2077152467
 20
5409.5428039259
 10
6274.019642929
 20
5410.2716999699
  0
LWPOLYLINE
  5
C2
330
1F
100
AcDbEntity
  8
0
  6
Continuous
 62
     8
370
    25
100
AcDbPolyline
 90
        3
 70
   128
 43
0.0
 10
6258.6215993652
 20
5482.5571967395
 10
6258.6132066616
 20
5482.5802099277
 10
6258.5975826522
 20
5483.0877688121
  0
LWPOLYLINE
  5
C3
330
1F
100
AcDbEntity
  8
0
  6
Continuous
 62
     8
370
    25
100
AcDbPolyline
 90
       33
 70
   128
 43
0.0
 10
6412.1283324929
 20
5181.2026637571
 10
6411.7226972164
 20
5181.9155125113
 10
6411.4752303941
 20
5182.8235825243
 10
6411.2202639757
 20
5184.0865322789
 10
6410.9558159744
 20
5185.7480559223
 10
6410.6969063218
 20
5187.7602386884
 10
6410.4517175608
 20
5190.1226367788
 10
6410.2269835578
 20
5192.8079667033
 10
6410.0220038171
 20
5195.8890674037
 10
6409.8531326167
 20
5199.2612283541
 10
6409.7290673955
 20
5202.9143298421
 10
6409.6608940744
 20
5206.803216321
 10
6409.6609919142
 20
5211.029833961
 10
6409.7455023107
 20
5215.4386017999
 10
6409.9215659982
 20
5219.8627299462
 10
6410.202263503
 20
5224.3899466038
 10
6410.613314603
 20
5229.1283328389
 10
6411.1564536288
 20
5233.9008008909
 10
6411.800332979
 20
5238.4229228027
 10
6412.5713076198
 20
5242.908068307
 10
6413.4980092422
 20
5247.4551123422
 10
6414.5516382979
 20
5251.8929497112
 10
6415.6368393061
 20
5255.893578568
 10
6416.8080141647
 20
5259.7439001697
 10
6418.0840060208
 20
5263.5201404337
 10
6419.4086796589
 20
5267.0869557826
 10
6421.8635908796
 20
5272.9826784039
 10
6424.2691373943
 20
5278.1018887174
 10
6426.2957257847
 20
5282.0457892496
 10
6427.9168685427
 20
5285.009386297
 10
6428.9367404483
 20
5286.783136342
 10
6429.2206473875
 20
5287.244999457
 10
6429.2810677442
 20
5287.3225843097
  0
LINE
  5
C4
330
1F
100
AcDbEntity
  8
0
  6
Continuous
 62
     8
370
    25
100
AcDbLine
 10
6412.1986865894
 20
5181.1820047386
 30
0.0
 11
6412.1283324929
 21
5181.2026637571
 31
0.0
  0
ARC
  5
C5
330
1F
100
AcDbEntity
  8
0
  6
Continuous
 62
     8
370
    25
100
AcDbCircle
 10
6111.6901515336
 20
5181.6057374279
 30
0.0
 40
5.001710551673605
100
AcDbArc
 50
151.8822358959
 51
195.0334127107
  0
ARC
  5
C6
330
1F
100
AcDbEntity
  8
0
  6
Continuous
 62
     8
370
    25
100
AcDbCircle
 10
6407.2915264685
 20
5182.4711215405
 30
0.0
 40
5.000367753074077
100
AcDbArc
 50
345.3050375953
 51
28.0228773488
  0
ARC
  5
C7
330
1F
100
AcDbEntity
  8
0
  6
Continuous
 62
     8
370
    25
100
AcDbCircle
 10
6087.5354763214
 20
5281.7782901379
 30
0.0
 40
3.20506197661144
100
AcDbArc
 50
335.1000247944
 51
19.3231827817
  0
ARC
  5
C8
330
1F
100
AcDbEntity
  8
0
  6
Continuous
 62
     8
370
    25
100
AcDbCircle
 10
6430.9212916228
 20
5282.7595074456
 30
0.0
 40
3.269393535743135
100
AcDbArc
 50
158.2261521063
 51
204.2339568373
  0
ARC
  5
C9
330
1F
100
AcDbEntity
  8
0
  6
Continuous
 62
     8
370
    25
100
AcDbCircle
 10
6421.748105937
 20
5283.4581904304
 30
0.0
 40
6.519500608633146
100
AcDbArc
 50
297.0889187457
 51
341.7594553733
  0
LWPOLYLINE
  5
CA
330
1F
100
AcDbEntity
  8
0
  6
Continuous
 62
     8
370
    25
100
AcDbPolyline
 90
        6
 70
   128
 43
0.0
 10
6094.9543776072
 20
5274.4723561705
 10
6094.9661583931
 20
5274.331126326
 10
6097.1885911454
 20
5253.9863434253
 10
6100.2528466858
 20
5233.7138336667
 10
6104.7617645233
 20
5209.9895560836
 10
6108.5514006947
 20
5193.6173709823
  0
LWPOLYLINE
  5
CB
330
1F
100
AcDbEntity
  8
0
  6
Continuous
 62
     8
370
    25
100
AcDbPolyline
 90
        5
 70
   128
 43
0.0
 10
6410.495155786
 20
5195.1352920038
 10
6414.0381076781
 20
5210.858221222
 10
6418.4155873997
 20
5234.6458880811
 10
6421.4803152638
 20
5255.8942358702
 10
6423.3698033661
 20
5274.7979771866
  0
LWPOLYLINE
  5
CC
330
1F
100
AcDbEntity
  8
0
  6
Continuous
 62
     8
370
    25
100
AcDbPolyline
 90
        3
 70
   128
 43
0.0
 10
6090.4426091867
 20
5280.4288455197
 10
6089.6449746625
 20
5282.6486303597
 10
6089.2834542786
 20
5285.0916024274
  0
LWPOLYLINE
  5
CD
330
1F
100
AcDbEntity
  8
0
  6
Continuous
 62
     8
370
    25
100
AcDbPolyline
 90
        3
 70
   128
 43
0.0
 10
6429.1168735425
 20
5286.5155156763
 10
6428.717693366
 20
5283.6419403355
 10
6427.9400068158
 20
5281.4175406089
  0
LWPOLYLINE
  5
CE
330
1F
100
AcDbEntity
  8
0
  6
Continuous
 62
     7
370
    25
100
AcDbPolyline
 90
       25
 70
   128
 43
0.0
 10
6728.1543256623
 20
4934.534824031
 10
6735.7570959643
 20
4935.0521291924
 10
6744.0594221974
 20
4936.4261073161
 10
6751.8395615703
 20
4938.4197866214
 10
6759.1028431825
 20
4940.8964075236
 10
6767.9975744637
 20
4944.7423318109
 10
6776.013478323
 20
4948.9841506325
 10
6783.1812298292
 20
4953.4126077491
 10
6789.5350527782
 20
4957.853058359
 10
6795.1110931232
 20
4962.1609843319
 10
6799.9459431571
 20
4966.2179247206
 10
6804.0753162634
 20
4969.9278211976
 10
6807.6335676133
 20
4973.3121226379
 10
6811.4654398224
 20
4977.1591850004
 10
6816.6217946771
 20
4982.6832289131
 10
6822.3106417239
 20
4989.2699882917
 10
6828.4335630269
 20
4996.9890445615
 10
6834.8711851592
 20
5005.8950943399
 10
6841.4801432061
 20
5016.0195572495
 10
6846.9962242325
 20
5025.3877016532
 10
6852.3981680642
 20
5035.5789697114
 10
6857.5542790455
 20
5046.5453236268
 10
6862.3145503457
 20
5058.2088491195
 10
6866.5088301891
 20
5070.4566770681
 10
6867.229445355
 20
5073.1157269426
  0
ARC
  5
CF
330
1F
100
AcDbEntity
  8
0
  6
Continuous
 62
     7
370
    25
100
AcDbCircle
 10
6730.4822233963
 20
5474.1849632505
 30
0.0
 40
9.13158596491284
100
AcDbArc
 50
74.9379491121
 51
110.8880179944
  0
ARC
  5
D0
330
1F
100
AcDbEntity
  8
0
  6
Continuous
 62
     7
370
    25
100
AcDbCircle
 10
6915.1686755108
 20
5058.9444520512
 30
0.0
 40
49.77109811914394
100
AcDbArc
 50
99.0517477754
 51
163.9143098536
  0
LWPOLYLINE
  5
D1
330
1F
100
AcDbEntity
  8
0
  6
Continuous
 62
     7
370
    25
100
AcDbPolyline
 90
        3
 70
   128
 43
0.0
 10
6735.8393294111
 20
5483.138716667
 10
6735.6946274402
 20
5483.1570876828
 10
6732.4527013753
 20
5483.8165283031
  0
LINE
  5
D2
330
1F
100
AcDbEntity
  8
0
  6
Continuous
 62
     7
370
    25
100
AcDbLine
 10
7052.8647712573
 20
5243.9196252061
 30
0.0
 11
7054.1023743672
 21
5252.9949125909
 31
0.0
  0
LWPOLYLINE
  5
D3
330
1F
100
AcDbEntity
  8
0
  6
Continuous
 62
     7
370
    25
100
AcDbPolyline
 90
       21
 70
   128
 43
0.0
 10
6907.3286342195
 20
5108.1503326624
 10
6915.233677054
 20
5109.4614563788
 10
6928.6888922294
 20
5112.3745895906
 10
6942.1182084081
 20
5116.0767758941
 10
6952.7564655369
 20
5119.6674814311
 10
6963.2297765779
 20
5123.8674757287
 10
6973.4722004994
 20
5128.7231127369
 10
6983.4177965762
 20
5134.2807402924
 10
6993.0006295329
 20
5140.5866872532
 10
7000.6616567179
 20
5146.4466731231
 10
7007.9868509548
 20
5152.8852453159
 10
7014.9380789476
 20
5159.9291721178
 10
7021.4772080411
 20
5167.6052274619
 10
7027.5660991511
 20
5175.9402044544
 10
7033.1665878831
 20
5184.9609440926
 10
7038.2404856381
 20
5194.6943246209
 10
7042.749598849
 20
5205.167223486
 10
7046.6557367748
 20
5216.4065024474
 10
7049.920717998
 20
5228.4389975832
 10
7052.5063738457
 20
5241.2915132681
 10
7052.8647712573
 20
5243.9196252061
  0
LWPOLYLINE
  5
D4
330
1F
100
AcDbEntity
  8
0
  6
Continuous
 62
     7
370
    25
100
AcDbPolyline
 90
        3
 70
   128
 43
0.0
 10
6725.0296187496
 20
5480.9009652406
 10
6725.0126984259
 20
5480.7131179978
 10
6725.0108334309
 20
5480.6792377482
  0
ARC
  5
D5
330
1F
100
AcDbEntity
  8
0
  6
Continuous
 62
     7
370
    25
100
AcDbCircle
 10
6730.4295244363
 20
5474.2419325538
 30
0.0
 40
9.13930902503118
100
AcDbArc
 50
75.2316408699
 51
111.1580868846
  0
LWPOLYLINE
  5
D6
330
1F
100
AcDbEntity
  8
0
  6
Continuous
 62
     7
370
    25
100
AcDbPolyline
 90
        3
 70
   128
 43
0.0
 10
6876.9884343444
 20
5090.7857936048
 10
6878.8765638215
 20
5092.9534606888
 10
6878.9685974386
 20
5093.0443998301
  0
LINE
  5
D7
330
1F
100
AcDbEntity
  8
0
  6
Continuous
 62
     7
370
    25
100
AcDbLine
 10
6906.7723869289
 20
5107.9657979176
 30
0.0
 11
6907.3432130632
 21
5108.0506071058
 31
0.0
  0
ARC
  5
D8
330
1F
100
AcDbEntity
  8
0
  6
Continuous
 62
     7
370
    25
100
AcDbCircle
 10
6743.5613982436
 20
5529.9094915482
 30
0.0
 40
47.39809327473407
100
AcDbArc
 50
259.9822598472
 51
272.7354720769
  0
LINE
  5
D9
330
1F
100
AcDbEntity
  8
0
  6
Continuous
 62
     7
370
    25
100
AcDbLine
 10
6734.961553997
 20
5483.3062022513
 30
0.0
 11
6732.4670744513
 21
5483.8349647795
 31
0.0
  0
LWPOLYLINE
  5
DA
330
1F
100
AcDbEntity
  8
0
  6
Continuous
 62
     7
370
    25
100
AcDbPolyline
 90
        3
 70
   128
 43
0.0
 10
6752.2751428045
 20
5482.676353052
 10
6752.1211632614
 20
5482.6807937469
 10
6752.0586339569
 20
5482.6786802717
  0
LWPOLYLINE
  5
DB
330
1F
100
AcDbEntity
  8
0
  6
Continuous
 62
     7
370
    25
100
AcDbPolyline
 90
        3
 70
   128
 43
0.0
 10
7051.0304602416
 20
5261.4448468745
 10
7050.933088906
 20
5261.5340143073
 10
7050.9026094087
 20
5261.5612833641
  0
LWPOLYLINE
  5
DC
330
1F
100
AcDbEntity
  8
0
  6
Continuous
 62
     7
370
    25
100
AcDbPolyline
 90
        3
 70
   128
 43
0.0
 10
6726.9576000076
 20
5483.4751869637
 10
6726.4740671269
 20
5483.3278882711
 10
6726.0674881892
 20
5483.1851660655
  0
LWPOLYLINE
  5
DD
330
1F
100
AcDbEntity
  8
0
  6
Continuous
 62
     7
370
    25
100
AcDbPolyline
 90
        4
 70
   128
 43
0.0
 10
6725.0300783346
 20
5480.9426198056
 10
6725.0299671531
 20
5480.9269950295
 10
6725.0279653526
 20
5480.7774372532
 10
6725.0280603849
 20
5480.7801797226
  0
LWPOLYLINE
  5
DE
330
1F
100
AcDbEntity
  8
0
  6
Continuous
 62
     7
370
    25
100
AcDbPolyline
 90
        3
 70
   128
 43
0.0
 10
6729.9574607208
 20
5484.0202928301
 10
6728.1849460106
 20
5483.790871646
 10
6727.0702964947
 20
5483.4665515494
  0
ARC
  5
DF
330
1F
100
AcDbEntity
  8
0
  6
Continuous
 62
     7
370
    25
100
AcDbCircle
 10
6755.7148324442
 20
5403.4802590527
 30
0.0
 40
30.77755371817614
100
AcDbArc
 50
181.1028284093
 51
184.8721962152
  0
LINE
  5
E0
330
1F
100
AcDbEntity
  8
0
  6
Continuous
 62
     7
370
    25
100
AcDbLine
 10
6727.2298206289
 20
5483.5378717751
 30
0.0
 11
6727.2169205049
 21
5482.745833977
 31
0.0
  0
LWPOLYLINE
  5
E1
330
1F
100
AcDbEntity
  8
0
  6
Continuous
 62
     7
370
    25
100
AcDbPolyline
 90
        3
 70
   128
 43
0.0
 10
6728.1536978802
 20
4934.5438006644
 10
6728.1455739657
 20
4934.1551940406
 10
6728.127716733
 20
4933.5811824903
  0
ARC
  5
E2
330
1F
100
AcDbEntity
  8
0
  6
Continuous
 62
     7
370
    25
100
AcDbCircle
 10
6728.031938318
 20
4936.5816670129
 30
0.0
 40
3.002012803967365
100
AcDbArc
 50
179.9713892605
 51
271.828316777
  0
LWPOLYLINE
  5
E3
330
1F
100
AcDbEntity
  8
0
  6
Continuous
 62
     7
370
    25
100
AcDbPolyline
 90
       58
 70
   128
 43
0.0
 10
6725.0299258883
 20
4936.5831660728
 10
6725.0481698619
 20
4937.1262487642
 10
6725.0662235718
 20
4938.1657665805
 10
6725.0842697377
 20
4939.7388616402
 10
6725.1018335207
 20
4941.8477100714
 10
6725.114955881
 20
4943.8580965488
 10
6725.1275713397
 20
4946.2137212997
 10
6725.1397580016
 20
4948.9826676999
 10
6725.1511477647
 20
4952.1211761397
 10
6725.1644706673
 20
4956.6205734526
 10
6725.176503468
 20
4961.5309882587
 10
6725.1875955381
 20
4966.8170649439
 10
6725.1977973644
 20
4972.3113508439
 10
6725.2180645942
 20
4984.6240109122
 10
6725.2378311741
 20
4997.0403822498
 10
6725.2582420264
 20
5009.3330935871
 10
6725.2791775675
 20
5021.5263935985
 10
6725.2997591593
 20
5033.7889025703
 10
6725.3194929273
 20
5046.2331886535
 10
6725.338323727
 20
5058.8402456397
 10
6725.3562673629
 20
5071.6171179212
 10
6725.3747126473
 20
5085.6517734827
 10
6725.3920820913
 20
5099.846515812
 10
6725.4084188003
 20
5114.2283941443
 10
6725.4236795971
 20
5128.7484162873
 10
6725.4425095686
 20
5148.46684868
 10
6725.4594378047
 20
5168.4108390387
 10
6725.4745538322
 20
5188.670732649
 10
6725.4877424654
 20
5209.158650885
 10
6725.4989717406
 20
5229.8072741105
 10
6725.5056796361
 20
5244.4003148096
 10
6725.511278582
 20
5259.0484024922
 10
6725.5156241534
 20
5273.8340791472
 10
6725.5184897735
 20
5288.6624990659
 10
6725.5196732092
 20
5303.6611011878
 10
6725.5189042614
 20
5318.6635769906
 10
6725.5159043232
 20
5333.7388522979
 10
6725.5103615891
 20
5348.8228826218
 10
6725.5039066484
 20
5360.8061966558
 10
6725.4955130631
 20
5372.6494278006
 10
6725.4849435521
 20
5384.4045659427
 10
6725.4721598962
 20
5395.9011123038
 10
6725.4581584031
 20
5406.3337380349
 10
6725.4421040254
 20
5416.4159399424
 10
6725.4274342971
 20
5424.2848073208
 10
6725.4110117148
 20
5431.7342537571
 10
6725.3955348713
 20
5437.5877366986
 10
6725.3717821225
 20
5444.8477337109
 10
6725.3458515868
 20
5451.1904623164
 10
6725.3176904483
 20
5456.8199640892
 10
6725.2883481857
 20
5461.7025808726
 10
6725.2578778314
 20
5466.0010524377
 10
6725.2233760459
 20
5470.1301064702
 10
6725.1882592631
 20
5473.5959854743
 10
6725.1521715075
 20
5476.4141729067
 10
6725.1156783175
 20
5478.526251791
 10
6725.0819758859
 20
5479.8344482981
 10
6725.0393073782
 20
5480.571141327
  0
ARC
  5
E4
330
1F
100
AcDbEntity
  8
0
  6
Continuous
 62
     7
370
    25
100
AcDbCircle
 10
6728.0349129825
 20
5480.6477230966
 30
0.0
 40
3.000188840958093
100
AcDbArc
 50
105.5659408238
 51
135.5306067926
  0
LWPOLYLINE
  5
E5
330
1F
100
AcDbEntity
  8
0
  6
Continuous
 62
     7
370
    25
100
AcDbPolyline
 90
       30
 70
   128
 43
0.0
 10
6724.6486705587
 20
5240.6108884785
 10
6724.6492376527
 20
5239.0001464452
 10
6724.6487778616
 20
5237.3864465709
 10
6724.6473126846
 20
5235.8452436682
 10
6724.6449106318
 20
5234.4486026718
 10
6724.6416840205
 20
5233.2618289626
 10
6724.6377837235
 20
5232.34041476
 10
6724.6333921143
 20
5231.7274443683
 10
6724.6287145397
 20
5231.4515796015
 10
6724.6239697179
 20
5231.5257195897
 10
6724.6193795114
 20
5231.9463976294
 10
6724.6151585532
 20
5232.6939432829
 10
6724.6115042107
 20
5233.7334021464
 10
6724.6085873568
 20
5235.0161702786
 10
6724.6065443804
 20
5236.4822668675
 10
6724.6054708088
 20
5238.063138866
 10
6724.605416841
 20
5239.6848664563
 10
6724.6063850004
 20
5241.2716194589
 10
6724.6083300171
 20
5242.7492030669
 10
6724.6111609441
 20
5244.048527113
 10
6724.6147454106
 20
5245.1088366488
 10
6724.6189158107
 20
5245.880552779
 10
6724.6234771414
 20
5246.3275909149
 10
6724.6282161197
 20
5246.4290480503
 10
6724.6329111564
 20
5246.1801801621
 10
6724.6373427167
 20
5245.5926240364
 10
6724.6413035858
 20
5244.6938531444
 10
6724.6446085579
 20
5243.5258930142
 10
6724.6471030961
 20
5242.1433561634
 10
6724.6486705587
 20
5240.6108884785
  0
LWPOLYLINE
  5
E6
330
1F
100
AcDbEntity
  8
0
  6
Continuous
 62
     7
370
    25
100
AcDbPolyline
 90
       30
 70
   128
 43
0.0
 10
6725.4111812179
 20
5239.8480902843
 10
6725.4106141238
 20
5238.2384828669
 10
6725.4110739149
 20
5236.6238630636
 10
6725.4125390919
 20
5235.0797287019
 10
6725.4149411447
 20
5233.6782817884
 10
6725.418167756
 20
5232.4850524231
 10
6725.422068053
 20
5231.555834685
 10
6725.4264596622
 20
5230.9340777628
 10
6725.4311372369
 20
5230.6488543191
 10
6725.4358820587
 20
5230.7135010851
 10
6725.4404722652
 20
5231.12499525
 10
6725.4446932233
 20
5231.8640958038
 10
6725.4483475658
 20
5232.8962432262
 10
6725.4512644197
 20
5234.1731754509
 10
6725.4533073961
 20
5235.6351845462
 10
6725.4543809678
 20
5237.2139085917
 10
6725.4544349356
 20
5238.8355282057
 10
6725.4534667761
 20
5240.4242182574
 10
6725.4515217595
 20
5241.9056933656
 10
6725.4486908324
 20
5243.2106814008
 10
6725.445106366
 20
5244.2781625728
 10
6725.4409359658
 20
5245.0582226486
 10
6725.4363746352
 20
5245.5143868859
 10
6725.4316356569
 20
5245.6253255519
 10
6725.4269406202
 20
5245.385851278
 10
6725.4225090599
 20
5244.807161615
 10
6725.4185481908
 20
5243.9163154485
 10
6725.4152432187
 20
5242.754967755
 10
6725.4127486804
 20
5241.377421862
 10
6725.4111812179
 20
5239.8480902843
  0
LWPOLYLINE
  5
E7
330
1F
100
AcDbEntity
  8
0
  6
Continuous
 62
     7
370
    25
100
AcDbPolyline
 90
       55
 70
   128
 43
0.0
 10
6725.0033012906
 20
5480.3296525863
 10
6724.978387933
 20
5479.9527457973
 10
6724.9521747136
 20
5479.0476274192
 10
6724.9260940684
 20
5477.7791479884
 10
6724.8999470083
 20
5476.1324172696
 10
6724.8740226191
 20
5474.1210196356
 10
6724.8480110662
 20
5471.7135769982
 10
6724.8223166989
 20
5468.9403242942
 10
6724.7967364932
 20
5465.7780746586
 10
6724.7715949085
 20
5462.2333770665
 10
6724.7481134211
 20
5458.4444801381
 10
6724.7251466765
 20
5454.1596375781
 10
6724.7031129111
 20
5449.3431049239
 10
6724.6820770633
 20
5443.8704078473
 10
6724.6631181397
 20
5437.9050825873
 10
6724.6457187785
 20
5431.1896126076
 10
6724.6301703342
 20
5423.9572564567
 10
6724.6160301349
 20
5416.2427504813
 10
6724.5976773758
 20
5404.3820853252
 10
6724.5820958797
 20
5392.0408073914
 10
6724.5692413291
 20
5379.3539576905
 10
6724.5588116169
 20
5366.1417003308
 10
6724.5521718081
 20
5355.2012577528
 10
6724.5471032562
 20
5344.1609990406
 10
6724.5424005457
 20
5328.3987520272
 10
6724.5403262775
 20
5312.5660503983
 10
6724.5408020899
 20
5294.277840282
 10
6724.5438470814
 20
5276.3950228687
 10
6724.5477388409
 20
5262.5223450667
 10
6724.5527983193
 20
5248.6804768404
 10
6724.5658833494
 20
5221.0749984924
 10
6724.5826011495
 20
5193.5012082158
 10
6724.6029212976
 20
5166.1507846313
 10
6724.625691827
 20
5140.2549144668
 10
6724.6517776796
 20
5114.6698097568
 10
6724.6813541968
 20
5089.3555579404
 10
6724.7143658884
 20
5064.4760026728
 10
6724.7498581329
 20
5040.7115526683
 10
6724.7688357268
 20
5029.0242335824
 10
6724.8081780351
 20
5005.9147265925
 10
6724.8272994413
 20
4994.2552177939
 10
6724.8457685762
 20
4982.4730929256
 10
6724.8652239144
 20
4970.872733171
 10
6724.8750957392
 20
4965.704505646
 10
6724.8859190695
 20
4960.6985548296
 10
6724.8978185494
 20
4955.9894871643
 10
6724.9111614089
 20
4951.6288470524
 10
6724.9224699918
 20
4948.6108329012
 10
6724.9347203192
 20
4945.912367395
 10
6724.9475935907
 20
4943.5756076377
 10
6724.9611475343
 20
4941.5638153577
 10
6724.9776289838
 20
4939.6366480657
 10
6724.9947393761
 20
4938.1572142986
 10
6725.0121353192
 20
4937.1423598878
 10
6725.0299258883
 20
4936.5831660728
  0
LWPOLYLINE
  5
E8
330
1F
100
AcDbEntity
  8
0
  6
Continuous
 62
     7
370
    25
100
AcDbPolyline
 90
        3
 70
   128
 43
0.0
 10
6725.0299258883
 20
5480.9072900522
 10
6725.0275190965
 20
5480.7241589758
 10
6725.0250067341
 20
5480.6580277944
  0
LINE
  5
E9
330
1F
100
AcDbEntity
  8
0
  6
Continuous
 62
     7
370
    25
100
AcDbLine
 10
6725.0348450424
 20
5480.6481857762
 30
0.0
 11
6725.0299258883
 21
5480.9072900522
 31
0.0
  0
LINE
  5
EA
330
1F
100
AcDbEntity
  8
0
  6
Continuous
 62
     7
370
    25
100
AcDbLine
 10
6725.0003080765
 20
5401.8367122066
 30
0.0
 11
6725.0003080766
 21
5404.9875756888
 31
0.0
  0
LWPOLYLINE
  5
EB
330
1F
100
AcDbEntity
  8
0
  6
Continuous
 62
     7
370
    25
100
AcDbPolyline
 90
        9
 70
   128
 43
0.0
 10
6724.6683947956
 20
5425.0015594755
 10
6724.6756305924
 20
5424.078137831
 10
6724.718042124
 20
5419.0395119034
 10
6724.7610772266
 20
5414.580444012
 10
6724.8048431455
 20
5410.7219287738
 10
6724.8491377589
 20
5407.5121543356
 10
6724.8865239165
 20
5405.3480476718
 10
6724.9241769636
 20
5403.673330126
 10
6724.938292447
 20
5403.2364375673
  0
LWPOLYLINE
  5
EC
330
1F
100
AcDbEntity
  8
0
  6
Continuous
 62
     7
370
    25
100
AcDbPolyline
 90
        3
 70
   128
 43
0.0
 10
6724.6513709794
 20
5417.1224949226
 10
6724.6589942614
 20
5420.8503406673
 10
6724.6683947956
 20
5425.0015594755
  0
LWPOLYLINE
  5
ED
330
1F
100
AcDbEntity
  8
0
  6
Continuous
 62
     7
370
    25
100
AcDbPolyline
 90
       14
 70
   128
 43
0.0
 10
6724.5704740684
 20
5285.5560534374
 10
6724.5690367048
 20
5296.0817623914
 10
6724.5684984296
 20
5306.6408539802
 10
6724.5689585911
 20
5317.199019257
 10
6724.5705416348
 20
5327.8557512804
 10
6724.5733601487
 20
5338.4809291088
 10
6724.5775961807
 20
5349.190974969
 10
6724.5833454
 20
5359.8162021396
 10
6724.5907840992
 20
5370.3849808808
 10
6724.5987358641
 20
5379.4848756725
 10
6724.6081114552
 20
5388.4233992746
 10
6724.623135101
 20
5400.1735754592
 10
6724.6364065398
 20
5408.8143173898
 10
6724.6513709794
 20
5417.1224949226
  0
LWPOLYLINE
  5
EE
330
1F
100
AcDbEntity
  8
0
  6
Continuous
 62
     7
370
    25
100
AcDbPolyline
 90
        3
 70
   128
 43
0.0
 10
6724.5713120128
 20
5281.2011958589
 10
6724.5709832014
 20
5282.8268340874
 10
6724.5704740684
 20
5285.5560534374
  0
LWPOLYLINE
  5
EF
330
1F
100
AcDbEntity
  8
0
  6
Continuous
 62
     7
370
    25
100
AcDbPolyline
 90
       25
 70
   128
 43
0.0
 10
6724.5713120128
 20
5281.2011958589
 10
6724.5790013136
 20
5280.2786886204
 10
6724.6122555885
 20
5276.0674831727
 10
6724.6407111349
 20
5272.0138409252
 10
6724.6684699828
 20
5267.4369717894
 10
6724.6867807301
 20
5263.9437223705
 10
6724.7043109951
 20
5260.0025298528
 10
6724.7204699482
 20
5255.4720090042
 10
6724.7286352554
 20
5252.60689993
 10
6724.7357196689
 20
5249.4322150648
 10
6724.7404542653
 20
5246.4567873864
 10
6724.7434417311
 20
5243.2410626951
 10
6724.7442090448
 20
5240.0229747932
 10
6724.7431862625
 20
5236.8057381673
 10
6724.7393023369
 20
5232.259048172
 10
6724.7334429273
 20
5227.9540552891
 10
6724.7235023079
 20
5222.4972031556
 10
6724.7118569155
 20
5217.4187117863
 10
6724.6990258171
 20
5212.6950996603
 10
6724.6810357986
 20
5206.95066826
 10
6724.6616651009
 20
5201.6986605863
 10
6724.640987221
 20
5197.0999160081
 10
6724.6190756555
 20
5193.3152738946
 10
6724.6171893433
 20
5193.0421054126
 10
6724.6120434074
 20
5192.3171178023
  0
LWPOLYLINE
  5
F0
330
1F
100
AcDbEntity
  8
0
  6
Continuous
 62
     7
370
    25
100
AcDbPolyline
 90
        3
 70
   128
 43
0.0
 10
6724.6151688969
 20
5187.7828239767
 10
6724.6134476475
 20
5190.2613001221
 10
6724.6120434074
 20
5192.3171178023
  0
LWPOLYLINE
  5
F1
330
1F
100
AcDbEntity
  8
0
  6
Continuous
 62
     7
370
    25
100
AcDbPolyline
 90
       24
 70
   128
 43
0.0
 10
6725.0299258883
 20
4946.5080664993
 10
6725.0060189606
 20
4947.4669731509
 10
6724.9822755025
 20
4949.4357072144
 10
6724.9693189882
 20
4950.9993312079
 10
6724.9567690009
 20
4952.9108134615
 10
6724.9443832006
 20
4955.2675832107
 10
6724.9327536107
 20
4958.0352657096
 10
6724.9224616997
 20
4961.0821182361
 10
6724.9130233389
 20
4964.4391042474
 10
6724.9041340855
 20
4968.1269813389
 10
6724.8959252602
 20
4971.9959633921
 10
6724.8843813321
 20
4978.1516539504
 10
6724.8736948315
 20
4984.4879303066
 10
6724.853312588
 20
4997.4116609374
 10
6724.8298339903
 20
5011.7872486696
 10
6724.8056219735
 20
5026.0232582551
 10
6724.7817858867
 20
5040.3284834592
 10
6724.7590211085
 20
5054.833791195
 10
6724.7287069016
 20
5075.9343059176
 10
6724.7009408883
 20
5097.4488444996
 10
6724.6757812602
 20
5119.3213852094
 10
6724.6529223621
 20
5141.8595759473
 10
6724.6327259642
 20
5164.7004927986
 10
6724.6151688969
 20
5187.7828239767
  0
LWPOLYLINE
  5
F2
330
1F
100
AcDbEntity
  8
0
  6
Continuous
 62
     7
370
    25
100
AcDbPolyline
 90
       26
 70
   128
 43
0.0
 10
6725.4446819244
 20
5186.9516359125
 10
6725.431766117
 20
5169.6488256854
 10
6725.4173764697
 20
5152.4836577431
 10
6725.4014325054
 20
5135.4143719385
 10
6725.3839705411
 20
5118.5206445741
 10
6725.3647581131
 20
5101.6316967512
 10
6725.3439918638
 20
5084.9599401486
 10
6725.3215899067
 20
5068.4574541619
 10
6725.2976553622
 20
5052.2090001265
 10
6725.2760835412
 20
5038.5849237846
 10
6725.2534924034
 20
5025.1437190259
 10
6725.2306122655
 20
5011.7614724437
 10
6725.2084114359
 20
4998.2431342523
 10
6725.1868917067
 20
4984.6266790529
 10
6725.1755697917
 20
4977.9203633762
 10
6725.1632647254
 20
4971.4010057796
 10
6725.1552535028
 20
4967.6718507125
 10
6725.1465639266
 20
4964.1039124648
 10
6725.1369470706
 20
4960.7229751099
 10
6725.1263446453
 20
4957.6430180173
 10
6725.1151528598
 20
4955.0298474299
 10
6725.1029986457
 20
4952.7502177381
 10
6725.0902953814
 20
4950.8465315219
 10
6725.0769195376
 20
4949.2723078521
 10
6725.0538417562
 20
4947.41966605
 10
6725.0299258883
 20
4946.5080664993
  0
LWPOLYLINE
  5
F3
330
1F
100
AcDbEntity
  8
0
  6
Continuous
 62
     7
370
    25
100
AcDbPolyline
 90
        3
 70
   128
 43
0.0
 10
6725.4478083692
 20
5191.4810376822
 10
6725.4464035227
 20
5189.4271497171
 10
6725.4446819244
 20
5186.9516359125
  0
LWPOLYLINE
  5
F4
330
1F
100
AcDbEntity
  8
0
  6
Continuous
 62
     7
370
    25
100
AcDbPolyline
 90
       40
 70
   128
 43
0.0
 10
6725.4885397638
 20
5280.2836222308
 10
6725.480850463
 20
5279.376499393
 10
6725.469722292
 20
5278.0373760063
 10
6725.4586338402
 20
5276.6587368222
 10
6725.4475961881
 20
5275.2318275747
 10
6725.4297815619
 20
5272.7890007997
 10
6725.4156691187
 20
5270.7049708982
 10
6725.3982618281
 20
5267.9054381049
 10
6725.3913817938
 20
5266.7137873758
 10
6725.3811197079
 20
5264.8263545365
 10
6725.3743839086
 20
5263.5032561891
 10
6725.3622502332
 20
5260.9079732481
 10
6725.355775743
 20
5259.3823574418
 10
6725.3453876601
 20
5256.6514725587
 10
6725.3393818284
 20
5254.8528637387
 10
6725.3347212009
 20
5253.2972315895
 10
6725.3241321077
 20
5248.8435807418
 10
6725.320604376
 20
5246.7604578217
 10
6725.3178749032
 20
5244.5442706258
 10
6725.3164100455
 20
5242.6678783203
 10
6725.3156300775
 20
5239.5113351354
 10
6725.316665514
 20
5236.2320426627
 10
6725.3187821171
 20
5233.4061470268
 10
6725.3221682455
 20
5230.3376948879
 10
6725.3264088493
 20
5227.3608657658
 10
6725.3310814948
 20
5224.6135122198
 10
6725.3389793473
 20
5220.6652281244
 10
6725.3448244164
 20
5218.0994500283
 10
6725.3510005728
 20
5215.6173163173
 10
6725.3608259594
 20
5212.03304996
 10
6725.3724953039
 20
5208.2201876393
 10
6725.3816328065
 20
5205.5042564198
 10
6725.391125909
 20
5202.8980544233
 10
6725.4002163046
 20
5200.5906071129
 10
6725.4105112372
 20
5198.189365424
 10
6725.4184358235
 20
5196.4936870187
 10
6725.4292866675
 20
5194.396969266
 10
6725.440776121
 20
5192.4932635743
 10
6725.4426624333
 20
5192.2163210452
 10
6725.4478083692
 20
5191.4810376822
  0
LWPOLYLINE
  5
F5
330
1F
100
AcDbEntity
  8
0
  6
Continuous
 62
     7
370
    25
100
AcDbPolyline
 90
        3
 70
   128
 43
0.0
 10
6725.4893772919
 20
5284.6344467061
 10
6725.4888708352
 20
5281.9201052547
 10
6725.4885397638
 20
5280.2836222308
  0
LWPOLYLINE
  5
F6
330
1F
100
AcDbEntity
  8
0
  6
Continuous
 62
     7
370
    25
100
AcDbPolyline
 90
       13
 70
   128
 43
0.0
 10
6725.4084807971
 20
5416.3650996523
 10
6725.4274714086
 20
5405.5252997641
 10
6725.4438408679
 20
5394.0912769645
 10
6725.4577707515
 20
5382.0020732453
 10
6725.4690583917
 20
5369.5181090041
 10
6725.4762595085
 20
5359.3188267276
 10
6725.4819164592
 20
5349.0073272684
 10
6725.4861744524
 20
5338.5188282004
 10
6725.4890907976
 20
5327.9776421307
 10
6725.4908050484
 20
5317.1743182196
 10
6725.4913546969
 20
5306.3574480106
 10
6725.4908463512
 20
5295.4905386374
 10
6725.4893772919
 20
5284.6344467061
  0
LWPOLYLINE
  5
F7
330
1F
100
AcDbEntity
  8
0
  6
Continuous
 62
     7
370
    25
100
AcDbPolyline
 90
        3
 70
   128
 43
0.0
 10
6725.3914569809
 20
5424.278224631
 10
6725.4008575152
 20
5420.1081976645
 10
6725.4084807971
 20
5416.3650996523
  0
LWPOLYLINE
  5
F8
330
1F
100
AcDbEntity
  8
0
  6
Continuous
 62
     7
370
    25
100
AcDbPolyline
 90
        9
 70
   128
 43
0.0
 10
6725.1112041649
 20
5402.7486102901
 10
6725.1363461512
 20
5403.4858302171
 10
6725.1736341037
 20
5405.0763921553
 10
6725.2107140176
 20
5407.1504417302
 10
6725.2546569718
 20
5410.2443346309
 10
6725.2981620574
 20
5413.9850629748
 10
6725.3414723258
 20
5418.3788677195
 10
6725.3842211842
 20
5423.369280037
 10
6725.3914569809
 20
5424.278224631
  0
LINE
  5
F9
330
1F
100
AcDbEntity
  8
0
  6
Continuous
 62
     7
370
    25
100
AcDbLine
 10
6725.0618036394
 20
5405.386441086
 30
0.0
 11
6725.0618036394
 21
5401.7975691994
 31
0.0
  0
LWPOLYLINE
  5
FA
330
1F
100
AcDbEntity
  8
0
  6
Continuous
 62
     7
370
    25
100
AcDbPolyline
 90
       21
 70
   128
 43
0.0
 10
6725.0003080766
 20
5404.9875756888
 10
6724.9936202821
 20
5406.4994423774
 10
6724.9875788031
 20
5408.3012997693
 10
6724.9822911905
 20
5410.3610710445
 10
6724.977851575
 20
5412.642087978
 10
6724.9743389908
 20
5415.1037437102
 10
6724.9718159693
 20
5417.7022156346
 10
6724.9703274257
 20
5420.3912455306
 10
6724.9698998589
 20
5423.1229630572
 10
6724.9705408807
 20
5425.8487379444
 10
6724.9722390795
 20
5428.5200457134
 10
6724.9749642239
 20
5431.0893315141
 10
6724.9786678005
 20
5433.5108566998
 10
6724.9832838779
 20
5435.7415130713
 10
6724.9887302805
 20
5437.7415902923
 10
6724.9949100508
 20
5439.4754828164
 10
6725.0017131761
 20
5440.9123237398
 10
6725.0090185464
 20
5442.026534297
 10
6725.0166961111
 20
5442.7982792162
 10
6725.0246091934
 20
5443.2138198278
 10
6725.0280417082
 20
5443.2808430514
  0
LWPOLYLINE
  5
FB
330
1F
100
AcDbEntity
  8
0
  6
Continuous
 62
     7
370
    25
100
AcDbPolyline
 90
       21
 70
   128
 43
0.0
 10
6725.0311212914
 20
5443.2837974272
 10
6725.0326169239
 20
5443.2657586423
 10
6725.0405767485
 20
5442.9531710404
 10
6725.0483469654
 20
5442.2816217335
 10
6725.0557892488
 20
5441.2630657
 10
6725.0627711104
 20
5439.9156353618
 10
6725.0691682586
 20
5438.2633177896
 10
6725.0748668107
 20
5436.3355276827
 10
6725.0797653206
 20
5434.1665837262
 10
6725.0837765847
 20
5431.7950976466
 10
6725.0868291941
 20
5429.2632868428
 10
6725.0888688059
 20
5426.6162228282
 10
6725.0898591109
 20
5423.9010288637
 10
6725.0897824795
 20
5421.1660410654
 10
6725.0886402758
 20
5418.459947921
 10
6725.0864528337
 20
5415.8309235331
 10
6725.083259094
 20
5413.3257700196
 10
6725.0791159119
 20
5410.9890843385
 10
6725.0740970449
 20
5408.862464369
 10
6725.0682918391
 20
5406.9837683824
 10
6725.0618036394
 20
5405.386441086
  0
ARC
  5
FC
330
1F
100
AcDbEntity
  8
0
  6
Continuous
 62
     7
370
    25
100
AcDbCircle
 10
6729.8900611921
 20
5483.9951559766
 30
0.0
 40
0.0471313359555002
100
AcDbArc
 50
344.030900396
 51
28.8078668681
  0
ARC
  5
FD
330
1F
100
AcDbEntity
  8
0
  6
Continuous
 62
     7
370
    25
100
AcDbCircle
 10
6730.4757638716
 20
5475.1963736143
 30
0.0
 40
8.838276280609078
100
AcDbArc
 50
77.1526393557
 51
93.5314381858
  0
LWPOLYLINE
  5
FE
330
1F
100
AcDbEntity
  8
0
  6
Continuous
 62
     7
370
    25
100
AcDbPolyline
 90
        3
 70
   128
 43
0.0
 10
6732.8560451392
 20
5483.0082761418
 10
6732.6411772877
 20
5483.5202269865
 10
6732.4495033279
 20
5483.8009300355
  0
LWPOLYLINE
  5
FF
330
1F
100
AcDbEntity
  8
0
  6
Continuous
 62
     7
370
    25
100
AcDbPolyline
 90
       22
 70
   128
 43
0.0
 10
6867.3277234224
 20
5072.728718711
 10
6866.5270066465
 20
5070.0535502963
 10
6861.8217584967
 20
5056.4121571343
 10
6856.2254262655
 20
5043.0442655104
 10
6849.7577135859
 20
5029.8855499691
 10
6842.5027608856
 20
5017.0850185705
 10
6837.5186213575
 20
5009.1986354068
 10
6832.2316562525
 20
5001.4958015906
 10
6826.6176782982
 20
4993.9654479201
 10
6820.6914506953
 20
4986.6583879932
 10
6814.4034507341
 20
4979.5543610499
 10
6807.7186557428
 20
4972.6714026392
 10
6800.6461929701
 20
4966.0841810282
 10
6793.2033014122
 20
4959.8746662698
 10
6784.9426998082
 20
4953.804492119
 10
6776.2359822629
 20
4948.3016591482
 10
6768.6613740685
 20
4944.2379464381
 10
6760.7769108516
 20
4940.707993478
 10
6752.9675002081
 20
4937.9068690389
 10
6744.9039102874
 20
4935.736701087
 10
6736.6028273666
 20
4934.2698698917
 10
6728.127716733
 20
4933.5811824903
  0
LWPOLYLINE
  5
100
330
1F
100
AcDbEntity
  8
0
  6
Continuous
 62
     7
370
    25
100
AcDbPolyline
 90
       33
 70
   128
 43
0.0
 10
6740.1267159479
 20
5286.3996387448
 10
6743.9843478981
 20
5286.272030694
 10
6750.3424981854
 20
5285.475774014
 10
6756.3351828059
 20
5284.021093665
 10
6762.2397073078
 20
5281.8410509063
 10
6767.8726161585
 20
5278.9442642967
 10
6770.6889942444
 20
5277.1353328979
 10
6774.0805215664
 20
5274.5672847846
 10
6777.2435419143
 20
5271.7028577357
 10
6779.7499593859
 20
5269.0253774161
 10
6782.0562371573
 20
5266.149261373
 10
6785.3245618492
 20
5261.1150096536
 10
6788.4110368519
 20
5254.5967819319
 10
6789.6644773673
 20
5250.9841039293
 10
6791.1663675998
 20
5244.7688267499
 10
6791.9951666031
 20
5237.1011916511
 10
6792.0042860439
 20
5233.0121963836
 10
6791.3879878701
 20
5226.3689064144
 10
6790.688081672
 20
5222.6199088026
 10
6789.6288621584
 20
5218.5580873002
 10
6788.2603082017
 20
5214.5585166718
 10
6785.4836835211
 20
5208.4629448069
 10
6783.5779682027
 20
5205.1542421482
 10
6781.22233758
 20
5201.6804605115
 10
6778.5884259245
 20
5198.3806243439
 10
6774.0729424483
 20
5193.7557765583
 10
6767.9878809699
 20
5189.0019635953
 10
6764.5196448304
 20
5186.8746470438
 10
6760.1527469669
 20
5184.6950463583
 10
6755.5598557088
 20
5182.921222412
 10
6751.8087572753
 20
5181.8303322332
 10
6747.9629521076
 20
5181.0237270282
 10
6740.2915926201
 20
5180.3083822805
  0
LWPOLYLINE
  5
101
330
1F
100
AcDbEntity
  8
0
  6
Continuous
 62
     7
370
    25
100
AcDbPolyline
 90
        6
 70
   128
 43
0.0
 10
6734.0369701786
 20
5286.3816549298
 10
6735.558363314
 20
5286.388120203
 10
6737.0802116904
 20
5286.3932666627
 10
6737.0804438804
 20
5286.3932673481
 10
6738.6022825494
 20
5286.3971070406
 10
6740.1267159479
 20
5286.3996387448
  0
LWPOLYLINE
  5
102
330
1F
100
AcDbEntity
  8
0
  6
Continuous
 62
     7
370
    25
100
AcDbPolyline
 90
       12
 70
   128
 43
0.0
 10
6734.2783724435
 20
5180.2491761014
 10
6734.2079623323
 20
5193.2929112183
 10
6734.1758827054
 20
5199.841150362
 10
6734.1328008662
 20
5209.7082354236
 10
6734.0960403123
 20
5219.614252482
 10
6734.0752113172
 20
5226.2355079099
 10
6734.0574668668
 20
5232.8777428025
 10
6734.0410834588
 20
5240.5282836713
 10
6734.0263013699
 20
5250.7563821625
 10
6734.0192459925
 20
5262.3103106495
 10
6734.0223137488
 20
5273.9037541051
 10
6734.0369701786
 20
5286.3816549298
  0
ARC
  5
103
330
1F
100
AcDbEntity
  8
0
  6
Continuous
 62
     7
370
    25
100
AcDbCircle
 10
6733.3492894513
 20
5580.0037644125
 30
0.0
 40
399.7556679659904
100
AcDbArc
 50
270.1331627953
 51
270.9950694886
  0
ARC
  5
104
330
1F
100
AcDbEntity
  8
0
  6
Continuous
 62
     7
370
    25
100
AcDbCircle
 10
6743.8211496825
 20
5532.507957733
 30
0.0
 40
50.00668999819074
100
AcDbArc
 50
261.2161812583
 51
272.2922732152
  0
LWPOLYLINE
  5
105
330
1F
100
AcDbEntity
  8
0
  6
Continuous
 62
     7
370
    25
100
AcDbPolyline
 90
       38
 70
   128
 43
0.0
 10
6745.8212694114
 20
5482.5412831824
 10
6745.9369921471
 20
5482.2414010564
 10
6746.2323869189
 20
5481.4195986272
 10
6746.6939671751
 20
5480.1221619173
 10
6747.3438303489
 20
5478.3237844913
 10
6748.1861564722
 20
5476.0750654596
 10
6749.2718672554
 20
5473.3130609869
 10
6750.601825474
 20
5470.1068749017
 10
6752.2483851758
 20
5466.3574086786
 10
6754.3387019315
 20
5461.7571623489
 10
6756.7164948574
 20
5456.4948236287
 10
6759.3463741019
 20
5450.4758582307
 10
6762.1554189376
 20
5443.688027489
 10
6764.3194704604
 20
5438.1246903279
 10
6766.5839919836
 20
5432.0950789679
 10
6769.032752995
 20
5425.6723089179
 10
6771.6972087663
 20
5418.9295530003
 10
6774.5336644819
 20
5412.0230071501
 10
6777.5760544088
 20
5404.7869780402
 10
6780.7126829726
 20
5397.3698825094
 10
6783.9873194133
 20
5389.5823178088
 10
6787.2811246837
 20
5381.6610668427
 10
6791.345882715
 20
5371.7177192357
 10
6795.3790167954
 20
5361.6494111524
 10
6799.3831976068
 20
5351.4374930786
 10
6803.3167706589
 20
5341.1695918091
 10
6807.1863304611
 20
5330.8394820223
 10
6811.2860076461
 20
5319.6977626529
 10
6815.4414940523
 20
5308.6325871929
 10
6820.6279253206
 20
5295.0859803367
 10
6825.8471650612
 20
5281.6488606174
 10
6833.7089525451
 20
5261.5101581232
 10
6839.5074839674
 20
5246.5041807419
 10
6848.1613032385
 20
5223.2994286829
 10
6855.4056101348
 20
5202.4099996508
 10
6860.3183498681
 20
5187.5858965665
 10
6864.1241215257
 20
5175.9141130957
 10
6864.1241379299
 20
5175.9140627897
  0
LINE
  5
106
330
1F
100
AcDbEntity
  8
0
  6
Continuous
 62
     7
370
    25
100
AcDbLine
 10
6876.9928278187
 20
5090.7818267545
 30
0.0
 11
6878.9685974386
 21
5093.0443998301
 31
0.0
  0
ARC
  5
107
330
1F
100
AcDbEntity
  8
0
  6
Continuous
 62
     7
370
    25
100
AcDbCircle
 10
6915.2864028606
 20
5058.9187368333
 30
0.0
 40
49.81102600525983
100
AcDbArc
 50
99.1689469724
 51
117.1329307665
  0
ARC
  5
108
330
1F
100
AcDbEntity
  8
0
  6
Continuous
 62
     7
370
    25
100
AcDbCircle
 10
6743.8210314865
 20
5532.5071233698
 30
0.0
 40
50.00584737147295
100
AcDbArc
 50
256.8457073147
 51
261.2161691094
  0
LWPOLYLINE
  5
109
330
1F
100
AcDbEntity
  8
0
  6
Continuous
 62
     7
370
    25
100
AcDbPolyline
 90
       12
 70
   128
 43
0.0
 10
6745.8212694114
 20
5482.5412831824
 10
6747.0431355465
 20
5482.5860848831
 10
6751.9329464613
 20
5482.6800312669
 10
6756.8329436518
 20
5482.627361964
 10
6760.5119846319
 20
5482.4823227195
 10
6765.4160978597
 20
5482.1344209627
 10
6772.9275546391
 20
5481.2145747125
 10
6782.5146472082
 20
5479.2210018855
 10
6785.6464191426
 20
5478.3295010362
 10
6789.7682941064
 20
5476.9412568235
 10
6793.8411667173
 20
5475.295121872
 10
6798.7953534951
 20
5472.8556642702
  0
LWPOLYLINE
  5
10A
330
1F
100
AcDbEntity
  8
0
  6
Continuous
 62
     7
370
    25
100
AcDbPolyline
 90
       62
 70
   128
 43
0.0
 10
7054.1531947276
 20
5252.9848107437
 10
7053.9722422242
 20
5253.0961507664
 10
7053.3936304926
 20
5253.4436088516
 10
7052.2634421668
 20
5254.1297859608
 10
7050.1666841361
 20
5255.4239850075
 10
7047.7307211879
 20
5256.9602318822
 10
7047.5483597915
 20
5257.0774132728
 10
7045.3005850056
 20
5258.5537555874
 10
7042.7562173774
 20
5260.293111019
 10
7039.9635164044
 20
5262.279959367
 10
7036.7091798376
 20
5264.6853034305
 10
7032.2480687832
 20
5268.1122539585
 10
7028.5425363543
 20
5271.0479770143
 10
7021.8602889221
 20
5276.4834603819
 10
7017.7624171824
 20
5279.8747021051
 10
7008.1287315147
 20
5287.9145801844
 10
6997.2163421664
 20
5297.091249251
 10
6989.071914906
 20
5303.9265894781
 10
6983.6213653396
 20
5308.4571787952
 10
6975.3998053116
 20
5315.2452567343
 10
6969.8809800538
 20
5319.7838968129
 10
6964.324822265
 20
5324.3457792884
 10
6960.12982949
 20
5327.7882889192
 10
6954.490174225
 20
5332.4184612201
 10
6950.2194099755
 20
5335.9299283741
 10
6943.0291391117
 20
5341.861164871
 10
6938.668639881
 20
5345.4748640424
 10
6932.8017136184
 20
5350.3630753511
 10
6925.7809172155
 20
5356.2621512016
 10
6920.1040312407
 20
5361.0794603994
 10
6914.3800346676
 20
5365.9878367889
 10
6908.5935401531
 20
5371.0070159148
 10
6902.7212234012
 20
5376.1705604899
 10
6896.8094283071
 20
5381.4241861535
 10
6890.8336043289
 20
5386.7520527699
 10
6886.3301793558
 20
5390.7840586174
 10
6880.0174413814
 20
5396.467391386
 10
6872.7988509044
 20
5403.0262085302
 10
6868.2431281069
 20
5407.204910237
 10
6863.7243650196
 20
5411.3853337937
 10
6857.4686112388
 20
5417.2362966063
 10
6853.0435002396
 20
5421.422850343
 10
6848.7333881704
 20
5425.5364113282
 10
6844.8111554542
 20
5429.2941893696
 10
6841.0154017385
 20
5432.9340037428
 10
6836.7366790618
 20
5437.0398027415
 10
6832.1236533256
 20
5441.4626954609
 10
6827.1731503913
 20
5446.1941494933
 10
6824.2238911897
 20
5448.9985964183
 10
6821.4145162359
 20
5451.6589562682
 10
6817.7366897814
 20
5455.1277314429
 10
6815.0346788621
 20
5457.6684983913
 10
6811.1415733738
 20
5461.322411025
 10
6807.401086477
 20
5464.8310147713
 10
6805.6327875493
 20
5466.4897665955
 10
6804.0938009283
 20
5467.9331137533
 10
6802.1377267984
 20
5469.7654679123
 10
6801.2430004903
 20
5470.601657549
 10
6800.5008906492
 20
5471.293261729
 10
6799.7664576507
 20
5471.9745080018
 10
6799.2356579685
 20
5472.4624039379
 10
6798.7953534951
 20
5472.8556642702
  0
LWPOLYLINE
  5
10B
330
1F
100
AcDbEntity
  8
0
  6
Continuous
 62
     7
370
    25
100
AcDbPolyline
 90
        3
 70
   128
 43
0.0
 10
7054.1531947276
 20
5252.9848107437
 10
7052.9563194161
 20
5244.0823551926
 10
7052.9233626279
 20
5243.9091887727
  0
LWPOLYLINE
  5
10C
330
1F
100
AcDbEntity
  8
0
  6
Continuous
 62
     7
370
    25
100
AcDbPolyline
 90
        3
 70
   128
 43
0.0
 10
7040.914532347
 20
5200.8633756357
 10
7039.2222596972
 20
5196.8291539993
 10
7038.6643588715
 20
5195.6953604904
  0
LWPOLYLINE
  5
10D
330
1F
100
AcDbEntity
  8
0
  6
Continuous
 62
     7
370
    25
100
AcDbPolyline
 90
        3
 70
   128
 43
0.0
 10
6912.3379324174
 20
5108.9811706233
 10
6910.8699199528
 20
5108.6843418341
 10
6907.3492072148
 20
5108.0933160077
  0
ARC
  5
10E
330
1F
100
AcDbEntity
  8
0
  6
Continuous
 62
     7
370
    25
100
AcDbCircle
 10
6682.5581195732
 20
5180.4754905292
 30
0.0
 40
57.73371489196563
100
AcDbArc
 50
359.8341591086
 51
5.6595851499
  0
LWPOLYLINE
  5
10F
330
1F
100
AcDbEntity
  8
0
  6
Continuous
 62
     7
370
    25
100
AcDbPolyline
 90
       34
 70
   128
 43
0.0
 10
6740.0104045324
 20
5186.1690648191
 10
6743.3926222249
 20
5186.3748221815
 10
6746.7684582631
 20
5186.841575556
 10
6754.1933827235
 20
5188.8333713462
 10
6757.8033376854
 20
5190.3238624858
 10
6761.323602536
 20
5192.1504086914
 10
6764.6635491038
 20
5194.2705586828
 10
6767.856145605
 20
5196.7110093166
 10
6770.8475138247
 20
5199.4424093006
 10
6773.6325265046
 20
5202.4725255841
 10
6776.1463855724
 20
5205.7384363001
 10
6778.3861830537
 20
5209.2367775338
 10
6780.3610043365
 20
5213.0033338735
 10
6782.0154898949
 20
5216.9560722778
 10
6783.2955716868
 20
5220.921276368
 10
6784.2530291137
 20
5225.00175109
 10
6784.8871139739
 20
5229.2304017702
 10
6785.1749127279
 20
5233.5154828232
 10
6785.1249563877
 20
5237.5695315901
 10
6784.7601778244
 20
5241.6157373271
 10
6784.0650984368
 20
5245.68197856
 10
6783.0390056311
 20
5249.682378215
 10
6780.2858560033
 20
5256.7523568246
 10
6778.479581237
 20
5260.1154725377
 10
6776.3748766363
 20
5263.3451386462
 10
6774.2523108543
 20
5266.0793288605
 10
6770.6136307993
 20
5269.9013369822
 10
6766.5180103246
 20
5273.2641677434
 10
6763.6799308844
 20
5275.1483677263
 10
6757.4630440159
 20
5278.2832203939
 10
6754.1093432136
 20
5279.5008185099
 10
6751.7933753308
 20
5280.1720645627
 10
6747.0133496099
 20
5281.154010092
 10
6744.5642427447
 20
5281.4577858936
  0
ARC
  5
110
330
1F
100
AcDbEntity
  8
0
  6
Continuous
 62
     7
370
    25
100
AcDbCircle
 10
6777.2922292862
 20
5362.497079443
 30
0.0
 40
87.39844507801158
100
AcDbArc
 50
244.819441918
 51
248.0085178022
  0
ARC
  5
111
330
1F
100
AcDbEntity
  8
0
  6
Continuous
 62
     7
370
    25
100
AcDbCircle
 10
6470.9833316801
 20
5286.7074829835
 30
0.0
 40
269.1435603228181
100
AcDbArc
 50
359.2967263835
 51
359.9344655341
  0
LINE
  5
112
330
1F
100
AcDbEntity
  8
0
  6
Continuous
 62
     7
370
    25
100
AcDbLine
 10
6739.2141640116
 20
5276.3308170178
 30
0.0
 11
6739.1622631502
 21
5276.5568090935
 31
0.0
  0
LWPOLYLINE
  5
113
330
1F
100
AcDbEntity
  8
0
  6
Continuous
 62
     7
370
    25
100
AcDbPolyline
 90
        6
 70
   128
 43
0.0
 10
6739.2141640116
 20
5276.3308170178
 10
6739.2136926993
 20
5274.331126326
 10
6739.2073591456
 20
5253.9863434253
 10
6739.1985598117
 20
5233.7138336667
 10
6739.1855595976
 20
5209.9895560836
 10
6739.1697896467
 20
5186.425689654
  0
LINE
  5
114
330
1F
100
AcDbEntity
  8
0
  6
Continuous
 62
     7
370
    25
100
AcDbLine
 10
6739.1697896467
 20
5186.425689654
 30
0.0
 11
6739.1284760705
 21
5186.1519378223
 31
0.0
  0
ARC
  5
115
330
1F
100
AcDbEntity
  8
0
  6
Continuous
 62
     7
370
    25
100
AcDbCircle
 10
6718.4784722001
 20
5198.1753959024
 30
0.0
 40
23.89531761771242
100
AcDbArc
 50
311.3924666865
 51
329.7899101154
  0
LWPOLYLINE
  5
116
330
1F
100
AcDbEntity
  8
0
  6
Continuous
 62
     7
370
    25
100
AcDbPolyline
 90
        6
 70
   128
 43
0.0
 10
6737.1865164249
 20
5280.4288455197
 10
6736.6049505777
 20
5281.5212752091
 10
6736.0057850355
 20
5282.6486303597
 10
6735.0345726415
 20
5284.4830104311
 10
6734.0463775188
 20
5286.363660141
 10
6734.0369701786
 20
5286.3816549298
  0
ARC
  5
117
330
1F
100
AcDbEntity
  8
0
  6
Continuous
 62
     7
370
    25
100
AcDbCircle
 10
6616.8341173697
 20
5216.577695451
 30
0.0
 40
136.2412174175674
100
AcDbArc
 50
26.1193262677
 51
27.9475117345
  0
LWPOLYLINE
  5
118
330
1F
100
AcDbEntity
  8
0
  6
Continuous
 62
     7
370
    25
100
AcDbPolyline
 90
        9
 70
   128
 43
0.0
 10
6739.9598714623
 20
5198.8179291571
 10
6739.9652534557
 20
5196.8467065944
 10
6739.9709373864
 20
5194.9769143921
 10
6739.9769067884
 20
5193.2139692491
 10
6739.9831443686
 20
5191.5629783334
 10
6739.989632057
 20
5190.028724487
 10
6739.9963510592
 20
5188.6156523702
 10
6740.0032819104
 20
5187.3278555856
 10
6740.0104045324
 20
5186.1690648191
  0
LWPOLYLINE
  5
119
330
1F
100
AcDbEntity
  8
0
  6
Continuous
 62
     7
370
    25
100
AcDbPolyline
 90
       33
 70
   128
 43
0.0
 10
6744.5827314704
 20
5262.4676045391
 10
6747.5753203395
 20
5261.8059270656
 10
6750.5449998327
 20
5261.0033641379
 10
6753.5013662455
 20
5260.0432709464
 10
6756.4044613879
 20
5258.9232438248
 10
6760.0199851956
 20
5257.2407088481
 10
6763.4892103084
 20
5255.2590673366
 10
6766.0183147226
 20
5253.5269407608
 10
6768.4099897332
 20
5251.5992793622
 10
6769.9167541812
 20
5250.1992374349
 10
6771.5286765572
 20
5248.4941130829
 10
6773.0269697882
 20
5246.6539236509
 10
6774.3848285949
 20
5244.6850533544
 10
6775.5889703851
 20
5242.5731262745
 10
6777.0916404454
 20
5239.0093627609
 10
6778.0444692333
 20
5235.144018102
 10
6778.3477656156
 20
5231.22032007
 10
6777.9923906396
 20
5227.1967631573
 10
6777.1155019716
 20
5223.6364771044
 10
6775.7342073783
 20
5220.1953832998
 10
6773.676190578
 20
5216.6298938968
 10
6772.4552323034
 20
5214.9543370266
 10
6771.1129961018
 20
5213.352158316
 10
6768.9667171595
 20
5211.1677727408
 10
6766.5986580631
 20
5209.1506829705
 10
6764.0489018791
 20
5207.3189269942
 10
6761.3213425461
 20
5205.6596638287
 10
6757.8740553034
 20
5203.9109261578
 10
6754.2598839413
 20
5202.4111546674
 10
6750.4570407838
 20
5201.1322424654
 10
6746.5489766288
 20
5200.0837318681
 10
6743.2684727683
 20
5199.3816462699
 10
6739.9598714623
 20
5198.8179291571
  0
LWPOLYLINE
  5
11A
330
1F
100
AcDbEntity
  8
0
  6
Continuous
 62
     7
370
    25
100
AcDbPolyline
 90
       10
 70
   128
 43
0.0
 10
6744.6797831942
 20
5281.2718852642
 10
6744.6672283329
 20
5280.5540046744
 10
6744.654908068
 20
5279.4644893505
 10
6744.6429164273
 20
5278.0116544396
 10
6744.6313449308
 20
5276.2065879327
 10
6744.6202818916
 20
5274.0630660412
 10
6744.6098117425
 20
5271.5974480579
 10
6744.6000143915
 20
5268.8285515025
 10
6744.5909646116
 20
5265.7775085078
 10
6744.5827314704
 20
5262.4676045391
  0
LINE
  5
11B
330
1F
100
AcDbEntity
  8
0
  6
Continuous
 62
     7
370
    25
100
AcDbLine
 10
6744.5642427447
 20
5281.4577858936
 30
0.0
 11
6744.6797831942
 21
5281.2718852642
 31
0.0
  0
ARC
  5
11C
330
1F
100
AcDbEntity
  8
0
  6
Continuous
 62
     7
370
    25
100
AcDbCircle
 10
6745.1812029919
 20
5275.5026516191
 30
0.0
 40
9.390548421284752
100
AcDbArc
 50
122.7103883725
 51
148.3593098965
  0
ARC
  5
11D
330
1F
100
AcDbEntity
  8
0
  6
Continuous
 62
     7
370
    25
100
AcDbCircle
 10
6867.0560305274
 20
5549.8506541506
 30
0.0
 40
295.1440054727485
100
AcDbArc
 50
243.211905411
 51
244.5243782445
  0
ARC
  5
11E
330
1F
100
AcDbEntity
  8
0
  6
Continuous
 62
     7
370
    25
100
AcDbCircle
 10
6744.202463276
 20
5276.4289611786
 30
0.0
 40
5.041821337346995
100
AcDbArc
 50
85.8851643742
 51
178.5469673173
  0
LWPOLYLINE
  5
11F
330
1F
100
AcDbEntity
  8
0
  6
Continuous
 62
     7
370
    25
100
AcDbPolyline
 90
       45
 70
   128
 43
0.0
 10
6800.4226935969
 20
5471.7435594813
 10
6801.00750295
 20
5471.2470367132
 10
6802.2056256008
 20
5470.2358989073
 10
6804.1131906129
 20
5468.6294553275
 10
6806.7980592145
 20
5466.3708595144
 10
6809.6516558294
 20
5463.9717758082
 10
6813.1092742243
 20
5461.065986479
 10
6817.2462295729
 20
5457.590274391
 10
6822.0150374674
 20
5453.5845823609
 10
6826.3364121403
 20
5449.9553084158
 10
6831.0664803623
 20
5445.9832949244
 10
6836.2809259729
 20
5441.6050357165
 10
6841.9244157906
 20
5436.8670424675
 10
6846.6261176345
 20
5432.9200873941
 10
6851.578639842
 20
5428.7629009454
 10
6856.8517183435
 20
5424.3369854442
 10
6862.3423300431
 20
5419.7288325576
 10
6869.0749191226
 20
5414.0787201558
 10
6875.9597528162
 20
5408.3012305225
 10
6883.0297945125
 20
5402.368671074
 10
6890.1350333242
 20
5396.4068903095
 10
6895.8148880308
 20
5391.6413083402
 10
6901.4748018647
 20
5386.8926250535
 10
6912.7402316106
 20
5377.4413574264
 10
6924.0081569438
 20
5367.9885316236
 10
6935.0875514899
 20
5358.6943608845
 10
6946.4464799731
 20
5349.1661663573
 10
6957.5854971728
 20
5339.8228396814
 10
6968.5716534645
 20
5330.6080389136
 10
6979.422448053
 20
5321.5069820486
 10
7001.0075096144
 20
5303.4028376565
 10
7011.8807244928
 20
5294.2829773963
 10
7022.7459999167
 20
5285.1697875167
 10
7029.7267869884
 20
5279.3149670182
 10
7033.1073234163
 20
5276.4798590543
 10
7036.3662844574
 20
5273.746874939
 10
7041.1753007627
 20
5269.7144866301
 10
7043.3516964466
 20
5267.8898869435
 10
7045.293778896
 20
5266.2620298598
 10
7046.8924487593
 20
5264.9223902994
 10
7048.2046219571
 20
5263.8232575311
 10
7049.2502309917
 20
5262.9479210404
 10
7050.0050903278
 20
5262.3166170107
 10
7050.4903588963
 20
5261.9117076654
 10
7050.6277802252
 20
5261.7984391238
  0
ARC
  5
120
330
1F
100
AcDbEntity
  8
0
  6
Continuous
 62
     7
370
    25
100
AcDbCircle
 10
7044.2183015106
 20
5254.1229888931
 30
0.0
 40
9.99987763592203
100
AcDbArc
 50
353.4644765499
 51
50.0002295993
  0
LINE
  5
121
330
1F
100
AcDbEntity
  8
0
  6
Continuous
 62
     7
370
    25
100
AcDbLine
 10
6798.7953534951
 20
5472.8556642702
 30
0.0
 11
6800.4226935969
 21
5471.7435594813
 31
0.0
  0
ARC
  5
122
330
1F
100
AcDbEntity
  8
0
  6
Continuous
 62
     7
370
    25
100
AcDbCircle
 10
6744.1975210676
 20
5276.3118823093
 30
0.0
 40
4.983393027918896
100
AcDbArc
 50
84.4465756132
 51
179.782300636
  0
ARC
  5
123
330
1F
100
AcDbEntity
  8
0
  6
Continuous
 62
     7
370
    25
100
AcDbCircle
 10
6732.9190565401
 20
5205.6168788168
 30
0.0
 40
58.03487165520626
100
AcDbArc
 50
78.4059023252
 51
83.8496037032
  0
LWPOLYLINE
  5
124
330
1F
100
AcDbEntity
  8
0
  6
Continuous
 62
     7
370
    25
100
AcDbPolyline
 90
       44
 70
   128
 43
0.0
 10
7046.623243236
 20
5265.1588818153
 10
7046.3955631558
 20
5265.3521928263
 10
7045.6951344192
 20
5265.9422980089
 10
7044.4502270677
 20
5266.9892319133
 10
7042.5640087696
 20
5268.574138602
 10
7039.9976076795
 20
5270.729607358
 10
7036.0882366243
 20
5274.0122148843
 10
7031.7317061946
 20
5277.669779438
 10
7027.1726350607
 20
5281.4970920707
 10
7022.4775945033
 20
5285.4383748254
 10
7012.9081803091
 20
5293.4712580489
 10
6993.8917638141
 20
5309.4344183505
 10
6974.9403906323
 20
5325.3430793444
 10
6965.3592721145
 20
5333.385766403
 10
6955.6314668501
 20
5341.5513759601
 10
6944.5802322101
 20
5350.8275269479
 10
6933.2076987048
 20
5360.3728735012
 10
6927.3266834473
 20
5365.3087817583
 10
6921.3608986375
 20
5370.3156699454
 10
6915.291827747
 20
5375.4090652184
 10
6909.149123744
 20
5380.564070076
 10
6901.9277002669
 20
5386.624094845
 10
6894.6306200235
 20
5392.7473114604
 10
6887.2016519782
 20
5398.9808548075
 10
6879.7544025554
 20
5405.2293310406
 10
6874.5778472706
 20
5409.5723369912
 10
6869.4671989873
 20
5413.8597715375
 10
6864.3887832405
 20
5418.1198314208
 10
6859.4888820999
 20
5422.2297652499
 10
6855.0732694946
 20
5425.9331402758
 10
6850.8830217256
 20
5429.4471718224
 10
6846.8821062253
 20
5432.802090349
 10
6843.140501028
 20
5435.9392312599
 10
6839.0233027428
 20
5439.3908386814
 10
6835.2987540808
 20
5442.5127613114
 10
6831.9468672302
 20
5445.3217464077
 10
6829.0467752077
 20
5447.751456627
 10
6827.1169880293
 20
5449.3677238417
 10
6825.46558652
 20
5450.7503255237
 10
6824.0758558256
 20
5451.9132809889
 10
6822.9455680008
 20
5452.8584916281
 10
6821.3683471052
 20
5454.1752482413
 10
6820.6576728598
 20
5454.7647886081
 10
6820.6474637553
 20
5454.7731358564
  0
LWPOLYLINE
  5
125
330
1F
100
AcDbEntity
  8
0
  6
Continuous
 62
     7
370
    25
100
AcDbPolyline
 90
       39
 70
   128
 43
0.0
 10
7046.6072852214
 20
5265.1720907953
 10
7046.4236709018
 20
5265.3240744812
 10
7045.7448293455
 20
5265.8912798203
 10
7044.5369262023
 20
5266.9025000853
 10
7042.632892415
 20
5268.4979315683
 10
7040.1366655638
 20
5270.5904970364
 10
7036.23246851
 20
5273.8641691833
 10
7031.9244342567
 20
5277.4769787001
 10
7022.7868493731
 20
5285.1406042466
 10
7013.3348272846
 20
5293.0683736641
 10
7003.7594181951
 20
5301.0997944591
 10
6994.2516723086
 20
5309.0743741383
 10
6981.6861104468
 20
5319.6135124541
 10
6969.0285322973
 20
5330.2299599564
 10
6956.1536319569
 20
5341.0290139503
 10
6947.2631030453
 20
5348.4864001873
 10
6938.1595626584
 20
5356.1227737811
 10
6928.8651750285
 20
5363.9195964848
 10
6919.4021043879
 20
5371.8583300517
 10
6909.7925149689
 20
5379.9204362349
 10
6902.4873866081
 20
5386.049503149
 10
6895.1114566824
 20
5392.2382776982
 10
6887.7286574959
 20
5398.4331643804
 10
6880.4029213528
 20
5404.5805676934
 10
6873.3771778831
 20
5410.4766904453
 10
6866.5430930209
 20
5416.2124973212
 10
6860.0855349697
 20
5421.6328873885
 10
6854.1359860896
 20
5426.6274949413
 10
6848.6374188371
 20
5431.2440935996
 10
6843.6340547491
 20
5435.4454914248
 10
6838.1071028066
 20
5440.0873473802
 10
6833.333047562
 20
5444.0978077751
 10
6829.3705209586
 20
5447.4275887949
 10
6826.3070289557
 20
5450.0030855679
 10
6823.9732807231
 20
5451.9664308741
 10
6822.300265398
 20
5453.3754759569
 10
6821.2189721175
 20
5454.2880720594
 10
6820.6603900187
 20
5454.7620704246
 10
6820.6474637553
 20
5454.7731358564
  0
LWPOLYLINE
  5
126
330
1F
100
AcDbEntity
  8
0
  6
Continuous
 62
     7
370
    25
100
AcDbPolyline
 90
       41
 70
   128
 43
0.0
 10
6800.4226935969
 20
5471.7435594813
 10
6800.9485486955
 20
5471.30820043
 10
6802.1001546874
 20
5470.3477589138
 10
6803.9349876428
 20
5468.8139536919
 10
6806.510523632
 20
5466.6585035236
 10
6809.3622269543
 20
5464.2703883968
 10
6812.8251477228
 20
5461.3692655141
 10
6816.8796741625
 20
5457.9715400576
 10
6821.5061944986
 20
5454.0936172092
 10
6825.8545929288
 20
5450.4482078598
 10
6830.614232354
 20
5446.4575248033
 10
6835.7607443865
 20
5442.1419697683
 10
6841.2697606386
 20
5437.5219444831
 10
6847.68041491
 20
5432.1451965707
 10
6854.5020557474
 20
5426.4231447623
 10
6861.6167350347
 20
5420.4547011805
 10
6868.4446336041
 20
5414.726340032
 10
6875.3989378405
 20
5408.8915308409
 10
6882.4061819942
 20
5403.0119573167
 10
6889.3929003157
 20
5397.1493031688
 10
6898.6086165068
 20
5389.4158570304
 10
6907.7541675603
 20
5381.740874205
 10
6916.7954530878
 20
5374.153017608
 10
6925.6983727011
 20
5366.6809501549
 10
6934.4288260118
 20
5359.3533347611
 10
6945.8624223099
 20
5349.7565139897
 10
6957.0614937726
 20
5340.3561430046
 10
6968.070228421
 20
5331.1152343229
 10
6978.932814276
 20
5321.9968004614
 10
7000.7331857746
 20
5303.6967463095
 10
7022.4449761884
 20
5285.4709247579
 10
7029.4851491658
 20
5279.5608764695
 10
7036.1365164512
 20
5273.9767295883
 10
7039.4696896974
 20
5271.1780374108
 10
7042.5123613651
 20
5268.6229158691
 10
7045.1400943703
 20
5266.4157723384
 10
7047.2716429807
 20
5264.6247448541
 10
7048.8701783343
 20
5263.28080138
 10
7049.9482078102
 20
5262.3735209781
 10
7050.4632026371
 20
5261.9391090888
 10
7050.6460682562
 20
5261.7833653458
  0
LWPOLYLINE
  5
127
330
1F
100
AcDbEntity
  8
0
  6
Continuous
 62
     7
370
    25
100
AcDbPolyline
 90
        3
 70
   128
 43
0.0
 10
6739.1284760705
 20
5186.1519378223
 10
6739.1715625252
 20
5186.15273258
 10
6740.0104045324
 20
5186.1690648191
  0
LINE
  5
128
330
1F
100
AcDbEntity
  8
0
  6
Continuous
 62
     7
370
    25
100
AcDbLine
 10
6739.9598714623
 20
5198.8179291571
 30
0.0
 11
6739.1212374794
 21
5198.6962286682
 31
0.0
  0
LWPOLYLINE
  5
129
330
1F
100
AcDbEntity
  8
0
  6
Continuous
 62
     7
370
    25
100
AcDbPolyline
 90
        3
 70
   128
 43
0.0
 10
6725.0618036394
 20
5401.7975691994
 10
6725.1998458633
 20
5400.1416545155
 10
6725.4364953892
 20
5399.2220738771
  0
LWPOLYLINE
  5
12A
330
1F
100
AcDbEntity
  8
0
  6
Continuous
 62
     7
370
    25
100
AcDbPolyline
 90
        3
 70
   128
 43
0.0
 10
6732.7604139467
 20
5483.0869395625
 10
6732.5756070163
 20
5483.5858219838
 10
6732.4567909417
 20
5483.7866863378
  0
LINE
  5
12B
330
1F
100
AcDbEntity
  8
0
  6
Continuous
 62
     7
370
    25
100
AcDbLine
 10
6727.2298206289
 20
5483.5378717751
 30
0.0
 11
6725.7876092883
 21
5483.0876796189
 31
0.0
  0
ARC
  5
12C
330
1F
100
AcDbEntity
  8
0
  6
Continuous
 62
     7
370
    25
100
AcDbCircle
 10
6730.6491734186
 20
5470.7396816237
 30
0.0
 40
13.26173134856223
100
AcDbArc
 50
93.0853800818
 51
110.2107200067
  0
LWPOLYLINE
  5
12D
330
1F
100
AcDbEntity
  8
0
  6
Continuous
 62
     7
370
    25
100
AcDbPolyline
 90
        3
 70
   128
 43
0.0
 10
6726.3566405365
 20
5483.2866677837
 10
6726.2818883402
 20
5483.2637100372
 10
6725.7876092883
 20
5483.0876796189
  0
ARC
  5
12E
330
1F
100
AcDbEntity
  8
0
  6
Continuous
 62
     7
370
    25
100
AcDbCircle
 10
6728.6620303529
 20
5480.8669789708
 30
0.0
 40
3.632328154920338
100
AcDbArc
 50
142.31128766
 51
179.3641262167
  0
LINE
  5
12F
330
1F
100
AcDbEntity
  8
0
  6
Continuous
 62
     7
370
    25
100
AcDbLine
 10
6725.1075551308
 20
5400.872786033
 30
0.0
 11
6725.0003080765
 21
5401.8367122066
 31
0.0
  0
ARC
  5
130
330
1F
100
AcDbEntity
  8
0
  6
Continuous
 62
     7
370
    25
100
AcDbCircle
 10
6727.8582374172
 20
5281.2150795971
 30
0.0
 40
3.286954726281291
100
AcDbArc
 50
136.1164460304
 51
180.242011842
  0
ARC
  5
131
330
1F
100
AcDbEntity
  8
0
  6
Continuous
 62
     7
370
    25
100
AcDbCircle
 10
6727.4147372036
 20
5192.3969734835
 30
0.0
 40
2.803831208353188
100
AcDbArc
 50
181.6320569794
 51
225.4301286962
  0
LWPOLYLINE
  5
132
330
1F
100
AcDbEntity
  8
0
  6
Continuous
 62
     8
370
    25
100
AcDbPolyline
 90
       57
 70
   128
 43
0.0
 10
6727.2169205049
 20
5482.745833977
 10
6727.2161041806
 20
5482.6957135507
 10
6727.2057081408
 20
5481.2752469466
 10
6727.2042459745
 20
5479.1873001773
 10
6727.2208544549
 20
5476.4335213035
 10
6727.2638361418
 20
5473.0415650916
 10
6727.3410613217
 20
5469.0064646253
 10
6727.4544026367
 20
5464.3318889871
 10
6727.5508010149
 20
5460.4783689367
 10
6727.6534706867
 20
5456.1587248144
 10
6727.7587485227
 20
5451.2935605473
 10
6727.863915485
 20
5445.8252445235
 10
6727.967890295
 20
5439.6725200219
 10
6728.0731633096
 20
5432.1894850395
 10
6728.1595590471
 20
5424.0198383753
 10
6728.2312519843
 20
5415.3519392089
 10
6728.2918916598
 20
5406.35053827
 10
6728.3391215323
 20
5397.0526443609
 10
6728.3701397438
 20
5387.8466121945
 10
6728.3872291523
 20
5378.4307459362
 10
6728.3919772321
 20
5368.8495573786
 10
6728.3867188738
 20
5359.1170889426
 10
6728.374100148
 20
5349.2788275309
 10
6728.3489362058
 20
5335.1516428533
 10
6728.3217538009
 20
5320.6636415129
 10
6728.2983742562
 20
5306.1071576438
 10
6728.2813560952
 20
5290.9946943455
 10
6728.2731748899
 20
5275.8830418309
 10
6728.2746934416
 20
5260.362492091
 10
6728.2863289447
 20
5244.8820428309
 10
6728.3084778269
 20
5229.2999904806
 10
6728.3697806825
 20
5202.2539411419
 10
6728.4535865969
 20
5175.4094029535
 10
6728.5002125444
 20
5157.3555794844
 10
6728.5306640727
 20
5139.5101705134
 10
6728.5451687434
 20
5121.8893145957
 10
6728.5448998454
 20
5104.493065957
 10
6728.5317196224
 20
5087.2896106915
 10
6728.5079707903
 20
5070.3478417376
 10
6728.4795697524
 20
5055.2360644571
 10
6728.4467758875
 20
5040.3296563394
 10
6728.3977098308
 20
5019.3054910151
 10
6728.3732535276
 20
4998.4364008741
 10
6728.3806299101
 20
4984.5509443321
 10
6728.3839982463
 20
4977.6045693597
 10
6728.383885259
 20
4970.7591552659
 10
6728.3795134485
 20
4965.1575868399
 10
6728.3697999296
 20
4959.7493047272
 10
6728.3533888967
 20
4954.6192392687
 10
6728.3292086458
 20
4949.878627975
 10
6728.3056088036
 20
4946.638288099
 10
6728.2796152109
 20
4943.7523355635
 10
6728.2529815873
 20
4941.2294426375
 10
6728.2267216657
 20
4939.0682978279
 10
6728.1961744069
 20
4936.9005133872
 10
6728.1687411628
 20
4935.2633945546
 10
6728.1536978802
 20
4934.5438006644
  0
LINE
  5
133
330
1F
100
AcDbEntity
  8
0
  6
Continuous
 62
     8
370
    25
100
AcDbLine
 10
6725.0393073782
 20
5480.571141327
 30
0.0
 11
6725.0348450424
 21
5480.6481857762
 31
0.0
  0
ARC
  5
134
330
1F
100
AcDbEntity
  8
0
  6
Continuous
 62
     8
370
    25
100
AcDbCircle
 10
6728.0345310142
 20
5480.6480518263
 30
0.0
 40
2.999685974702837
100
AcDbArc
 50
135.5299766659
 51
179.9974414783
  0
LINE
  5
135
330
1F
100
AcDbEntity
  8
0
  6
Continuous
 62
     8
370
    25
100
AcDbLine
 10
6725.0250067341
 20
5480.6580277944
 30
0.0
 11
6725.0033012906
 21
5480.3296525863
 31
0.0
  0
LWPOLYLINE
  5
136
330
1F
100
AcDbEntity
  8
0
  6
Continuous
 62
     8
370
    25
100
AcDbPolyline
 90
        3
 70
   128
 43
0.0
 10
6724.938292447
 20
5403.2364375673
 10
6724.9621613991
 20
5402.4976624672
 10
6725.0003080765
 20
5401.8367122066
  0
LWPOLYLINE
  5
137
330
1F
100
AcDbEntity
  8
0
  6
Continuous
 62
     8
370
    25
100
AcDbPolyline
 90
        3
 70
   128
 43
0.0
 10
6725.0618036394
 20
5401.7975691994
 10
6725.0991249501
 20
5402.3944203789
 10
6725.1112041649
 20
5402.7486102901
  0
LINE
  5
138
330
1F
100
AcDbEntity
  8
0
  6
Continuous
 62
     8
370
    25
100
AcDbLine
 10
6725.0280417082
 20
5443.2808430514
 30
0.0
 11
6725.0311212914
 21
5443.2837974272
 31
0.0
  0
LWPOLYLINE
  5
139
330
1F
100
AcDbEntity
  8
0
  6
Continuous
 62
     8
370
    25
100
AcDbPolyline
 90
       56
 70
   128
 43
0.0
 10
6867.3277234224
 20
5072.728718711
 10
6867.3146004322
 20
5072.7996141201
 10
6867.163557465
 20
5073.5937340446
 10
6866.8404851297
 20
5075.2384861511
 10
6866.3391850804
 20
5077.7375910673
 10
6865.927710702
 20
5079.7496170306
 10
6865.1784759521
 20
5083.2961770202
 10
6864.2799892703
 20
5087.391525152
 10
6863.2272642499
 20
5091.9533618916
 10
6862.0305388511
 20
5096.8108203865
 10
6860.7000373368
 20
5101.9329354369
 10
6859.1008704714
 20
5107.79489884
 10
6856.223029465
 20
5117.6364741827
 10
6853.9730110045
 20
5124.7470452086
 10
6851.526903603
 20
5132.0245685234
 10
6847.6419692783
 20
5142.8661940261
 10
6843.8002755943
 20
5153.0100193422
 10
6840.5875348381
 20
5161.219798655
 10
6837.3209521278
 20
5169.5441838147
 10
6834.0644957382
 20
5178.0371416327
 10
6828.4911718009
 20
5193.1562392046
 10
6825.7368242755
 20
5200.9230243971
 10
6822.2665902997
 20
5210.6927296804
 10
6814.6697531533
 20
5232.5392978327
 10
6810.0821170471
 20
5245.8915452406
 10
6805.4413662298
 20
5259.4021283114
 10
6800.674444954
 20
5273.1950460427
 10
6796.6055197202
 20
5284.8303443655
 10
6793.4811063206
 20
5293.6474031603
 10
6788.9973840552
 20
5306.0788922803
 10
6783.7537660274
 20
5320.3990000424
 10
6780.7240511957
 20
5328.7904957241
 10
6775.9442770439
 20
5342.2849444007
 10
6772.6937763046
 20
5351.6921142853
 10
6769.5103843976
 20
5361.1147436399
 10
6765.0112723416
 20
5374.8625803987
 10
6762.0783803726
 20
5384.1488010442
 10
6758.8572337111
 20
5394.6826673012
 10
6755.5589922065
 20
5405.8145602606
 10
6752.3845914763
 20
5416.6828756634
 10
6750.350927482
 20
5423.5921902708
 10
6748.371609457
 20
5430.2677541611
 10
6746.4599709466
 20
5436.7173423032
 10
6744.7259384302
 20
5442.6262081266
 10
6743.1599165309
 20
5448.0940753202
 10
6741.888923407
 20
5452.6090384282
 10
6740.7355022087
 20
5456.754785138
 10
6739.6779762577
 20
5460.5759921464
 10
6738.7136004416
 20
5464.0519609666
 10
6737.8247340337
 20
5467.2212652105
 10
6736.783706736
 20
5470.8393480754
 10
6735.331113175
 20
5475.6599832294
 10
6734.4796832586
 20
5478.3533074776
 10
6733.7692689733
 20
5480.5046463887
 10
6732.9909999348
 20
5482.6867286367
 10
6732.8560451392
 20
5483.0082761418
  0
LWPOLYLINE
  5
13A
330
1F
100
AcDbEntity
  8
0
  6
Continuous
 62
     8
370
    25
100
AcDbPolyline
 90
       27
 70
   128
 43
0.0
 10
6864.1241379299
 20
5175.9140627897
 10
6864.1241550321
 20
5175.9140127343
 10
6866.1717888891
 20
5170.077799478
 10
6867.8714192341
 20
5165.485049682
 10
6870.9924880223
 20
5157.6485062535
 10
6873.5534077072
 20
5151.8030886932
 10
6875.7099833684
 20
5147.2879752467
 10
6877.9654055647
 20
5142.939847017
 10
6880.3335636331
 20
5138.7591037607
 10
6881.5703163141
 20
5136.7205327505
 10
6883.4638048861
 20
5133.7735603502
 10
6885.1910798397
 20
5131.2524317249
 10
6887.3915472913
 20
5128.2529357979
 10
6888.7276894115
 20
5126.5426265838
 10
6890.0808815766
 20
5124.8901252504
 10
6893.1466000441
 20
5121.4223506052
 10
6894.899244947
 20
5119.599332502
 10
6896.6257112048
 20
5117.8929853093
 10
6898.3173992407
 20
5116.2839764425
 10
6900.7056646548
 20
5114.0751874891
 10
6901.8110620392
 20
5113.0659599534
 10
6903.1731590133
 20
5111.8291007917
 10
6905.0543302624
 20
5110.1210823926
 10
6906.0871405581
 20
5109.1835001924
 10
6906.6663688143
 20
5108.664920679
 10
6907.3192353695
 20
5108.1062591173
 10
6907.3379675261
 20
5108.0981697803
  0
LINE
  5
13B
330
1F
100
AcDbEntity
  8
0
  6
Continuous
 62
     8
370
    25
100
AcDbLine
 10
7050.6277802252
 20
5261.7984391238
 30
0.0
 11
7050.6460682562
 21
5261.7833653458
 31
0.0
  0
LINE
  5
13C
330
1F
100
AcDbEntity
  8
0
  6
Continuous
 62
     8
370
    25
100
AcDbLine
 10
6732.4567909417
 20
5483.7866863378
 30
0.0
 11
6732.4409941936
 21
5483.8133915088
 31
0.0
  0
LINE
  5
13D
330
1F
100
AcDbEntity
  8
0
  6
Continuous
 62
     8
370
    25
100
AcDbLine
 10
6907.33555765
 20
5108.1021990297
 30
0.0
 11
6907.3492072148
 21
5108.0933160077
 31
0.0
  0
LINE
  5
13E
330
1F
100
AcDbEntity
  8
0
  6
Continuous
 62
     8
370
    25
100
AcDbLine
 10
6745.8212694114
 20
5482.5412831824
 30
0.0
 11
6745.8240437934
 21
5482.5287054618
 31
0.0
  0
LWPOLYLINE
  5
13F
330
1F
100
AcDbEntity
  8
0
  6
Continuous
 62
     8
370
    25
100
AcDbPolyline
 90
        6
 70
   128
 43
0.0
 10
6724.6151688969
 20
5187.7828239767
 10
6724.6635719939
 20
5187.9043687717
 10
6724.804258404
 20
5188.0221141895
 10
6725.0328294697
 20
5188.1323788381
 10
6725.3421387585
 20
5188.2317152172
 10
6725.4239701602
 20
5188.2527410031
  0
LWPOLYLINE
  5
140
330
1F
100
AcDbEntity
  8
0
  6
Continuous
 62
     8
370
    25
100
AcDbPolyline
 90
        3
 70
   128
 43
0.0
 10
6725.0003080766
 20
5404.9875756888
 10
6725.0587975709
 20
5405.4958075135
 10
6725.0623815218
 20
5405.5111030085
  0
LWPOLYLINE
  5
141
330
1F
100
AcDbEntity
  8
0
  6
Continuous
 62
     8
370
    25
100
AcDbPolyline
 90
        3
 70
   128
 43
0.0
 10
6725.0003080765
 20
5401.8367122066
 10
6725.0596658723
 20
5401.8349981707
 10
6725.0618036394
 20
5401.8349674442
  0
LWPOLYLINE
  5
142
330
1F
100
AcDbEntity
  8
0
  6
Continuous
 62
     8
370
    25
100
AcDbPolyline
 90
        3
 70
   128
 43
0.0
 10
6725.0003080766
 20
5404.9875756888
 10
6725.0596658724
 20
5404.9858616529
 10
6725.0618036394
 20
5404.9858309264
  0
LINE
  5
143
330
1F
100
AcDbEntity
  8
0
  6
Continuous
 62
     8
370
    25
100
AcDbLine
 10
6724.6513709794
 20
5417.1224949226
 30
0.0
 11
6724.6842361281
 21
5416.8797326805
 31
0.0
  0
ARC
  5
144
330
1F
100
AcDbEntity
  8
0
  6
Continuous
 62
     8
370
    25
100
AcDbCircle
 10
6725.4476752039
 20
5282.507612288
 30
0.0
 40
3.172140487645187
100
AcDbArc
 50
89.2442650885
 51
106.0533844742
  0
ARC
  5
145
330
1F
100
AcDbEntity
  8
0
  6
Continuous
 62
     7
370
    25
100
AcDbCircle
 10
6426.8942218774
 20
4690.4639788937
 30
0.0
 40
2.927715315602785
100
AcDbArc
 50
3.1469362783
 51
86.0779886811
  0
LWPOLYLINE
  5
146
330
1F
100
AcDbEntity
  8
0
  6
Continuous
 62
     7
370
    25
100
AcDbPolyline
 90
        6
 70
   128
 43
0.0
 10
6411.4185858439
 20
4619.789934646
 10
6411.4478617846
 20
4620.855397773
 10
6411.5542920835
 20
4621.7991322227
 10
6411.6560901697
 20
4622.3224662957
 10
6411.7209936686
 20
4622.5671632496
 10
6411.7198822679
 20
4622.5644426703
  0
LWPOLYLINE
  5
147
330
1F
100
AcDbEntity
  8
0
  6
Continuous
 62
     7
370
    25
100
AcDbPolyline
 90
       31
 70
   128
 43
0.0
 10
6259.6470394805
 20
4364.2801196648
 10
6261.6275925227
 20
4364.2769019022
 10
6266.1704226253
 20
4364.5218120858
 10
6270.7078985377
 20
4365.0206636208
 10
6274.7224986205
 20
4365.692623485
 10
6278.8581983078
 20
4366.6393503709
 10
6282.8869678031
 20
4367.8287924623
 10
6286.7942100034
 20
4369.2579073153
 10
6290.5631391242
 20
4370.92253103
 10
6294.1762631088
 20
4372.8174171086
 10
6297.6153446094
 20
4374.935849335
 10
6300.5269529993
 20
4377.0112018648
 10
6303.2251243562
 20
4379.1679648284
 10
6306.4145877342
 20
4382.0033898753
 10
6309.5344174822
 20
4385.0916983085
 10
6312.6428488094
 20
4388.4837726359
 10
6315.797637935
 20
4392.2338370715
 10
6319.0982921611
 20
4396.4376867518
 10
6322.7972702215
 20
4401.4027409513
 10
6327.2492577515
 20
4407.5971095015
 10
6332.8922301489
 20
4415.4174840882
 10
6339.6544573642
 20
4424.4572950109
 10
6348.4234500469
 20
4436.1036543435
 10
6355.9942857425
 20
4446.3626897038
 10
6362.274213402
 20
4455.2018338172
 10
6367.651169611
 20
4463.1693769521
 10
6372.3160607194
 20
4470.5227550307
 10
6376.3519824294
 20
4477.3528199346
 10
6379.9454330428
 20
4483.9491879792
 10
6383.4711563997
 20
4491.0700113609
 10
6385.5824769938
 20
4495.8448138134
  0
ARC
  5
148
330
1F
100
AcDbEntity
  8
0
  6
Continuous
 62
     7
370
    25
100
AcDbCircle
 10
6327.1460439106
 20
4680.7757363651
 30
0.0
 40
103.129051627791
100
AcDbArc
 50
324.8963187157
 51
5.4802173487
  0
ARC
  5
149
330
1F
100
AcDbEntity
  8
0
  6
Continuous
 62
     7
370
    25
100
AcDbCircle
 10
6092.2638963992
 20
4690.6439710699
 30
0.0
 40
2.860091910507856
100
AcDbArc
 50
93.9562937332
 51
178.0293017407
  0
LWPOLYLINE
  5
14A
330
1F
100
AcDbEntity
  8
0
  6
Continuous
 62
     7
370
    25
100
AcDbPolyline
 90
       36
 70
   128
 43
0.0
 10
6388.3133250411
 20
4502.4700817476
 10
6388.773200545
 20
4503.6864233907
 10
6389.4048737437
 20
4505.3850817773
 10
6390.088971441
 20
4507.2527580062
 10
6391.5945632728
 20
4511.470453149
 10
6393.35447733
 20
4516.5995420169
 10
6394.8422797581
 20
4521.1163967939
 10
6396.0872909869
 20
4525.0337308984
 10
6397.1752143136
 20
4528.5668880449
 10
6398.1880463889
 20
4531.9547377919
 10
6399.4078079374
 20
4536.1701902933
 10
6400.740647493
 20
4540.9746343598
 10
6402.1051553458
 20
4546.177650651
 10
6403.1953440965
 20
4550.5871415002
 10
6404.1325666794
 20
4554.596224651
 10
6405.3480943506
 20
4560.1694229068
 10
6405.937460171
 20
4563.0585246527
 10
6406.3727760938
 20
4565.2871269461
 10
6406.8957150905
 20
4568.0877404358
 10
6407.4704276487
 20
4571.3488299529
 10
6408.0030230868
 20
4574.5792914851
 10
6408.4881497434
 20
4577.7387736965
 10
6409.0024359116
 20
4581.3769714872
 10
6409.4578201971
 20
4584.9262914616
 10
6409.8811413902
 20
4588.6068529923
 10
6410.3266278224
 20
4593.0609089135
 10
6410.6742137149
 20
4597.1988281545
 10
6410.9734263159
 20
4601.6091792181
 10
6411.1716697267
 20
4605.409946043
 10
6411.2937796661
 20
4608.5550793093
 10
6411.3667177868
 20
4611.189756929
 10
6411.3955869799
 20
4612.6504620551
 10
6411.4155182199
 20
4614.0526002398
 10
6411.4309281357
 20
4616.1051538747
 10
6411.4256029952
 20
4618.8937001379
 10
6411.4128555853
 20
4619.791465235
  0
LWPOLYLINE
  5
14B
330
1F
100
AcDbEntity
  8
0
  6
Continuous
 62
     7
370
    25
100
AcDbPolyline
 90
       31
 70
   128
 43
0.0
 10
6132.5241168514
 20
4497.4372253842
 10
6134.8570874925
 20
4492.1420922368
 10
6138.0273461073
 20
4485.6619756443
 10
6141.5923558966
 20
4479.0243549148
 10
6145.569904233
 20
4472.2134789001
 10
6149.9766773576
 20
4465.1940418049
 10
6155.0364896478
 20
4457.619479495
 10
6160.8189041565
 20
4449.4065366791
 10
6167.6084741026
 20
4440.1497743961
 10
6176.0980867901
 20
4428.873345264
 10
6183.4173329327
 20
4419.2039894111
 10
6190.8977977872
 20
4409.0191924606
 10
6196.06508719
 20
4401.8520259516
 10
6200.1200002696
 20
4396.427920986
 10
6203.6165386824
 20
4392.0049703419
 10
6206.9036334546
 20
4388.1398074505
 10
6210.098325694
 20
4384.7035812535
 10
6213.2681232835
 20
4381.618576644
 10
6216.4581915137
 20
4378.8331232371
 10
6219.2986884945
 20
4376.6088886182
 10
6222.5355221746
 20
4374.3808807124
 10
6226.0011060737
 20
4372.3337168916
 10
6229.6439897692
 20
4370.5030863863
 10
6233.4476309178
 20
4368.8973419491
 10
6237.3943721968
 20
4367.524036278
 10
6241.4669745236
 20
4366.3893444442
 10
6245.6487095137
 20
4365.4983171889
 10
6249.896435752
 20
4364.8569407381
 10
6254.1891081812
 20
4364.4455148248
 10
6258.7541658021
 20
4364.2563970565
 10
6259.6485032137
 20
4364.2694009011
  0
ARC
  5
14C
330
1F
100
AcDbEntity
  8
0
  6
Continuous
 62
     7
370
    25
100
AcDbCircle
 10
6098.8417729324
 20
4621.0914496326
 30
0.0
 40
8.682700545148865
100
AcDbArc
 50
356.6893696898
 51
12.8907469768
  0
ARC
  5
14D
330
1F
100
AcDbEntity
  8
0
  6
Continuous
 62
     7
370
    25
100
AcDbCircle
 10
6192.1128507464
 20
4681.0376401821
 30
0.0
 40
103.1486488074226
100
AcDbArc
 50
174.6015192968
 51
214.8396367226
  0
LWPOLYLINE
  5
14E
330
1F
100
AcDbEntity
  8
0
  6
Continuous
 62
     7
370
    25
100
AcDbPolyline
 90
       37
 70
   128
 43
0.0
 10
6107.4864274239
 20
4620.3799582444
 10
6107.4638266763
 20
4615.2431009716
 10
6107.5209765102
 20
4611.1498352162
 10
6107.6323406704
 20
4607.3385071742
 10
6107.817192947
 20
4603.1851254146
 10
6108.0860208247
 20
4598.7673054812
 10
6108.4145417974
 20
4594.5151212089
 10
6108.7427097711
 20
4590.9456763514
 10
6109.0624037874
 20
4587.8800514161
 10
6109.4515937422
 20
4584.5284174859
 10
6109.9420819053
 20
4580.731425072
 10
6110.6083009194
 20
4576.1164721764
 10
6111.3751383815
 20
4571.3547008733
 10
6111.9444904456
 20
4568.1028412576
 10
6112.5402649497
 20
4564.9037487732
 10
6113.3509073
 20
4560.8226922491
 10
6113.9559200826
 20
4557.9460775221
 10
6114.5490336042
 20
4555.2446740245
 10
6115.069477945
 20
4552.9591802454
 10
6115.5559900967
 20
4550.8868603702
 10
6116.2175782302
 20
4548.1580387817
 10
6117.0800331065
 20
4544.7375197374
 10
6117.888216811
 20
4541.6555643144
 10
6118.582044079
 20
4539.0938436458
 10
6119.2100886567
 20
4536.8354235736
 10
6119.9101998184
 20
4534.3788419915
 10
6120.7323048263
 20
4531.5603152999
 10
6121.7138161082
 20
4528.2812105303
 10
6123.0772338932
 20
4523.8715226232
 10
6124.5083279993
 20
4519.4121294473
 10
6125.7884666607
 20
4515.5596720667
 10
6126.8785723859
 20
4512.374443191
 10
6127.3825003804
 20
4510.9302819395
 10
6127.8755052363
 20
4509.5341713054
 10
6128.6452980266
 20
4507.3864782449
 10
6129.7694586029
 20
4504.318204258
 10
6129.9654202321
 20
4503.7990298049
  0
LINE
  5
14F
330
1F
100
AcDbEntity
  8
0
  6
Continuous
 62
     7
370
    25
100
AcDbLine
 10
6429.8177676088
 20
4690.6256979104
 30
0.0
 11
6429.8260105498
 21
4690.6250526822
 31
0.0
  0
ARC
  5
150
330
1F
100
AcDbEntity
  8
0
  6
Continuous
 62
     7
370
    25
100
AcDbCircle
 10
6200.5087994777
 20
4691.7370077147
 30
0.0
 40
60.29626718032202
100
AcDbArc
 50
359.5467626778
 51
1.6326412119
  0
LWPOLYLINE
  5
151
330
1F
100
AcDbEntity
  8
0
  6
Continuous
 62
     7
370
    25
100
AcDbPolyline
 90
       27
 70
   128
 43
0.0
 10
6260.780589145
 20
4693.454915215
 10
6276.7024861746
 20
4693.4492395113
 10
6285.6566767906
 20
4693.4460432349
 10
6294.5666591626
 20
4693.4428595835
 10
6303.5004295896
 20
4693.4396642165
 10
6312.3592285459
 20
4693.4364924179
 10
6321.2489531818
 20
4693.4333062095
 10
6330.0314338966
 20
4693.4301550515
 10
6338.7760691981
 20
4693.427014033
 10
6347.3720403632
 20
4693.4239226717
 10
6355.4018211548
 20
4693.4210308311
 10
6363.2572755534
 20
4693.4181968122
 10
6370.7956849085
 20
4693.4154711292
 10
6377.9952380788
 20
4693.4128604811
 10
6384.4869866151
 20
4693.4104976502
 10
6390.4483585005
 20
4693.4083172468
 10
6395.7791759181
 20
4693.4063569444
 10
6400.6305048981
 20
4693.4045632476
 10
6406.9325248863
 20
4693.4022174039
 10
6412.2895955671
 20
4693.4002039257
 10
6416.716455394
 20
4693.3985187233
 10
6420.3167975072
 20
4693.3971233296
 10
6422.6162721982
 20
4693.3962106527
 10
6424.3794715978
 20
4693.3954880827
 10
6426.0315729313
 20
4693.3947645659
 10
6426.7862952089
 20
4693.3943599938
 10
6426.7442313652
 20
4693.3943143788
  0
LWPOLYLINE
  5
152
330
1F
100
AcDbEntity
  8
0
  6
Continuous
 62
     7
370
    25
100
AcDbPolyline
 90
        6
 70
   128
 43
0.0
 10
6259.0878295858
 20
4672.6641001595
 10
6259.0887971612
 20
4675.0655317554
 10
6259.0891542204
 20
4676.2662467415
 10
6259.089532754
 20
4678.0778856633
 10
6259.0897324538
 20
4681.0933702639
 10
6259.0896599116
 20
4682.3006243844
  0
LWPOLYLINE
  5
153
330
1F
100
AcDbEntity
  8
0
  6
Continuous
 62
     7
370
    25
100
AcDbPolyline
 90
        6
 70
   128
 43
0.0
 10
6259.0888672652
 20
4686.0444441397
 10
6259.089145446
 20
4685.1146966046
 10
6259.0893702766
 20
4684.1811557945
 10
6259.0893703486
 20
4684.180816061
 10
6259.0895416754
 20
4683.2441605776
 10
6259.0896599116
 20
4682.3006243844
  0
LWPOLYLINE
  5
154
330
1F
100
AcDbEntity
  8
0
  6
Continuous
 62
     7
370
    25
100
AcDbPolyline
 90
       44
 70
   128
 43
0.0
 10
6259.6175396756
 20
4371.8587640577
 10
6264.4162994469
 20
4372.0706840548
 10
6269.4575641168
 20
4372.7545587619
 10
6274.4163579306
 20
4373.9831858924
 10
6279.0657573443
 20
4375.8541436206
 10
6283.3469582361
 20
4378.4064971413
 10
6288.185766009
 20
4382.2999964358
 10
6292.4934618596
 20
4386.6424019302
 10
6296.3730126757
 20
4391.1887554442
 10
6299.9969236997
 20
4395.8719187526
 10
6306.907576773
 20
4405.4186868325
 10
6320.9590328326
 20
4424.3890545215
 10
6335.1756768653
 20
4443.2938359941
 10
6342.0499768409
 20
4452.8524278608
 10
6348.5830058366
 20
4462.5588281545
 10
6355.2480951789
 20
4473.5882312159
 10
6361.0583185341
 20
4484.9417426446
 10
6363.5887970016
 20
4490.8144783802
 10
6365.8026847595
 20
4496.7730239533
 10
6367.678986744
 20
4502.8359649495
 10
6369.1839714804
 20
4508.9737590303
 10
6370.4242627967
 20
4516.1911477771
 10
6371.0481183059
 20
4523.4862183542
 10
6370.9536353701
 20
4530.9155367949
 10
6369.9976869221
 20
4538.3659661565
 10
6368.7264745944
 20
4543.5467246025
 10
6366.8849421224
 20
4548.6634488824
 10
6364.3476735397
 20
4553.750225566
 10
6361.0992749908
 20
4558.660822355
 10
6357.4355772553
 20
4563.0884920281
 10
6353.2602615777
 20
4567.2924760355
 10
6348.5644753189
 20
4571.3088362151
 10
6343.4613147683
 20
4575.0672226958
 10
6336.8958279721
 20
4579.2060072351
 10
6329.8738180082
 20
4582.9536394632
 10
6322.3437164042
 20
4586.330276674
 10
6314.4379406203
 20
4589.256350505
 10
6308.082164508
 20
4591.2070233536
 10
6301.5690040093
 20
4592.8798259536
 10
6294.8857869343
 20
4594.2915148706
 10
6288.100138471
 20
4595.4440959498
 10
6273.9632534762
 20
4597.067757317
 10
6259.6064933808
 20
4597.82558953
 10
6259.1425324341
 20
4597.8373225484
  0
LWPOLYLINE
  5
155
330
1F
100
AcDbEntity
  8
0
  6
Continuous
 62
     7
370
    25
100
AcDbPolyline
 90
       39
 70
   128
 43
0.0
 10
6259.6175396756
 20
4371.8587640577
 10
6254.8178818081
 20
4372.0741017293
 10
6249.7253665847
 20
4372.7696730848
 10
6244.8097681861
 20
4373.9937278056
 10
6240.0922075452
 20
4375.9132664791
 10
6235.8605588858
 20
4378.4234054547
 10
6230.9727329026
 20
4382.343677412
 10
6226.6794177785
 20
4386.6658361029
 10
6218.9529794636
 20
4395.8288474128
 10
6211.8662036904
 20
4405.3041966807
 10
6205.0299597778
 20
4414.9021107545
 10
6198.0551170449
 20
4424.4328164819
 10
6188.4751316653
 20
4437.029911152
 10
6179.1048670037
 20
4449.7183337879
 10
6170.2706367367
 20
4462.6223192059
 10
6164.7957006621
 20
4471.5308782531
 10
6159.8524633481
 20
4480.6507035839
 10
6155.5670815591
 20
4489.9592164901
 10
6152.0657120589
 20
4499.4338382638
 10
6149.4745116118
 20
4509.0519901966
 10
6148.1868548894
 20
4516.3613872106
 10
6147.5314311682
 20
4523.7395096304
 10
6147.6132272508
 20
4531.1220799828
 10
6148.5372299397
 20
4538.4448207941
 10
6150.3947522916
 20
4545.4645012105
 10
6153.3179818301
 20
4552.2890217182
 10
6157.3503354959
 20
4558.7333705156
 10
6162.4073252418
 20
4564.6663420306
 10
6168.3243580727
 20
4570.1455047125
 10
6174.9193495169
 20
4575.1272348342
 10
6183.8851248604
 20
4580.6247689012
 10
6193.6005627503
 20
4585.3669399764
 10
6203.883115933
 20
4589.2957153684
 10
6214.3531175944
 20
4592.3248356445
 10
6225.1845911596
 20
4594.623020976
 10
6236.2606143127
 20
4596.2596666241
 10
6247.4642647377
 20
4597.3041678498
 10
6258.6786201185
 20
4597.8259199145
 10
6259.1425324341
 20
4597.8373225484
  0
LWPOLYLINE
  5
156
330
1F
100
AcDbEntity
  8
0
  6
Continuous
 62
     7
370
    25
100
AcDbPolyline
 90
       45
 70
   128
 43
0.0
 10
6259.1000194165
 20
4618.0623414275
 10
6246.790344664
 20
4617.5179594943
 10
6234.5045313389
 20
4616.3601825836
 10
6222.1798998501
 20
4614.4930869816
 10
6210.0183490909
 20
4611.848147966
 10
6200.1655719838
 20
4609.0268969636
 10
6190.5758596966
 20
4605.6007568987
 10
6181.2052300752
 20
4601.4945566486
 10
6172.2633533363
 20
4596.755092225
 10
6165.3973253627
 20
4592.4562454042
 10
6158.9377290381
 20
4587.7473679233
 10
6152.8835839711
 20
4582.5527787549
 10
6147.4085993032
 20
4576.9272408387
 10
6143.6091946257
 20
4572.2379926089
 10
6140.2967569316
 20
4567.2963232414
 10
6137.5076762631
 20
4562.0323769082
 10
6135.3389397615
 20
4556.548858711
 10
6133.5382324082
 20
4549.8221476597
 10
6132.5209481489
 20
4542.9406180552
 10
6132.2166515202
 20
4535.871537673
 10
6132.5735909774
 20
4528.7650881853
 10
6133.2911777539
 20
4523.0828459612
 10
6134.3611974568
 20
4517.4193871671
 10
6137.4626601218
 20
4506.1437100427
 10
6141.6986744062
 20
4494.8618109336
 10
6146.9094456295
 20
4483.7652420832
 10
6153.2443140531
 20
4472.385445741
 10
6160.3033858394
 20
4461.223183255
 10
6167.9162052797
 20
4450.2119637423
 10
6175.8740886578
 20
4439.3349733159
 10
6192.1962540287
 20
4417.696185909
 10
6200.1738107067
 20
4406.7967104557
 10
6208.1692530705
 20
4395.9051157549
 10
6213.8909742407
 20
4388.9054982938
 10
6217.0102711352
 20
4385.5146984413
 10
6220.3643940989
 20
4382.2447033556
 10
6226.3330353302
 20
4377.4160573771
 10
6229.7135224984
 20
4375.2285468957
 10
6233.3739831195
 20
4373.2744313524
 10
6237.1673140987
 20
4371.6632938409
 10
6241.192953423
 20
4370.3378915337
 10
6245.4820027479
 20
4369.2781896693
 10
6249.9122808261
 20
4368.5087752121
 10
6254.7304806038
 20
4368.0076788652
 10
6259.6259957633
 20
4367.8358895655
  0
LWPOLYLINE
  5
157
330
1F
100
AcDbEntity
  8
0
  6
Continuous
 62
     7
370
    25
100
AcDbPolyline
 90
       41
 70
   128
 43
0.0
 10
6259.1000194165
 20
4618.0623414275
 10
6271.5534244717
 20
4617.4955808424
 10
6283.9647596054
 20
4616.3032041657
 10
6296.2206917202
 20
4614.4281072545
 10
6308.2078877188
 20
4611.813185966
 10
6318.2151103125
 20
4608.9285989886
 10
6327.9257848995
 20
4605.4337652669
 10
6337.2321367875
 20
4601.3486506627
 10
6346.0263912844
 20
4596.6932210378
 10
6353.0074463778
 20
4592.321870191
 10
6359.555176498
 20
4587.5406993674
 10
6365.5730509222
 20
4582.3743941371
 10
6370.9645389271
 20
4576.84764007
 10
6376.0059549036
 20
4570.4203929163
 10
6380.0981096503
 20
4563.5852747856
 10
6383.1198873746
 20
4556.4606322298
 10
6384.9708377916
 20
4549.6266174684
 10
6386.0128720246
 20
4542.6688532072
 10
6386.3289529474
 20
4535.6605331041
 10
6386.0020434336
 20
4528.6748508172
 10
6384.7062320913
 20
4519.4633409525
 10
6382.5387430724
 20
4510.3248595901
 10
6379.6044900754
 20
4501.2931627179
 10
6376.0083867986
 20
4492.4020063239
 10
6371.8553469407
 20
4483.6851463957
 10
6365.543507581
 20
4472.2722193802
 10
6358.5157360167
 20
4461.0961699122
 10
6350.9632945961
 20
4450.1121815397
 10
6343.0774456673
 20
4439.2754378109
 10
6327.1217878961
 20
4417.5273543673
 10
6310.9648122894
 20
4395.8685137056
 10
6305.2583784797
 20
4388.8470452806
 10
6298.8270814604
 20
4382.2167654254
 10
6294.9036870499
 20
4378.8964604137
 10
6290.5845146707
 20
4375.8679584622
 10
6285.8551840421
 20
4373.2557445578
 10
6280.6424116331
 20
4371.1413055672
 10
6275.0841568937
 20
4369.5610174297
 10
6269.3368964258
 20
4368.5018587582
 10
6264.5013792232
 20
4368.0027431928
 10
6259.6259957633
 20
4367.8358895655
  0
LWPOLYLINE
  5
158
330
1F
100
AcDbEntity
  8
0
  6
Continuous
 62
     7
370
    25
100
AcDbPolyline
 90
        3
 70
   128
 43
0.0
 10
6385.6599388338
 20
4496.0432606014
 10
6386.2370184447
 20
4497.2801637182
 10
6390.1502530153
 20
4507.7491512473
  0
LINE
  5
159
330
1F
100
AcDbEntity
  8
0
  6
Continuous
 62
     7
370
    25
100
AcDbLine
 10
6259.0973409784
 20
4619.6896991041
 30
0.0
 11
6259.1000194165
 21
4618.0623414275
 31
0.0
  0
LWPOLYLINE
  5
15A
330
1F
100
AcDbEntity
  8
0
  6
Continuous
 62
     7
370
    25
100
AcDbPolyline
 90
        9
 70
   128
 43
0.0
 10
6259.089161859
 20
4688.5540913236
 10
6259.0891011372
 20
4688.431746746
 10
6259.0888268782
 20
4687.6889516171
 10
6259.0887648063
 20
4687.3909673558
 10
6259.0887320099
 20
4687.0947601511
 10
6259.0887291775
 20
4686.8006647064
 10
6259.0887581788
 20
4686.5005229081
 10
6259.0888220539
 20
4686.1959568015
 10
6259.0888672652
 20
4686.0444441397
  0
LWPOLYLINE
  5
15B
330
1F
100
AcDbEntity
  8
0
  6
Continuous
 62
     7
370
    25
100
AcDbPolyline
 90
        4
 70
   128
 43
0.0
 10
6262.490187756
 20
4688.5588252217
 10
6260.8509936839
 20
4688.5549702181
 10
6259.2116440259
 20
4688.5540514098
 10
6259.089161859
 20
4688.5540913236
  0
LINE
  5
15C
330
1F
100
AcDbEntity
  8
0
  6
Continuous
 62
     7
370
    25
100
AcDbLine
 10
6089.3840623269
 20
4690.7439283946
 30
0.0
 11
6089.3762917889
 21
4690.7445506317
 31
0.0
  0
ARC
  5
15D
330
1F
100
AcDbEntity
  8
0
  6
Continuous
 62
     7
370
    25
100
AcDbCircle
 10
6292.3678654579
 20
4691.7041346526
 30
0.0
 40
34.99081437438608
100
AcDbArc
 50
177.130022014
 51
180.7252070096
  0
LWPOLYLINE
  5
15E
330
1F
100
AcDbEntity
  8
0
  6
Continuous
 62
     7
370
    25
100
AcDbPolyline
 90
       24
 70
   128
 43
0.0
 10
6092.4161641151
 20
4693.5133738129
 10
6092.5943297596
 20
4693.5134152454
 10
6093.5746145311
 20
4693.5131954985
 10
6095.4232117248
 20
4693.5126666279
 10
6097.5924013705
 20
4693.5119969974
 10
6100.4240281615
 20
4693.5110902768
 10
6103.9989687883
 20
4693.5099181128
 10
6108.330774178
 20
4693.5084742173
 10
6113.0815748799
 20
4693.5068719941
 10
6118.5344407135
 20
4693.5050167653
 10
6123.5209472048
 20
4693.503308616
 10
6129.1072635968
 20
4693.5013832813
 10
6134.375295446
 20
4693.499557594
 10
6142.4653417042
 20
4693.496739077
 10
6151.3017664524
 20
4693.4936469121
 10
6160.902007977
 20
4693.49027664
 10
6170.9077789394
 20
4693.4867555551
 10
6181.3004926377
 20
4693.4830916721
 10
6193.0703940268
 20
4693.4789359307
 10
6205.0522533096
 20
4693.4746990238
 10
6217.3675869842
 20
4693.4703378132
 10
6229.8234407608
 20
4693.4659205072
 10
6241.3286348555
 20
4693.461834827
 10
6257.420939015
 20
4693.4561114737
  0
LWPOLYLINE
  5
15F
330
1F
100
AcDbEntity
  8
0
  6
Continuous
 62
     7
370
    25
100
AcDbPolyline
 90
       12
 70
   128
 43
0.0
 10
6259.0878295858
 20
4672.6641001595
 10
6259.0872632731
 20
4671.442229294
 10
6259.0852469547
 20
4666.5523986269
 10
6259.0836565161
 20
4661.6523802306
 10
6259.0827714161
 20
4657.9733223134
 10
6259.0820443876
 20
4653.0691850217
 10
6259.082064464
 20
4645.557687661
 10
6259.0844909269
 20
4635.9705354114
 10
6259.0859874316
 20
4632.8387416696
 10
6259.0885865889
 20
4628.7168359363
 10
6259.0919586786
 20
4624.6439302817
 10
6259.0973409784
 20
4619.6896991041
  0
ARC
  5
160
330
1F
100
AcDbEntity
  8
0
  6
Continuous
 62
     7
370
    25
100
AcDbCircle
 10
6234.3037339084
 20
4542.3854762621
 30
0.0
 40
111.2609041486803
100
AcDbArc
 50
197.5220197529
 51
203.7168420643
  0
LINE
  5
161
330
1F
100
AcDbEntity
  8
0
  6
Continuous
 62
     7
370
    25
100
AcDbLine
 10
6107.5405993813
 20
4620.5885349169
 30
0.0
 11
6107.5286912325
 21
4620.3797045295
 31
0.0
  0
LWPOLYLINE
  5
162
330
1F
100
AcDbEntity
  8
0
  6
Continuous
 62
     7
370
    25
100
AcDbPolyline
 90
        4
 70
   128
 43
0.0
 10
6255.688290859
 20
4688.561247149
 10
6257.327371491
 20
4688.5562248617
 10
6258.9666798887
 20
4688.5541386338
 10
6259.089161859
 20
4688.5540913236
  0
LWPOLYLINE
  5
163
330
1F
100
AcDbEntity
  8
0
  6
Continuous
 62
     7
370
    25
100
AcDbPolyline
 90
        8
 70
   128
 43
0.0
 10
6259.6458303239
 20
4388.2865957156
 10
6259.6359329293
 20
4387.722917904
 10
6259.6267499248
 20
4386.0953665491
 10
6259.619316663
 20
4383.5874460546
 10
6259.6144711433
 20
4380.4819040874
 10
6259.6127596341
 20
4377.1288486788
 10
6259.6143751266
 20
4373.9063013797
 10
6259.6175396756
 20
4371.8587640577
  0
LWPOLYLINE
  5
164
330
1F
100
AcDbEntity
  8
0
  6
Continuous
 62
     7
370
    25
100
AcDbPolyline
 90
       60
 70
   128
 43
0.0
 10
6259.1637154241
 20
4594.2621068823
 10
6259.3706363713
 20
4594.2567873881
 10
6267.5220695533
 20
4593.9204731912
 10
6274.0424324241
 20
4593.4560157864
 10
6280.5502825165
 20
4592.7967196749
 10
6289.8090879096
 20
4591.475953142
 10
6295.2503271199
 20
4590.4600200412
 10
6299.5898792439
 20
4589.5062855553
 10
6304.9603680794
 20
4588.1309688301
 10
6311.2952238624
 20
4586.1990485167
 10
6315.7191111941
 20
4584.627377673
 10
6319.1915026834
 20
4583.2516915089
 10
6322.5964305638
 20
4581.7718717333
 10
6325.9420308297
 20
4580.1827978966
 10
6330.049299374
 20
4578.0328341722
 10
6337.8270692722
 20
4573.2502854214
 10
6342.6891768196
 20
4569.6515679103
 10
6346.6737864327
 20
4566.212710825
 10
6348.9945182133
 20
4563.9291329146
 10
6353.1025586932
 20
4559.1173722391
 10
6355.3385481418
 20
4555.8092842761
 10
6357.3939062866
 20
4551.8951028781
 10
6359.2935833834
 20
4546.6906777693
 10
6360.2009641228
 20
4542.9127470426
 10
6360.7838710712
 20
4539.093458865
 10
6361.0430321053
 20
4535.9838388187
 10
6361.1294387765
 20
4532.8432368833
 10
6361.0523858705
 20
4529.6632629814
 10
6360.4358355136
 20
4523.192766594
 10
6359.4312791412
 20
4517.4994630732
 10
6358.5838227559
 20
4513.8726786744
 10
6357.0286671071
 20
4508.4496410379
 10
6355.1394328892
 20
4503.0315965443
 10
6353.8933012735
 20
4499.8882302016
 10
6351.5099248912
 20
4494.4982318871
 10
6349.5182931973
 20
4490.4387292211
 10
6345.8783229592
 20
4483.7207615163
 10
6343.5224133623
 20
4479.7176387067
 10
6340.2098608953
 20
4474.4157267999
 10
6337.871341476
 20
4470.849376992
 10
6332.1706671999
 20
4462.5865151343
 10
6328.7918607662
 20
4457.8946331922
 10
6325.3459344373
 20
4453.214446255
 10
6320.0934740759
 20
4446.2070791486
 10
6316.5606869731
 20
4441.5383858131
 10
6313.0187681086
 20
4436.8632036405
 10
6309.500612049
 20
4432.2000421781
 10
6306.001627612
 20
4427.5212228673
 10
6302.5337140799
 20
4422.8214473994
 10
6298.2620144811
 20
4416.9150138261
 10
6295.7335868378
 20
4413.3837885261
 10
6291.4830456473
 20
4407.5825994428
 10
6285.1333247039
 20
4399.8128493828
 10
6281.6319337424
 20
4396.2633973145
 10
6277.6767332847
 20
4393.0542266429
 10
6274.811153373
 20
4391.3236768828
 10
6271.4319902024
 20
4389.9475098938
 10
6267.5257397643
 20
4388.9899637414
 10
6263.314776959
 20
4388.4389454238
 10
6259.6458303239
 20
4388.2865957156
  0
ARC
  5
165
330
1F
100
AcDbEntity
  8
0
  6
Continuous
 62
     7
370
    25
100
AcDbCircle
 10
6419.15681424
 20
4596.9977292925
 30
0.0
 40
160.0164844592076
100
AcDbArc
 50
179.6993724055
 51
180.9795694175
  0
LWPOLYLINE
  5
166
330
1F
100
AcDbEntity
  8
0
  6
Continuous
 62
     7
370
    25
100
AcDbPolyline
 90
        7
 70
   128
 43
0.0
 10
6259.089161859
 20
4688.5540913236
 10
6259.0892267539
 20
4688.6763587736
 10
6259.0895396014
 20
4689.1836418127
 10
6259.0903595753
 20
4690.1947208633
 10
6259.0914140204
 20
4691.2029162995
 10
6259.0926706027
 20
4692.2035707223
 10
6259.0933622761
 20
4692.6978501685
  0
ARC
  5
167
330
1F
100
AcDbEntity
  8
0
  6
Continuous
 62
     7
370
    25
100
AcDbCircle
 10
6255.9394591054
 20
4686.6461267798
 30
0.0
 40
6.824255357460222
100
AcDbArc
 50
16.2768830177
 51
62.4733732622
  0
ARC
  5
168
330
1F
100
AcDbEntity
  8
0
  6
Continuous
 62
     7
370
    25
100
AcDbCircle
 10
6262.2375272841
 20
4686.6399557489
 30
0.0
 40
6.825236874798393
100
AcDbArc
 50
117.43019034
 51
163.650361997
  0
ARC
  5
169
330
1F
100
AcDbEntity
  8
0
  6
Continuous
 62
     7
370
    25
100
AcDbCircle
 10
6283.5538438474
 20
4692.861791763
 30
0.0
 40
24.4610309583269
100
AcDbArc
 50
178.6091664691
 51
180.3840080081
  0
LINE
  5
16A
330
1F
100
AcDbEntity
  8
0
  6
Continuous
 62
     7
370
    25
100
AcDbLine
 10
6257.420939015
 20
4693.4561114737
 30
0.0
 11
6259.1000194568
 21
4693.4555157901
 31
0.0
  0
LWPOLYLINE
  5
16B
330
1F
100
AcDbEntity
  8
0
  6
Continuous
 62
     7
370
    25
100
AcDbPolyline
 90
        3
 70
   128
 43
0.0
 10
6259.1000194568
 20
4693.4555157901
 10
6259.9224500471
 20
4693.4552213585
 10
6260.780589145
 20
4693.454915215
  0
LWPOLYLINE
  5
16C
330
1F
100
AcDbEntity
  8
0
  6
Continuous
 62
     7
370
    25
100
AcDbPolyline
 90
       43
 70
   128
 43
0.0
 10
6259.1637154241
 20
4594.2621068823
 10
6258.9568174233
 20
4594.2569347351
 10
6245.919898488
 20
4593.5992816003
 10
6232.9192978908
 20
4592.1812569202
 10
6226.3466060849
 20
4591.1140907325
 10
6219.8423331411
 20
4589.7853247365
 10
6213.3916103229
 20
4588.1627597276
 10
6207.0685365307
 20
4586.2361601428
 10
6200.0477094945
 20
4583.6481440773
 10
6193.2868049092
 20
4580.6413858366
 10
6186.7503722477
 20
4577.1783889717
 10
6180.5971815877
 20
4573.3062697086
 10
6176.2724327781
 20
4570.1251079697
 10
6172.2671432485
 20
4566.7223376936
 10
6168.5977746979
 20
4563.0553748592
 10
6165.3922569082
 20
4559.184209579
 10
6162.890431324
 20
4555.3966419167
 10
6160.9223023457
 20
4551.4635150375
 10
6159.4239195495
 20
4547.2946752767
 10
6158.3820703906
 20
4542.9846079787
 10
6157.6202519219
 20
4536.8379331612
 10
6157.5597820452
 20
4530.5409056491
 10
6158.1330933423
 20
4524.0772360949
 10
6159.2781553354
 20
4517.5707308845
 10
6160.6329665874
 20
4512.1318473959
 10
6162.3253342498
 20
4506.7113231696
 10
6166.6709492599
 20
4495.923607235
 10
6172.2225109659
 20
4485.123371116
 10
6178.6971058326
 20
4474.4732360724
 10
6185.1179955781
 20
4464.9933526957
 10
6191.9121968346
 20
4455.6022276122
 10
6206.0491456286
 20
4436.9012919338
 10
6220.0366055427
 20
4418.1248960688
 10
6226.8420239881
 20
4408.7550609594
 10
6230.3593605239
 20
4404.2052823784
 10
6234.0938148329
 20
4399.8310228396
 10
6237.6131560104
 20
4396.2790709242
 10
6241.5860962596
 20
4393.0670773077
 10
6244.4623274477
 20
4391.3344830813
 10
6247.8503866742
 20
4389.9559065115
 10
6251.7621367134
 20
4388.9955766315
 10
6255.9760740435
 20
4388.4415584897
 10
6259.6458303239
 20
4388.2865957156
  0
LINE
  5
16D
330
1F
100
AcDbEntity
  8
0
  6
Continuous
 62
     7
370
    25
100
AcDbLine
 10
6244.309820051
 20
4593.4602078768
 30
0.0
 11
6244.3229565048
 21
4593.4601647307
 31
0.0
  0
LINE
  5
16E
330
1F
100
AcDbEntity
  8
0
  6
Continuous
 62
     7
370
    25
100
AcDbLine
 10
6245.9033492422
 20
4390.7481418311
 30
0.0
 11
6243.7426893507
 21
4391.7725723517
 31
0.0
  0
LWPOLYLINE
  5
16F
330
1F
100
AcDbEntity
  8
0
  6
Continuous
 62
     7
370
    25
100
AcDbPolyline
 90
        3
 70
   128
 43
0.0
 10
6244.3098205586
 20
4593.4602078751
 10
6253.1247374374
 20
4594.0420613763
 10
6259.2522088001
 20
4594.2618162297
  0
LWPOLYLINE
  5
170
330
1F
100
AcDbEntity
  8
0
  6
Continuous
 62
     7
370
    25
100
AcDbPolyline
 90
        3
 70
   128
 43
0.0
 10
6274.7605366566
 20
4578.4252543521
 10
6273.5406119537
 20
4569.9456317021
 10
6272.9150585309
 20
4565.5705258956
  0
ARC
  5
171
330
1F
100
AcDbEntity
  8
0
  6
Continuous
 62
     7
370
    25
100
AcDbCircle
 10
6265.4268996189
 20
4580.0294514392
 30
0.0
 40
9.470492523876201
100
AcDbArc
 50
350.2477049139
 51
87.6185941605
  0
LINE
  5
172
330
1F
100
AcDbEntity
  8
0
  6
Continuous
 62
     7
370
    25
100
AcDbLine
 10
6260.079850811
 20
4589.4780630631
 30
0.0
 11
6265.8204119071
 21
4589.4917649366
 31
0.0
  0
LINE
  5
173
330
1F
100
AcDbEntity
  8
0
  6
Continuous
 62
     7
370
    25
100
AcDbLine
 10
6260.079850811
 20
4589.4780630631
 30
0.0
 11
6260.0765998389
 21
4593.4521976427
 31
0.0
  0
LWPOLYLINE
  5
174
330
1F
100
AcDbEntity
  8
0
  6
Continuous
 62
     7
370
    25
100
AcDbPolyline
 90
        5
 70
   128
 43
0.0
 10
6260.0765998735
 20
4593.4521976427
 10
6261.9866618108
 20
4593.4515177227
 10
6267.5098054909
 20
4593.4495571785
 10
6273.1027376905
 20
4593.4475790475
 10
6274.243519097
 20
4593.447176797
  0
LWPOLYLINE
  5
175
330
1F
100
AcDbEntity
  8
0
  6
Continuous
 62
     7
370
    25
100
AcDbPolyline
 90
       19
 70
   128
 43
0.0
 10
6259.7716365338
 20
4388.2865625969
 10
6259.7783284145
 20
4389.1787754104
 10
6259.8033788395
 20
4393.1208508965
 10
6259.8278880172
 20
4397.6333714296
 10
6259.8519726152
 20
4402.7346011761
 10
6259.8753013695
 20
4408.3499982216
 10
6259.9057639486
 20
4416.779536835
 10
6259.9345270252
 20
4426.0348761171
 10
6259.961782307
 20
4436.1876046711
 10
6259.9869275597
 20
4447.0361304247
 10
6260.0092298886
 20
4458.2104518335
 10
6260.0291915522
 20
4469.9136896546
 10
6260.0468866534
 20
4482.2316194694
 10
6260.0619216118
 20
4494.9456167397
 10
6260.0745229236
 20
4508.4169075461
 10
6260.0839993768
 20
4522.1522852763
 10
6260.090249873
 20
4536.2667895594
 10
6260.0929267197
 20
4550.4703175608
 10
6260.0928821169
 20
4557.2946760659
  0
LINE
  5
176
330
1F
100
AcDbEntity
  8
0
  6
Continuous
 62
     7
370
    25
100
AcDbLine
 10
6264.0598443875
 20
4557.2966529254
 30
0.0
 11
6260.0928821169
 21
4557.2946760659
 31
0.0
  0
ARC
  5
177
330
1F
100
AcDbEntity
  8
0
  6
Continuous
 62
     7
370
    25
100
AcDbCircle
 10
6263.7696577039
 20
4566.4828661082
 30
0.0
 40
9.190795447135839
100
AcDbArc
 50
271.8093358782
 51
354.3030528788
  0
LWPOLYLINE
  5
178
330
1F
100
AcDbEntity
  8
0
  6
Continuous
 62
     7
370
    25
100
AcDbPolyline
 90
        3
 70
   128
 43
0.0
 10
6247.7745940609
 20
4565.2263413026
 10
6246.2489069424
 20
4573.7257882995
 10
6245.4597472279
 20
4578.084967199
  0
ARC
  5
179
330
1F
100
AcDbEntity
  8
0
  6
Continuous
 62
     7
370
    25
100
AcDbCircle
 10
6257.047504809
 20
4566.6712200982
 30
0.0
 40
9.384804125649918
100
AcDbArc
 50
188.8564497582
 51
267.0764431462
  0
LINE
  5
17A
330
1F
100
AcDbEntity
  8
0
  6
Continuous
 62
     7
370
    25
100
AcDbLine
 10
6260.0928821169
 20
4557.2946760659
 30
0.0
 11
6256.5688464458
 21
4557.2986305602
 31
0.0
  0
LWPOLYLINE
  5
17B
330
1F
100
AcDbEntity
  8
0
  6
Continuous
 62
     7
370
    25
100
AcDbPolyline
 90
        5
 70
   128
 43
0.0
 10
6260.0765998044
 20
4593.4521976427
 10
6258.1664088351
 20
4593.4528779865
 10
6252.6391250029
 20
4593.4548521288
 10
6247.0370926206
 20
4593.456860149
 10
6244.3008931824
 20
4593.4578438542
  0
LINE
  5
17C
330
1F
100
AcDbEntity
  8
0
  6
Continuous
 62
     7
370
    25
100
AcDbLine
 10
6254.3422631663
 20
4589.495822501
 30
0.0
 11
6260.079850811
 21
4589.4780630631
 31
0.0
  0
ARC
  5
17D
330
1F
100
AcDbEntity
  8
0
  6
Continuous
 62
     7
370
    25
100
AcDbCircle
 10
6254.6352934226
 20
4580.1050978668
 30
0.0
 40
9.395295412420955
100
AcDbArc
 50
91.7872902776
 51
192.4164149706
  0
LWPOLYLINE
  5
17E
330
1F
100
AcDbEntity
  8
0
  6
Continuous
 62
     7
370
    25
100
AcDbPolyline
 90
        4
 70
   128
 43
0.0
 10
6244.3098244579
 20
4593.4602078739
 10
6251.5446187705
 20
4593.4576399483
 10
6258.7854310183
 20
4593.4550653281
 10
6259.2542981234
 20
4593.4548984559
  0
LWPOLYLINE
  5
17F
330
1F
100
AcDbEntity
  8
0
  6
Continuous
 62
     7
370
    25
100
AcDbPolyline
 90
        4
 70
   128
 43
0.0
 10
6274.2068359433
 20
4593.4495625513
 10
6266.9664809942
 20
4593.4521487406
 10
6259.7232167912
 20
4593.4547314141
 10
6259.254298037
 20
4593.4548984559
  0
LINE
  5
180
330
1F
100
AcDbEntity
  8
0
  6
Continuous
 62
     7
370
    25
100
AcDbLine
 10
6259.2542980754
 20
4593.4548984559
 30
0.0
 11
6259.2522088001
 21
4594.2618162297
 31
0.0
  0
ARC
  5
181
330
1F
100
AcDbEntity
  8
0
  6
Continuous
 62
     7
370
    25
100
AcDbCircle
 10
6253.6152335174
 20
4581.278451064
 30
0.0
 40
4.99254326576192
100
AcDbArc
 50
89.92261521
 51
190.7679270181
  0
LWPOLYLINE
  5
182
330
1F
100
AcDbEntity
  8
0
  6
Continuous
 62
     7
370
    25
100
AcDbPolyline
 90
        9
 70
   128
 43
0.0
 10
6248.7105990086
 20
4580.3456871096
 10
6248.6950438295
 20
4580.067684732
 10
6248.5529924193
 20
4579.772965657
 10
6248.2881133654
 20
4579.4691412325
 10
6247.907247374
 20
4579.1640579591
 10
6247.4202306038
 20
4578.8655948479
 10
6246.8396406391
 20
4578.5814599396
 10
6246.1804716644
 20
4578.3189912376
 10
6245.4597472279
 20
4578.084967199
  0
ARC
  5
183
330
1F
100
AcDbEntity
  8
0
  6
Continuous
 62
     7
370
    25
100
AcDbCircle
 10
6249.3086676256
 20
4588.9272510201
 30
0.0
 40
5.065605353399527
100
AcDbArc
 50
328.374028649
 51
6.4445482559
  0
LWPOLYLINE
  5
184
330
1F
100
AcDbEntity
  8
0
  6
Continuous
 62
     7
370
    25
100
AcDbPolyline
 90
        9
 70
   128
 43
0.0
 10
6274.7605366566
 20
4578.4252543521
 10
6274.0442787417
 20
4578.6315341684
 10
6273.389055149
 20
4578.866640738
 10
6272.8114519144
 20
4579.1246226789
 10
6272.3260902267
 20
4579.3989495519
 10
6271.9452563138
 20
4579.6826771699
 10
6271.6785904343
 20
4579.9686233792
 10
6271.5328428486
 20
4580.249549866
 10
6271.5117029456
 20
4580.5183453833
  0
ARC
  5
185
330
1F
100
AcDbEntity
  8
0
  6
Continuous
 62
     7
370
    25
100
AcDbCircle
 10
6266.5597335629
 20
4581.2592899701
 30
0.0
 40
5.007094930932666
100
AcDbArc
 50
351.4901788654
 51
89.9266869681
  0
ARC
  5
186
330
1F
100
AcDbEntity
  8
0
  6
Continuous
 62
     7
370
    25
100
AcDbCircle
 10
6270.7132576456
 20
4588.9241201817
 30
0.0
 40
4.925663405935242
100
AcDbArc
 50
173.3823995586
 51
212.6543602916
  0
LINE
  5
187
330
1F
100
AcDbEntity
  8
0
  6
Continuous
 62
     7
370
    25
100
AcDbLine
 10
6266.5661404085
 20
4586.2663808021
 30
0.0
 11
6260.0923863098
 21
4586.2686818285
 31
0.0
  0
ARC
  5
188
330
1F
100
AcDbEntity
  8
0
  6
Continuous
 62
     7
370
    25
100
AcDbCircle
 10
6397.8612756907
 20
4588.4115074283
 30
0.0
 40
137.7855528812807
100
AcDbArc
 50
179.5564865439
 51
180.8910935157
  0
LINE
  5
189
330
1F
100
AcDbEntity
  8
0
  6
Continuous
 62
     7
370
    25
100
AcDbLine
 10
6260.0923863098
 20
4586.2686818285
 30
0.0
 11
6253.6219765411
 21
4586.2709897762
 31
0.0
  0
LINE
  5
18A
330
1F
100
AcDbEntity
  8
0
  6
Continuous
 62
     7
370
    25
100
AcDbLine
 10
6248.7105990086
 20
4580.3456871096
 30
0.0
 11
6251.2183172401
 21
4567.0930513009
 31
0.0
  0
LWPOLYLINE
  5
18B
330
1F
100
AcDbEntity
  8
0
  6
Continuous
 62
     7
370
    25
100
AcDbPolyline
 90
        9
 70
   128
 43
0.0
 10
6251.2183172401
 20
4567.0930513009
 10
6251.1876402369
 20
4566.881616721
 10
6251.0260979439
 20
4566.6510504564
 10
6250.7380197774
 20
4566.4075318012
 10
6250.3311263795
 20
4566.1575871797
 10
6249.8163227014
 20
4565.9079152357
 10
6249.2074057452
 20
4565.6652073051
 10
6248.5206947968
 20
4565.4359680847
 10
6247.7745940609
 20
4565.2263413026
  0
LWPOLYLINE
  5
18C
330
1F
100
AcDbEntity
  8
0
  6
Continuous
 62
     7
370
    25
100
AcDbPolyline
 90
        9
 70
   128
 43
0.0
 10
6272.9150585309
 20
4565.5705258956
 10
6272.1793283422
 20
4565.7516362798
 10
6271.5030439919
 20
4565.9527362519
 10
6270.9038158356
 20
4566.1685891953
 10
6270.3972476955
 20
4566.3935743275
 10
6269.9965305393
 20
4566.6218330655
 10
6269.712098989
 20
4566.8474215817
 10
6269.5513596047
 20
4567.0644655809
 10
6269.5184980188
 20
4567.2673132659
  0
LINE
  5
18D
330
1F
100
AcDbEntity
  8
0
  6
Continuous
 62
     7
370
    25
100
AcDbLine
 10
6269.5184980188
 20
4567.2673132659
 30
0.0
 11
6271.5117029456
 21
4580.5183453833
 31
0.0
  0
LINE
  5
18E
330
1F
100
AcDbEntity
  8
0
  6
Continuous
 62
     7
370
    25
100
AcDbLine
 10
6253.6219765411
 20
4586.2709897762
 30
0.0
 11
6253.7286964697
 21
4586.2706392594
 31
0.0
  0
LWPOLYLINE
  5
18F
330
1F
100
AcDbEntity
  8
0
  6
Continuous
 62
     7
370
    25
100
AcDbPolyline
 90
        9
 70
   128
 43
0.0
 10
6266.672871104
 20
4586.2660302499
 10
6265.1155751717
 20
4586.2665898438
 10
6263.5054876158
 20
4586.2671668206
 10
6261.8600442167
 20
4586.2677549322
 10
6260.1970636269
 20
4586.26834781
 10
6258.53455441
 20
4586.2689390335
 10
6256.8905200257
 20
4586.2695222004
 10
6255.2827638677
 20
4586.2700909956
 10
6253.7286964697
 20
4586.2706392594
  0
ARC
  5
190
330
1F
100
AcDbEntity
  8
0
  6
Continuous
 62
     7
370
    25
100
AcDbCircle
 10
6253.7328456004
 20
4581.2739681161
 30
0.0
 40
4.996672865970474
100
AcDbArc
 50
90.0475772
 51
190.7109182581
  0
LINE
  5
191
330
1F
100
AcDbEntity
  8
0
  6
Continuous
 62
     7
370
    25
100
AcDbLine
 10
6248.8232277763
 20
4580.3453171854
 30
0.0
 11
6248.7105990086
 21
4580.3456871096
 31
0.0
  0
ARC
  5
192
330
1F
100
AcDbEntity
  8
0
  6
Continuous
 62
     7
370
    25
100
AcDbCircle
 10
6256.1416554736
 20
4568.0300092944
 30
0.0
 40
5.011701272342095
100
AcDbArc
 50
190.7750808067
 51
269.9840043005
  0
ARC
  5
193
330
1F
100
AcDbEntity
  8
0
  6
Continuous
 62
     7
370
    25
100
AcDbCircle
 10
6239.1183094567
 20
4558.8669135427
 30
0.0
 40
17.52086620914611
100
AcDbArc
 50
354.8646136332
 51
13.7060089107
  0
ARC
  5
194
330
1F
100
AcDbEntity
  8
0
  6
Continuous
 62
     7
370
    25
100
AcDbCircle
 10
6278.5755898192
 20
4558.850211698
 30
0.0
 40
14.59864412530799
100
AcDbArc
 50
163.4228195566
 51
186.1088707913
  0
ARC
  5
195
330
1F
100
AcDbEntity
  8
0
  6
Continuous
 62
     7
370
    25
100
AcDbCircle
 10
6264.5852113032
 20
4568.0031671271
 30
0.0
 40
4.987865146847681
100
AcDbArc
 50
269.9828651026
 51
351.5162548722
  0
LINE
  5
196
330
1F
100
AcDbEntity
  8
0
  6
Continuous
 62
     7
370
    25
100
AcDbLine
 10
6251.2183172401
 20
4567.0930513009
 30
0.0
 11
6251.3127747969
 21
4567.0927410593
 31
0.0
  0
ELLIPSE
  5
197
330
1F
100
AcDbEntity
  8
0
  6
Continuous
 62
     7
370
    25
100
AcDbEllipse
 10
6260.21699971
 20
4520.0146385083
 30
0.0
 11
-15.96973847770369
 21
84.80569123124587
 31
0.0
210
0.0
220
0.0
230
1.0
 40
0.0005334337
 41
0.779209118284148
 42
0.9821777727851342
  0
LINE
  5
198
330
1F
100
AcDbEntity
  8
0
  6
Continuous
 62
     7
370
    25
100
AcDbLine
 10
6260.1094155323
 20
4563.0168936321
 30
0.0
 11
6264.5837196304
 21
4563.0153022033
 31
0.0
  0
ARC
  5
199
330
1F
100
AcDbEntity
  8
0
  6
Continuous
 62
     7
370
    25
100
AcDbCircle
 10
6675.0409829137
 20
4558.9568838001
 30
0.0
 40
414.9514300366213
100
AcDbArc
 50
179.4393918829
 51
180.2295153978
  0
LINE
  5
19A
330
1F
100
AcDbEntity
  8
0
  6
Continuous
 62
     7
370
    25
100
AcDbLine
 10
6256.1402563188
 20
4563.0183082173
 30
0.0
 11
6260.1094155323
 21
4563.0168936321
 31
0.0
  0
ARC
  5
19B
330
1F
100
AcDbEntity
  8
0
  6
Continuous
 62
     7
370
    25
100
AcDbCircle
 10
6256.2213987464
 20
4568.0120124683
 30
0.0
 40
4.993961253439774
100
AcDbArc
 50
190.6073009453
 51
269.9631944941
  0
LWPOLYLINE
  5
19C
330
1F
100
AcDbEntity
  8
0
  6
Continuous
 62
     8
370
    25
100
AcDbPolyline
 90
       28
 70
   128
 43
0.0
 10
6429.8260105498
 20
4690.6250526822
 10
6429.8477727184
 20
4690.6233492167
 10
6429.5344646911
 20
4690.6023469131
 10
6428.7330267266
 20
4690.5779818388
 10
6427.3897080681
 20
4690.5519671416
 10
6425.5930540306
 20
4690.5298769294
 10
6423.2325412337
 20
4690.5143543167
 10
6420.4205970143
 20
4690.5095010693
 10
6417.0233193749
 20
4690.5178191684
 10
6413.0480800544
 20
4690.5416368808
 10
6408.4398951598
 20
4690.5817811208
 10
6403.2104599888
 20
4690.6356486729
 10
6399.2399568167
 20
4690.6790896162
 10
6394.8939286072
 20
4690.7299343642
 10
6390.300921653
 20
4690.7882465709
 10
6385.25054457
 20
4690.8559945086
 10
6379.8874533241
 20
4690.9245740173
 10
6372.6266239869
 20
4691.0119228302
 10
6364.8902940876
 20
4691.0993304096
 10
6356.8492272608
 20
4691.1835771875
 10
6348.5324610255
 20
4691.2611551018
 10
6336.7950644291
 20
4691.3465659255
 10
6324.9538579563
 20
4691.393069411
 10
6312.8766357435
 20
4691.4043698101
 10
6300.9777650327
 20
4691.3891259006
 10
6288.9202198301
 20
4691.3561813025
 10
6276.9323499029
 20
4691.3150618653
 10
6260.8031801258
 20
4691.2600400585
  0
LWPOLYLINE
  5
19D
330
1F
100
AcDbEntity
  8
0
  6
Continuous
 62
     8
370
    25
100
AcDbPolyline
 90
       24
 70
   128
 43
0.0
 10
6259.0878295858
 20
4672.6641001595
 10
6269.9498586082
 20
4672.5763130141
 10
6280.8132603319
 20
4672.3088478146
 10
6292.9546847099
 20
4671.7911231387
 10
6305.0246291687
 20
4671.0162692786
 10
6317.152982817
 20
4669.9151582213
 10
6329.0922359716
 20
4668.4266585467
 10
6340.8625180969
 20
4666.4470399188
 10
6348.7246543503
 20
4664.7918993392
 10
6356.3497279663
 20
4662.9276133174
 10
6363.47017067
 20
4660.9492241651
 10
6370.2691296591
 20
4658.8261685669
 10
6376.5612266432
 20
4656.6314145911
 10
6382.1051292538
 20
4654.4782654249
 10
6387.1796512217
 20
4652.2234424276
 10
6391.7348165738
 20
4649.7889789893
 10
6395.7717885327
 20
4647.1385850071
 10
6400.1538874781
 20
4643.486724093
 10
6403.7572355815
 20
4639.6062397305
 10
6406.6095037036
 20
4635.6187332719
 10
6408.75874057
 20
4631.5873853005
 10
6410.5879748122
 20
4626.3016667718
 10
6411.3745091568
 20
4621.070782076
 10
6411.3386082756
 20
4619.7921672561
  0
LWPOLYLINE
  5
19E
330
1F
100
AcDbEntity
  8
0
  6
Continuous
 62
     8
370
    25
100
AcDbPolyline
 90
       31
 70
   128
 43
0.0
 10
6411.5405551949
 20
4621.6773250386
 10
6412.8387162217
 20
4623.7916599096
 10
6414.3439351793
 20
4626.6595742767
 10
6416.3625348024
 20
4631.619203168
 10
6417.3289544719
 20
4635.1357502588
 10
6417.8577221261
 20
4638.4947055796
 10
6417.978589807
 20
4641.8162860486
 10
6417.310333488
 20
4646.9370338397
 10
6416.1716862426
 20
4650.4576640102
 10
6414.4399231359
 20
4653.8718087585
 10
6412.5927443519
 20
4656.519243277
 10
6408.5953060091
 20
4660.6775740358
 10
6404.7794575133
 20
4663.6200328674
 10
6400.1959406114
 20
4666.4626081835
 10
6396.2342571198
 20
4668.5403693016
 10
6391.7567566539
 20
4670.558726109
 10
6386.9003782088
 20
4672.3965190202
 10
6381.4958178546
 20
4674.0956076939
 10
6375.5933025331
 20
4675.624565583
 10
6369.7623508058
 20
4676.8803137141
 10
6363.6266546685
 20
4678.0127990552
 10
6357.1088133418
 20
4679.0567136878
 10
6350.3796155482
 20
4680.0033124014
 10
6343.3956113894
 20
4680.8772696455
 10
6333.3798378311
 20
4681.9862483102
 10
6321.3048688754
 20
4683.1328641592
 10
6311.6585091512
 20
4683.9059332381
 10
6297.432814406
 20
4684.823635599
 10
6281.4258865038
 20
4685.5518762459
 10
6270.2852537994
 20
4685.8730565619
 10
6259.0888672652
 20
4686.0444441397
  0
LWPOLYLINE
  5
19F
330
1F
100
AcDbEntity
  8
0
  6
Continuous
 62
     8
370
    25
100
AcDbPolyline
 90
       26
 70
   128
 43
0.0
 10
6390.1502530153
 20
4507.7491512473
 10
6390.5291363698
 20
4508.7627692767
 10
6392.2833222924
 20
4514.6346295433
 10
6393.7122031442
 20
4520.5322214907
 10
6394.7818248609
 20
4526.500216773
 10
6395.4536708995
 20
4532.5039339491
 10
6395.6773434516
 20
4539.7202630973
 10
6395.1851303076
 20
4546.9357805974
 10
6393.8476375546
 20
4554.2010904624
 10
6391.5370222756
 20
4561.3559763477
 10
6388.986534746
 20
4566.7769281608
 10
6385.7240732735
 20
4572.024651744
 10
6381.7024188019
 20
4577.1560789886
 10
6377.0376366324
 20
4582.0510191583
 10
6371.0544619356
 20
4587.2868604745
 10
6364.4164286547
 20
4592.1765749536
 10
6357.100027233
 20
4596.7712798672
 10
6349.2696317347
 20
4600.9799521574
 10
6340.0233828375
 20
4605.1809628048
 10
6330.2708536137
 20
4608.8435057906
 10
6319.9341716223
 20
4611.9750048125
 10
6309.2255853114
 20
4614.5200978943
 10
6297.0326545642
 20
4616.6831975386
 10
6284.5932249992
 20
4618.2128385986
 10
6271.8892461605
 20
4619.1914107045
 10
6259.0973409784
 20
4619.6896991041
  0
ARC
  5
1A0
330
1F
100
AcDbEntity
  8
0
  6
Continuous
 62
     8
370
    25
100
AcDbCircle
 10
6406.7826642604
 20
4366.9959164447
 30
0.0
 40
147.1590657689882
100
AcDbArc
 50
179.67295813
 51
181.0256493634
  0
LWPOLYLINE
  5
1A1
330
1F
100
AcDbEntity
  8
0
  6
Continuous
 62
     8
370
    25
100
AcDbPolyline
 90
       26
 70
   128
 43
0.0
 10
6257.3798539149
 20
4691.2612589901
 10
6241.0782275582
 20
4691.3285174727
 10
6228.8696525432
 20
4691.3790021101
 10
6216.7204839082
 20
4691.4203776588
 10
6204.7161109818
 20
4691.4432738307
 10
6192.8428390009
 20
4691.4392122232
 10
6181.1834738544
 20
4691.4004140517
 10
6169.7298669256
 20
4691.32455822
 10
6161.646089663
 20
4691.2547994656
 10
6153.7730577646
 20
4691.1778985199
 10
6146.1962643954
 20
4691.0976590068
 10
6138.9852509408
 20
4691.0160224745
 10
6132.2611888219
 20
4690.9341319839
 10
6125.6485190299
 20
4690.850658205
 10
6119.7431774419
 20
4690.7835770446
 10
6114.4769160884
 20
4690.7292719184
 10
6109.7535309056
 20
4690.6840542639
 10
6105.5631489946
 20
4690.650587258
 10
6102.016641675
 20
4690.6312040803
 10
6098.9493673448
 20
4690.6242020476
 10
6096.3441218625
 20
4690.6280113509
 10
6094.1884502271
 20
4690.6403493475
 10
6092.4605849765
 20
4690.6586432372
 10
6090.6874034205
 20
4690.6898624247
 10
6089.6814087768
 20
4690.7201179462
 10
6089.3840623269
 20
4690.7439283946
  0
LWPOLYLINE
  5
1A2
330
1F
100
AcDbEntity
  8
0
  6
Continuous
 62
     8
370
    25
100
AcDbPolyline
 90
       32
 70
   128
 43
0.0
 10
6128.2051895252
 20
4508.8878991594
 10
6127.7155610601
 20
4510.3224377761
 10
6126.0117576343
 20
4516.200382268
 10
6124.6434303249
 20
4522.1167034588
 10
6123.642871121
 20
4528.0958459614
 10
6123.1574747136
 20
4532.6008894877
 10
6122.8958110352
 20
4538.9145209345
 10
6123.2598214743
 20
4546.1319547712
 10
6123.9002801903
 20
4550.6855985835
 10
6124.8924294271
 20
4555.2011273745
 10
6126.9397524674
 20
4561.450190557
 10
6128.9386361246
 20
4565.8687601807
 10
6131.4042725121
 20
4570.1707972258
 10
6134.1353749407
 20
4574.0840809144
 10
6137.2446188667
 20
4577.8696429314
 10
6141.3380922259
 20
4582.1349438572
 10
6146.5129153087
 20
4586.730998001
 10
6153.0497999666
 20
4591.6600575331
 10
6157.490281956
 20
4594.5947480785
 10
6162.1548811442
 20
4597.3888175188
 10
6169.0140694737
 20
4601.0441351146
 10
6174.7186180801
 20
4603.7274242741
 10
6184.2700870266
 20
4607.5891793899
 10
6195.6762339052
 20
4611.2922234846
 10
6202.2728696374
 20
4613.0388655962
 10
6208.9934087325
 20
4614.5557872091
 10
6219.6369592942
 20
4616.4769136255
 10
6225.8177517187
 20
4617.3513442242
 10
6232.0435496396
 20
4618.0730097142
 10
6239.9448844989
 20
4618.7814950943
 10
6247.9037184452
 20
4619.2861572066
 10
6259.0973409784
 20
4619.6896991041
  0
LWPOLYLINE
  5
1A3
330
1F
100
AcDbEntity
  8
0
  6
Continuous
 62
     8
370
    25
100
AcDbPolyline
 90
       25
 70
   128
 43
0.0
 10
6259.0878295858
 20
4672.6641001595
 10
6248.2273113777
 20
4672.5840476843
 10
6237.3683504224
 20
4672.3243170892
 10
6226.852404104
 20
4671.8972734971
 10
6216.529800134
 20
4671.2912208898
 10
6206.2919963057
 20
4670.4726058882
 10
6196.4445841168
 20
4669.4358627401
 10
6186.7537924034
 20
4668.1210962107
 10
6177.4021522166
 20
4666.5052426701
 10
6167.8296168119
 20
4664.4550484683
 10
6158.6220727673
 20
4662.0987912167
 10
6149.9400170406
 20
4659.5081450572
 10
6141.8286698987
 20
4656.7149949781
 10
6136.3230690205
 20
4654.568795509
 10
6131.2881901746
 20
4652.3210177778
 10
6126.7614836809
 20
4649.8868554224
 10
6122.7560829372
 20
4647.2357967388
 10
6119.276303868
 20
4644.3848831135
 10
6116.2885037914
 20
4641.3781618604
 10
6113.7230035994
 20
4638.2052501432
 10
6111.6334417189
 20
4634.9821516172
 10
6109.9761928759
 20
4631.6937717401
 10
6108.5310041187
 20
4627.633738442
 10
6107.7118635869
 20
4623.5919547494
 10
6107.5405993813
 20
4620.5885349169
  0
LWPOLYLINE
  5
1A4
330
1F
100
AcDbEntity
  8
0
  6
Continuous
 62
     8
370
    25
100
AcDbPolyline
 90
       31
 70
   128
 43
0.0
 10
6107.4336184817
 20
4622.2661292803
 10
6107.3564718974
 20
4622.3779307657
 10
6105.533395883
 20
4625.5083488291
 10
6103.4349645097
 20
4629.9989874826
 10
6101.7672956622
 20
4635.2481111768
 10
6101.2255593248
 20
4638.2796216589
 10
6101.0501033353
 20
4643.0599978693
 10
6101.4452898872
 20
4646.3092181686
 10
6102.2819814376
 20
4649.4898791704
 10
6104.3506162029
 20
4653.9822211557
 10
6106.370167963
 20
4656.9084958171
 10
6109.342363312
 20
4660.1198978105
 10
6113.3783673643
 20
4663.4049010311
 10
6118.3587807249
 20
4666.5629609391
 10
6122.1713342419
 20
4668.5841137417
 10
6126.4722267208
 20
4670.5493163544
 10
6131.3834765336
 20
4672.4448343962
 10
6136.7890639336
 20
4674.1611218564
 10
6142.7843210873
 20
4675.7074610494
 10
6148.5907858458
 20
4676.9593899559
 10
6154.7744681383
 20
4678.0995719689
 10
6161.21534946
 20
4679.128884218
 10
6167.9577573816
 20
4680.0747703253
 10
6174.8742310782
 20
4680.9372744543
 10
6183.9915473706
 20
4681.9483619508
 10
6198.9835939499
 20
4683.3517226426
 10
6209.7151875048
 20
4684.167909714
 10
6220.6097710123
 20
4684.8425450605
 10
6236.7577206471
 20
4685.5677810809
 10
6247.8938869975
 20
4685.8810293762
 10
6259.0888672652
 20
4686.0444441397
  0
ENDSEC
  0
SECTION
  2
OBJECTS
  0
DICTIONARY
  5
C
330
0
100
AcDbDictionary
281
     1
  3
ACAD_GROUP
350
D
  3
ACAD_LAYOUT
350
1A
  3
ACAD_MLINESTYLE
350
17
  3
ACAD_PLOTSETTINGS
350
19
  3
ACAD_PLOTSTYLENAME
350
E
  3
ACAD_SCALELIST
350
47
  3
DWGPROPS
350
1A5
  0
DICTIONARY
  5
D
102
{ACAD_REACTORS
330
C
102
}
330
C
100
AcDbDictionary
281
     1
  0
DICTIONARY
  5
1A
102
{ACAD_REACTORS
330
C
102
}
330
C
100
AcDbDictionary
281
     1
  3
Layout1
350
1E
  3
Layout2
350
26
  3
Model
350
22
  0
DICTIONARY
  5
17
102
{ACAD_REACTORS
330
C
102
}
330
C
100
AcDbDictionary
281
     1
  3
Standard
350
18
  0
DICTIONARY
  5
19
102
{ACAD_REACTORS
330
C
102
}
330
C
100
AcDbDictionary
281
     1
  0
ACDBDICTIONARYWDFLT
  5
E
102
{ACAD_REACTORS
330
C
102
}
330
C
100
AcDbDictionary
281
     1
  3
Normal
350
F
100
AcDbDictionaryWithDefault
340
F
  0
DICTIONARY
  5
47
102
{ACAD_REACTORS
330
C
102
}
330
C
100
AcDbDictionary
281
     1
  3
A0
350
48
  3
A1
350
49
  3
A2
350
4A
  3
A3
350
4B
  3
A4
350
4C
  3
A5
350
4D
  3
A6
350
4E
  3
A7
350
4F
  3
A8
350
50
  3
A9
350
51
  3
B0
350
52
  3
B1
350
53
  3
B2
350
54
  3
B3
350
55
  3
B4
350
56
  3
B5
350
57
  3
B6
350
58
  3
B7
350
59
  3
B8
350
5A
  3
B9
350
5B
  3
C0
350
5C
  3
C1
350
5D
  3
C2
350
5E
  3
C3
350
5F
  3
C4
350
60
  3
C5
350
61
  3
C6
350
62
  3
C7
350
63
  3
C8
350
64
  3
C9
350
65
  3
D0
350
66
  3
D1
350
67
  3
D2
350
68
  0
XRECORD
  5
1A5
102
{ACAD_REACTORS
330
C
102
}
330
C
100
AcDbXrecord
280
     1
  1
DWGPROPS COOKIE
  2

  3

  4

  6

  7

  8
radek.stransky
  9

300
=
301
=
302
=
303
=
304
=
305
=
306
=
307
=
308
=
309
=
 40
0.0
 41
2459922.517438299
 42
2459922.517438692
  1

 90
        0
  0
LAYOUT
  5
1E
102
{ACAD_REACTORS
330
1A
102
}
330
1A
100
AcDbPlotSettings
  1

  2
none_device
  4

  6

 40
0.0
 41
0.0
 42
0.0
 43
0.0
 44
0.0
 45
0.0
 46
0.0
 47
0.0
 48
0.0
 49
0.0
140
0.0
141
0.0
142
1.0
143
1.0
 70
   688
 72
     1
 73
     0
 74
     5
  7

 75
    16
147
1.0
148
0.0
149
0.0
100
AcDbLayout
  1
Layout1
 70
     1
 71
     1
 10
0.0
 20
0.0
 11
420.0
 21
297.0
 12
0.0
 22
0.0
 32
0.0
 14
1.0000000000E+20
 24
1.0000000000E+20
 34
1.0000000000E+20
 15
-1.0000000000E+20
 25
-1.0000000000E+20
 35
-1.0000000000E+20
146
0.0
 13
0.0
 23
0.0
 33
0.0
 16
1.0
 26
0.0
 36
0.0
 17
0.0
 27
1.0
 37
0.0
 76
     0
330
1B
  0
LAYOUT
  5
26
102
{ACAD_REACTORS
330
1A
102
}
330
1A
100
AcDbPlotSettings
  1

  2
none_device
  4

  6

 40
0.0
 41
0.0
 42
0.0
 43
0.0
 44
0.0
 45
0.0
 46
0.0
 47
0.0
 48
0.0
 49
0.0
140
0.0
141
0.0
142
1.0
143
1.0
 70
   688
 72
     1
 73
     0
 74
     5
  7

 75
    16
147
1.0
148
0.0
149
0.0
100
AcDbLayout
  1
Layout2
 70
     1
 71
     2
 10
0.0
 20
0.0
 11
0.0
 21
0.0
 12
0.0
 22
0.0
 32
0.0
 14
0.0
 24
0.0
 34
0.0
 15
0.0
 25
0.0
 35
0.0
146
0.0
 13
0.0
 23
0.0
 33
0.0
 16
1.0
 26
0.0
 36
0.0
 17
0.0
 27
1.0
 37
0.0
 76
     0
330
23
  0
LAYOUT
  5
22
102
{ACAD_REACTORS
330
1A
102
}
330
1A
100
AcDbPlotSettings
  1

  2
none_device
  4
Letter_(8.50_x_11.00_Inches)
  6

 40
6.35
 41
6.35
 42
6.35000508
 43
6.35000508
 44
215.9
 45
279.4
 46
0.0
 47
0.0
 48
0.0
 49
0.0
140
0.0
141
0.0
142
1.0
143
1.0
 70
  1712
 72
     1
 73
     0
 74
     0
  7

 75
     0
147
1.0
148
0.0
149
0.0
100
AcDbLayout
  1
Model
 70
     1
 71
     0
 10
0.0
 20
0.0
 11
20000.0
 21
10000.0
 12
0.0
 22
0.0
 32
0.0
 14
0.0
 24
0.0
 34
0.0
 15
20000.0
 25
10000.0
 35
0.0
146
0.0
 13
0.0
 23
0.0
 33
0.0
 16
1.0
 26
0.0
 36
0.0
 17
0.0
 27
1.0
 37
0.0
 76
     0
330
1F
331
29
  0
MLINESTYLE
  5
18
102
{ACAD_REACTORS
330
17
102
}
330
17
100
AcDbMlineStyle
  2
Standard
 70
     0
  3

 62
   256
 51
90.0
 52
90.0
 71
     2
 49
0.5
 62
   256
  6
BYLAYER
 49
-0.5
 62
   256
  6
BYLAYER
  0
ACDBPLACEHOLDER
  5
F
102
{ACAD_REACTORS
330
E
102
}
330
E
  0
SCALE
  5
48
102
{ACAD_REACTORS
330
47
102
}
330
47
100
AcDbScale
 70
     0
300
1:1
140
1.0
141
1.0
290
     1
  0
SCALE
  5
49
102
{ACAD_REACTORS
330
47
102
}
330
47
100
AcDbScale
 70
     0
300
1:2
140
1.0
141
2.0
290
     0
  0
SCALE
  5
4A
102
{ACAD_REACTORS
330
47
102
}
330
47
100
AcDbScale
 70
     0
300
1:4
140
1.0
141
4.0
290
     0
  0
SCALE
  5
4B
102
{ACAD_REACTORS
330
47
102
}
330
47
100
AcDbScale
 70
     0
300
1:5
140
1.0
141
5.0
290
     0
  0
SCALE
  5
4C
102
{ACAD_REACTORS
330
47
102
}
330
47
100
AcDbScale
 70
     0
300
1:8
140
1.0
141
8.0
290
     0
  0
SCALE
  5
4D
102
{ACAD_REACTORS
330
47
102
}
330
47
100
AcDbScale
 70
     0
300
1:10
140
1.0
141
10.0
290
     0
  0
SCALE
  5
4E
102
{ACAD_REACTORS
330
47
102
}
330
47
100
AcDbScale
 70
     0
300
1:16
140
1.0
141
16.0
290
     0
  0
SCALE
  5
4F
102
{ACAD_REACTORS
330
47
102
}
330
47
100
AcDbScale
 70
     0
300
1:20
140
1.0
141
20.0
290
     0
  0
SCALE
  5
50
102
{ACAD_REACTORS
330
47
102
}
330
47
100
AcDbScale
 70
     0
300
1:30
140
1.0
141
30.0
290
     0
  0
SCALE
  5
51
102
{ACAD_REACTORS
330
47
102
}
330
47
100
AcDbScale
 70
     0
300
1:40
140
1.0
141
40.0
290
     0
  0
SCALE
  5
52
102
{ACAD_REACTORS
330
47
102
}
330
47
100
AcDbScale
 70
     0
300
1:50
140
1.0
141
50.0
290
     0
  0
SCALE
  5
53
102
{ACAD_REACTORS
330
47
102
}
330
47
100
AcDbScale
 70
     0
300
1:100
140
1.0
141
100.0
290
     0
  0
SCALE
  5
54
102
{ACAD_REACTORS
330
47
102
}
330
47
100
AcDbScale
 70
     0
300
2:1
140
2.0
141
1.0
290
     0
  0
SCALE
  5
55
102
{ACAD_REACTORS
330
47
102
}
330
47
100
AcDbScale
 70
     0
300
4:1
140
4.0
141
1.0
290
     0
  0
SCALE
  5
56
102
{ACAD_REACTORS
330
47
102
}
330
47
100
AcDbScale
 70
     0
300
8:1
140
8.0
141
1.0
290
     0
  0
SCALE
  5
57
102
{ACAD_REACTORS
330
47
102
}
330
47
100
AcDbScale
 70
     0
300
10:1
140
10.0
141
1.0
290
     0
  0
SCALE
  5
58
102
{ACAD_REACTORS
330
47
102
}
330
47
100
AcDbScale
 70
     0
300
100:1
140
100.0
141
1.0
290
     0
  0
SCALE
  5
59
102
{ACAD_REACTORS
330
47
102
}
330
47
100
AcDbScale
 70
     0
300
1/128" = 1'-0"
140
0.0078125
141
12.0
290
     0
  0
SCALE
  5
5A
102
{ACAD_REACTORS
330
47
102
}
330
47
100
AcDbScale
 70
     0
300
1/64" = 1'-0"
140
0.015625
141
12.0
290
     0
  0
SCALE
  5
5B
102
{ACAD_REACTORS
330
47
102
}
330
47
100
AcDbScale
 70
     0
300
1/32" = 1'-0"
140
0.03125
141
12.0
290
     0
  0
SCALE
  5
5C
102
{ACAD_REACTORS
330
47
102
}
330
47
100
AcDbScale
 70
     0
300
1/16" = 1'-0"
140
0.0625
141
12.0
290
     0
  0
SCALE
  5
5D
102
{ACAD_REACTORS
330
47
102
}
330
47
100
AcDbScale
 70
     0
300
3/32" = 1'-0"
140
0.09375
141
12.0
290
     0
  0
SCALE
  5
5E
102
{ACAD_REACTORS
330
47
102
}
330
47
100
AcDbScale
 70
     0
300
1/8" = 1'-0"
140
0.125
141
12.0
290
     0
  0
SCALE
  5
5F
102
{ACAD_REACTORS
330
47
102
}
330
47
100
AcDbScale
 70
     0
300
3/16" = 1'-0"
140
0.1875
141
12.0
290
     0
  0
SCALE
  5
60
102
{ACAD_REACTORS
330
47
102
}
330
47
100
AcDbScale
 70
     0
300
1/4" = 1'-0"
140
0.25
141
12.0
290
     0
  0
SCALE
  5
61
102
{ACAD_REACTORS
330
47
102
}
330
47
100
AcDbScale
 70
     0
300
3/8" = 1'-0"
140
0.375
141
12.0
290
     0
  0
SCALE
  5
62
102
{ACAD_REACTORS
330
47
102
}
330
47
100
AcDbScale
 70
     0
300
1/2" = 1'-0"
140
0.5
141
12.0
290
     0
  0
SCALE
  5
63
102
{ACAD_REACTORS
330
47
102
}
330
47
100
AcDbScale
 70
     0
300
3/4" = 1'-0"
140
0.75
141
12.0
290
     0
  0
SCALE
  5
64
102
{ACAD_REACTORS
330
47
102
}
330
47
100
AcDbScale
 70
     0
300
1" = 1'-0"
140
1.0
141
12.0
290
     0
  0
SCALE
  5
65
102
{ACAD_REACTORS
330
47
102
}
330
47
100
AcDbScale
 70
     0
300
1-1/2" = 1'-0"
140
1.5
141
12.0
290
     0
  0
SCALE
  5
66
102
{ACAD_REACTORS
330
47
102
}
330
47
100
AcDbScale
 70
     0
300
3" = 1'-0"
140
3.0
141
12.0
290
     0
  0
SCALE
  5
67
102
{ACAD_REACTORS
330
47
102
}
330
47
100
AcDbScale
 70
     0
300
6" = 1'-0"
140
6.0
141
12.0
290
     0
  0
SCALE
  5
68
102
{ACAD_REACTORS
330
47
102
}
330
47
100
AcDbScale
 70
     0
300
1'-0" = 1'-0"
140
12.0
141
12.0
290
     0
  0
ENDSEC
  0
EOF
