  0
SECTION
  2
HEADER
  9
$ACADVER
  1
AC1015
  9
$ACADMAINTVER
 70
     6
  9
$DWGCODEPAGE
  3
ANSI_1250
  9
$INSBASE
 10
0.0
 20
0.0
 30
0.0
  9
$EXTMIN
 10
0.0
 20
0.0
 30
0.0
  9
$EXTMAX
 10
20000.0
 20
10000.0
 30
0.0
  9
$LIMMIN
 10
0.0
 20
0.0
  9
$LIMMAX
 10
20000.0
 20
10000.0
  9
$ORTHOMODE
 70
     0
  9
$REGENMODE
 70
     1
  9
$FILLMODE
 70
     1
  9
$QTEXTMODE
 70
     0
  9
$MIRRTEXT
 70
     1
  9
$LTSCALE
 40
1.0
  9
$ATTMODE
 70
     1
  9
$TEXTSIZE
 40
2.0
  9
$TRACEWID
 40
1.0
  9
$TEXTSTYLE
  7
Standard
  9
$CLAYER
  8
0
  9
$CELTYPE
  6
ByLayer
  9
$CECOLOR
 62
   256
  9
$CELTSCALE
 40
1.0
  9
$DISPSILH
 70
     0
  9
$DIMSCALE
 40
1.0
  9
$DIMASZ
 40
2.0
  9
$DIMEXO
 40
1.0
  9
$DIMDLI
 40
3.75
  9
$DIMRND
 40
0.0
  9
$DIMDLE
 40
0.0
  9
$DIMEXE
 40
1.0
  9
$DIMTP
 40
0.0
  9
$DIMTM
 40
0.0
  9
$DIMTXT
 40
2.0
  9
$DIMCEN
 40
2.5
  9
$DIMTSZ
 40
0.0
  9
$DIMTOL
 70
     0
  9
$DIMLIM
 70
     0
  9
$DIMTIH
 70
     1
  9
$DIMTOH
 70
     1
  9
$DIMSE1
 70
     0
  9
$DIMSE2
 70
     0
  9
$DIMTAD
 70
     1
  9
$DIMZIN
 70
     0
  9
$DIMBLK
  1

  9
$DIMASO
 70
     1
  9
$DIMSHO
 70
     1
  9
$DIMPOST
  1

  9
$DIMAPOST
  1

  9
$DIMALT
 70
     0
  9
$DIMALTD
 70
     3
  9
$DIMALTF
 40
0.0393700787
  9
$DIMLFAC
 40
1.0
  9
$DIMTOFL
 70
     1
  9
$DIMTVP
 40
0.0
  9
$DIMTIX
 70
     0
  9
$DIMSOXD
 70
     0
  9
$DIMSAH
 70
     0
  9
$DIMBLK1
  1

  9
$DIMBLK2
  1

  9
$DIMSTYLE
  2
ISO-25
  9
$DIMCLRD
 70
     0
  9
$DIMCLRE
 70
     0
  9
$DIMCLRT
 70
     0
  9
$DIMTFAC
 40
1.0
  9
$DIMGAP
 40
1.524
  9
$DIMJUST
 70
     0
  9
$DIMSD1
 70
     0
  9
$DIMSD2
 70
     0
  9
$DIMTOLJ
 70
     0
  9
$DIMTZIN
 70
     0
  9
$DIMALTZ
 70
     0
  9
$DIMALTTZ
 70
     0
  9
$DIMUPT
 70
     0
  9
$DIMDEC
 70
     2
  9
$DIMTDEC
 70
     0
  9
$DIMALTU
 70
     2
  9
$DIMALTTD
 70
     3
  9
$DIMTXSTY
  7
Standard
  9
$DIMAUNIT
 70
     0
  9
$DIMADEC
 70
     2
  9
$DIMALTRND
 40
0.0
  9
$DIMAZIN
 70
     0
  9
$DIMDSEP
 70
    44
  9
$DIMATFIT
 70
     3
  9
$DIMFRAC
 70
     0
  9
$DIMLDRBLK
  1

  9
$DIMLUNIT
 70
     2
  9
$DIMLWD
 70
    -2
  9
$DIMLWE
 70
    -2
  9
$DIMTMOVE
 70
     0
  9
$LUNITS
 70
     2
  9
$LUPREC
 70
     3
  9
$SKETCHINC
 40
1.0
  9
$FILLETRAD
 40
10.0
  9
$AUNITS
 70
     0
  9
$AUPREC
 70
     2
  9
$MENU
  1
.
  9
$ELEVATION
 40
0.0
  9
$PELEVATION
 40
0.0
  9
$THICKNESS
 40
0.0
  9
$LIMCHECK
 70
     0
  9
$CHAMFERA
 40
0.0
  9
$CHAMFERB
 40
0.0
  9
$CHAMFERC
 40
0.0
  9
$CHAMFERD
 40
0.0
  9
$SKPOLY
 70
     0
  9
$TDCREATE
 40
2459115.547657396
  9
$TDUCREATE
 40
2459115.464324063
  9
$TDUPDATE
 40
2459115.547657581
  9
$TDUUPDATE
 40
2459115.464324248
  9
$TDINDWG
 40
0.0000000116
  9
$TDUSRTIMER
 40
0.0000000116
  9
$USRTIMER
 70
     1
  9
$ANGBASE
 50
0.0
  9
$ANGDIR
 70
     0
  9
$PDMODE
 70
     0
  9
$PDSIZE
 40
-1.0
  9
$PLINEWID
 40
0.0
  9
$SPLFRAME
 70
     0
  9
$SPLINETYPE
 70
     6
  9
$SPLINESEGS
 70
     8
  9
$HANDSEED
  5
320
  9
$SURFTAB1
 70
     6
  9
$SURFTAB2
 70
     6
  9
$SURFTYPE
 70
     6
  9
$SURFU
 70
     6
  9
$SURFV
 70
     6
  9
$UCSBASE
  2

  9
$UCSNAME
  2

  9
$UCSORG
 10
0.0
 20
0.0
 30
0.0
  9
$UCSXDIR
 10
1.0
 20
0.0
 30
0.0
  9
$UCSYDIR
 10
0.0
 20
1.0
 30
0.0
  9
$UCSORTHOREF
  2

  9
$UCSORTHOVIEW
 70
     0
  9
$UCSORGTOP
 10
0.0
 20
0.0
 30
0.0
  9
$UCSORGBOTTOM
 10
0.0
 20
0.0
 30
0.0
  9
$UCSORGLEFT
 10
0.0
 20
0.0
 30
0.0
  9
$UCSORGRIGHT
 10
0.0
 20
0.0
 30
0.0
  9
$UCSORGFRONT
 10
0.0
 20
0.0
 30
0.0
  9
$UCSORGBACK
 10
0.0
 20
0.0
 30
0.0
  9
$PUCSBASE
  2

  9
$PUCSNAME
  2

  9
$PUCSORG
 10
0.0
 20
0.0
 30
0.0
  9
$PUCSXDIR
 10
1.0
 20
0.0
 30
0.0
  9
$PUCSYDIR
 10
0.0
 20
1.0
 30
0.0
  9
$PUCSORTHOREF
  2

  9
$PUCSORTHOVIEW
 70
     0
  9
$PUCSORGTOP
 10
0.0
 20
0.0
 30
0.0
  9
$PUCSORGBOTTOM
 10
0.0
 20
0.0
 30
0.0
  9
$PUCSORGLEFT
 10
0.0
 20
0.0
 30
0.0
  9
$PUCSORGRIGHT
 10
0.0
 20
0.0
 30
0.0
  9
$PUCSORGFRONT
 10
0.0
 20
0.0
 30
0.0
  9
$PUCSORGBACK
 10
0.0
 20
0.0
 30
0.0
  9
$USERI1
 70
     0
  9
$USERI2
 70
     0
  9
$USERI3
 70
     0
  9
$USERI4
 70
     0
  9
$USERI5
 70
     0
  9
$USERR1
 40
0.0
  9
$USERR2
 40
0.0
  9
$USERR3
 40
0.0
  9
$USERR4
 40
0.0
  9
$USERR5
 40
0.0
  9
$WORLDVIEW
 70
     1
  9
$SHADEDGE
 70
     3
  9
$SHADEDIF
 70
    70
  9
$TILEMODE
 70
     1
  9
$MAXACTVP
 70
    64
  9
$PINSBASE
 10
0.0
 20
0.0
 30
0.0
  9
$PLIMCHECK
 70
     0
  9
$PEXTMIN
 10
1.0000000000E+20
 20
1.0000000000E+20
 30
1.0000000000E+20
  9
$PEXTMAX
 10
-1.0000000000E+20
 20
-1.0000000000E+20
 30
-1.0000000000E+20
  9
$PLIMMIN
 10
0.0
 20
0.0
  9
$PLIMMAX
 10
420.0
 20
297.0
  9
$UNITMODE
 70
     0
  9
$VISRETAIN
 70
     1
  9
$PLINEGEN
 70
     0
  9
$PSLTSCALE
 70
     1
  9
$TREEDEPTH
 70
  3020
  9
$CMLSTYLE
  2
Standard
  9
$CMLJUST
 70
     0
  9
$CMLSCALE
 40
20.0
  9
$PROXYGRAPHICS
 70
     1
  9
$MEASUREMENT
 70
     1
  9
$CELWEIGHT
370
    -1
  9
$ENDCAPS
280
     0
  9
$JOINSTYLE
280
     0
  9
$LWDISPLAY
290
     1
  9
$INSUNITS
 70
     4
  9
$HYPERLINKBASE
  1

  9
$STYLESHEET
  1

  9
$XEDIT
290
     1
  9
$CEPSNTYPE
380
     0
  9
$PSTYLEMODE
290
     1
  9
$FINGERPRINTGUID
  2
{edf283c6-0246-413f-b643-3e0b16f441cd}
  9
$VERSIONGUID
  2
{FAEB1C32-E019-11D5-929B-00C0DF256EC4}
  9
$EXTNAMES
290
     1
  9
$PSVPSCALE
 40
0.0
  9
$OLESTARTUP
290
     0
  0
ENDSEC
  0
SECTION
  2
CLASSES
  0
CLASS
  1
ACDBDICTIONARYWDFLT
  2
AcDbDictionaryWithDefault
  3
ObjectDBX Classes
 90
        0
280
     0
281
     0
  0
CLASS
  1
VISUALSTYLE
  2
AcDbVisualStyle
  3
ObjectDBX Classes
 90
     4095
280
     0
281
     0
  0
CLASS
  1
MATERIAL
  2
AcDbMaterial
  3
ObjectDBX Classes
 90
     1153
280
     0
281
     0
  0
CLASS
  1
SCALE
  2
AcDbScale
  3
ObjectDBX Classes
 90
     1153
280
     0
281
     0
  0
CLASS
  1
TABLESTYLE
  2
AcDbTableStyle
  3
ObjectDBX Classes
 90
     4095
280
     0
281
     0
  0
CLASS
  1
MLEADERSTYLE
  2
AcDbMLeaderStyle
  3
ACDB_MLEADERSTYLE_CLASS
 90
     4095
280
     0
281
     0
  0
CLASS
  1
SUN
  2
AcDbSun
  3
SCENEOE
 90
     1153
280
     0
281
     0
  0
CLASS
  1
ACDBPLACEHOLDER
  2
AcDbPlaceHolder
  3
ObjectDBX Classes
 90
        0
280
     0
281
     0
  0
CLASS
  1
LAYOUT
  2
AcDbLayout
  3
ObjectDBX Classes
 90
        0
280
     0
281
     0
  0
ENDSEC
  0
SECTION
  2
TABLES
  0
TABLE
  2
VPORT
  5
8
330
0
100
AcDbSymbolTable
 70
     1
  0
VPORT
  5
29
330
8
100
AcDbSymbolTableRecord
100
AcDbViewportTableRecord
  2
*Active
 70
     0
 10
0.0
 20
0.0
 11
1.0
 21
1.0
 12
10000.0
 22
5000.0
 13
0.0
 23
0.0
 14
10.0
 24
10.0
 15
10.0
 25
10.0
 16
0.0
 26
0.0
 36
1.0
 17
0.0
 27
0.0
 37
0.0
 40
10000.0
 41
2.0
 42
50.0
 43
0.0
 44
0.0
 50
0.0
 51
0.0
 71
     0
 72
  2000
 73
     1
 74
     3
 75
     0
 76
     0
 77
     0
 78
     0
281
     0
 65
     1
110
0.0
120
0.0
130
0.0
111
1.0
121
0.0
131
0.0
112
0.0
122
1.0
132
0.0
 79
     0
146
0.0
  0
ENDTAB
  0
TABLE
  2
LTYPE
  5
5
330
0
100
AcDbSymbolTable
 70
     6
  0
LTYPE
  5
14
330
5
100
AcDbSymbolTableRecord
100
AcDbLinetypeTableRecord
  2
ByBlock
 70
     0
  3

 72
    65
 73
     0
 40
0.0
  0
LTYPE
  5
15
330
5
100
AcDbSymbolTableRecord
100
AcDbLinetypeTableRecord
  2
ByLayer
 70
     0
  3

 72
    65
 73
     0
 40
0.0
  0
LTYPE
  5
16
330
5
100
AcDbSymbolTableRecord
100
AcDbLinetypeTableRecord
  2
Continuous
 70
     0
  3
Solid line
 72
    65
 73
     0
 40
0.0
  0
LTYPE
  5
6E
330
5
100
AcDbSymbolTableRecord
100
AcDbLinetypeTableRecord
  2
HIDDEN
 70
     0
  3
Hidden __ __ __ __ __ __ __ __ __ __ __ __ __ __
 72
    65
 73
     2
 40
1.905
 49
1.27
 74
     0
 49
-0.635
 74
     0
  0
LTYPE
  5
6F
330
5
100
AcDbSymbolTableRecord
100
AcDbLinetypeTableRecord
  2
PHANTOM
 70
     0
  3
Phantom ______  __  __  ______  __  __  ______
 72
    65
 73
     6
 40
12.7
 49
6.35
 74
     0
 49
-1.27
 74
     0
 49
1.27
 74
     0
 49
-1.27
 74
     0
 49
1.27
 74
     0
 49
-1.27
 74
     0
  0
LTYPE
  5
70
330
5
100
AcDbSymbolTableRecord
100
AcDbLinetypeTableRecord
  2
CENTER
 70
     0
  3
Center ____ _ ____ _ ____ _ ____ _ ____ _ ____
 72
    65
 73
     4
 40
10.16
 49
6.35
 74
     0
 49
-1.27
 74
     0
 49
1.27
 74
     0
 49
-1.27
 74
     0
  0
LTYPE
  5
71
330
5
100
AcDbSymbolTableRecord
100
AcDbLinetypeTableRecord
  2
CENTERX2
 70
     0
  3
Center (2x) ________  __  ________  __  _____
 72
    65
 73
     4
 40
20.32
 49
12.7
 74
     0
 49
-2.54
 74
     0
 49
2.54
 74
     0
 49
-2.54
 74
     0
  0
LTYPE
  5
72
330
5
100
AcDbSymbolTableRecord
100
AcDbLinetypeTableRecord
  2
DOT2
 70
     0
  3
Dot (.5x) ........................................
 72
    65
 73
     2
 40
0.635
 49
0.0
 74
     0
 49
-0.635
 74
     0
  0
ENDTAB
  0
TABLE
  2
LAYER
  5
2
330
0
100
AcDbSymbolTable
 70
    13
  0
LAYER
  5
10
330
2
100
AcDbSymbolTableRecord
100
AcDbLayerTableRecord
  2
0
 70
     0
 62
     7
  6
Continuous
370
    -3
390
F
  0
LAYER
  5
73
330
2
100
AcDbSymbolTableRecord
100
AcDbLayerTableRecord
  2
FORMAT
 70
     0
 62
     7
  6
Continuous
370
    -3
390
F
  0
LAYER
  5
74
330
2
100
AcDbSymbolTableRecord
100
AcDbLayerTableRecord
  2
OSA
 70
     0
 62
     7
  6
CENTER
370
    -3
390
F
  0
LAYER
  5
75
330
2
100
AcDbSymbolTableRecord
100
AcDbLayerTableRecord
  2
0_35
 70
     0
 62
     7
  6
Continuous
370
    35
390
F
  0
LAYER
  5
76
330
2
100
AcDbSymbolTableRecord
100
AcDbLayerTableRecord
  2
0_5
 70
     0
 62
     7
  6
Continuous
370
    50
390
F
  0
LAYER
  5
77
330
2
100
AcDbSymbolTableRecord
100
AcDbLayerTableRecord
  2
0_25
 70
     0
 62
     7
  6
Continuous
370
    25
390
F
  0
LAYER
  5
78
330
2
100
AcDbSymbolTableRecord
100
AcDbLayerTableRecord
  2
0_18
 70
     0
 62
     7
  6
Continuous
370
    -3
390
F
  0
LAYER
  5
79
330
2
100
AcDbSymbolTableRecord
100
AcDbLayerTableRecord
  2
SLD-0
 70
     0
 62
   179
  6
Continuous
370
    -3
390
F
  0
LAYER
  5
7A
330
2
100
AcDbSymbolTableRecord
100
AcDbLayerTableRecord
  2
KOTY
 70
     0
 62
     7
  6
Continuous
370
    -3
390
F
  0
LAYER
  5
7B
330
2
100
AcDbSymbolTableRecord
100
AcDbLayerTableRecord
  2
SILNA
 70
     0
 62
   179
  6
Continuous
370
    -3
390
F
  0
LAYER
  5
7C
330
2
100
AcDbSymbolTableRecord
100
AcDbLayerTableRecord
  2
0_18_1
 70
     0
 62
   179
  6
Continuous
370
    -3
390
F
  0
LAYER
  5
7D
330
2
100
AcDbSymbolTableRecord
100
AcDbLayerTableRecord
  2
0_35_1
 70
     0
 62
   179
  6
Continuous
370
    35
390
F
  0
LAYER
  5
7E
330
2
100
AcDbSymbolTableRecord
100
AcDbLayerTableRecord
  2
0_5_1
 70
     0
 62
   179
  6
Continuous
370
    50
390
F
  0
ENDTAB
  0
TABLE
  2
STYLE
  5
3
330
0
100
AcDbSymbolTable
 70
     1
  0
STYLE
  5
11
330
3
100
AcDbSymbolTableRecord
100
AcDbTextStyleTableRecord
  2
Standard
 70
     0
 40
0.0
 41
1.0
 50
0.0
 71
     0
 42
2.0
  3
txt
  4

  0
ENDTAB
  0
TABLE
  2
VIEW
  5
6
330
0
100
AcDbSymbolTable
 70
     0
  0
ENDTAB
  0
TABLE
  2
UCS
  5
7
330
0
100
AcDbSymbolTable
 70
     0
  0
ENDTAB
  0
TABLE
  2
APPID
  5
9
330
0
100
AcDbSymbolTable
 70
     1
  0
APPID
  5
12
330
9
100
AcDbSymbolTableRecord
100
AcDbRegAppTableRecord
  2
ACAD
 70
     0
  0
ENDTAB
  0
TABLE
  2
DIMSTYLE
  5
A
330
0
100
AcDbSymbolTable
 70
     1
100
AcDbDimStyleTable
  0
DIMSTYLE
105
27
330
A
100
AcDbSymbolTableRecord
100
AcDbDimStyleTableRecord
  2
ISO-25
 70
     0
 41
2.5
 42
0.625
 43
3.75
 44
1.25
 73
     0
 74
     0
 77
     1
 78
     8
140
2.5
141
2.5
143
0.0393700787
147
0.625
171
     3
172
     1
178
     0
271
     2
272
     2
274
     3
278
    44
283
     0
284
     8
340
11
  0
ENDTAB
  0
TABLE
  2
BLOCK_RECORD
  5
1
330
0
100
AcDbSymbolTable
 70
     1
  0
BLOCK_RECORD
  5
1F
330
1
100
AcDbSymbolTableRecord
100
AcDbBlockTableRecord
  2
*Model_Space
340
22
  0
BLOCK_RECORD
  5
1B
330
1
100
AcDbSymbolTableRecord
100
AcDbBlockTableRecord
  2
*Paper_Space
340
1E
  0
BLOCK_RECORD
  5
23
330
1
100
AcDbSymbolTableRecord
100
AcDbBlockTableRecord
  2
*Paper_Space0
340
26
  0
ENDTAB
  0
ENDSEC
  0
SECTION
  2
BLOCKS
  0
BLOCK
  5
20
330
1F
100
AcDbEntity
  8
0
100
AcDbBlockBegin
  2
*Model_Space
 70
     0
 10
0.0
 20
0.0
 30
0.0
  3
*Model_Space
  1

  0
ENDBLK
  5
21
330
1F
100
AcDbEntity
  8
0
100
AcDbBlockEnd
  0
BLOCK
  5
1C
330
1B
100
AcDbEntity
 67
     1
  8
0
100
AcDbBlockBegin
  2
*Paper_Space
 70
     0
 10
0.0
 20
0.0
 30
0.0
  3
*Paper_Space
  1

  0
ENDBLK
  5
1D
330
1B
100
AcDbEntity
 67
     1
  8
0
100
AcDbBlockEnd
  0
BLOCK
  5
24
330
23
100
AcDbEntity
  8
0
100
AcDbBlockBegin
  2
*Paper_Space0
 70
     0
 10
0.0
 20
0.0
 30
0.0
  3
*Paper_Space0
  1

  0
ENDBLK
  5
25
330
23
100
AcDbEntity
  8
0
100
AcDbBlockEnd
  0
ENDSEC
  0
SECTION
  2
ENTITIES
  0
LINE
  5
7F
330
1F
100
AcDbEntity
  8
0
  6
Continuous
 62
     7
370
    25
100
AcDbLine
 10
8941.0198107474
 20
6600.0878731075
 30
0.0
 11
8940.7759558136
 21
6599.8898234281
 31
0.0
  0
LINE
  5
80
330
1F
100
AcDbEntity
  8
0
  6
Continuous
 62
     7
370
    25
100
AcDbLine
 10
8966.2551672416
 20
6598.8810908286
 30
0.0
 11
8964.9160042441
 21
6599.9844318077
 31
0.0
  0
LINE
  5
81
330
1F
100
AcDbEntity
  8
0
  6
Continuous
 62
     7
370
    25
100
AcDbLine
 10
8940.8520410138
 20
6600.2759327441
 30
0.0
 11
8940.8525701976
 21
6600.2461084596
 31
0.0
  0
LINE
  5
82
330
1F
100
AcDbEntity
  8
0
  6
Continuous
 62
     7
370
    25
100
AcDbLine
 10
8901.7910348967
 20
6600.0878731075
 30
0.0
 11
8900.4440931657
 21
6598.9939383906
 31
0.0
  0
LINE
  5
83
330
1F
100
AcDbEntity
  8
0
  6
Continuous
 62
     7
370
    25
100
AcDbLine
 10
8925.9849595634
 20
6599.7391300773
 30
0.0
 11
8925.6872283935
 21
6599.9844318076
 31
0.0
  0
LINE
  5
84
330
1F
100
AcDbEntity
  8
0
  6
Continuous
 62
     7
370
    25
100
AcDbLine
 10
8901.6232651631
 20
6600.2759327441
 30
0.0
 11
8901.6237943469
 21
6600.2461084596
 31
0.0
  0
LWPOLYLINE
  5
85
330
1F
100
AcDbEntity
  8
0
  6
Continuous
 62
     7
370
    25
100
AcDbPolyline
 90
       30
 70
   128
 43
0.0
 10
8932.7006039286
 20
6602.100627807
 10
8930.9900401204
 20
6601.3688367367
 10
8929.3915578123
 20
6600.7604973027
 10
8927.8191140627
 20
6600.2458199259
 10
8926.0890572844
 20
6599.7636331563
 10
8924.1138612309
 20
6599.2987009309
 10
8922.0599488595
 20
6598.9008198122
 10
8919.9557122821
 20
6598.5757831007
 10
8917.8248182783
 20
6598.3276280117
 10
8915.7041566059
 20
6598.1578363325
 10
8913.5352559418
 20
6598.0577244719
 10
8911.3212273112
 20
6598.0283031094
 10
8909.0855139932
 20
6598.0714092994
 10
8906.8537346941
 20
6598.1877728792
 10
8904.6550453962
 20
6598.3766102406
 10
8902.5179360217
 20
6598.6355511266
 10
8900.4672317054
 20
6598.9610623128
 10
8898.5187577087
 20
6599.3469635582
 10
8896.5915795969
 20
6599.8065652964
 10
8894.72467052
 20
6600.3338648422
 10
8892.9340174958
 20
6600.9257993684
 10
8891.2318368051
 20
6601.5795640155
 10
8889.6316071026
 20
6602.2912230069
 10
8888.1475900167
 20
6603.0555312383
 10
8886.7942317788
 20
6603.8658044807
 10
8885.5859189554
 20
6604.7131399008
 10
8884.5308014809
 20
6605.5887661507
 10
8883.6263158882
 20
6606.4928105399
 10
8882.8779940335
 20
6607.4187840976
 10
8882.7133329396
 20
6607.6822976333
  0
LWPOLYLINE
  5
86
330
1F
100
AcDbEntity
  8
0
  6
Continuous
 62
     7
370
    25
100
AcDbPolyline
 90
       33
 70
   128
 43
0.0
 10
8930.0961711929
 20
6623.0599769613
 10
8929.1885894715
 20
6623.3930102322
 10
8927.5074573849
 20
6623.9253440014
 10
8925.6900510824
 20
6624.4134349191
 10
8923.6155783974
 20
6624.8831369329
 10
8921.4713617507
 20
6625.2816173112
 10
8919.2865287367
 20
6625.603905463
 10
8917.0866325427
 20
6625.8465952541
 10
8914.8986947287
 20
6626.0095124199
 10
8912.6700666072
 20
6626.100379038
 10
8910.4039215433
 20
6626.118471725
 10
8908.1219072755
 20
6626.0622848211
 10
8905.8475087888
 20
6625.9311992413
 10
8903.6063429956
 20
6625.7257449134
 10
8901.424615213
 20
6625.4477870584
 10
8899.3244944857
 20
6625.099974565
 10
8897.3243976535
 20
6624.6875116166
 10
8895.3834404544
 20
6624.2057715469
 10
8893.4856716621
 20
6623.6490349605
 10
8891.6543991925
 20
6623.0208944968
 10
8889.9042136255
 20
6622.3234107205
 10
8888.2514072369
 20
6621.5597289122
 10
8886.7133286574
 20
6620.7340954615
 10
8885.3077436571
 20
6619.8517884102
 10
8884.051219734
 20
6618.9196516399
 10
8882.9476781939
 20
6617.9420366683
 10
8881.9851977129
 20
6616.9029561593
 10
8881.1862434821
 20
6615.8172123755
 10
8880.5610632126
 20
6614.6926481176
 10
8880.1187759107
 20
6613.5422792296
 10
8879.8631900538
 20
6612.3785846846
 10
8879.7941228581
 20
6611.212622144
 10
8879.8453863958
 20
6610.6941760893
  0
LWPOLYLINE
  5
87
330
1F
100
AcDbEntity
  8
0
  6
Continuous
 62
     7
370
    25
100
AcDbPolyline
 90
       30
 70
   128
 43
0.0
 10
8984.2910885511
 20
6607.630537681
 10
8984.1489384019
 20
6607.3886594461
 10
8983.3962440072
 20
6606.4210484947
 10
8982.4823171186
 20
6605.4860463709
 10
8981.414629416
 20
6604.5896500784
 10
8980.2001623107
 20
6603.7369704676
 10
8978.8465717694
 20
6602.930812779
 10
8977.3455112637
 20
6602.164731486
 10
8975.7088913287
 20
6601.4464393667
 10
8973.9556603862
 20
6600.7852939821
 10
8972.1047268814
 20
6600.1885202497
 10
8970.1743816683
 20
6599.6614629909
 10
8968.1813951894
 20
6599.2077203817
 10
8966.1406293976
 20
6598.8297147582
 10
8964.0841563487
 20
6598.5310817997
 10
8961.9729990475
 20
6598.3014909625
 10
8959.7929391971
 20
6598.1393919059
 10
8957.5668834783
 20
6598.048068921
 10
8955.3197486759
 20
6598.0297758436
 10
8953.0805381848
 20
6598.0854542049
 10
8950.8763805917
 20
6598.2145125377
 10
8948.7316396695
 20
6598.4151109602
 10
8946.6634979223
 20
6598.6841494197
 10
8944.6417302162
 20
6599.0212353504
 10
8942.6341310544
 20
6599.4325879951
 10
8940.6873757734
 20
6599.9116200446
 10
8939.0272131878
 20
6600.3913794112
 10
8937.3768249397
 20
6600.9529410804
 10
8935.7938260102
 20
6601.5714957351
 10
8934.5618993166
 20
6602.1031189326
  0
LWPOLYLINE
  5
88
330
1F
100
AcDbEntity
  8
0
  6
Continuous
 62
     7
370
    25
100
AcDbPolyline
 90
       32
 70
   128
 43
0.0
 10
8987.0678844368
 20
6610.3656175645
 10
8987.1045290835
 20
6611.4665044878
 10
8986.9596462288
 20
6612.6265432863
 10
8986.635104303
 20
6613.7677807308
 10
8986.1318820288
 20
6614.8919236775
 10
8985.4503459344
 20
6615.994683991
 10
8984.592181273
 20
6617.0695746462
 10
8983.5627184419
 20
6618.1079099105
 10
8982.3713068585
 20
6619.1006387918
 10
8981.0267053997
 20
6620.0420360045
 10
8979.540926097
 20
6620.9262650611
 10
8977.9170255172
 20
6621.7546135123
 10
8976.1718938636
 20
6622.5201804215
 10
8974.3218004294
 20
6623.2177741519
 10
8972.3822189904
 20
6623.8435540481
 10
8970.3672990706
 20
6624.394905471
 10
8968.2894708671
 20
6624.8702539551
 10
8966.1621079591
 20
6625.2681377053
 10
8964.0204625153
 20
6625.5851737561
 10
8961.8262776178
 20
6625.8305273751
 10
8959.5864275277
 20
6626.0034786731
 10
8957.3175002369
 20
6626.1023171076
 10
8955.0377870331
 20
6626.1258865201
 10
8952.7648602778
 20
6626.0737377999
 10
8950.5158018156
 20
6625.9460440137
 10
8948.3066712342
 20
6625.7435284943
 10
8946.1609516331
 20
6625.4696696526
 10
8944.0674397955
 20
6625.1254207945
 10
8942.0167856974
 20
6624.7082041284
 10
8940.0288949639
 20
6624.2203390178
 10
8938.1146128691
 20
6623.6607396219
 10
8936.5309217486
 20
6623.1106519879
  0
LWPOLYLINE
  5
89
330
1F
100
AcDbEntity
  8
0
  6
Continuous
 62
     7
370
    25
100
AcDbPolyline
 90
       16
 70
   128
 43
0.0
 10
8880.222322861
 20
6608.8532608435
 10
8881.3155279051
 20
6605.7028443655
 10
8882.3763054584
 20
6602.6292132059
 10
8883.2655155642
 20
6600.0408742431
 10
8884.0168401153
 20
6597.8455492335
 10
8884.7349753243
 20
6595.7401287517
 10
8885.4261814566
 20
6593.7072396209
 10
8886.0899406249
 20
6591.7493054724
 10
8886.7634851267
 20
6589.7567372183
 10
8887.8485969462
 20
6586.534071199
 10
8889.0297195667
 20
6583.0088441753
 10
8890.177802041
 20
6579.5655046198
 10
8890.7966004807
 20
6577.7030122309
 10
8891.383189334
 20
6575.9333428771
 10
8892.1319596382
 20
6573.668728695
 10
8893.0365828294
 20
6570.9238728474
  0
LWPOLYLINE
  5
8A
330
1F
100
AcDbEntity
  8
0
  6
Continuous
 62
     7
370
    25
100
AcDbPolyline
 90
       12
 70
   128
 43
0.0
 10
8973.7615022839
 20
6570.9197915924
 10
8975.5763472874
 20
6576.3434701148
 10
8977.2759002234
 20
6581.3875905715
 10
8978.7819096333
 20
6585.8277772637
 10
8980.095197164
 20
6589.6756454435
 10
8981.216510819
 20
6592.942205765
 10
8982.0047914288
 20
6595.2278060402
 10
8982.7197781694
 20
6597.2936217561
 10
8983.5507041426
 20
6599.6868207603
 10
8984.5105908199
 20
6602.440443826
 10
8985.598052208
 20
6605.545208847
 10
8986.6649003566
 20
6608.5745115105
  0
LINE
  5
8B
330
1F
100
AcDbEntity
  8
0
  6
Continuous
 62
     7
370
    25
100
AcDbLine
 10
8934.1477999118
 20
6602.1721164806
 30
0.0
 11
8933.6432122
 21
6602.1624652087
 31
0.0
  0
LINE
  5
8C
330
1F
100
AcDbEntity
  8
0
  6
Continuous
 62
     7
370
    25
100
AcDbLine
 10
8933.6208219164
 20
6602.162512733
 30
0.0
 11
8933.11815392
 21
6602.174200078
 31
0.0
  0
LINE
  5
8D
330
1F
100
AcDbEntity
  8
0
  6
Continuous
 62
     7
370
    25
100
AcDbLine
 10
8933.6432647468
 20
6602.1577354813
 30
0.0
 11
8933.620905048
 21
6602.1579404541
 31
0.0
  0
LWPOLYLINE
  5
8E
330
1F
100
AcDbEntity
  8
0
  6
Continuous
 62
     7
370
    25
100
AcDbPolyline
 90
        3
 70
   128
 43
0.0
 10
8933.0797987846
 20
6602.1748934626
 10
8932.8950063347
 20
6602.1533076609
 10
8932.7201189897
 20
6602.0954484115
  0
LWPOLYLINE
  5
8F
330
1F
100
AcDbEntity
  8
0
  6
Continuous
 62
     7
370
    25
100
AcDbPolyline
 90
        3
 70
   128
 43
0.0
 10
8934.5348709881
 20
6602.0962746319
 10
8934.3652184159
 20
6602.1514497634
 10
8934.1860235904
 20
6602.1726427921
  0
ARC
  5
90
330
1F
100
AcDbEntity
  8
0
  6
Continuous
 62
     7
370
    25
100
AcDbCircle
 10
8893.5110623895
 20
6571.0819837696
 30
0.0
 40
0.4999999911171474
100
AcDbArc
 50
198.3607494265
 51
269.9972112471
  0
ARC
  5
91
330
1F
100
AcDbEntity
  8
0
  6
Continuous
 62
     7
370
    25
100
AcDbCircle
 10
8973.2882565409
 20
6571.081983766
 30
0.0
 40
0.4999999875186646
100
AcDbArc
 50
270.0039136906
 51
341.1783635131
  0
LINE
  5
92
330
1F
100
AcDbEntity
  8
0
  6
Continuous
 62
     7
370
    25
100
AcDbLine
 10
8923.5217772936
 20
6570.5819837785
 30
0.0
 11
8923.5217772936
 21
6564.5819837785
 31
0.0
  0
LINE
  5
93
330
1F
100
AcDbEntity
  8
0
  6
Continuous
 62
     7
370
    25
100
AcDbLine
 10
8943.2760058546
 20
6564.5819837785
 30
0.0
 11
8943.2760058546
 21
6570.5819837785
 31
0.0
  0
LWPOLYLINE
  5
94
330
1F
100
AcDbEntity
  8
0
  6
Continuous
 62
     7
370
    25
100
AcDbPolyline
 90
        3
 70
   128
 43
0.0
 10
8936.6263981278
 20
6623.1636978877
 10
8935.898657316
 20
6622.9243502746
 10
8935.4564120438
 20
6622.7860858898
  0
LWPOLYLINE
  5
95
330
1F
100
AcDbEntity
  8
0
  6
Continuous
 62
     7
370
    25
100
AcDbPolyline
 90
        3
 70
   128
 43
0.0
 10
8931.1312649789
 20
6622.7781969358
 10
8930.824375904
 20
6622.8598009962
 10
8929.9038189614
 20
6623.1566709923
  0
ARC
  5
96
330
1F
100
AcDbEntity
  8
0
  6
Continuous
 62
     7
370
    25
100
AcDbCircle
 10
8935.3988915741
 20
6422.0667675047
 30
0.0
 40
0.5
100
AcDbArc
 50
270.0
 51
0.0
  0
LINE
  5
97
330
1F
100
AcDbEntity
  8
0
  6
Continuous
 62
     7
370
    25
100
AcDbLine
 10
8931.3988915741
 20
6421.5667675047
 30
0.0
 11
8935.3988915741
 21
6421.5667675047
 31
0.0
  0
ARC
  5
98
330
1F
100
AcDbEntity
  8
0
  6
Continuous
 62
     7
370
    25
100
AcDbCircle
 10
8931.3988915741
 20
6422.0667675047
 30
0.0
 40
0.5
100
AcDbArc
 50
180.0
 51
270.0
  0
LINE
  5
99
330
1F
100
AcDbEntity
  8
0
  6
Continuous
 62
     7
370
    25
100
AcDbLine
 10
8935.9613915741
 20
6443.5314238956
 30
0.0
 11
8935.8988915741
 21
6443.5314238956
 31
0.0
  0
LINE
  5
9A
330
1F
100
AcDbEntity
  8
0
  6
Continuous
 62
     7
370
    25
100
AcDbLine
 10
8935.8988915741
 20
6442.7326840853
 30
0.0
 11
8935.9613915741
 21
6442.7326840853
 31
0.0
  0
LINE
  5
9B
330
1F
100
AcDbEntity
  8
0
  6
Continuous
 62
     7
370
    25
100
AcDbLine
 10
8935.9613915741
 20
6455.6085458742
 30
0.0
 11
8935.8988915741
 21
6455.6085458742
 31
0.0
  0
LINE
  5
9C
330
1F
100
AcDbEntity
  8
0
  6
Continuous
 62
     7
370
    25
100
AcDbLine
 10
8935.8988915741
 20
6452.7612056454
 30
0.0
 11
8935.9613915741
 21
6452.7612056454
 31
0.0
  0
LINE
  5
9D
330
1F
100
AcDbEntity
  8
0
  6
Continuous
 62
     7
370
    25
100
AcDbLine
 10
8935.9613915741
 20
6452.2864202573
 30
0.0
 11
8935.8988915741
 21
6452.2864202573
 31
0.0
  0
LINE
  5
9E
330
1F
100
AcDbEntity
  8
0
  6
Continuous
 62
     7
370
    25
100
AcDbLine
 10
8935.8988915741
 20
6448.7678103735
 30
0.0
 11
8935.9613915741
 21
6448.7678103735
 31
0.0
  0
LINE
  5
9F
330
1F
100
AcDbEntity
  8
0
  6
Continuous
 62
     7
370
    25
100
AcDbLine
 10
8944.6488915741
 20
6542.4124893063
 30
0.0
 11
8944.6488915741
 21
6564.5819837785
 31
0.0
  0
LINE
  5
A0
330
1F
100
AcDbEntity
  8
0
  6
Continuous
 62
     7
370
    25
100
AcDbLine
 10
8922.1488915741
 20
6564.5819837785
 30
0.0
 11
8922.1488915741
 21
6542.4124893063
 31
0.0
  0
LWPOLYLINE
  5
A1
330
1F
100
AcDbEntity
  8
0
  6
Continuous
 62
     7
370
    25
100
AcDbPolyline
 90
       15
 70
   128
 43
0.0
 10
8965.9756786627
 20
6598.8057612588
 10
8965.7381129813
 20
6599.1837242829
 10
8964.5683953015
 20
6600.2551130285
 10
8962.9391814628
 20
6601.2348498196
 10
8960.9034889108
 20
6602.0647990892
 10
8958.4730243346
 20
6602.7143894116
 10
8957.1531038671
 20
6602.9520735797
 10
8955.7731254806
 20
6603.1272502516
 10
8952.8765436489
 20
6603.2739572338
 10
8950.0046345475
 20
6603.1350861055
 10
8947.2886822213
 20
6602.7242738954
 10
8944.8727099474
 20
6602.0778759708
 10
8942.8435408426
 20
6601.2428674525
 10
8941.2412085283
 20
6600.2611946013
 10
8940.8335594595
 20
6599.8756490772
  0
LWPOLYLINE
  5
A2
330
1F
100
AcDbEntity
  8
0
  6
Continuous
 62
     7
370
    25
100
AcDbPolyline
 90
       10
 70
   128
 43
0.0
 10
8944.992417855
 20
6598.9627657899
 10
8945.004126182
 20
6598.9664823927
 10
8947.1479922221
 20
6599.4219249954
 10
8949.4691192611
 20
6599.7209554657
 10
8951.9292131452
 20
6599.8635438608
 10
8954.4729144089
 20
6599.8426680729
 10
8956.9836943266
 20
6599.6335298424
 10
8959.3287487404
 20
6599.202266414
 10
8961.3223657219
 20
6598.5652383814
 10
8961.9033566995
 20
6598.2963126831
  0
LWPOLYLINE
  5
A3
330
1F
100
AcDbEntity
  8
0
  6
Continuous
 62
     7
370
    25
100
AcDbPolyline
 90
        9
 70
   128
 43
0.0
 10
8945.1095528301
 20
6598.9432360725
 10
8947.1478315638
 20
6599.3762477225
 10
8949.4689586029
 20
6599.6752781928
 10
8951.9290524869
 20
6599.8178665879
 10
8954.4727537507
 20
6599.7969908
 10
8956.9835336684
 20
6599.5878525695
 10
8959.3285880822
 20
6599.1565891411
 10
8961.3222050637
 20
6598.5195611085
 10
8961.8181945098
 20
6598.2899804209
  0
ARC
  5
A4
330
1F
100
AcDbEntity
  8
0
  6
Continuous
 62
     7
370
    25
100
AcDbCircle
 10
8952.57177936
 20
6574.6121372274
 30
0.0
 40
24.92038062201111
100
AcDbArc
 50
71.2242169632
 51
104.4964329296
  0
ARC
  5
A5
330
1F
100
AcDbEntity
  8
0
  6
Continuous
 62
     7
370
    25
100
AcDbCircle
 10
8953.3067253508
 20
6587.5078310971
 30
0.0
 40
11.48081374449725
100
AcDbArc
 50
66.8278104321
 51
109.1097448104
  0
ARC
  5
A6
330
1F
100
AcDbEntity
  8
0
  6
Continuous
 62
     7
370
    25
100
AcDbCircle
 10
8953.3090239302
 20
6587.3706433224
 30
0.0
 40
11.56978844345699
100
AcDbArc
 50
67.4467569416
 51
108.4709839677
  0
LINE
  5
A7
330
1F
100
AcDbEntity
  8
0
  6
Continuous
 62
     7
370
    25
100
AcDbLine
 10
8940.8393797389
 20
6599.943684103
 30
0.0
 11
8940.8527042638
 21
6600.249182264
 31
0.0
  0
ARC
  5
A8
330
1F
100
AcDbEntity
  8
0
  6
Continuous
 62
     7
370
    25
100
AcDbCircle
 10
8942.3385138491
 20
6599.0601366863
 30
0.0
 40
1.90301327102102
100
AcDbArc
 50
104.5475056915
 51
141.33083676
  0
ARC
  5
A9
330
1F
100
AcDbEntity
  8
0
  6
Continuous
 62
     7
370
    25
100
AcDbCircle
 10
8963.5825421873
 20
6599.4006015418
 30
0.0
 40
1.526924700031008
100
AcDbArc
 50
33.7620418347
 51
79.5373458722
  0
LINE
  5
AA
330
1F
100
AcDbEntity
  8
0
  6
Continuous
 62
     7
370
    25
100
AcDbLine
 10
8964.8519553578
 20
6600.249182264
 30
0.0
 11
8964.856532892
 21
6599.9911968913
 31
0.0
  0
LINE
  5
AB
330
1F
100
AcDbEntity
  8
0
  6
Continuous
 62
     7
370
    25
100
AcDbLine
 10
8942.6718406111
 20
6601.1605093266
 30
0.0
 11
8941.8605099539
 21
6600.9021387998
 31
0.0
  0
LINE
  5
AC
330
1F
100
AcDbEntity
  8
0
  6
Continuous
 62
     7
370
    25
100
AcDbLine
 10
8963.8598234567
 20
6600.9021387998
 30
0.0
 11
8963.2371499825
 21
6601.1010882842
 31
0.0
  0
LWPOLYLINE
  5
AD
330
1F
100
AcDbEntity
  8
0
  6
Continuous
 62
     7
370
    25
100
AcDbPolyline
 90
       15
 70
   128
 43
0.0
 10
8925.9197228794
 20
6599.7237743172
 10
8925.3396194508
 20
6600.2551130285
 10
8923.7104056121
 20
6601.2348498196
 10
8921.6747130601
 20
6602.0647990892
 10
8919.2442484839
 20
6602.7143894115
 10
8917.9243280165
 20
6602.9520735797
 10
8916.54434963
 20
6603.1272502515
 10
8913.6477677982
 20
6603.2739572338
 10
8910.7758586969
 20
6603.1350861055
 10
8908.0599063706
 20
6602.7242738954
 10
8905.6439340967
 20
6602.0778759707
 10
8903.614764992
 20
6601.2428674525
 10
8902.0124326777
 20
6600.2611946013
 10
8900.8710201079
 20
6599.1816716952
 10
8900.7168989894
 20
6598.9214322729
  0
ARC
  5
AE
330
1F
100
AcDbEntity
  8
0
  6
Continuous
 62
     7
370
    25
100
AcDbCircle
 10
8913.3196377716
 20
6570.7189682405
 30
0.0
 40
29.20864179999258
100
AcDbArc
 50
73.9917943357
 51
108.3566027399
  0
ARC
  5
AF
330
1F
100
AcDbEntity
  8
0
  6
Continuous
 62
     7
370
    25
100
AcDbCircle
 10
8913.3275605248
 20
6570.6478842295
 30
0.0
 40
29.23408477325649
100
AcDbArc
 50
74.2188325017
 51
108.1417352505
  0
ARC
  5
B0
330
1F
100
AcDbEntity
  8
0
  6
Continuous
 62
     7
370
    25
100
AcDbCircle
 10
8913.4405508231
 20
6572.1758590715
 30
0.0
 40
27.30789890521879
100
AcDbArc
 50
75.5610068783
 51
106.9031877085
  0
ARC
  5
B1
330
1F
100
AcDbEntity
  8
0
  6
Continuous
 62
     7
370
    25
100
AcDbCircle
 10
8914.155843083
 20
6587.4683428236
 30
0.0
 40
11.5173492994006
100
AcDbArc
 50
71.022189198
 51
112.848817759
  0
ARC
  5
B2
330
1F
100
AcDbEntity
  8
0
  6
Continuous
 62
     7
370
    25
100
AcDbCircle
 10
8914.1511308121
 20
6587.3159398526
 30
0.0
 40
11.62130489072183
100
AcDbArc
 50
71.7330295047
 51
112.1094327778
  0
LINE
  5
B3
330
1F
100
AcDbEntity
  8
0
  6
Continuous
 62
     7
370
    25
100
AcDbLine
 10
8901.6106038882
 20
6599.9436841029
 30
0.0
 11
8901.6239284132
 21
6600.249182264
 31
0.0
  0
ARC
  5
B4
330
1F
100
AcDbEntity
  8
0
  6
Continuous
 62
     7
370
    25
100
AcDbCircle
 10
8903.1097379985
 20
6599.0601366863
 30
0.0
 40
1.903013271018803
100
AcDbArc
 50
104.5475056914
 51
141.33083676
  0
ARC
  5
B5
330
1F
100
AcDbEntity
  8
0
  6
Continuous
 62
     7
370
    25
100
AcDbCircle
 10
8924.3537663367
 20
6599.4006015418
 30
0.0
 40
1.526924700022415
100
AcDbArc
 50
33.7620418345
 51
79.5373458724
  0
LINE
  5
B6
330
1F
100
AcDbEntity
  8
0
  6
Continuous
 62
     7
370
    25
100
AcDbLine
 10
8925.6231795071
 20
6600.249182264
 30
0.0
 11
8925.6277570414
 21
6599.9911968913
 31
0.0
  0
LINE
  5
B7
330
1F
100
AcDbEntity
  8
0
  6
Continuous
 62
     7
370
    25
100
AcDbLine
 10
8903.4430647604
 20
6601.1605093266
 30
0.0
 11
8902.6317341033
 21
6600.9021387998
 31
0.0
  0
LINE
  5
B8
330
1F
100
AcDbEntity
  8
0
  6
Continuous
 62
     7
370
    25
100
AcDbLine
 10
8924.6310476061
 20
6600.9021387998
 30
0.0
 11
8924.0083741319
 21
6601.1010882842
 31
0.0
  0
ARC
  5
B9
330
1F
100
AcDbEntity
  8
0
  6
Continuous
 62
     7
370
    25
100
AcDbCircle
 10
8888.014646222
 20
6611.4148287879
 30
0.0
 40
6.517906590102637
100
AcDbArc
 50
183.1150926776
 51
216.6856652176
  0
LWPOLYLINE
  5
BA
330
1F
100
AcDbEntity
  8
0
  6
Continuous
 62
     7
370
    25
100
AcDbPolyline
 90
       40
 70
   128
 43
0.0
 10
8933.0421149428
 20
6602.0831721538
 10
8930.2100412489
 20
6600.9175223035
 10
8926.5276150979
 20
6599.775891432
 10
8922.4521344632
 20
6598.881952997
 10
8918.11116904
 20
6598.2784028481
 10
8913.5807311039
 20
6597.9746175688
 10
8910.3328106361
 20
6597.9512989145
 10
8907.0864718576
 20
6598.0850918193
 10
8903.9101761736
 20
6598.3726268915
 10
8900.3662444037
 20
6598.8945386817
 10
8897.0026415529
 20
6599.604010317
 10
8893.8975805262
 20
6600.4775926167
 10
8890.7801741173
 20
6601.6245483041
 10
8888.033199615
 20
6602.9286664687
 10
8885.7043284732
 20
6604.3531602632
 10
8883.7262700618
 20
6605.9592136778
 10
8882.2275940701
 20
6607.6551125035
 10
8881.223579491
 20
6609.4029993426
 10
8880.7175597496
 20
6611.1805722605
 10
8880.7010493345
 20
6612.974246979
 10
8881.1754018622
 20
6614.7503306515
 10
8881.9509880886
 20
6616.2051443462
 10
8883.0714568386
 20
6617.6249211087
 10
8884.530033148
 20
6618.9878591521
 10
8886.1946213879
 20
6620.1949051874
 10
8888.1474248826
 20
6621.3317035334
 10
8890.3671371541
 20
6622.3791432074
 10
8893.8472854923
 20
6623.6520171207
 10
8897.7658817692
 20
6624.6921176454
 10
8901.9558460393
 20
6625.4434274505
 10
8906.3941279222
 20
6625.9065802633
 10
8909.5424378931
 20
6626.0445219753
 10
8912.7223444888
 20
6626.0334375031
 10
8915.8697749132
 20
6625.8737269357
 10
8919.2723226995
 20
6625.5239307478
 10
8922.5574217004
 20
6625.0021739606
 10
8925.6530068433
 20
6624.3243587994
 10
8928.3490521857
 20
6623.5513205625
 10
8930.8381856296
 20
6622.6634700769
 10
8933.1194406074
 20
6621.6904287134
  0
ARC
  5
BB
330
1F
100
AcDbEntity
  8
0
  6
Continuous
 62
     7
370
    25
100
AcDbCircle
 10
8933.544228235
 20
6620.7309379
 30
0.0
 40
1.049317468414039
100
AcDbArc
 50
113.8800228752
 51
164.6830220155
  0
LINE
  5
BC
330
1F
100
AcDbEntity
  8
0
  6
Continuous
 62
     7
370
    25
100
AcDbLine
 10
8932.5321833785
 20
6621.0081244038
 30
0.0
 11
8932.1006606972
 21
6621.2018125766
 31
0.0
  0
LINE
  5
BD
330
1F
100
AcDbEntity
  8
0
  6
Continuous
 62
     7
370
    25
100
AcDbLine
 10
8933.0817044698
 20
6602.0608143337
 30
0.0
 11
8933.0421149428
 21
6602.0831721538
 31
0.0
  0
LINE
  5
BE
330
1F
100
AcDbEntity
  8
0
  6
Continuous
 62
     7
370
    25
100
AcDbLine
 10
8932.6757753518
 20
6601.8413707277
 30
0.0
 11
8933.0817044699
 21
6602.0608143337
 31
0.0
  0
LWPOLYLINE
  5
BF
330
1F
100
AcDbEntity
  8
0
  6
Continuous
 62
     7
370
    25
100
AcDbPolyline
 90
       10
 70
   128
 43
0.0
 10
8927.9615817144
 20
6598.8999837035
 10
8927.9538777529
 20
6598.9479571793
 10
8927.9547722848
 20
6598.998899472
 10
8927.966589046
 20
6599.0512323501
 10
8927.9916424319
 20
6599.1033756434
 10
8928.1385204286
 20
6599.2800035479
 10
8928.4680945639
 20
6599.5441355902
 10
8929.1210242077
 20
6599.9602619374
 10
8930.3696780102
 20
6600.6407185672
 10
8932.6757753518
 20
6601.8413707277
  0
ARC
  5
C0
330
1F
100
AcDbEntity
  8
0
  6
Continuous
 62
     7
370
    25
100
AcDbCircle
 10
8886.5133788602
 20
6610.8803691599
 30
0.0
 40
6.626021265790196
100
AcDbArc
 50
183.1550751679
 51
216.4943965203
  0
LINE
  5
C1
330
1F
100
AcDbEntity
  8
0
  6
Continuous
 62
     7
370
    25
100
AcDbLine
 10
8930.7712764215
 20
6622.8232884618
 30
0.0
 11
8930.0153253155
 21
6623.0836625673
 31
0.0
  0
LWPOLYLINE
  5
C2
330
1F
100
AcDbEntity
  8
0
  6
Continuous
 62
     7
370
    25
100
AcDbPolyline
 90
        3
 70
   128
 43
0.0
 10
8933.132219769
 20
6621.6948398352
 10
8931.8765204715
 20
6622.3328003414
 10
8930.7712764215
 20
6622.8232884618
  0
ARC
  5
C3
330
1F
100
AcDbEntity
  8
0
  6
Continuous
 62
     7
370
    25
100
AcDbCircle
 10
8933.3273794404
 20
6621.1087396205
 30
0.0
 40
0.6177384228759009
100
AcDbArc
 50
108.4167287622
 51
109.6706583813
  0
ARC
  5
C4
330
1F
100
AcDbEntity
  8
0
  6
Continuous
 62
     7
370
    25
100
AcDbCircle
 10
8979.9416975187
 20
6610.9428516819
 30
0.0
 40
5.47111006031117
100
AcDbArc
 50
320.8130575949
 51
358.6047111029
  0
LINE
  5
C5
330
1F
100
AcDbEntity
  8
0
  6
Continuous
 62
     7
370
    25
100
AcDbLine
 10
8934.4635885292
 20
6621.2018125766
 30
0.0
 11
8934.0391565803
 21
6621.0081384498
 31
0.0
  0
ARC
  5
C6
330
1F
100
AcDbEntity
  8
0
  6
Continuous
 62
     7
370
    25
100
AcDbCircle
 10
8933.031951414
 20
6620.7326065419
 30
0.0
 40
1.044212660010806
100
AcDbArc
 50
15.2995635972
 51
66.5317849098
  0
LWPOLYLINE
  5
C7
330
1F
100
AcDbEntity
  8
0
  6
Continuous
 62
     7
370
    25
100
AcDbPolyline
 90
       40
 70
   128
 43
0.0
 10
8933.4477989428
 20
6621.6904431209
 10
8936.5865553658
 20
6623.0196056735
 10
8940.248635408
 20
6624.1737588841
 10
8944.3086443977
 20
6625.0814256544
 10
8948.6365136738
 20
6625.6991087917
 10
8953.1596296722
 20
6626.017923001
 10
8956.3952787063
 20
6626.0523361469
 10
8959.6326434224
 20
6625.9307630666
 10
8962.8038805669
 20
6625.656197106
 10
8966.3339127339
 20
6625.1521484329
 10
8969.6902758154
 20
6624.4620279584
 10
8972.7951679746
 20
6623.608440944
 10
8975.9203807052
 20
6622.4835851659
 10
8978.6820452692
 20
6621.2010261551
 10
8981.0320179834
 20
6619.7971298188
 10
8983.0518056428
 20
6618.1990111313
 10
8984.590602561
 20
6616.5082769573
 10
8985.6322671418
 20
6614.7633544962
 10
8986.1740853576
 20
6612.9825032828
 10
8986.2229492542
 20
6611.1838414439
 10
8985.7790248479
 20
6609.4013441471
 10
8984.6702018483
 20
6607.4163896931
 10
8982.9250218213
 20
6605.5108096101
 10
8981.3449600129
 20
6604.2599046941
 10
8979.4654765362
 20
6603.0761182577
 10
8977.3070027256
 20
6601.9790722573
 10
8973.9191920836
 20
6600.6436459678
 10
8970.071837401
 20
6599.5342332921
 10
8965.9624286616
 20
6598.7162567005
 10
8961.5791168591
 20
6598.1795456292
 10
8958.4824316875
 20
6597.989480051
 10
8955.3395910663
 20
6597.9446036872
 10
8952.2126260773
 20
6598.0458404813
 10
8949.0525495019
 20
6598.3026974573
 10
8945.9733240115
 20
6598.7077181241
 10
8943.0341333913
 20
6599.2503156817
 10
8940.2721409265
 20
6599.9212490899
 10
8937.6919532148
 20
6600.7101292391
 10
8935.3280351255
 20
6601.5995026621
 10
8934.2262517483
 20
6602.080723585
  0
LINE
  5
C8
330
1F
100
AcDbEntity
  8
0
  6
Continuous
 62
     7
370
    25
100
AcDbLine
 10
8936.5355461963
 20
6623.0970343605
 30
0.0
 11
8935.7534938819
 21
6622.8232869843
 31
0.0
  0
ARC
  5
C9
330
1F
100
AcDbEntity
  8
0
  6
Continuous
 62
     7
370
    25
100
AcDbCircle
 10
8980.5432764728
 20
6610.595281215
 30
0.0
 40
6.463293973271314
100
AcDbArc
 50
323.0327305233
 51
356.4372213701
  0
LWPOLYLINE
  5
CA
330
1F
100
AcDbEntity
  8
0
  6
Continuous
 62
     7
370
    25
100
AcDbPolyline
 90
       10
 70
   128
 43
0.0
 10
8934.5955317353
 20
6601.841370542
 10
8936.940117722
 20
6600.6407183399
 10
8938.1804195792
 20
6599.9752980705
 10
8938.6879359649
 20
6599.6660999022
 10
8939.2009565244
 20
6599.2800030561
 10
8939.3490147921
 20
6599.1033750348
 10
8939.3741224389
 20
6599.0512317196
 10
8939.3857807279
 20
6598.9988988676
 10
8939.3863294185
 20
6598.947956669
 10
8939.3781179172
 20
6598.8999832502
  0
LINE
  5
CB
330
1F
100
AcDbEntity
  8
0
  6
Continuous
 62
     7
370
    25
100
AcDbLine
 10
8934.187250975
 20
6602.0580196555
 30
0.0
 11
8934.5955317353
 21
6601.841370542
 31
0.0
  0
LINE
  5
CC
330
1F
100
AcDbEntity
  8
0
  6
Continuous
 62
     7
370
    25
100
AcDbLine
 10
8934.2262517483
 20
6602.080723585
 30
0.0
 11
8934.1872509892
 21
6602.0580196479
 31
0.0
  0
ARC
  5
CD
330
1F
100
AcDbEntity
  8
0
  6
Continuous
 62
     7
370
    25
100
AcDbCircle
 10
8933.2382401261
 20
6621.0967836306
 30
0.0
 40
0.6295605515548537
100
AcDbArc
 50
70.5572242516
 51
71.8018897504
  0
LWPOLYLINE
  5
CE
330
1F
100
AcDbEntity
  8
0
  6
Continuous
 62
     7
370
    25
100
AcDbPolyline
 90
        3
 70
   128
 43
0.0
 10
8935.7534938819
 20
6622.8232869843
 10
8934.6672746905
 20
6622.3327994009
 10
8933.434854144
 20
6621.6948550444
  0
LWPOLYLINE
  5
CF
330
1F
100
AcDbEntity
  8
0
  6
Continuous
 62
     7
370
    25
100
AcDbPolyline
 90
        6
 70
   128
 43
0.0
 10
8927.5757953793
 20
6589.9249520586
 10
8927.7715880545
 20
6594.4358844173
 10
8927.8797959496
 20
6596.9433638687
 10
8927.9078817908
 20
6597.5974158874
 10
8927.9358481078
 20
6598.2502783833
 10
8927.9615817144
 20
6598.8999837035
  0
LWPOLYLINE
  5
D0
330
1F
100
AcDbEntity
  8
0
  6
Continuous
 62
     7
370
    25
100
AcDbPolyline
 90
        3
 70
   128
 43
0.0
 10
8926.8347694331
 20
6570.9377064083
 10
8927.1873433358
 20
6580.7758050759
 10
8927.5757953793
 20
6589.9249520586
  0
LWPOLYLINE
  5
D1
330
1F
100
AcDbEntity
  8
0
  6
Continuous
 62
     7
370
    25
100
AcDbPolyline
 90
        3
 70
   128
 43
0.0
 10
8939.6864559316
 20
6589.924958884
 10
8940.0028336821
 20
6580.7758128206
 10
8940.2878310748
 20
6570.937706647
  0
LWPOLYLINE
  5
D2
330
1F
100
AcDbEntity
  8
0
  6
Continuous
 62
     7
370
    25
100
AcDbPolyline
 90
        7
 70
   128
 43
0.0
 10
8939.3781179172
 20
6598.8999832502
 10
8939.3854418977
 20
6598.4662888633
 10
8939.4024037913
 20
6598.121511512
 10
8939.4232892982
 20
6597.5071081956
 10
8939.4608798654
 20
6596.4073748052
 10
8939.5288634227
 20
6594.4358873913
 10
8939.6864559316
 20
6589.924958884
  0
LWPOLYLINE
  5
D3
330
1F
100
AcDbEntity
  8
0
  6
Continuous
 62
     7
370
    25
100
AcDbPolyline
 90
        3
 70
   128
 43
0.0
 10
8932.6757753518
 20
6601.8413707277
 10
8933.6354733018
 20
6601.8010097631
 10
8934.5955317353
 20
6601.841370542
  0
ARC
  5
D4
330
1F
100
AcDbEntity
  8
0
  6
Continuous
 62
     7
370
    25
100
AcDbCircle
 10
8933.631135591
 20
6572.2958038428
 30
0.0
 40
18.6401183444132
100
AcDbArc
 50
71.0432592977
 51
108.9568052846
  0
LINE
  5
D5
330
1F
100
AcDbEntity
  8
0
  6
Continuous
 62
     7
370
    25
100
AcDbLine
 10
8933.6238253628
 20
6602.0559610411
 30
0.0
 11
8933.0817044698
 21
6602.0608143337
 31
0.0
  0
LINE
  5
D6
330
1F
100
AcDbEntity
  8
0
  6
Continuous
 62
     7
370
    25
100
AcDbLine
 10
8933.6426372894
 20
6602.0559135427
 30
0.0
 11
8933.6238253628
 21
6602.0559610411
 31
0.0
  0
LINE
  5
D7
330
1F
100
AcDbEntity
  8
0
  6
Continuous
 62
     7
370
    25
100
AcDbLine
 10
8934.1872509892
 20
6602.0580196479
 30
0.0
 11
8933.6426372894
 21
6602.0559135427
 31
0.0
  0
ARC
  5
D8
330
1F
100
AcDbEntity
  8
0
  6
Continuous
 62
     7
370
    25
100
AcDbCircle
 10
8933.5612999109
 20
6549.6598166681
 30
0.0
 40
22.31579762082402
100
AcDbArc
 50
72.4568098605
 51
107.5431901395
  0
ARC
  5
D9
330
1F
100
AcDbEntity
  8
0
  6
Continuous
 62
     7
370
    25
100
AcDbCircle
 10
8930.7024152168
 20
6592.8021868444
 30
0.0
 40
22.20392270568777
100
AcDbArc
 50
259.9686191025
 51
270.9399055998
  0
LWPOLYLINE
  5
DA
330
1F
100
AcDbEntity
  8
0
  6
Continuous
 62
     7
370
    25
100
AcDbPolyline
 90
        3
 70
   128
 43
0.0
 10
8932.6957215354
 20
6570.5836740367
 10
8931.4782870752
 20
6570.5946597259
 10
8931.0666419619
 20
6570.601251675
  0
LINE
  5
DB
330
1F
100
AcDbEntity
  8
0
  6
Continuous
 62
     7
370
    25
100
AcDbLine
 10
8932.6536013705
 20
6570.5819837785
 30
0.0
 11
8932.6957215354
 21
6570.5836740367
 31
0.0
  0
LINE
  5
DC
330
1F
100
AcDbEntity
  8
0
  6
Continuous
 62
     7
370
    25
100
AcDbLine
 10
8932.6536013705
 20
6570.5819837785
 30
0.0
 11
8893.5114438481
 21
6570.5819837785
 31
0.0
  0
LWPOLYLINE
  5
DD
330
1F
100
AcDbEntity
  8
0
  6
Continuous
 62
     7
370
    25
100
AcDbPolyline
 90
        3
 70
   128
 43
0.0
 10
8931.5001531811
 20
6570.5917804714
 10
8931.5174366268
 20
6570.5915814365
 10
8932.4690901429
 20
6570.5840048399
  0
ARC
  5
DE
330
1F
100
AcDbEntity
  8
0
  6
Continuous
 62
     7
370
    25
100
AcDbCircle
 10
8935.9573219152
 20
6598.6384341459
 30
0.0
 40
28.03718269636046
100
AcDbArc
 50
269.9927337846
 51
278.8852434152
  0
LWPOLYLINE
  5
DF
330
1F
100
AcDbEntity
  8
0
  6
Continuous
 62
     7
370
    25
100
AcDbPolyline
 90
        3
 70
   128
 43
0.0
 10
8934.1732190783
 20
6570.5840048399
 10
8935.0844229068
 20
6570.591581071
 10
8935.1010930324
 20
6570.5917804714
  0
LINE
  5
E0
330
1F
100
AcDbEntity
  8
0
  6
Continuous
 62
     7
370
    25
100
AcDbLine
 10
8973.2704269814
 20
6570.5819837785
 30
0.0
 11
8934.2996947243
 21
6570.5819837785
 31
0.0
  0
LWPOLYLINE
  5
E1
330
1F
100
AcDbEntity
  8
0
  6
Continuous
 62
     7
370
    25
100
AcDbPolyline
 90
        3
 70
   128
 43
0.0
 10
8934.2576287435
 20
6570.5836740367
 10
8934.2726638448
 20
6570.5826813446
 10
8934.2996947243
 20
6570.5819837785
  0
LWPOLYLINE
  5
E2
330
1F
100
AcDbEntity
  8
0
  6
Continuous
 62
     7
370
    25
100
AcDbPolyline
 90
        3
 70
   128
 43
0.0
 10
8935.953766257
 20
6570.601251675
 10
8935.5277718949
 20
6570.5946597257
 10
8934.2576287435
 20
6570.5836740367
  0
LWPOLYLINE
  5
E3
330
1F
100
AcDbEntity
  8
0
  6
Continuous
 62
     7
370
    25
100
AcDbPolyline
 90
        3
 70
   128
 43
0.0
 10
8935.953766257
 20
6570.601251675
 10
8933.5098929417
 20
6570.9018457899
 10
8931.0666419619
 20
6570.601251675
  0
LINE
  5
E4
330
1F
100
AcDbEntity
  8
0
  6
Continuous
 62
     7
370
    25
100
AcDbLine
 10
8934.2576287435
 20
6570.5836740367
 30
0.0
 11
8932.6957215354
 21
6570.5836740367
 31
0.0
  0
LINE
  5
E5
330
1F
100
AcDbEntity
  8
0
  6
Continuous
 62
     7
370
    25
100
AcDbLine
 10
8933.5171500433
 20
6621.041577222
 30
0.0
 11
8933.0580183955
 21
6621.0416140126
 31
0.0
  0
ARC
  5
E6
330
1F
100
AcDbEntity
  8
0
  6
Continuous
 62
     7
370
    25
100
AcDbCircle
 10
8933.0615016712
 20
6616.8419938052
 30
0.0
 40
4.199621651937019
100
AcDbArc
 50
90.0475226187
 51
97.2407906402
  0
ARC
  5
E7
330
1F
100
AcDbEntity
  8
0
  6
Continuous
 62
     7
370
    25
100
AcDbCircle
 10
8933.5157026709
 20
6616.9277890384
 30
0.0
 40
4.113788438212583
100
AcDbArc
 50
82.689651371
 51
89.979841371
  0
ARC
  5
E8
330
1F
100
AcDbEntity
  8
0
  6
Continuous
 62
     7
370
    25
100
AcDbCircle
 10
8937.9605762809
 20
6620.8155488234
 30
0.0
 40
4.907767240806685
100
AcDbArc
 50
169.6789808509
 51
177.3598654145
  0
LINE
  5
E9
330
1F
100
AcDbEntity
  8
0
  6
Continuous
 62
     7
370
    25
100
AcDbLine
 10
8933.132219769
 20
6621.6948398352
 30
0.0
 11
8933.434854144
 21
6621.6948550444
 31
0.0
  0
ARC
  5
EA
330
1F
100
AcDbEntity
  8
0
  6
Continuous
 62
     7
370
    25
100
AcDbCircle
 10
8929.4245914725
 20
6620.8578444826
 30
0.0
 40
4.096680775362836
100
AcDbArc
 50
2.5705304914
 51
11.7893631596
  0
ARC
  5
EB
330
1F
100
AcDbEntity
  8
0
  6
Continuous
 62
     7
370
    25
100
AcDbCircle
 10
8938.2071723438
 20
6620.8814668661
 30
0.0
 40
5.151643766037437
100
AcDbArc
 50
170.9654600869
 51
178.2185813833
  0
ARC
  5
EC
330
1F
100
AcDbEntity
  8
0
  6
Continuous
 62
     7
370
    25
100
AcDbCircle
 10
8929.2461265817
 20
6620.9132272616
 30
0.0
 40
4.27295157027238
100
AcDbArc
 50
1.7212966789
 51
10.4799849646
  0
LWPOLYLINE
  5
ED
330
1F
100
AcDbEntity
  8
0
  6
Continuous
 62
     7
370
    25
100
AcDbPolyline
 90
        3
 70
   128
 43
0.0
 10
8935.7534938819
 20
6622.8232869843
 10
8933.2620279015
 20
6622.5113013644
 10
8930.7712764215
 20
6622.8232884618
  0
LINE
  5
EE
330
1F
100
AcDbEntity
  8
0
  6
Continuous
 62
     7
370
    25
100
AcDbLine
 10
8935.3988915741
 20
6433.2350538107
 30
0.0
 11
8935.3988915741
 21
6450.4052498172
 31
0.0
  0
ARC
  5
EF
330
1F
100
AcDbEntity
  8
0
  6
Continuous
 62
     7
370
    25
100
AcDbCircle
 10
8935.4510812765
 20
6449.9552648946
 30
0.0
 40
0.4530013196077228
100
AcDbArc
 50
8.6822028137
 51
96.6156638658
  0
LINE
  5
F0
330
1F
100
AcDbEntity
  8
0
  6
Continuous
 62
     7
370
    25
100
AcDbLine
 10
8935.8988915741
 20
6450.0236471505
 30
0.0
 11
8935.8988915741
 21
6433.342617241
 31
0.0
  0
ARC
  5
F1
330
1F
100
AcDbEntity
  8
0
  6
Continuous
 62
     7
370
    25
100
AcDbCircle
 10
8935.5181066283
 20
6433.8967788826
 30
0.0
 40
0.6723780930667743
100
AcDbArc
 50
259.7872588369
 51
304.4943960046
  0
LINE
  5
F2
330
1F
100
AcDbEntity
  8
0
  6
Continuous
 62
     7
370
    25
100
AcDbLine
 10
8935.3988915741
 20
6433.2350538107
 30
0.0
 11
8931.3988915741
 21
6433.2350538107
 31
0.0
  0
LINE
  5
F3
330
1F
100
AcDbEntity
  8
0
  6
Continuous
 62
     7
370
    25
100
AcDbLine
 10
8931.3988915741
 20
6450.4052498172
 30
0.0
 11
8931.3988915741
 21
6433.2350538107
 31
0.0
  0
LINE
  5
F4
330
1F
100
AcDbEntity
  8
0
  6
Continuous
 62
     7
370
    25
100
AcDbLine
 10
8935.3988915741
 20
6450.4052498172
 30
0.0
 11
8931.3988915741
 21
6450.4052498172
 31
0.0
  0
ARC
  5
F5
330
1F
100
AcDbEntity
  8
0
  6
Continuous
 62
     7
370
    25
100
AcDbCircle
 10
8931.2796765199
 20
6433.8967788826
 30
0.0
 40
0.6723780930643173
100
AcDbArc
 50
235.5056039952
 51
280.2127411632
  0
LINE
  5
F6
330
1F
100
AcDbEntity
  8
0
  6
Continuous
 62
     7
370
    25
100
AcDbLine
 10
8930.8988915741
 20
6433.342617241
 30
0.0
 11
8930.8988915741
 21
6450.0236471505
 31
0.0
  0
ARC
  5
F7
330
1F
100
AcDbEntity
  8
0
  6
Continuous
 62
     7
370
    25
100
AcDbCircle
 10
8931.3467018717
 20
6449.9552648946
 30
0.0
 40
0.4530013196082697
100
AcDbArc
 50
83.3843361342
 51
171.317797186
  0
LINE
  5
F8
330
1F
100
AcDbEntity
  8
0
  6
Continuous
 62
     7
370
    25
100
AcDbLine
 10
8935.3988915741
 20
6424.4784810647
 30
0.0
 11
8935.3988915741
 21
6433.2350538107
 31
0.0
  0
LINE
  5
F9
330
1F
100
AcDbEntity
  8
0
  6
Continuous
 62
     7
370
    25
100
AcDbLine
 10
8935.8988915741
 20
6433.342617241
 30
0.0
 11
8935.8988915741
 21
6424.586044495
 31
0.0
  0
ARC
  5
FA
330
1F
100
AcDbEntity
  8
0
  6
Continuous
 62
     7
370
    25
100
AcDbCircle
 10
8935.5181066283
 20
6425.1402061367
 30
0.0
 40
0.6723780930703547
100
AcDbArc
 50
259.7872588369
 51
304.4943960044
  0
LINE
  5
FB
330
1F
100
AcDbEntity
  8
0
  6
Continuous
 62
     7
370
    25
100
AcDbLine
 10
8931.3988915741
 20
6433.2350538107
 30
0.0
 11
8931.3988915741
 21
6424.4784810647
 31
0.0
  0
ARC
  5
FC
330
1F
100
AcDbEntity
  8
0
  6
Continuous
 62
     7
370
    25
100
AcDbCircle
 10
8931.2796765199
 20
6425.1402061367
 30
0.0
 40
0.6723780930679919
100
AcDbArc
 50
235.5056039956
 51
280.2127411633
  0
LINE
  5
FD
330
1F
100
AcDbEntity
  8
0
  6
Continuous
 62
     7
370
    25
100
AcDbLine
 10
8930.8988915741
 20
6424.586044495
 30
0.0
 11
8930.8988915741
 21
6433.342617241
 31
0.0
  0
LINE
  5
FE
330
1F
100
AcDbEntity
  8
0
  6
Continuous
 62
     7
370
    25
100
AcDbLine
 10
8935.3988915741
 20
6424.4784810647
 30
0.0
 11
8931.3988915741
 21
6424.4784810647
 31
0.0
  0
LINE
  5
FF
330
1F
100
AcDbEntity
  8
0
  6
Continuous
 62
     7
370
    25
100
AcDbLine
 10
8935.8988915741
 20
6424.586044495
 30
0.0
 11
8935.8988915741
 21
6422.0667675047
 31
0.0
  0
LINE
  5
100
330
1F
100
AcDbEntity
  8
0
  6
Continuous
 62
     7
370
    25
100
AcDbLine
 10
8930.8988915741
 20
6422.0667675047
 30
0.0
 11
8930.8988915741
 21
6424.586044495
 31
0.0
  0
LINE
  5
101
330
1F
100
AcDbEntity
  8
0
  6
Continuous
 62
     7
370
    25
100
AcDbLine
 10
8935.3988915741
 20
6450.4052498172
 30
0.0
 11
8935.3988915741
 21
6507.5603225054
 31
0.0
  0
LINE
  5
102
330
1F
100
AcDbEntity
  8
0
  6
Continuous
 62
     7
370
    25
100
AcDbLine
 10
8931.3988915741
 20
6507.5603225054
 30
0.0
 11
8931.3988915741
 21
6450.4052498172
 31
0.0
  0
LINE
  5
103
330
1F
100
AcDbEntity
  8
0
  6
Continuous
 62
     7
370
    25
100
AcDbLine
 10
8935.3988915741
 20
6507.5603225054
 30
0.0
 11
8931.3988915741
 21
6507.5603225054
 31
0.0
  0
LWPOLYLINE
  5
104
330
1F
100
AcDbEntity
  8
0
  6
Continuous
 62
     7
370
    25
100
AcDbPolyline
 90
        9
 70
   128
 43
0.0
 10
8935.3988915741
 20
6507.5603225054
 10
8935.4964367351
 20
6507.5541747122
 10
8935.5902332903
 20
6507.5359675891
 10
8935.6766766906
 20
6507.5064008255
 10
8935.7524449647
 20
6507.4666106556
 10
8935.8146263803
 20
6507.4181261932
 10
8935.8608313404
 20
6507.3628106691
 10
8935.8892842143
 20
6507.3027898279
 10
8935.8988915741
 20
6507.2403702368
  0
LINE
  5
105
330
1F
100
AcDbEntity
  8
0
  6
Continuous
 62
     7
370
    25
100
AcDbLine
 10
8935.8988915741
 20
6507.2403702368
 30
0.0
 11
8935.8988915741
 21
6450.0236471505
 31
0.0
  0
LWPOLYLINE
  5
106
330
1F
100
AcDbEntity
  8
0
  6
Continuous
 62
     7
370
    25
100
AcDbPolyline
 90
        9
 70
   128
 43
0.0
 10
8931.3988915741
 20
6507.5603225054
 10
8931.3013464131
 20
6507.5541747122
 10
8931.2075498579
 20
6507.5359675891
 10
8931.1211064576
 20
6507.5064008255
 10
8931.0453381835
 20
6507.4666106556
 10
8930.9831567679
 20
6507.4181261932
 10
8930.9369518078
 20
6507.3628106691
 10
8930.9084989339
 20
6507.3027898279
 10
8930.8988915741
 20
6507.2403702368
  0
LINE
  5
107
330
1F
100
AcDbEntity
  8
0
  6
Continuous
 62
     7
370
    25
100
AcDbLine
 10
8930.8988915741
 20
6450.0236471505
 30
0.0
 11
8930.8988915741
 21
6507.2403702368
 31
0.0
  0
LINE
  5
108
330
1F
100
AcDbEntity
  8
0
  6
Continuous
 62
     7
370
    25
100
AcDbLine
 10
8935.5125039782
 20
6517.862649428
 30
0.0
 11
8931.28527917
 21
6517.862649428
 31
0.0
  0
LINE
  5
109
330
1F
100
AcDbEntity
  8
0
  6
Continuous
 62
     7
370
    25
100
AcDbLine
 10
8935.3988915741
 20
6516.7837954888
 30
0.0
 11
8935.5125039782
 21
6517.862649428
 31
0.0
  0
LINE
  5
10A
330
1F
100
AcDbEntity
  8
0
  6
Continuous
 62
     7
370
    25
100
AcDbLine
 10
8935.3988915741
 20
6507.5603225054
 30
0.0
 11
8935.3988915741
 21
6516.7837954888
 31
0.0
  0
LINE
  5
10B
330
1F
100
AcDbEntity
  8
0
  6
Continuous
 62
     7
370
    25
100
AcDbLine
 10
8931.3988915741
 20
6516.7837954888
 30
0.0
 11
8931.3988915741
 21
6507.5603225054
 31
0.0
  0
LINE
  5
10C
330
1F
100
AcDbEntity
  8
0
  6
Continuous
 62
     7
370
    25
100
AcDbLine
 10
8931.28527917
 20
6517.862649428
 30
0.0
 11
8931.3988915741
 21
6516.7837954888
 31
0.0
  0
ARC
  5
10D
330
1F
100
AcDbEntity
  8
0
  6
Continuous
 62
     7
370
    25
100
AcDbCircle
 10
8931.2744528741
 20
6514.893285785
 30
0.0
 40
1.894600731125909
100
AcDbArc
 50
86.2340621649
 51
101.4333066015
  0
LINE
  5
10E
330
1F
100
AcDbEntity
  8
0
  6
Continuous
 62
     7
370
    25
100
AcDbLine
 10
8930.8988915741
 20
6507.2403702368
 30
0.0
 11
8930.8988915741
 21
6516.7502902654
 31
0.0
  0
ARC
  5
10F
330
1F
100
AcDbEntity
  8
0
  6
Continuous
 62
     7
370
    25
100
AcDbCircle
 10
8935.5233302741
 20
6514.893285785
 30
0.0
 40
1.894600731107985
100
AcDbArc
 50
78.5666933984
 51
93.7659378352
  0
LINE
  5
110
330
1F
100
AcDbEntity
  8
0
  6
Continuous
 62
     7
370
    25
100
AcDbLine
 10
8935.8988915741
 20
6516.7502902654
 30
0.0
 11
8935.8988915741
 21
6507.2403702368
 31
0.0
  0
ARC
  5
111
330
1F
100
AcDbEntity
  8
0
  6
Continuous
 62
     7
370
    25
100
AcDbCircle
 10
8933.3988915741
 20
6532.5819837785
 30
0.0
 40
12.47702805579812
100
AcDbArc
 50
253.232815335
 51
286.767184665
  0
ARC
  5
112
330
1F
100
AcDbEntity
  8
0
  6
Continuous
 62
     7
370
    25
100
AcDbCircle
 10
8929.6589157092
 20
6520.3830592246
 30
0.0
 40
0.2888633026020893
100
AcDbArc
 50
60.8829246633
 51
119.0120607411
  0
ARC
  5
113
330
1F
100
AcDbEntity
  8
0
  6
Continuous
 62
     7
370
    25
100
AcDbCircle
 10
8925.8211976363
 20
6516.6410245949
 30
0.0
 40
5.443311171375721
100
AcDbArc
 50
47.2113214285
 51
64.5187539302
  0
ARC
  5
114
330
1F
100
AcDbEntity
  8
0
  6
Continuous
 62
     7
370
    25
100
AcDbCircle
 10
8933.3988915741
 20
6532.5819837785
 30
0.0
 40
12.20706449494055
100
AcDbArc
 50
295.3992595458
 51
244.6007404542
  0
ARC
  5
115
330
1F
100
AcDbEntity
  8
0
  6
Continuous
 62
     7
370
    25
100
AcDbCircle
 10
8940.9765855114
 20
6516.6410245956
 30
0.0
 40
5.443311170518951
100
AcDbArc
 50
115.4812460685
 51
132.7886785729
  0
LWPOLYLINE
  5
116
330
1F
100
AcDbEntity
  8
0
  6
Continuous
 62
     7
370
    25
100
AcDbPolyline
 90
        6
 70
   128
 43
0.0
 10
8936.9983077804
 20
6520.6354180762
 10
8937.0946793589
 20
6520.6590948304
 10
8937.2009444072
 20
6520.6661815628
 10
8937.2427325638
 20
6520.6575343691
 10
8937.2722481151
 20
6520.6416193384
 10
8937.2789643257
 20
6520.635675277
  0
ARC
  5
117
330
1F
100
AcDbEntity
  8
0
  6
Continuous
 62
     7
370
    25
100
AcDbCircle
 10
8929.1087053091
 20
6520.8992852702
 30
0.0
 40
0.4875277657567421
100
AcDbArc
 50
290.5652314265
 51
327.2681752553
  0
LWPOLYLINE
  5
118
330
1F
100
AcDbEntity
  8
0
  6
Continuous
 62
     7
370
    25
100
AcDbPolyline
 90
        3
 70
   128
 43
0.0
 10
8929.2799609222
 20
6520.4428262497
 10
8929.2304508928
 20
6520.4888984263
 10
8928.0388700585
 20
6521.2934281795
  0
LINE
  5
119
330
1F
100
AcDbEntity
  8
0
  6
Continuous
 62
     7
370
    25
100
AcDbLine
 10
8928.1629952438
 20
6521.5548439316
 30
0.0
 11
8928.0388700585
 21
6521.2934281795
 31
0.0
  0
LINE
  5
11A
330
1F
100
AcDbEntity
  8
0
  6
Continuous
 62
     7
370
    25
100
AcDbLine
 10
8938.6347879044
 20
6521.5548439316
 30
0.0
 11
8938.7589130897
 21
6521.2934281795
 31
0.0
  0
LINE
  5
11B
330
1F
100
AcDbEntity
  8
0
  6
Continuous
 62
     7
370
    25
100
AcDbLine
 10
8938.7589130897
 20
6521.2934281795
 30
0.0
 11
8937.517822226
 21
6520.4428262497
 31
0.0
  0
ARC
  5
11C
330
1F
100
AcDbEntity
  8
0
  6
Continuous
 62
     7
370
    25
100
AcDbCircle
 10
8937.6890778391
 20
6520.8992852702
 30
0.0
 40
0.4875277657361896
100
AcDbArc
 50
212.7318247435
 51
249.4347685738
  0
LWPOLYLINE
  5
11D
330
1F
100
AcDbEntity
  8
0
  6
Continuous
 62
     7
370
    25
100
AcDbPolyline
 90
        3
 70
   128
 43
0.0
 10
8927.7764911609
 20
6518.7403815401
 10
8927.8995615486
 20
6520.0189035797
 10
8928.0388700585
 20
6521.2934281795
  0
LWPOLYLINE
  5
11E
330
1F
100
AcDbEntity
  8
0
  6
Continuous
 62
     7
370
    25
100
AcDbPolyline
 90
        3
 70
   128
 43
0.0
 10
8930.7956075704
 20
6517.7618144713
 10
8930.1837653226
 20
6519.3325666736
 10
8929.2799609222
 20
6520.4428262497
  0
LINE
  5
11F
330
1F
100
AcDbEntity
  8
0
  6
Continuous
 62
     7
370
    25
100
AcDbLine
 10
8930.8988915741
 20
6516.7502902654
 30
0.0
 11
8930.7956075704
 21
6517.7618144713
 31
0.0
  0
LWPOLYLINE
  5
120
330
1F
100
AcDbEntity
  8
0
  6
Continuous
 62
     7
370
    25
100
AcDbPolyline
 90
        3
 70
   128
 43
0.0
 10
8930.1052103391
 20
6516.804559408
 10
8930.6996900503
 20
6515.6506656331
 10
8930.8988915741
 20
6514.4129207572
  0
LWPOLYLINE
  5
121
330
1F
100
AcDbEntity
  8
0
  6
Continuous
 62
     7
370
    25
100
AcDbPolyline
 90
        3
 70
   128
 43
0.0
 10
8930.1052103391
 20
6516.804559408
 10
8929.2569080544
 20
6517.808517739
 10
8927.7764911609
 20
6518.7403815401
  0
LINE
  5
122
330
1F
100
AcDbEntity
  8
0
  6
Continuous
 62
     7
370
    25
100
AcDbLine
 10
8931.28527917
 20
6517.862649428
 30
0.0
 11
8930.7956075704
 21
6517.7618144713
 31
0.0
  0
LINE
  5
123
330
1F
100
AcDbEntity
  8
0
  6
Continuous
 62
     7
370
    25
100
AcDbLine
 10
8935.5125039782
 20
6517.862649428
 30
0.0
 11
8936.0021755778
 21
6517.7618144713
 31
0.0
  0
LINE
  5
124
330
1F
100
AcDbEntity
  8
0
  6
Continuous
 62
     7
370
    25
100
AcDbLine
 10
8936.0021755778
 20
6517.7618144713
 30
0.0
 11
8935.8988915741
 21
6516.7502902654
 31
0.0
  0
ARC
  5
125
330
1F
100
AcDbEntity
  8
0
  6
Continuous
 62
     7
370
    25
100
AcDbCircle
 10
8933.3988915741
 20
6532.5819837785
 30
0.0
 40
12.49645222292674
100
AcDbArc
 50
295.3992595458
 51
244.6007404542
  0
LWPOLYLINE
  5
126
330
1F
100
AcDbEntity
  8
0
  6
Continuous
 62
     7
370
    25
100
AcDbPolyline
 90
        3
 70
   128
 43
0.0
 10
8935.5125039782
 20
6517.862649428
 10
8936.1855304507
 20
6519.5895637296
 10
8936.9983077804
 20
6520.6354180762
  0
ARC
  5
127
330
1F
100
AcDbEntity
  8
0
  6
Continuous
 62
     7
370
    25
100
AcDbCircle
 10
8940.9203978806
 20
6516.7503371212
 30
0.0
 40
5.02115495171529
100
AcDbArc
 50
132.6601224211
 51
168.3786358569
  0
LWPOLYLINE
  5
128
330
1F
100
AcDbEntity
  8
0
  6
Continuous
 62
     7
370
    25
100
AcDbPolyline
 90
        3
 70
   128
 43
0.0
 10
8929.7994753678
 20
6520.6354180762
 10
8930.6122526975
 20
6519.5895637296
 10
8931.28527917
 20
6517.862649428
  0
LWPOLYLINE
  5
129
330
1F
100
AcDbEntity
  8
0
  6
Continuous
 62
     7
370
    25
100
AcDbPolyline
 90
        3
 70
   128
 43
0.0
 10
8938.7589130897
 20
6521.2934281795
 10
8938.8982215996
 20
6520.0189035797
 10
8939.0212919873
 20
6518.7403815401
  0
LWPOLYLINE
  5
12A
330
1F
100
AcDbEntity
  8
0
  6
Continuous
 62
     7
370
    25
100
AcDbPolyline
 90
        3
 70
   128
 43
0.0
 10
8939.0212919873
 20
6518.7403815401
 10
8937.5937902889
 20
6517.8559227311
 10
8936.6925728091
 20
6516.804559408
  0
LWPOLYLINE
  5
12B
330
1F
100
AcDbEntity
  8
0
  6
Continuous
 62
     7
370
    25
100
AcDbPolyline
 90
        3
 70
   128
 43
0.0
 10
8935.8988915741
 20
6514.4129207572
 10
8936.0878580192
 20
6515.619116859
 10
8936.6925728091
 20
6516.804559408
  0
ARC
  5
12C
330
1F
100
AcDbEntity
  8
0
  6
Continuous
 62
     7
370
    25
100
AcDbCircle
 10
8933.3988915741
 20
6532.5819837785
 30
0.0
 40
14.93992432820743
100
AcDbArc
 50
292.1067817771
 51
247.8932182229
  0
LINE
  5
12D
330
1F
100
AcDbEntity
  8
0
  6
Continuous
 62
     7
370
    25
100
AcDbLine
 10
8944.6488915741
 20
6564.5819837785
 30
0.0
 11
8922.1488915741
 21
6564.5819837785
 31
0.0
  0
LINE
  5
12E
330
1F
100
AcDbEntity
  8
0
  6
Continuous
 62
     8
370
    25
100
AcDbLine
 10
8940.8578996547
 20
6599.9563750915
 30
0.0
 11
8940.8527042638
 21
6600.249182264
 31
0.0
  0
LINE
  5
12F
330
1F
100
AcDbEntity
  8
0
  6
Continuous
 62
     8
370
    25
100
AcDbLine
 10
8941.8605099539
 20
6600.9021387998
 30
0.0
 11
8941.8651004392
 21
6600.643423522
 31
0.0
  0
LINE
  5
130
330
1F
100
AcDbEntity
  8
0
  6
Continuous
 62
     8
370
    25
100
AcDbLine
 10
8963.8637856409
 20
6600.6788339616
 30
0.0
 11
8963.8598234567
 21
6600.9021387998
 31
0.0
  0
LINE
  5
131
330
1F
100
AcDbEntity
  8
0
  6
Continuous
 62
     8
370
    25
100
AcDbLine
 10
8901.6291238041
 20
6599.9563750915
 30
0.0
 11
8901.6239284132
 21
6600.249182264
 31
0.0
  0
LINE
  5
132
330
1F
100
AcDbEntity
  8
0
  6
Continuous
 62
     8
370
    25
100
AcDbLine
 10
8902.6317341033
 20
6600.9021387998
 30
0.0
 11
8902.6363245885
 21
6600.6434235219
 31
0.0
  0
LINE
  5
133
330
1F
100
AcDbEntity
  8
0
  6
Continuous
 62
     8
370
    25
100
AcDbLine
 10
8924.6350097902
 20
6600.6788339616
 30
0.0
 11
8924.6310476061
 21
6600.9021387998
 31
0.0
  0
LWPOLYLINE
  5
134
330
1F
100
AcDbEntity
  8
0
  6
Continuous
 62
     8
370
    25
100
AcDbPolyline
 90
       24
 70
   128
 43
0.0
 10
8932.1006606972
 20
6621.2018125766
 10
8932.1006209349
 20
6621.2018310708
 10
8928.9248730364
 20
6622.4879070985
 10
8925.2453332133
 20
6623.5938224272
 10
8923.0448830825
 20
6624.0997064418
 10
8920.7439031184
 20
6624.5228447974
 10
8918.2724830428
 20
6624.8676772438
 10
8915.7331096375
 20
6625.1132520527
 10
8911.2013136283
 20
6625.2940681502
 10
8908.8547486342
 20
6625.2618286383
 10
8906.5258300946
 20
6625.1445824931
 10
8902.2675457159
 20
6624.6995539679
 10
8898.1381045077
 20
6623.9537434856
 10
8894.3629000575
 20
6622.9474751596
 10
8890.9326849724
 20
6621.6841597345
 10
8887.8102333263
 20
6620.1248781546
 10
8885.2366772887
 20
6618.3509432957
 10
8884.1463934961
 20
6617.3607655579
 10
8883.2400721011
 20
6616.3395771277
 10
8882.5047862836
 20
6615.2698624864
 10
8881.9627053321
 20
6614.1804354756
 10
8881.5738634813
 20
6612.8880045867
 10
8881.4488764052
 20
6611.5858866692
 10
8881.5063705532
 20
6611.0606337342
  0
ARC
  5
135
330
1F
100
AcDbEntity
  8
0
  6
Continuous
 62
     8
370
    25
100
AcDbCircle
 10
8932.8828040382
 20
6601.822093226
 30
0.0
 40
0.3058466459647532
100
AcDbArc
 50
58.6083713329
 51
123.9129252842
  0
LWPOLYLINE
  5
136
330
1F
100
AcDbEntity
  8
0
  6
Continuous
 62
     8
370
    25
100
AcDbPolyline
 90
       22
 70
   128
 43
0.0
 10
8927.9636605313
 20
6598.9012511386
 10
8926.9523392127
 20
6598.6267035383
 10
8922.854634735
 20
6597.7363595793
 10
8920.6267305701
 20
6597.3841705954
 10
8918.3326205474
 20
6597.107667796
 10
8916.0045052492
 20
6596.9110387774
 10
8913.642506586
 20
6596.7935372454
 10
8911.1913415222
 20
6596.7566668056
 10
8908.7406692296
 20
6596.8052460938
 10
8906.1202180343
 20
6596.953304516
 10
8903.5450203433
 20
6597.1986254475
 10
8900.946469178
 20
6597.5531431001
 10
8898.4420790703
 20
6598.0043257474
 10
8895.8212876738
 20
6598.6054766801
 10
8893.3609407109
 20
6599.3080736086
 10
8890.9923647455
 20
6600.1362659699
 10
8888.8287079934
 20
6601.0519180213
 10
8886.7916841148
 20
6602.0948537517
 10
8885.0041223521
 20
6603.2105141302
 10
8883.4266140079
 20
6604.4313685012
 10
8882.1325906169
 20
6605.7063671714
 10
8881.1866207759
 20
6606.9395816592
  0
ARC
  5
137
330
1F
100
AcDbEntity
  8
0
  6
Continuous
 62
     8
370
    25
100
AcDbCircle
 10
8934.382495766
 20
6601.8333526706
 30
0.0
 40
0.2925825736355644
100
AcDbArc
 50
55.4895070522
 51
122.2772596219
  0
LWPOLYLINE
  5
138
330
1F
100
AcDbEntity
  8
0
  6
Continuous
 62
     8
370
    25
100
AcDbPolyline
 90
       22
 70
   128
 43
0.0
 10
8985.4111853693
 20
6610.8096302704
 10
8985.3705369282
 20
6612.4394497108
 10
8984.843474938
 20
6614.1932597199
 10
8983.8280295831
 20
6615.9101692804
 10
8982.3261985161
 20
6617.573943657
 10
8980.3533250831
 20
6619.146740656
 10
8978.0620476942
 20
6620.5255398092
 10
8975.368671936
 20
6621.7855263139
 10
8972.3197836485
 20
6622.8909796926
 10
8969.3001478157
 20
6623.7275604513
 10
8966.0354954141
 20
6624.4044260428
 10
8962.601399921
 20
6624.8990625336
 10
8959.5201050741
 20
6625.1682940249
 10
8956.3743655615
 20
6625.2877213384
 10
8953.2302751077
 20
6625.2543275952
 10
8948.8337923073
 20
6624.942078195
 10
8944.6276077054
 20
6624.3366633764
 10
8940.6755003535
 20
6623.4453207105
 10
8937.1116057801
 20
6622.3125828697
 10
8934.4636276376
 20
6621.2018310699
 10
8934.4635885292
 20
6621.2018125766
 10
8934.4635885292
 20
6621.2018125766
  0
LWPOLYLINE
  5
139
330
1F
100
AcDbEntity
  8
0
  6
Continuous
 62
     8
370
    25
100
AcDbPolyline
 90
       19
 70
   128
 43
0.0
 10
8985.7073137257
 20
6606.7085231526
 10
8985.6670238944
 20
6606.6349434728
 10
8984.4409946162
 20
6605.1360040071
 10
8982.8408819775
 20
6603.7035334191
 10
8981.1004687575
 20
6602.4964957374
 10
8979.0697752666
 20
6601.3635938874
 10
8976.7707242309
 20
6600.3237862513
 10
8973.1584156791
 20
6599.0615377948
 10
8969.1033199872
 20
6598.0404579084
 10
8966.2426271261
 20
6597.5230491688
 10
8963.2467481184
 20
6597.132301454
 10
8960.1675684939
 20
6596.8774174471
 10
8956.9657742975
 20
6596.7632868931
 10
8953.7375725228
 20
6596.7957205712
 10
8950.5461551198
 20
6596.9739281875
 10
8947.4311730496
 20
6597.2968899087
 10
8944.4120217197
 20
6597.7579066787
 10
8941.5416202308
 20
6598.3460689888
 10
8939.376024596
 20
6598.9012505483
  0
LWPOLYLINE
  5
13A
330
1F
100
AcDbEntity
  8
0
  6
Continuous
 62
     8
370
    25
100
AcDbPolyline
 90
        4
 70
   128
 43
0.0
 10
8932.3419238025
 20
6601.9471819594
 10
8932.3931995931
 20
6606.518014513
 10
8932.5071563068
 20
6618.1104025835
 10
8932.5321833785
 20
6621.0081244038
  0
LWPOLYLINE
  5
13B
330
1F
100
AcDbEntity
  8
0
  6
Continuous
 62
     8
370
    25
100
AcDbPolyline
 90
       18
 70
   128
 43
0.0
 10
8893.0423195684
 20
6570.9257048335
 10
8893.0366993996
 20
6570.9251005485
 10
8893.3276520036
 20
6570.9102026339
 10
8894.1764973442
 20
6570.8960209148
 10
8895.4908892719
 20
6570.8839571287
 10
8897.3546495787
 20
6570.8731601275
 10
8899.258371914
 20
6570.8658803039
 10
8901.5573019904
 20
6570.860254717
 10
8903.8126164846
 20
6570.8573348904
 10
8906.3586129646
 20
6570.8571867435
 10
8908.917754533
 20
6570.8599904466
 10
8911.6726615241
 20
6570.8660830141
 10
8914.6309871465
 20
6570.8758097643
 10
8917.6643756573
 20
6570.8888066466
 10
8920.4728656825
 20
6570.9023132958
 10
8923.1671224236
 20
6570.9168234945
 10
8925.0717142052
 20
6570.9273899826
 10
8926.8347686959
 20
6570.9377064038
  0
LWPOLYLINE
  5
13C
330
1F
100
AcDbEntity
  8
0
  6
Continuous
 62
     8
370
    25
100
AcDbPolyline
 90
        4
 70
   128
 43
0.0
 10
8934.0391565803
 20
6621.0081384498
 10
8934.0710411971
 20
6618.1136551507
 10
8934.2123689576
 20
6606.5341539922
 10
8934.2717521886
 20
6602.162503835
  0
LWPOLYLINE
  5
13D
330
1F
100
AcDbEntity
  8
0
  6
Continuous
 62
     8
370
    25
100
AcDbPolyline
 90
       18
 70
   128
 43
0.0
 10
8940.2878310748
 20
6570.937706647
 10
8940.9992671086
 20
6570.9335158602
 10
8943.2744124814
 20
6570.9207922599
 10
8945.8328362458
 20
6570.9069385457
 10
8948.4249461226
 20
6570.8939270617
 10
8951.2092382403
 20
6570.8814432208
 10
8954.1932300002
 20
6570.8700460677
 10
8957.2393618008
 20
6570.8619150664
 10
8960.0452236905
 20
6570.8577800769
 10
8962.7234689378
 20
6570.8569835194
 10
8965.4655989354
 20
6570.8600581631
 10
8967.8843583184
 20
6570.8660498671
 10
8970.2668242214
 20
6570.8760805582
 10
8972.0652355106
 20
6570.8886681145
 10
8972.8215285436
 20
6570.8969217148
 10
8973.355361088
 20
6570.9057176663
 10
8973.6734129632
 20
6570.9151780285
 10
8973.7497481361
 20
6570.9238195829
  0
LWPOLYLINE
  5
13E
330
1F
100
AcDbEntity
  8
0
  6
Continuous
 62
     8
370
    25
100
AcDbPolyline
 90
        3
 70
   128
 43
0.0
 10
8934.1872509892
 20
6602.0580196479
 10
8934.1681922406
 20
6602.1608931739
 10
8934.1428638115
 20
6602.1569549534
  0
LWPOLYLINE
  5
13F
330
1F
100
AcDbEntity
  8
0
  6
Continuous
 62
     8
370
    25
100
AcDbPolyline
 90
        3
 70
   128
 43
0.0
 10
8933.6426372894
 20
6602.0559135427
 10
8933.6431298353
 20
6602.1551440424
 10
8933.6431711545
 20
6602.1488239477
  0
LWPOLYLINE
  5
140
330
1F
100
AcDbEntity
  8
0
  6
Continuous
 62
     8
370
    25
100
AcDbPolyline
 90
        3
 70
   128
 43
0.0
 10
8933.0817044698
 20
6602.0608143337
 10
8933.0990314131
 20
6602.1632148535
 10
8933.1229837574
 20
6602.1590926702
  0
LWPOLYLINE
  5
141
330
1F
100
AcDbEntity
  8
0
  6
Continuous
 62
     8
370
    25
100
AcDbPolyline
 90
        3
 70
   128
 43
0.0
 10
8933.6238253628
 20
6602.0559610411
 10
8933.6215630704
 20
6602.1551911994
 10
8933.6208009144
 20
6602.1488781332
  0
LWPOLYLINE
  5
142
330
1F
100
AcDbEntity
  8
0
  6
Continuous
 62
     8
370
    25
100
AcDbPolyline
 90
        3
 70
   128
 43
0.0
 10
8933.0421149428
 20
6602.0831721538
 10
8933.0657096265
 20
6602.168706823
 10
8933.0897280396
 20
6602.161591506
  0
LWPOLYLINE
  5
143
330
1F
100
AcDbEntity
  8
0
  6
Continuous
 62
     8
370
    25
100
AcDbPolyline
 90
        3
 70
   128
 43
0.0
 10
8934.2262517483
 20
6602.080723585
 10
8934.2008093706
 20
6602.16637874
 10
8934.1786098124
 20
6602.1601678051
  0
LWPOLYLINE
  5
144
330
1F
100
AcDbEntity
  8
0
  6
Continuous
 62
     8
370
    25
100
AcDbPolyline
 90
        4
 70
   128
 43
0.0
 10
8933.0580183955
 20
6621.0416140126
 10
8933.0452130986
 20
6618.1459999615
 10
8932.9699700117
 20
6606.5630419297
 10
8932.9279592777
 20
6602.157156929
  0
LWPOLYLINE
  5
145
330
1F
100
AcDbEntity
  8
0
  6
Continuous
 62
     8
370
    25
100
AcDbPolyline
 90
        4
 70
   128
 43
0.0
 10
8933.7007098914
 20
6602.1635649696
 10
8933.6459372073
 20
6606.5790093918
 10
8933.5380438171
 20
6618.149184625
 10
8933.5171500433
 20
6621.041577222
  0
LINE
  5
146
330
1F
100
AcDbEntity
  8
0
  6
Continuous
 62
     8
370
    25
100
AcDbLine
 10
8935.3988915741
 20
6421.5667675047
 30
0.0
 11
8935.3988915741
 21
6424.4784810647
 31
0.0
  0
LINE
  5
147
330
1F
100
AcDbEntity
  8
0
  6
Continuous
 62
     8
370
    25
100
AcDbLine
 10
8931.3988915741
 20
6424.4784810647
 30
0.0
 11
8931.3988915741
 21
6421.5667675047
 31
0.0
  0
LWPOLYLINE
  5
148
330
1F
100
AcDbEntity
  8
0
  6
Continuous
 62
     8
370
    25
100
AcDbPolyline
 90
       19
 70
   128
 43
0.0
 10
8923.4559903959
 20
6543.6118976883
 10
8923.572303822
 20
6543.8656329194
 10
8924.4779902072
 20
6545.4200929337
 10
8925.5647150158
 20
6546.8828971853
 10
8926.8828031781
 20
6548.2471346302
 10
8927.3287040608
 20
6548.6282306625
 10
8928.4990656778
 20
6549.4654364344
 10
8929.8122143097
 20
6550.1585941399
 10
8931.1391012576
 20
6550.622873651
 10
8932.5500758105
 20
6550.8821573682
 10
8933.7247578766
 20
6550.9169879497
 10
8934.890236228
 20
6550.7942079026
 10
8935.7187474556
 20
6550.6080427726
 10
8937.2204087421
 20
6550.0512432867
 10
8938.5731677877
 20
6549.2891696377
 10
8940.1252137147
 20
6548.0546410939
 10
8941.4182464871
 20
6546.6578705929
 10
8942.8234364867
 20
6544.6018058626
 10
8943.2266147441
 20
6543.7858998759
  0
ARC
  5
149
330
1F
100
AcDbEntity
  8
0
  6
Continuous
 62
     7
370
    25
100
AcDbCircle
 10
9157.145615581
 20
6625.3023819307
 30
0.0
 40
0.8207184057973114
100
AcDbArc
 50
80.5573679107
 51
182.9438853291
  0
ARC
  5
14A
330
1F
100
AcDbEntity
  8
0
  6
Continuous
 62
     7
370
    25
100
AcDbCircle
 10
9220.3030904828
 20
6597.1853674947
 30
0.0
 40
0.8243871613454019
100
AcDbArc
 50
329.7734274382
 51
52.6590953848
  0
LWPOLYLINE
  5
14B
330
1F
100
AcDbEntity
  8
0
  6
Continuous
 62
     7
370
    25
100
AcDbPolyline
 90
       10
 70
   128
 43
0.0
 10
9156.2881772478
 20
6625.2599032639
 10
9156.3633260173
 20
6618.489517287
 10
9156.3972926765
 20
6611.8768541471
 10
9156.3965912219
 20
6605.7860934946
 10
9156.3703854609
 20
6600.2222342536
 10
9156.3266163002
 20
6595.1877672665
 10
9156.2549697795
 20
6589.4721807452
 10
9156.157345887
 20
6583.5478267747
 10
9156.0300022697
 20
6577.2946210698
 10
9155.8800766
 20
6571.0960898277
  0
ARC
  5
14C
330
1F
100
AcDbEntity
  8
0
  6
Continuous
 62
     7
370
    25
100
AcDbCircle
 10
9579.0781092199
 20
6400.2169064105
 30
0.0
 40
408.4332641433894
100
AcDbArc
 50
151.2361294968
 51
155.3053176607
  0
ARC
  5
14D
330
1F
100
AcDbEntity
  8
0
  6
Continuous
 62
     7
370
    25
100
AcDbCircle
 10
9156.3817842362
 20
6571.0819651098
 30
0.0
 40
0.4999804803839313
100
AcDbArc
 50
177.4455566605
 51
272.4263571746
  0
ARC
  5
14E
330
1F
100
AcDbEntity
  8
0
  6
Continuous
 62
     7
370
    25
100
AcDbCircle
 10
9207.5495833805
 20
6571.0819378105
 30
0.0
 40
0.4999537540985652
100
AcDbArc
 50
267.8835998524
 51
331.5819492372
  0
LINE
  5
14F
330
1F
100
AcDbEntity
  8
0
  6
Continuous
 62
     7
370
    25
100
AcDbLine
 10
9171.837974403
 20
6570.5819837785
 30
0.0
 11
9171.837974403
 21
6564.5819837785
 31
0.0
  0
LINE
  5
150
330
1F
100
AcDbEntity
  8
0
  6
Continuous
 62
     7
370
    25
100
AcDbLine
 10
9191.592202964
 20
6564.5819837785
 30
0.0
 11
9191.592202964
 21
6570.5819837785
 31
0.0
  0
ARC
  5
151
330
1F
100
AcDbEntity
  8
0
  6
Continuous
 62
     7
370
    25
100
AcDbCircle
 10
9156.7959284149
 20
6625.2907818688
 30
0.0
 40
0.8373611538500098
100
AcDbArc
 50
76.7679204002
 51
181.4600996609
  0
ARC
  5
152
330
1F
100
AcDbEntity
  8
0
  6
Continuous
 62
     7
370
    25
100
AcDbCircle
 10
9156.0724067212
 20
6571.0819661178
 30
0.0
 40
0.4999816580204884
100
AcDbArc
 50
177.453241089
 51
272.023046464
  0
LWPOLYLINE
  5
153
330
1F
100
AcDbEntity
  8
0
  6
Continuous
 62
     7
370
    25
100
AcDbPolyline
 90
       11
 70
   128
 43
0.0
 10
9155.9356818912
 20
6625.2677722778
 10
9156.0117014775
 20
6618.4396593968
 10
9156.0472930194
 20
6611.8283731358
 10
9156.0494600418
 20
6605.7889873091
 10
9156.0276266838
 20
6600.3258603206
 10
9155.9898397145
 20
6595.4407907434
 10
9155.9416199071
 20
6591.0338762273
 10
9155.8775993651
 20
6586.4308902305
 10
9155.7943708649
 20
6581.5083186368
 10
9155.6898576296
 20
6576.2693428519
 10
9155.5708633093
 20
6571.0947275894
  0
LINE
  5
154
330
1F
100
AcDbEntity
  8
0
  6
Continuous
 62
     7
370
    25
100
AcDbLine
 10
9244.243930754
 20
6545.0784360014
 30
0.0
 11
9207.1537895764
 21
6547.5219081067
 31
0.0
  0
ARC
  5
155
330
1F
100
AcDbEntity
  8
0
  6
Continuous
 62
     7
370
    25
100
AcDbCircle
 10
9217.6451403595
 20
7465.1807185461
 30
0.0
 40
946.1445148110782
100
AcDbArc
 50
265.9278199422
 51
269.1797037193
  0
ARC
  5
156
330
1F
100
AcDbEntity
  8
0
  6
Continuous
 62
     7
370
    25
100
AcDbCircle
 10
9217.6451403595
 20
5599.9832490109
 30
0.0
 40
946.1445148110786
100
AcDbArc
 50
93.1433970101
 51
94.0721800578
  0
ARC
  5
157
330
1F
100
AcDbEntity
  8
0
  6
Continuous
 62
     7
370
    25
100
AcDbCircle
 10
9217.6451403595
 20
5599.9832490109
 30
0.0
 40
946.1445148110791
100
AcDbArc
 50
90.8202962807
 51
91.1858682028
  0
ARC
  5
158
330
1F
100
AcDbEntity
  8
0
  6
Continuous
 62
     7
370
    25
100
AcDbCircle
 10
9165.5077840018
 20
6549.661745873
 30
0.0
 40
4.966369424597
100
AcDbArc
 50
272.8533985851
 51
0.153190512
  0
ARC
  5
159
330
1F
100
AcDbEntity
  8
0
  6
Continuous
 62
     7
370
    25
100
AcDbCircle
 10
9197.901965405
 20
6550.8605658655
 30
0.0
 40
4.935581842166227
100
AcDbArc
 50
179.4888537534
 51
271.8527582835
  0
ARC
  5
15A
330
1F
100
AcDbEntity
  8
0
  6
Continuous
 62
     7
370
    25
100
AcDbCircle
 10
9244.2110623583
 20
6544.5795175025
 30
0.0
 40
0.5000000000002413
100
AcDbArc
 50
24.7753528764
 51
86.2308413416
  0
LINE
  5
15B
330
1F
100
AcDbEntity
  8
0
  6
Continuous
 62
     7
370
    25
100
AcDbLine
 10
9206.9343802525
 20
6544.9824283081
 30
0.0
 11
9204.0997742004
 21
6544.9824283081
 31
0.0
  0
LINE
  5
15C
330
1F
100
AcDbEntity
  8
0
  6
Continuous
 62
     7
370
    25
100
AcDbLine
 10
9204.0997742004
 20
6520.1815392489
 30
0.0
 11
9206.9343802525
 21
6520.1815392489
 31
0.0
  0
ARC
  5
15D
330
1F
100
AcDbEntity
  8
0
  6
Continuous
 62
     7
370
    25
100
AcDbCircle
 10
9218.0060437547
 20
6532.4847757451
 30
0.0
 40
29.36149300009599
100
AcDbArc
 50
0.1896913151
 51
24.7753528765
  0
ARC
  5
15E
330
1F
100
AcDbEntity
  8
0
  6
Continuous
 62
     7
370
    25
100
AcDbCircle
 10
9218.0060437547
 20
6532.6791918118
 30
0.0
 40
29.36149300009599
100
AcDbArc
 50
334.643066489
 51
359.8103086849
  0
LINE
  5
15F
330
1F
100
AcDbEntity
  8
0
  6
Continuous
 62
     7
370
    25
100
AcDbLine
 10
9207.1537895764
 20
6543.8780694528
 30
0.0
 11
9206.9343802525
 21
6543.8780694528
 31
0.0
  0
LINE
  5
160
330
1F
100
AcDbEntity
  8
0
  6
Continuous
 62
     7
370
    25
100
AcDbLine
 10
9206.9343802525
 20
6521.2858981042
 30
0.0
 11
9207.1537895764
 21
6521.2858981042
 31
0.0
  0
LINE
  5
161
330
1F
100
AcDbEntity
  8
0
  6
Continuous
 62
     7
370
    25
100
AcDbLine
 10
9192.9650886835
 20
6550.9088889708
 30
0.0
 11
9192.9650886835
 21
6564.5819837785
 31
0.0
  0
LINE
  5
162
330
1F
100
AcDbEntity
  8
0
  6
Continuous
 62
     7
370
    25
100
AcDbLine
 10
9170.4650886835
 20
6564.5819837785
 30
0.0
 11
9170.4650886835
 21
6549.6779843459
 31
0.0
  0
LINE
  5
163
330
1F
100
AcDbEntity
  8
0
  6
Continuous
 62
     7
370
    25
100
AcDbLine
 10
9150.4564579132
 20
6542.856190669
 30
0.0
 11
9147.411241673
 21
6542.856190669
 31
0.0
  0
LINE
  5
164
330
1F
100
AcDbEntity
  8
0
  6
Continuous
 62
     7
370
    25
100
AcDbLine
 10
9147.411241673
 20
6522.3077768879
 30
0.0
 11
9150.4564579132
 21
6522.3077768879
 31
0.0
  0
LINE
  5
165
330
1F
100
AcDbEntity
  8
0
  6
Continuous
 62
     7
370
    25
100
AcDbLine
 10
9146.911241673
 20
6546.3610399698
 30
0.0
 11
9131.911241673
 21
6546.3610399698
 31
0.0
  0
LINE
  5
166
330
1F
100
AcDbEntity
  8
0
  6
Continuous
 62
     7
370
    25
100
AcDbLine
 10
9131.911241673
 20
6518.8029275871
 30
0.0
 11
9146.911241673
 21
6518.8029275871
 31
0.0
  0
ARC
  5
167
330
1F
100
AcDbEntity
  8
0
  6
Continuous
 62
     7
370
    25
100
AcDbCircle
 10
9131.911241673
 20
6519.3029275871
 30
0.0
 40
0.500000000001819
100
AcDbArc
 50
180.0
 51
270.0
  0
ARC
  5
168
330
1F
100
AcDbEntity
  8
0
  6
Continuous
 62
     7
370
    25
100
AcDbCircle
 10
9131.911241673
 20
6545.8610399698
 30
0.0
 40
0.500000000001819
100
AcDbArc
 50
90.0
 51
180.0
  0
ARC
  5
169
330
1F
100
AcDbEntity
  8
0
  6
Continuous
 62
     7
370
    25
100
AcDbCircle
 10
9146.911241673
 20
6519.3029275871
 30
0.0
 40
0.5
100
AcDbArc
 50
270.0
 51
0.0
  0
ARC
  5
16A
330
1F
100
AcDbEntity
  8
0
  6
Continuous
 62
     7
370
    25
100
AcDbCircle
 10
9146.911241673
 20
6545.8610399698
 30
0.0
 40
0.5
100
AcDbArc
 50
0.0
 51
90.0
  0
LWPOLYLINE
  5
16B
330
1F
100
AcDbEntity
  8
0
  6
Continuous
 62
     7
370
    25
100
AcDbPolyline
 90
       32
 70
   128
 43
0.0
 10
9220.6300163646
 20
6597.946418074
 10
9220.5403497813
 20
6597.9939565893
 10
9220.2351414613
 20
6598.1384810746
 10
9219.7283139955
 20
6598.3726268915
 10
9218.9299441818
 20
6598.7373168226
 10
9217.8999833175
 20
6599.2047682133
 10
9216.597886104
 20
6599.7932835233
 10
9215.0794366553
 20
6600.4775926167
 10
9213.2345472767
 20
6601.3071811217
 10
9211.1935357896
 20
6602.2233691782
 10
9208.8957844066
 20
6603.2533389541
 10
9206.4392251722
 20
6604.3531602632
 10
9203.8069867543
 20
6605.5303830821
 10
9201.0612030369
 20
6606.7572283346
 10
9198.1316513669
 20
6608.0650444195
 10
9195.1321453779
 20
6609.4029993426
 10
9192.1849877613
 20
6610.7166050174
 10
9189.2155762316
 20
6612.0391745801
 10
9186.1585239102
 20
6613.3997901803
 10
9183.1218484383
 20
6614.7503306515
 10
9178.2886422537
 20
6616.8976673973
 10
9175.8968829452
 20
6617.9591987164
 10
9173.5774046331
 20
6618.9878591521
 10
9169.589063894
 20
6620.7544812233
 10
9167.6940674257
 20
6621.5926921382
 10
9165.9141044727
 20
6622.3791432074
 10
9163.0569216955
 20
6623.6391255648
 10
9160.660465809
 20
6624.6921176454
 10
9158.9564030158
 20
6625.4362656611
 10
9157.8644888838
 20
6625.9065802633
 10
9157.5830929633
 20
6626.0236886476
 10
9157.48483461
 20
6626.0591996896
  0
LINE
  5
16C
330
1F
100
AcDbEntity
  8
0
  6
Continuous
 62
     7
370
    25
100
AcDbLine
 10
9155.941798631
 20
6571.094453343
 30
0.0
 11
9155.9369979222
 21
6571.0939766021
 31
0.0
  0
LINE
  5
16D
330
1F
100
AcDbEntity
  8
0
  6
Continuous
 62
     7
370
    25
100
AcDbLine
 10
9207.9465054805
 20
6570.8727360427
 30
0.0
 11
9207.9548822121
 21
6570.8733266385
 31
0.0
  0
LINE
  5
16E
330
1F
100
AcDbEntity
  8
0
  6
Continuous
 62
     7
370
    25
100
AcDbLine
 10
9207.4882436805
 20
6570.5819837785
 30
0.0
 11
9156.4182116276
 21
6570.5819837785
 31
0.0
  0
LINE
  5
16F
330
1F
100
AcDbEntity
  8
0
  6
Continuous
 62
     7
370
    25
100
AcDbLine
 10
9156.2151968147
 20
6570.5819837785
 30
0.0
 11
9156.0924245143
 21
6570.5819837785
 31
0.0
  0
LINE
  5
170
330
1F
100
AcDbEntity
  8
0
  6
Continuous
 62
     7
370
    25
100
AcDbLine
 10
9207.1537895764
 20
6518.7403815401
 30
0.0
 11
9207.1537895764
 21
6547.5219081067
 31
0.0
  0
LWPOLYLINE
  5
171
330
1F
100
AcDbEntity
  8
0
  6
Continuous
 62
     7
370
    25
100
AcDbPolyline
 90
        3
 70
   128
 43
0.0
 10
9207.1537895764
 20
6518.7403815401
 10
9225.7625354372
 20
6520.0189035797
 10
9244.243930754
 20
6521.2934281795
  0
LINE
  5
172
330
1F
100
AcDbEntity
  8
0
  6
Continuous
 62
     7
370
    25
100
AcDbLine
 10
9204.0997742004
 20
6546.0307985361
 30
0.0
 11
9204.0997742004
 21
6519.1331690209
 31
0.0
  0
LINE
  5
173
330
1F
100
AcDbEntity
  8
0
  6
Continuous
 62
     7
370
    25
100
AcDbLine
 10
9150.4564579132
 20
6543.7391093149
 30
0.0
 11
9150.4564579132
 21
6521.4248582421
 31
0.0
  0
LWPOLYLINE
  5
174
330
1F
100
AcDbEntity
  8
0
  6
Continuous
 62
     7
370
    25
100
AcDbPolyline
 90
        3
 70
   128
 43
0.0
 10
9198.0639492284
 20
6545.9221430324
 10
9198.068330816
 20
6545.9250712327
 10
9198.061704317
 20
6545.9206418609
  0
LINE
  5
175
330
1F
100
AcDbEntity
  8
0
  6
Continuous
 62
     7
370
    25
100
AcDbLine
 10
9192.9498167501
 20
6550.9041468491
 30
0.0
 11
9192.9534387616
 21
6550.9088889708
 31
0.0
  0
ARC
  5
176
330
1F
100
AcDbEntity
  8
0
  6
Continuous
 62
     7
370
    25
100
AcDbCircle
 10
9244.224338997
 20
6521.7948762627
 30
0.0
 40
0.5018306657207372
100
AcDbArc
 50
272.2374287069
 51
331.4246947857
  0
LINE
  5
177
330
1F
100
AcDbEntity
  8
0
  6
Continuous
 62
     7
370
    25
100
AcDbLine
 10
9206.9343802525
 20
6544.9824283081
 30
0.0
 11
9206.9343802525
 21
6520.1815392489
 31
0.0
  0
LWPOLYLINE
  5
178
330
1F
100
AcDbEntity
  8
0
  6
Continuous
 62
     7
370
    25
100
AcDbPolyline
 90
        5
 70
   128
 43
0.0
 10
9244.4989972234
 20
6520.635675277
 10
9244.5114126292
 20
6520.6540907724
 10
9244.5231802475
 20
6520.6656106472
 10
9244.5347127313
 20
6520.6625911102
 10
9244.5387755772
 20
6520.6354180762
  0
ARC
  5
179
330
1F
100
AcDbEntity
  8
0
  6
Continuous
 62
     7
370
    25
100
AcDbCircle
 10
9240.4806222001
 20
6521.836160174
 30
0.0
 40
4.193864782712366
100
AcDbArc
 50
343.3665452727
 51
356.1538232612
  0
LINE
  5
17A
330
1F
100
AcDbEntity
  8
0
  6
Continuous
 62
     7
370
    25
100
AcDbLine
 10
9146.911241673
 20
6539.2215118742
 30
0.0
 11
9131.911241673
 21
6539.2215118742
 31
0.0
  0
LINE
  5
17B
330
1F
100
AcDbEntity
  8
0
  6
Continuous
 62
     7
370
    25
100
AcDbLine
 10
9146.911241673
 20
6525.9424556828
 30
0.0
 11
9146.911241673
 21
6539.2215118742
 31
0.0
  0
LINE
  5
17C
330
1F
100
AcDbEntity
  8
0
  6
Continuous
 62
     7
370
    25
100
AcDbLine
 10
9131.911241673
 20
6525.9424556828
 30
0.0
 11
9146.911241673
 21
6525.9424556828
 31
0.0
  0
LINE
  5
17D
330
1F
100
AcDbEntity
  8
0
  6
Continuous
 62
     7
370
    25
100
AcDbLine
 10
9131.911241673
 20
6539.2215118742
 30
0.0
 11
9131.911241673
 21
6525.9424556828
 31
0.0
  0
ARC
  5
17E
330
1F
100
AcDbEntity
  8
0
  6
Continuous
 62
     7
370
    25
100
AcDbCircle
 10
9131.879991673
 20
6539.1854274823
 30
0.0
 40
0.4701368373536946
100
AcDbArc
 50
86.1887389505
 51
175.5980503474
  0
LINE
  5
17F
330
1F
100
AcDbEntity
  8
0
  6
Continuous
 62
     7
370
    25
100
AcDbLine
 10
9131.911241673
 20
6539.2215118742
 30
0.0
 11
9131.911241673
 21
6539.6545245761
 31
0.0
  0
LINE
  5
180
330
1F
100
AcDbEntity
  8
0
  6
Continuous
 62
     7
370
    25
100
AcDbLine
 10
9131.411241673
 20
6539.2215118742
 30
0.0
 11
9131.911241673
 21
6539.2215118742
 31
0.0
  0
LINE
  5
181
330
1F
100
AcDbEntity
  8
0
  6
Continuous
 62
     7
370
    25
100
AcDbLine
 10
9146.911241673
 20
6525.5094429809
 30
0.0
 11
9131.911241673
 21
6525.5094429809
 31
0.0
  0
LINE
  5
182
330
1F
100
AcDbEntity
  8
0
  6
Continuous
 62
     7
370
    25
100
AcDbLine
 10
9131.911241673
 20
6525.5094429809
 30
0.0
 11
9131.911241673
 21
6525.9424556828
 31
0.0
  0
LINE
  5
183
330
1F
100
AcDbEntity
  8
0
  6
Continuous
 62
     7
370
    25
100
AcDbLine
 10
9146.911241673
 20
6525.5094429809
 30
0.0
 11
9146.911241673
 21
6525.9424556828
 31
0.0
  0
LINE
  5
184
330
1F
100
AcDbEntity
  8
0
  6
Continuous
 62
     7
370
    25
100
AcDbLine
 10
9131.411241673
 20
6525.9424556828
 30
0.0
 11
9131.411241673
 21
6539.2215118742
 31
0.0
  0
LINE
  5
185
330
1F
100
AcDbEntity
  8
0
  6
Continuous
 62
     7
370
    25
100
AcDbLine
 10
9131.911241673
 20
6525.9424556828
 30
0.0
 11
9131.411241673
 21
6525.9424556828
 31
0.0
  0
ARC
  5
186
330
1F
100
AcDbEntity
  8
0
  6
Continuous
 62
     7
370
    25
100
AcDbCircle
 10
9131.879991673
 20
6525.9785400746
 30
0.0
 40
0.4701368373518112
100
AcDbArc
 50
184.4019496525
 51
273.8112610497
  0
LINE
  5
187
330
1F
100
AcDbEntity
  8
0
  6
Continuous
 62
     7
370
    25
100
AcDbLine
 10
9131.911241673
 20
6539.6545245761
 30
0.0
 11
9146.911241673
 21
6539.6545245761
 31
0.0
  0
LINE
  5
188
330
1F
100
AcDbEntity
  8
0
  6
Continuous
 62
     7
370
    25
100
AcDbLine
 10
9146.911241673
 20
6539.2215118742
 30
0.0
 11
9146.911241673
 21
6539.6545245761
 31
0.0
  0
LINE
  5
189
330
1F
100
AcDbEntity
  8
0
  6
Continuous
 62
     7
370
    25
100
AcDbLine
 10
9147.411241673
 20
6539.2215118742
 30
0.0
 11
9147.411241673
 21
6525.9424556828
 31
0.0
  0
LINE
  5
18A
330
1F
100
AcDbEntity
  8
0
  6
Continuous
 62
     7
370
    25
100
AcDbLine
 10
9147.411241673
 20
6525.9424556828
 30
0.0
 11
9146.911241673
 21
6525.9424556828
 31
0.0
  0
LINE
  5
18B
330
1F
100
AcDbEntity
  8
0
  6
Continuous
 62
     7
370
    25
100
AcDbLine
 10
9146.911241673
 20
6539.2215118742
 30
0.0
 11
9147.411241673
 21
6539.2215118742
 31
0.0
  0
ARC
  5
18C
330
1F
100
AcDbEntity
  8
0
  6
Continuous
 62
     7
370
    25
100
AcDbCircle
 10
9146.942491673
 20
6525.9785400746
 30
0.0
 40
0.4701368373469932
100
AcDbArc
 50
266.1887389503
 51
355.5980503479
  0
ARC
  5
18D
330
1F
100
AcDbEntity
  8
0
  6
Continuous
 62
     7
370
    25
100
AcDbCircle
 10
9146.942491673
 20
6539.1854274823
 30
0.0
 40
0.4701368373479745
100
AcDbArc
 50
4.4019496522
 51
93.8112610495
  0
LINE
  5
18E
330
1F
100
AcDbEntity
  8
0
  6
Continuous
 62
     7
370
    25
100
AcDbLine
 10
9146.911241673
 20
6518.8699148852
 30
0.0
 11
9146.911241673
 21
6525.5094429809
 31
0.0
  0
LINE
  5
18F
330
1F
100
AcDbEntity
  8
0
  6
Continuous
 62
     7
370
    25
100
AcDbLine
 10
9131.911241673
 20
6518.8699148852
 30
0.0
 11
9146.911241673
 21
6518.8699148852
 31
0.0
  0
LINE
  5
190
330
1F
100
AcDbEntity
  8
0
  6
Continuous
 62
     7
370
    25
100
AcDbLine
 10
9131.911241673
 20
6525.5094429809
 30
0.0
 11
9131.911241673
 21
6518.8699148852
 31
0.0
  0
ARC
  5
191
330
1F
100
AcDbEntity
  8
0
  6
Continuous
 62
     7
370
    25
100
AcDbCircle
 10
9131.879991673
 20
6519.339011979
 30
0.0
 40
0.4701368373537644
100
AcDbArc
 50
184.4019496527
 51
273.8112610494
  0
LINE
  5
192
330
1F
100
AcDbEntity
  8
0
  6
Continuous
 62
     7
370
    25
100
AcDbLine
 10
9131.411241673
 20
6519.3029275871
 30
0.0
 11
9131.411241673
 21
6525.9424556828
 31
0.0
  0
LINE
  5
193
330
1F
100
AcDbEntity
  8
0
  6
Continuous
 62
     7
370
    25
100
AcDbLine
 10
9146.911241673
 20
6546.2940526717
 30
0.0
 11
9131.911241673
 21
6546.2940526717
 31
0.0
  0
LINE
  5
194
330
1F
100
AcDbEntity
  8
0
  6
Continuous
 62
     7
370
    25
100
AcDbLine
 10
9146.911241673
 20
6539.6545245761
 30
0.0
 11
9146.911241673
 21
6546.2940526717
 31
0.0
  0
LINE
  5
195
330
1F
100
AcDbEntity
  8
0
  6
Continuous
 62
     7
370
    25
100
AcDbLine
 10
9131.911241673
 20
6546.2940526717
 30
0.0
 11
9131.911241673
 21
6539.6545245761
 31
0.0
  0
LINE
  5
196
330
1F
100
AcDbEntity
  8
0
  6
Continuous
 62
     7
370
    25
100
AcDbLine
 10
9131.411241673
 20
6539.2215118742
 30
0.0
 11
9131.411241673
 21
6545.8610399698
 31
0.0
  0
ARC
  5
197
330
1F
100
AcDbEntity
  8
0
  6
Continuous
 62
     7
370
    25
100
AcDbCircle
 10
9131.879991673
 20
6545.824955578
 30
0.0
 40
0.4701368373536946
100
AcDbArc
 50
86.1887389506
 51
175.5980503474
  0
ARC
  5
198
330
1F
100
AcDbEntity
  8
0
  6
Continuous
 62
     7
370
    25
100
AcDbCircle
 10
9146.942491673
 20
6545.824955578
 30
0.0
 40
0.4701368373486872
100
AcDbArc
 50
4.4019496522
 51
93.8112610495
  0
LINE
  5
199
330
1F
100
AcDbEntity
  8
0
  6
Continuous
 62
     7
370
    25
100
AcDbLine
 10
9147.411241673
 20
6545.8610399698
 30
0.0
 11
9147.411241673
 21
6539.2215118742
 31
0.0
  0
LINE
  5
19A
330
1F
100
AcDbEntity
  8
0
  6
Continuous
 62
     7
370
    25
100
AcDbLine
 10
9147.411241673
 20
6525.9424556828
 30
0.0
 11
9147.411241673
 21
6519.3029275871
 31
0.0
  0
ARC
  5
19B
330
1F
100
AcDbEntity
  8
0
  6
Continuous
 62
     7
370
    25
100
AcDbCircle
 10
9146.942491673
 20
6519.3390119789
 30
0.0
 40
0.4701368373495947
100
AcDbArc
 50
266.1887389505
 51
355.5980503477
  0
LINE
  5
19C
330
1F
100
AcDbEntity
  8
0
  6
Continuous
 62
     7
370
    25
100
AcDbLine
 10
9181.7150886835
 20
6564.5819837785
 30
0.0
 11
9170.4650886835
 21
6564.5819837785
 31
0.0
  0
LINE
  5
19D
330
1F
100
AcDbEntity
  8
0
  6
Continuous
 62
     7
370
    25
100
AcDbLine
 10
9192.9650886835
 20
6564.5819837785
 30
0.0
 11
9181.7150886835
 21
6564.5819837785
 31
0.0
  0
LWPOLYLINE
  5
19E
330
1F
100
AcDbEntity
  8
0
  6
Continuous
 62
     7
370
    25
100
AcDbPolyline
 90
        3
 70
   128
 43
0.0
 10
9244.0655624252
 20
6520.4428262497
 10
9244.080841501
 20
6520.4888984263
 10
9244.243930754
 20
6521.2934281795
  0
LWPOLYLINE
  5
19F
330
1F
100
AcDbEntity
  8
0
  6
Continuous
 62
     7
370
    25
100
AcDbPolyline
 90
        3
 70
   128
 43
0.0
 10
9244.0461264983
 20
6517.7618144713
 10
9244.0575127802
 20
6519.3325666736
 10
9244.0655624252
 20
6520.4428262497
  0
LINE
  5
1A0
330
1F
100
AcDbEntity
  8
0
  6
Continuous
 62
     7
370
    25
100
AcDbLine
 10
9244.0760873528
 20
6516.7502902654
 30
0.0
 11
9244.0461264983
 21
6517.7618144713
 31
0.0
  0
LWPOLYLINE
  5
1A1
330
1F
100
AcDbEntity
  8
0
  6
Continuous
 62
     7
370
    25
100
AcDbPolyline
 90
        3
 70
   128
 43
0.0
 10
9244.0760873528
 20
6516.7502902654
 10
9226.0912193937
 20
6515.4484236804
 10
9211.625560043
 20
6514.4129207572
  0
LWPOLYLINE
  5
1A2
330
1F
100
AcDbEntity
  8
0
  6
Continuous
 62
     7
370
    25
100
AcDbPolyline
 90
        3
 70
   128
 43
0.0
 10
9207.1537895764
 20
6516.804559408
 10
9209.3363435068
 20
6515.6506656331
 10
9211.625560043
 20
6514.4129207572
  0
LINE
  5
1A3
330
1F
100
AcDbEntity
  8
0
  6
Continuous
 62
     7
370
    25
100
AcDbLine
 10
9207.1537895764
 20
6516.804559408
 30
0.0
 11
9207.1537895764
 21
6518.7403815401
 31
0.0
  0
ARC
  5
1A4
330
1F
100
AcDbEntity
  8
0
  6
Continuous
 62
     7
370
    25
100
AcDbCircle
 10
9244.0979964658
 20
6520.9534339275
 30
0.0
 40
0.5116367535038081
100
AcDbArc
 50
266.3654281274
 51
321.6061989564
  0
LWPOLYLINE
  5
1A5
330
1F
100
AcDbEntity
  8
0
  6
Continuous
 62
     7
370
    25
100
AcDbPolyline
 90
        3
 70
   128
 43
0.0
 10
9211.366507159
 20
6513.9852624786
 10
9209.2659252981
 20
6515.2446498445
 10
9207.1537895764
 20
6516.4849634824
  0
LINE
  5
1A6
330
1F
100
AcDbEntity
  8
0
  6
Continuous
 62
     7
370
    25
100
AcDbLine
 10
9211.366507159
 20
6513.9852624786
 30
0.0
 11
9211.625560043
 21
6514.4129207572
 31
0.0
  0
LINE
  5
1A7
330
1F
100
AcDbEntity
  8
0
  6
Continuous
 62
     7
370
    25
100
AcDbLine
 10
9207.1537895764
 20
6516.4849634824
 30
0.0
 11
9207.1537895764
 21
6516.804559408
 31
0.0
  0
LINE
  5
1A8
330
1F
100
AcDbEntity
  8
0
  6
Continuous
 62
     7
370
    25
100
AcDbLine
 10
9244.5387755772
 20
6520.6354180762
 30
0.0
 11
9244.5387755772
 21
6517.862649428
 31
0.0
  0
ARC
  5
1A9
330
1F
100
AcDbEntity
  8
0
  6
Continuous
 62
     7
370
    25
100
AcDbCircle
 10
9244.1628399806
 20
6518.4454723464
 30
0.0
 40
0.6935489363150653
100
AcDbArc
 50
260.3119132794
 51
302.823044544
  0
LINE
  5
1AA
330
1F
100
AcDbEntity
  8
0
  6
Continuous
 62
     7
370
    25
100
AcDbLine
 10
9244.5387755772
 20
6517.862649428
 30
0.0
 11
9244.5749634898
 21
6516.7837954888
 31
0.0
  0
LINE
  5
1AB
330
1F
100
AcDbEntity
  8
0
  6
Continuous
 62
     7
370
    25
100
AcDbLine
 10
9244.5749634898
 20
6516.7837954888
 30
0.0
 11
9244.0760873528
 21
6516.7502902654
 31
0.0
  0
ARC
  5
1AC
330
1F
100
AcDbEntity
  8
0
  6
Continuous
 62
     7
370
    25
100
AcDbCircle
 10
9071.9845902804
 20
6283.8861811163
 30
0.0
 40
269.5221291947701
100
AcDbArc
 50
31.2264983337
 51
58.7947242738
  0
LINE
  5
1AD
330
1F
100
AcDbEntity
  8
0
  6
Continuous
 62
     7
370
    25
100
AcDbLine
 10
9302.0320281871
 20
6423.3533181381
 30
0.0
 11
9302.4595904821
 21
6423.6125294109
 31
0.0
  0
ARC
  5
1AE
330
1F
100
AcDbEntity
  8
0
  6
Continuous
 62
     7
370
    25
100
AcDbCircle
 10
9071.9845902804
 20
6283.8861811163
 30
0.0
 40
269.0221291947703
100
AcDbArc
 50
31.2264983337
 51
58.7947242738
  0
ARC
  5
1AF
330
1F
100
AcDbEntity
  8
0
  6
Continuous
 62
     7
370
    25
100
AcDbCircle
 10
9260.6385628504
 20
6517.862649428
 30
0.0
 40
16.59978727314359
100
AcDbArc
 50
183.8422950275
 51
219.7847014409
  0
ARC
  5
1B0
330
1F
100
AcDbEntity
  8
0
  6
Continuous
 62
     7
370
    25
100
AcDbCircle
 10
9604.4773494428
 20
6804.1828216171
 30
0.0
 40
464.0417971110512
100
AcDbArc
 50
219.7847014409
 51
229.7475937083
  0
ARC
  5
1B1
330
1F
100
AcDbEntity
  8
0
  6
Continuous
 62
     7
370
    25
100
AcDbCircle
 10
9293.6166744899
 20
6437.0106326839
 30
0.0
 40
17.05047632327667
100
AcDbArc
 50
347.5770299595
 51
49.7475937083
  0
LINE
  5
1B2
330
1F
100
AcDbEntity
  8
0
  6
Continuous
 62
     7
370
    25
100
AcDbLine
 10
9308.3389949261
 20
6424.586044495
 30
0.0
 11
9310.2679328676
 21
6433.342617241
 31
0.0
  0
ARC
  5
1B3
330
1F
100
AcDbEntity
  8
0
  6
Continuous
 62
     7
370
    25
100
AcDbCircle
 10
9305.2043597894
 20
6425.2765562766
 30
0.0
 40
3.209788771933566
100
AcDbArc
 50
211.2264983337
 51
347.5770299595
  0
ARC
  5
1B4
330
1F
100
AcDbEntity
  8
0
  6
Continuous
 62
     7
370
    25
100
AcDbCircle
 10
9260.6385628504
 20
6517.862649428
 30
0.0
 40
16.09978727314396
100
AcDbArc
 50
183.8422950275
 51
219.7847014409
  0
LINE
  5
1B5
330
1F
100
AcDbEntity
  8
0
  6
Continuous
 62
     7
370
    25
100
AcDbLine
 10
9248.2666102874
 20
6507.5603225054
 30
0.0
 11
9247.8823830814
 21
6507.2403702368
 31
0.0
  0
ARC
  5
1B6
330
1F
100
AcDbEntity
  8
0
  6
Continuous
 62
     7
370
    25
100
AcDbCircle
 10
9604.4773494428
 20
6804.1828216171
 30
0.0
 40
463.5417971110512
100
AcDbArc
 50
219.7847014409
 51
229.7475937083
  0
LINE
  5
1B7
330
1F
100
AcDbEntity
  8
0
  6
Continuous
 62
     7
370
    25
100
AcDbLine
 10
9304.9570206498
 20
6450.4052498172
 30
0.0
 11
9304.6339426333
 21
6450.0236471505
 31
0.0
  0
ARC
  5
1B8
330
1F
100
AcDbEntity
  8
0
  6
Continuous
 62
     7
370
    25
100
AcDbCircle
 10
9305.2043597894
 20
6425.2765562766
 30
0.0
 40
3.709788771933052
100
AcDbArc
 50
211.2264983337
 51
347.5770299595
  0
LINE
  5
1B9
330
1F
100
AcDbEntity
  8
0
  6
Continuous
 62
     7
370
    25
100
AcDbLine
 10
9308.827287982
 20
6424.4784810647
 30
0.0
 11
9308.3389949261
 21
6424.586044495
 31
0.0
  0
LINE
  5
1BA
330
1F
100
AcDbEntity
  8
0
  6
Continuous
 62
     7
370
    25
100
AcDbLine
 10
9310.7562259235
 20
6433.2350538107
 30
0.0
 11
9308.827287982
 21
6424.4784810647
 31
0.0
  0
LINE
  5
1BB
330
1F
100
AcDbEntity
  8
0
  6
Continuous
 62
     7
370
    25
100
AcDbLine
 10
9310.7562259235
 20
6433.2350538107
 30
0.0
 11
9310.2679328676
 21
6433.342617241
 31
0.0
  0
ARC
  5
1BC
330
1F
100
AcDbEntity
  8
0
  6
Continuous
 62
     7
370
    25
100
AcDbCircle
 10
9293.6166744899
 20
6437.0106326839
 30
0.0
 40
17.55047632327589
100
AcDbArc
 50
347.5770299595
 51
49.7475937083
  0
LWPOLYLINE
  5
1BD
330
1F
100
AcDbEntity
  8
0
  6
Continuous
 62
     8
370
    25
100
AcDbPolyline
 90
       37
 70
   128
 43
0.0
 10
9221.0351732802
 20
6596.7583849963
 10
9221.0395823741
 20
6596.7566668056
 10
9220.9378416769
 20
6596.8052460938
 10
9220.6081132483
 20
6596.953304516
 10
9220.0550582654
 20
6597.1986254475
 10
9219.2523449021
 20
6597.5531431001
 10
9218.2286776011
 20
6598.0043257474
 10
9216.862934771
 20
6598.6054766801
 10
9215.2661192011
 20
6599.3080736086
 10
9213.3851228169
 20
6600.1362659699
 10
9211.3074218517
 20
6601.0519180213
 10
9208.9424436422
 20
6602.0948537517
 10
9206.4142622886
 20
6603.2105141302
 10
9203.6500947194
 20
6604.4313685012
 10
9200.7654228274
 20
6605.7063671714
 10
9197.863185882
 20
6606.9898650593
 10
9194.8949152983
 20
6608.3030038133
 10
9191.7920476839
 20
6609.6758757051
 10
9188.6656582697
 20
6611.0590253159
 10
9187.3613682729
 20
6611.6359273796
 10
9184.6273834438
 20
6612.8447979686
 10
9181.9153949043
 20
6614.0432374002
 10
9179.1772359916
 20
6615.2524182538
 10
9176.4967083106
 20
6616.4353137017
 10
9174.1830603387
 20
6617.4555260143
 10
9171.9432369685
 20
6618.4424091027
 10
9169.7423686157
 20
6619.4113250487
 10
9167.648989584
 20
6620.3320329267
 10
9164.2873889356
 20
6621.808038254
 10
9162.7436871493
 20
6622.4844124818
 10
9161.33618184
 20
6623.099944562
 10
9159.1189086796
 20
6624.066098625
 10
9157.4693328315
 20
6624.7792652342
 10
9156.5277232105
 20
6625.1788573728
 10
9156.3212456585
 20
6625.2614049388
 10
9156.3063634896
 20
6625.2592724113
 10
9156.3063634896
 20
6625.2592724113
  0
LWPOLYLINE
  5
1BE
330
1F
100
AcDbEntity
  8
0
  6
Continuous
 62
     8
370
    25
100
AcDbPolyline
 90
       24
 70
   128
 43
0.0
 10
9155.9369979222
 20
6571.0939766021
 10
9155.9139474173
 20
6571.0916875407
 10
9156.3902664439
 20
6571.0801334525
 10
9157.3574973658
 20
6571.0667038714
 10
9158.8210944019
 20
6571.0510871847
 10
9160.9816890659
 20
6571.0328088935
 10
9163.6327580227
 20
6571.0136966606
 10
9167.2997836629
 20
6570.9915158882
 10
9171.4216912757
 20
6570.9699562733
 10
9173.9691773525
 20
6570.9580695397
 10
9176.573208563
 20
6570.9466607384
 10
9179.2939134141
 20
6570.935555584
 10
9182.0326786652
 20
6570.9251005485
 10
9186.1982297688
 20
6570.9102026339
 10
9190.3603747791
 20
6570.8960209148
 10
9194.1341906784
 20
6570.8839571287
 10
9197.7562248106
 20
6570.8731601275
 10
9200.4594511467
 20
6570.8658803039
 10
9202.9203821763
 20
6570.860254717
 10
9204.733094781
 20
6570.8573348904
 10
9206.2304342634
 20
6570.8571867435
 10
9207.2424024518
 20
6570.8599904466
 10
9207.8521420683
 20
6570.8660830141
 10
9207.9465054805
 20
6570.8727360427
  0
LWPOLYLINE
  5
1BF
330
1F
100
AcDbEntity
  8
0
  6
Continuous
 62
     8
370
    25
100
AcDbPolyline
 90
        4
 70
   128
 43
0.0
 10
9156.2896346157
 20
6625.1286044701
 10
9156.0470797201
 20
6625.2306735299
 10
9155.9372776516
 20
6625.2708942504
 10
9155.9415031143
 20
6625.2686132854
  0
LWPOLYLINE
  5
1C0
330
1F
100
AcDbEntity
  8
0
  6
Continuous
 62
     8
370
    25
100
AcDbPolyline
 90
        3
 70
   128
 43
0.0
 10
9155.6288224947
 20
6571.0932453607
 10
9155.5867273425
 20
6571.0961845803
 10
9155.9011625126
 20
6571.1009330245
  0
LINE
  5
1C1
330
1F
100
AcDbEntity
  8
0
  6
Continuous
 62
     8
370
    25
100
AcDbLine
 10
9244.243930754
 20
6521.2934281795
 30
0.0
 11
9244.243930754
 21
6545.0784360014
 31
0.0
  0
LWPOLYLINE
  5
1C2
330
1F
100
AcDbEntity
  8
0
  6
Continuous
 62
     8
370
    25
100
AcDbPolyline
 90
       15
 70
   128
 43
0.0
 10
9187.6029992861
 20
6539.6380958284
 10
9186.8526776985
 20
6539.2946518953
 10
9184.1317458725
 20
6538.314860633
 10
9181.6222275533
 20
6537.9162241748
 10
9179.0668285545
 20
6538.1160528116
 10
9177.4198007899
 20
6538.5442934144
 10
9175.8213152563
 20
6539.1347401472
 10
9173.2320389669
 20
6540.3470799503
 10
9170.8055538802
 20
6541.6656579821
 10
9169.1228964674
 20
6542.6436320993
 10
9167.6222330923
 20
6543.5449984694
 10
9166.7628791739
 20
6544.0703757218
 10
9166.11190017
 20
6544.4719283293
 10
9165.8125543464
 20
6544.6574783075
 10
9165.7641825076
 20
6544.687513224
  0
ARC
  5
1C3
330
1F
100
AcDbEntity
  8
0
  6
Continuous
 62
     8
370
    25
100
AcDbCircle
 10
9137.8954896995
 20
6634.2340805297
 30
0.0
 40
106.8608292636191
100
AcDbArc
 50
297.7206539307
 51
304.2658373305
  0
ARC
  5
1C4
330
1F
100
AcDbEntity
  8
0
  6
Continuous
 62
     8
370
    25
100
AcDbCircle
 10
9120.0055011744
 20
6605.418746255
 30
0.0
 40
91.06434386298844
100
AcDbArc
 50
316.153931799
 51
323.2275684186
  0
LWPOLYLINE
  5
1C5
330
1F
100
AcDbEntity
  8
0
  6
Continuous
 62
     8
370
    25
100
AcDbPolyline
 90
       19
 70
   128
 43
0.0
 10
9170.4785525012
 20
6549.6779843459
 10
9170.4715817917
 20
6549.6869892462
 10
9170.5766432343
 20
6549.5513687728
 10
9170.724343147
 20
6549.3611399721
 10
9171.1580206676
 20
6548.8056664833
 10
9171.7754839099
 20
6548.0234964639
 10
9172.7840482043
 20
6546.7719063937
 10
9173.9909677888
 20
6545.3281758262
 10
9175.6028504735
 20
6543.529927148
 10
9177.4817684998
 20
6541.728190948
 10
9178.5324664872
 20
6540.932039346
 10
9179.7405362678
 20
6540.2829496809
 10
9180.9692525522
 20
6539.9879781117
 10
9181.5190077645
 20
6539.9887227262
 10
9182.8872608524
 20
6540.3451886525
 10
9183.2655478561
 20
6540.5265866974
 10
9184.2467386759
 20
6541.1400913499
 10
9185.1592246162
 20
6541.8662622261
 10
9185.6814231291
 20
6542.3363556963
  0
LINE
  5
1C6
330
1F
100
AcDbEntity
  8
0
  6
Continuous
 62
     8
370
    25
100
AcDbLine
 10
9244.6650412742
 20
6544.7890482734
 30
0.0
 11
9244.6650412742
 21
6521.5548439316
 31
0.0
  0
LINE
  5
1C7
330
1F
100
AcDbEntity
  8
0
  6
Continuous
 62
     8
370
    25
100
AcDbLine
 10
9131.911241673
 20
6546.2940526717
 30
0.0
 11
9131.911241673
 21
6546.3610399698
 31
0.0
  0
LINE
  5
1C8
330
1F
100
AcDbEntity
  8
0
  6
Continuous
 62
     8
370
    25
100
AcDbLine
 10
9146.911241673
 20
6546.2940526717
 30
0.0
 11
9146.911241673
 21
6546.3610399698
 31
0.0
  0
LINE
  5
1C9
330
1F
100
AcDbEntity
  8
0
  6
Continuous
 62
     8
370
    25
100
AcDbLine
 10
9131.911241673
 20
6518.8029275871
 30
0.0
 11
9131.911241673
 21
6518.8699148852
 31
0.0
  0
LINE
  5
1CA
330
1F
100
AcDbEntity
  8
0
  6
Continuous
 62
     8
370
    25
100
AcDbLine
 10
9146.911241673
 20
6518.8029275871
 30
0.0
 11
9146.911241673
 21
6518.8699148852
 31
0.0
  0
LINE
  5
1CB
330
1F
100
AcDbEntity
  8
0
  6
Continuous
 62
     7
370
    25
100
AcDbLine
 10
8937.7001119267
 20
6217.5774159508
 30
0.0
 11
8937.7065382556
 21
6216.7639680486
 31
0.0
  0
LINE
  5
1CC
330
1F
100
AcDbEntity
  8
0
  6
Continuous
 62
     7
370
    25
100
AcDbLine
 10
8968.2055865209
 20
6217.0049139251
 30
0.0
 11
8968.1991601919
 21
6217.8183618272
 31
0.0
  0
LINE
  5
1CD
330
1F
100
AcDbEntity
  8
0
  6
Continuous
 62
     7
370
    25
100
AcDbLine
 10
8956.5845629245
 20
6215.761648385
 30
0.0
 11
8956.5844022663
 21
6215.7819845825
 31
0.0
  0
LINE
  5
1CE
330
1F
100
AcDbEntity
  8
0
  6
Continuous
 62
     7
370
    25
100
AcDbLine
 10
8950.1651150435
 20
6215.7312714989
 30
0.0
 11
8950.1652757017
 21
6215.7109353013
 31
0.0
  0
LINE
  5
1CF
330
1F
100
AcDbEntity
  8
0
  6
Continuous
 62
     7
370
    25
100
AcDbLine
 10
8898.471336076
 20
6217.2675042546
 30
0.0
 11
8898.477762405
 21
6216.4540563524
 31
0.0
  0
LINE
  5
1D0
330
1F
100
AcDbEntity
  8
0
  6
Continuous
 62
     7
370
    25
100
AcDbLine
 10
8928.9768106702
 20
6216.6950022289
 30
0.0
 11
8928.9703843412
 21
6217.5084501311
 31
0.0
  0
LINE
  5
1D1
330
1F
100
AcDbEntity
  8
0
  6
Continuous
 62
     7
370
    25
100
AcDbLine
 10
8917.3557870739
 20
6215.4517366888
 30
0.0
 11
8917.3556264157
 21
6215.4720728864
 31
0.0
  0
LINE
  5
1D2
330
1F
100
AcDbEntity
  8
0
  6
Continuous
 62
     7
370
    25
100
AcDbLine
 10
8910.9363391928
 20
6215.4213598027
 30
0.0
 11
8910.936499851
 21
6215.4010236052
 31
0.0
  0
LWPOLYLINE
  5
1D3
330
1F
100
AcDbEntity
  8
0
  6
Continuous
 62
     7
370
    25
100
AcDbPolyline
 90
       35
 70
   128
 43
0.0
 10
8939.1208408607
 20
6183.5385905467
 10
8939.3846657288
 20
6183.3580495781
 10
8941.2570319875
 20
6182.2706716809
 10
8943.3407236863
 20
6181.2548294106
 10
8945.4939979064
 20
6180.3975174938
 10
8947.6904545716
 20
6179.709043837
 10
8949.9063911906
 20
6179.196267606
 10
8952.1144653637
 20
6178.8591373646
 10
8954.3591686093
 20
6178.6840496071
 10
8956.6335675456
 20
6178.6729265713
 10
8958.9182568871
 20
6178.8282831688
 10
8961.1924969878
 20
6179.1508629104
 10
8963.4341997395
 20
6179.6392429801
 10
8965.6205854586
 20
6180.2894475397
 10
8967.7318106846
 20
6181.0958675072
 10
8969.7437972824
 20
6182.0437835663
 10
8971.6984555624
 20
6183.1457591727
 10
8973.5950455382
 20
6184.4055115704
 10
8975.4137124694
 20
6185.8145502943
 10
8977.1433076214
 20
6187.3681027038
 10
8978.7712943562
 20
6189.0593374103
 10
8980.2841603823
 20
6190.879071272
 10
8981.667863919
 20
6192.8155342064
 10
8982.9080916367
 20
6194.8528080225
 10
8983.9968253988
 20
6196.9764258464
 10
8984.9359709705
 20
6199.1944651371
 10
8985.7140812553
 20
6201.4879525019
 10
8986.32557674
 20
6203.8468330322
 10
8986.7652575266
 20
6206.259621042
 10
8987.0286120704
 20
6208.7135388336
 10
8987.1120820847
 20
6211.1946814418
 10
8987.0127356342
 20
6213.6834033698
 10
8986.731322892
 20
6216.1457002214
 10
8986.2693597426
 20
6218.5775331986
 10
8985.751466033
 20
6220.5094242152
  0
LWPOLYLINE
  5
1D4
330
1F
100
AcDbEntity
  8
0
  6
Continuous
 62
     7
370
    25
100
AcDbPolyline
 90
       35
 70
   128
 43
0.0
 10
8881.0451721152
 20
6219.7838472398
 10
8880.6761784885
 20
6218.4346220749
 10
8880.2046871205
 20
6216.0289311799
 10
8879.9093292142
 20
6213.5808313743
 10
8879.7942026789
 20
6211.1063191216
 10
8879.861588357
 20
6208.6252489808
 10
8880.111115335
 20
6206.1572180715
 10
8880.5416791362
 20
6203.7152135826
 10
8881.1504362919
 20
6201.3163542679
 10
8881.9330494726
 20
6198.9765491208
 10
8882.8838408856
 20
6196.710672332
 10
8883.9960723962
 20
6194.5322144005
 10
8885.2626123921
 20
6192.4526815294
 10
8886.674523606
 20
6190.4848848398
 10
8888.2271334028
 20
6188.6306168281
 10
8889.9108880538
 20
6186.899484628
 10
8891.7096172213
 20
6185.3068979414
 10
8893.6073016149
 20
6183.8649183839
 10
8895.5888414012
 20
6182.5823357308
 10
8897.6406122951
 20
6181.4650364177
 10
8899.7507504106
 20
6180.5166286707
 10
8901.8882600647
 20
6179.7466520866
 10
8904.063132909
 20
6179.1429570868
 10
8906.293191917
 20
6178.6980274652
 10
8908.5616793512
 20
6178.4166712836
 10
8910.8505027857
 20
6178.3023616555
 10
8913.1406277423
 20
6178.3569085149
 10
8915.4140571228
 20
6178.5803954629
 10
8917.6535925076
 20
6178.9714060097
 10
8919.8409743349
 20
6179.5261382912
 10
8921.9565054756
 20
6180.2324388896
 10
8924.0411907299
 20
6181.1029746452
 10
8926.0655287817
 20
6182.1294745031
 10
8928.0201483825
 20
6183.3092239516
 10
8928.2085897535
 20
6183.443359097
  0
LWPOLYLINE
  5
1D5
330
1F
100
AcDbEntity
  8
0
  6
Continuous
 62
     7
370
    25
100
AcDbPolyline
 90
       30
 70
   128
 43
0.0
 10
8937.782705763
 20
6232.5530770148
 10
8938.3598757215
 20
6233.4553260208
 10
8939.0168012349
 20
6234.3441560829
 10
8939.6434431453
 20
6235.0934373505
 10
8940.2231287889
 20
6235.716869104
 10
8940.7418430011
 20
6236.2265976672
 10
8941.1879831285
 20
6236.6331285921
 10
8941.5771210459
 20
6236.9660391142
 10
8942.0777369155
 20
6237.3673152225
 10
8942.7325903246
 20
6237.8507224996
 10
8943.555641494
 20
6238.3988339983
 10
8944.5627340133
 20
6238.9902657839
 10
8945.7681949748
 20
6239.5982576899
 10
8947.1492797562
 20
6240.1792475849
 10
8948.6971471667
 20
6240.7023844938
 10
8950.4084417953
 20
6241.1407986245
 10
8951.32301727
 20
6241.3194860689
 10
8952.2670286562
 20
6241.4652587171
 10
8953.1422163203
 20
6241.5663223621
 10
8953.9161542733
 20
6241.6288893238
 10
8954.5850557318
 20
6241.6628080863
 10
8955.146135287
 20
6241.6767282247
 10
8955.5974479248
 20
6241.6780929258
 10
8956.0685345853
 20
6241.6698205706
 10
8956.4068395649
 20
6241.6572847821
 10
8956.8396357025
 20
6241.6321606215
 10
8957.0850216313
 20
6241.6128260043
 10
8957.2317377768
 20
6241.5988198821
 10
8957.2886682641
 20
6241.5928699729
 10
8957.2879388887
 20
6241.5933668052
  0
LWPOLYLINE
  5
1D6
330
1F
100
AcDbEntity
  8
0
  6
Continuous
 62
     7
370
    25
100
AcDbPolyline
 90
       29
 70
   128
 43
0.0
 10
8909.1358655923
 20
6241.2127730162
 10
8909.1334239564
 20
6241.2122695252
 10
8909.1677047618
 20
6241.2159571488
 10
8909.2789881839
 20
6241.228585587
 10
8909.5986117625
 20
6241.259929901
 10
8910.2505238648
 20
6241.303927211
 10
8910.5974269247
 20
6241.3182670534
 10
8911.0097508466
 20
6241.3280471763
 10
8911.4859251045
 20
6241.330021615
 10
8911.7473529751
 20
6241.3269954714
 10
8912.0239814143
 20
6241.3206817076
 10
8912.3155165002
 20
6241.3106020197
 10
8913.2619701888
 20
6241.2537973481
 10
8914.5230019888
 20
6241.119693412
 10
8915.7440369572
 20
6240.9245273039
 10
8916.9206392439
 20
6240.6731321109
 10
8918.5943196963
 20
6240.2012182721
 10
8920.1090158316
 20
6239.6467548545
 10
8921.3347477797
 20
6239.0977597584
 10
8922.2815519727
 20
6238.604286052
 10
8922.6794954982
 20
6238.3768933605
 10
8923.015492875
 20
6238.1749630476
 10
8923.4320611767
 20
6237.9112359523
 10
8923.9711572451
 20
6237.5464281332
 10
8924.621127604
 20
6237.0680609032
 10
8925.5663700777
 20
6236.2867422255
 10
8926.623933803
 20
6235.2676923906
 10
8927.7464901059
 20
6233.9683783194
 10
8928.7752088644
 20
6232.4841739004
  0
LWPOLYLINE
  5
1D7
330
1F
100
AcDbEntity
  8
0
  6
Continuous
 62
     7
370
    25
100
AcDbPolyline
 90
       27
 70
   128
 43
0.0
 10
8938.6586380073
 20
6238.2838741599
 10
8938.5007457622
 20
6238.177284831
 10
8938.0126682201
 20
6237.8837903738
 10
8937.4760446623
 20
6237.5150328931
 10
8936.7612693454
 20
6237.0484923457
 10
8936.4235782678
 20
6236.8888346558
 10
8936.1499379407
 20
6236.7842458269
 10
8935.6873725627
 20
6236.6411702808
 10
8934.3012496729
 20
6236.3724835831
 10
8933.3994483945
 20
6236.302796619
 10
8932.499064522
 20
6236.3268501868
 10
8931.6091687064
 20
6236.4389178934
 10
8930.7980399863
 20
6236.6033114374
 10
8930.4604008059
 20
6236.699407211
 10
8930.1440434231
 20
6236.8107678461
 10
8929.5770592337
 20
6237.094882464
 10
8929.1429749093
 20
6237.3965737941
 10
8928.8987616234
 20
6237.5860585269
 10
8928.7660659804
 20
6237.6790420793
 10
8928.5617969753
 20
6237.805662231
 10
8928.2681580093
 20
6237.9723703944
 10
8928.0042772468
 20
6238.1097091858
 10
8927.8920114851
 20
6238.1610973703
 10
8927.8696827973
 20
6238.1710206792
 10
8927.8496568279
 20
6238.1801858901
 10
8927.8315824496
 20
6238.1890471351
 10
8927.8148347767
 20
6238.1982110229
  0
LWPOLYLINE
  5
1D8
330
1F
100
AcDbEntity
  8
0
  6
Continuous
 62
     7
370
    25
100
AcDbPolyline
 90
       22
 70
   128
 43
0.0
 10
8928.0917221471
 20
6183.3581852922
 10
8928.5229102098
 20
6183.6516823768
 10
8929.6128744638
 20
6184.4672120094
 10
8930.7097622554
 20
6185.4241766443
 10
8931.7039480277
 20
6186.2874252272
 10
8932.3553656081
 20
6186.7309961308
 10
8932.7374976631
 20
6186.8794390309
 10
8933.4242609191
 20
6187.0173678704
 10
8933.6330175664
 20
6187.0388385628
 10
8933.7061592295
 20
6187.0380405241
 10
8933.8268189349
 20
6187.0290867668
 10
8933.9857077147
 20
6187.0092527752
 10
8934.175157591
 20
6186.9772993579
 10
8934.6282890757
 20
6186.869835324
 10
8934.9027886581
 20
6186.7699018781
 10
8935.3309150739
 20
6186.5235831924
 10
8935.8937336777
 20
6186.1194846458
 10
8936.5472581196
 20
6185.5697592421
 10
8937.9699235207
 20
6184.3407591512
 10
8938.6554240797
 20
6183.8403460124
 10
8938.9681322487
 20
6183.6259228919
 10
8939.248198189
 20
6183.446320644
  0
ARC
  5
1D9
330
1F
100
AcDbEntity
  8
0
  6
Continuous
 62
     7
370
    25
100
AcDbCircle
 10
8925.9693133563
 20
6230.2906104354
 30
0.0
 40
0.4000000000001201
100
AcDbArc
 50
0.4526336201
 51
90.4526336198
  0
ARC
  5
1DA
330
1F
100
AcDbEntity
  8
0
  6
Continuous
 62
     7
370
    25
100
AcDbCircle
 10
8925.9740532752
 20
6229.6906291581
 30
0.0
 40
0.4000000000001201
100
AcDbArc
 50
270.4526336201
 51
0.4526336198
  0
ARC
  5
1DB
330
1F
100
AcDbEntity
  8
0
  6
Continuous
 62
     7
370
    25
100
AcDbCircle
 10
8940.4988599561
 20
6230.405395471
 30
0.0
 40
0.4000000000001129
100
AcDbArc
 50
90.4526336198
 51
180.4526336199
  0
ARC
  5
1DC
330
1F
100
AcDbEntity
  8
0
  6
Continuous
 62
     7
370
    25
100
AcDbCircle
 10
8940.503599875
 20
6229.8054141937
 30
0.0
 40
0.4000000000001129
100
AcDbArc
 50
180.4526336199
 51
270.4526336198
  0
ARC
  5
1DD
330
1F
100
AcDbEntity
  8
0
  6
Continuous
 62
     7
370
    25
100
AcDbCircle
 10
8965.1980892069
 20
6230.6005221316
 30
0.0
 40
0.4000000000001201
100
AcDbArc
 50
0.4526336201
 51
90.4526336201
  0
ARC
  5
1DE
330
1F
100
AcDbEntity
  8
0
  6
Continuous
 62
     7
370
    25
100
AcDbCircle
 10
8965.2028291258
 20
6230.0005408542
 30
0.0
 40
0.4000000000001058
100
AcDbArc
 50
270.4526336198
 51
0.4526336199
  0
LINE
  5
1DF
330
1F
100
AcDbEntity
  8
0
  6
Continuous
 62
     7
370
    25
100
AcDbLine
 10
8925.6272241426
 20
6229.2878766872
 30
0.0
 11
8925.9772132211
 21
6229.2906416399
 31
0.0
  0
LINE
  5
1E0
330
1F
100
AcDbEntity
  8
0
  6
Continuous
 62
     7
370
    25
100
AcDbLine
 10
8925.9661534104
 20
6230.6905979537
 30
0.0
 11
8925.6161643319
 21
6230.687833001
 31
0.0
  0
ARC
  5
1E1
330
1F
100
AcDbEntity
  8
0
  6
Continuous
 62
     7
370
    25
100
AcDbCircle
 10
8901.2700841054
 20
6230.0954837748
 30
0.0
 40
0.4000000000001201
100
AcDbArc
 50
90.4526336195
 51
180.4526336201
  0
ARC
  5
1E2
330
1F
100
AcDbEntity
  8
0
  6
Continuous
 62
     7
370
    25
100
AcDbCircle
 10
8901.2748240243
 20
6229.4955024975
 30
0.0
 40
0.4000000000001058
100
AcDbArc
 50
180.4526336198
 51
270.4526336198
  0
LINE
  5
1E3
330
1F
100
AcDbEntity
  8
0
  6
Continuous
 62
     7
370
    25
100
AcDbLine
 10
8940.5067598209
 20
6229.4054266754
 30
0.0
 11
8940.8567488993
 21
6229.4081916281
 31
0.0
  0
LINE
  5
1E4
330
1F
100
AcDbEntity
  8
0
  6
Continuous
 62
     7
370
    25
100
AcDbLine
 10
8940.8456890886
 20
6230.8081479419
 30
0.0
 11
8940.4957000102
 21
6230.8053829892
 31
0.0
  0
LINE
  5
1E5
330
1F
100
AcDbEntity
  8
0
  6
Continuous
 62
     7
370
    25
100
AcDbLine
 10
8901.2779839702
 20
6229.0955149793
 30
0.0
 11
8901.6279730487
 21
6229.0982799319
 31
0.0
  0
LINE
  5
1E6
330
1F
100
AcDbEntity
  8
0
  6
Continuous
 62
     7
370
    25
100
AcDbLine
 10
8901.616913238
 20
6230.4982362458
 30
0.0
 11
8901.2669241595
 21
6230.4954712931
 31
0.0
  0
LINE
  5
1E7
330
1F
100
AcDbEntity
  8
0
  6
Continuous
 62
     7
370
    25
100
AcDbLine
 10
8964.8559999933
 20
6229.5977883833
 30
0.0
 11
8965.2059890717
 21
6229.600553336
 31
0.0
  0
LINE
  5
1E8
330
1F
100
AcDbEntity
  8
0
  6
Continuous
 62
     7
370
    25
100
AcDbLine
 10
8965.194929261
 20
6231.0005096498
 30
0.0
 11
8964.8449401826
 21
6230.9977446971
 31
0.0
  0
LINE
  5
1E9
330
1F
100
AcDbEntity
  8
0
  6
Continuous
 62
     7
370
    25
100
AcDbLine
 10
8919.3078396999
 20
6179.390932362
 30
0.0
 11
8920.9024393512
 21
6155.1860617363
 31
0.0
  0
LINE
  5
1EA
330
1F
100
AcDbEntity
  8
0
  6
Continuous
 62
     7
370
    25
100
AcDbLine
 10
8945.895343797
 20
6155.1860617363
 30
0.0
 11
8947.5145331295
 21
6179.7641859577
 31
0.0
  0
LWPOLYLINE
  5
1EB
330
1F
100
AcDbEntity
  8
0
  6
Continuous
 62
     7
370
    25
100
AcDbPolyline
 90
        3
 70
   128
 43
0.0
 10
8922.2417660377
 20
6248.9735345771
 10
8921.7888497602
 20
6242.2764146303
 10
8921.7354737289
 20
6241.4374300301
  0
LWPOLYLINE
  5
1EC
330
1F
100
AcDbEntity
  8
0
  6
Continuous
 62
     7
370
    25
100
AcDbPolyline
 90
        3
 70
   128
 43
0.0
 10
8921.5805515948
 20
6238.9323090618
 10
8921.3834572657
 20
6235.5762500307
 10
8921.3292272029
 20
6234.6153222751
  0
LWPOLYLINE
  5
1ED
330
1F
100
AcDbEntity
  8
0
  6
Continuous
 62
     7
370
    25
100
AcDbPolyline
 90
        3
 70
   128
 43
0.0
 10
8920.0754469421
 20
6202.295177017
 10
8920.0699819099
 20
6202.0415647647
 10
8919.9500768165
 20
6195.3302182899
  0
LWPOLYLINE
  5
1EE
330
1F
100
AcDbEntity
  8
0
  6
Continuous
 62
     7
370
    25
100
AcDbPolyline
 90
        3
 70
   128
 43
0.0
 10
8946.8477063317
 20
6195.3302182899
 10
8946.7278012383
 20
6202.0415647647
 10
8946.7152676983
 20
6202.6186202381
  0
LWPOLYLINE
  5
1EF
330
1F
100
AcDbEntity
  8
0
  6
Continuous
 62
     7
370
    25
100
AcDbPolyline
 90
        3
 70
   128
 43
0.0
 10
8945.4495822768
 20
6234.9535070473
 10
8945.4143258824
 20
6235.5762500307
 10
8945.1956807949
 20
6239.2873492738
  0
LWPOLYLINE
  5
1F0
330
1F
100
AcDbEntity
  8
0
  6
Continuous
 62
     7
370
    25
100
AcDbPolyline
 90
        3
 70
   128
 43
0.0
 10
8945.0377292212
 20
6241.8252530916
 10
8945.0089333879
 20
6242.2764146303
 10
8944.5560171105
 20
6248.9735345771
  0
ARC
  5
1F1
330
1F
100
AcDbEntity
  8
0
  6
Continuous
 62
     7
370
    25
100
AcDbCircle
 10
8945.3964252981
 20
6155.218930132
 30
0.0
 40
0.5000000000006859
100
AcDbArc
 50
294.7753528763
 51
356.2308413416
  0
ARC
  5
1F2
330
1F
100
AcDbEntity
  8
0
  6
Continuous
 62
     7
370
    25
100
AcDbCircle
 10
8921.4013578501
 20
6155.218930132
 30
0.0
 40
0.5000000000016779
100
AcDbArc
 50
183.7691586584
 51
245.2246471235
  0
LINE
  5
1F3
330
1F
100
AcDbEntity
  8
0
  6
Continuous
 62
     7
370
    25
100
AcDbLine
 10
8945.7993361037
 20
6194.8377963951
 30
0.0
 11
8945.7993361037
 21
6195.3302182899
 31
0.0
  0
LINE
  5
1F4
330
1F
100
AcDbEntity
  8
0
  6
Continuous
 62
     7
370
    25
100
AcDbLine
 10
8920.9984470445
 20
6195.3302182899
 30
0.0
 11
8920.9984470445
 21
6194.4655159331
 31
0.0
  0
ARC
  5
1F5
330
1F
100
AcDbEntity
  8
0
  6
Continuous
 62
     7
370
    25
100
AcDbCircle
 10
8933.3016835407
 20
6181.4239487356
 30
0.0
 40
29.36149300009715
100
AcDbArc
 50
270.1896913151
 51
294.7753528765
  0
ARC
  5
1F6
330
1F
100
AcDbEntity
  8
0
  6
Continuous
 62
     7
370
    25
100
AcDbCircle
 10
8933.4960996075
 20
6181.4239487356
 30
0.0
 40
29.36149300009715
100
AcDbArc
 50
245.2246471235
 51
269.8103086849
  0
LINE
  5
1F7
330
1F
100
AcDbEntity
  8
0
  6
Continuous
 62
     7
370
    25
100
AcDbLine
 10
8943.6730984647
 20
6248.9735345771
 30
0.0
 11
8943.6730984647
 21
6252.0187508173
 31
0.0
  0
LINE
  5
1F8
330
1F
100
AcDbEntity
  8
0
  6
Continuous
 62
     7
370
    25
100
AcDbLine
 10
8923.1246846835
 20
6252.0187508173
 30
0.0
 11
8923.1246846835
 21
6248.9735345771
 31
0.0
  0
LINE
  5
1F9
330
1F
100
AcDbEntity
  8
0
  6
Continuous
 62
     7
370
    25
100
AcDbLine
 10
8935.8988915741
 20
6105.6010148684
 30
0.0
 11
8935.9613915741
 21
6105.6010148684
 31
0.0
  0
LINE
  5
1FA
330
1F
100
AcDbEntity
  8
0
  6
Continuous
 62
     7
370
    25
100
AcDbLine
 10
8935.9613915741
 20
6112.8011240572
 30
0.0
 11
8935.8988915741
 21
6112.8011240572
 31
0.0
  0
ARC
  5
1FB
330
1F
100
AcDbEntity
  8
0
  6
Continuous
 62
     7
370
    25
100
AcDbCircle
 10
8935.3988915741
 20
6088.7628416771
 30
0.0
 40
0.5
100
AcDbArc
 50
270.0
 51
0.0
  0
LINE
  5
1FC
330
1F
100
AcDbEntity
  8
0
  6
Continuous
 62
     7
370
    25
100
AcDbLine
 10
8931.3988915741
 20
6088.2628416771
 30
0.0
 11
8935.3988915741
 21
6088.2628416771
 31
0.0
  0
ARC
  5
1FD
330
1F
100
AcDbEntity
  8
0
  6
Continuous
 62
     7
370
    25
100
AcDbCircle
 10
8931.3988915741
 20
6088.7628416771
 30
0.0
 40
0.5
100
AcDbArc
 50
180.0
 51
270.0
  0
LINE
  5
1FE
330
1F
100
AcDbEntity
  8
0
  6
Continuous
 62
     7
370
    25
100
AcDbLine
 10
8935.9613915741
 20
6107.8907309777
 30
0.0
 11
8935.8988915741
 21
6107.8907309777
 31
0.0
  0
LINE
  5
1FF
330
1F
100
AcDbEntity
  8
0
  6
Continuous
 62
     7
370
    25
100
AcDbLine
 10
8935.9613915741
 20
6098.7357078462
 30
0.0
 11
8935.8988915741
 21
6098.7357078462
 31
0.0
  0
LWPOLYLINE
  5
200
330
1F
100
AcDbEntity
  8
0
  6
Continuous
 62
     7
370
    25
100
AcDbPolyline
 90
       34
 70
   128
 43
0.0
 10
8953.0745480833
 20
6201.8864630821
 10
8955.9375965482
 20
6202.2255963648
 10
8958.6442177588
 20
6203.1703380444
 10
8961.0589583728
 20
6204.643565767
 10
8963.0857123599
 20
6206.5360891976
 10
8964.6802336625
 20
6208.7446225425
 10
8965.8233961482
 20
6211.1828620651
 10
8966.4985535022
 20
6213.7472800044
 10
8966.7103898497
 20
6216.3907282844
 10
8966.4575488352
 20
6219.0117198032
 10
8965.7381129813
 20
6221.576953467
 10
8964.5683953015
 20
6223.9741661809
 10
8962.9391814628
 20
6226.1618887399
 10
8960.9034889108
 20
6228.009961292
 10
8958.4730243346
 20
6229.4498096321
 10
8957.1531038671
 20
6229.9732461545
 10
8955.7731254806
 20
6230.3558096965
 10
8952.8765436489
 20
6230.6624459372
 10
8950.0046345475
 20
6230.3278381413
 10
8947.2886822213
 20
6229.3836536913
 10
8944.8727099474
 20
6227.9126884271
 10
8942.8435408426
 20
6226.0211394023
 10
8941.2412085283
 20
6223.803538671
 10
8940.0997959585
 20
6221.3697975772
 10
8939.4217653387
 20
6218.7929166215
 10
8939.2114187269
 20
6216.1528223087
 10
8939.4674819013
 20
6213.5195005111
 10
8940.1873814182
 20
6210.9619518465
 10
8941.3682652702
 20
6208.5500445222
 10
8942.9933139644
 20
6206.3749794646
 10
8945.0496911346
 20
6204.5155126553
 10
8947.4746192629
 20
6203.0870485656
 10
8950.1923709535
 20
6202.1833667989
 10
8953.0745480833
 20
6201.8864630821
  0
LINE
  5
201
330
1F
100
AcDbEntity
  8
0
  6
Continuous
 62
     7
370
    25
100
AcDbLine
 10
8952.8289048418
 20
6232.6425871438
 30
0.0
 11
8952.8315594627
 21
6232.6426083039
 31
0.0
  0
ARC
  5
202
330
1F
100
AcDbEntity
  8
0
  6
Continuous
 62
     7
370
    25
100
AcDbCircle
 10
8952.9087355051
 20
6217.6372004231
 30
0.0
 40
15.00560712489727
100
AcDbArc
 50
43.0763488232
 51
90.2946819355
  0
LINE
  5
203
330
1F
100
AcDbEntity
  8
0
  6
Continuous
 62
     7
370
    25
100
AcDbLine
 10
8964.8788644491
 20
6226.7035942526
 30
0.0
 11
8963.869496349
 21
6227.885615545
 31
0.0
  0
LWPOLYLINE
  5
204
330
1F
100
AcDbEntity
  8
0
  6
Continuous
 62
     7
370
    25
100
AcDbPolyline
 90
       13
 70
   128
 43
0.0
 10
8964.8788627364
 20
6226.7035964728
 10
8966.0593090244
 20
6224.9394350521
 10
8966.9971448658
 20
6223.0261330588
 10
8967.8882841474
 20
6220.0768650247
 10
8968.2055865209
 20
6217.0049139251
 10
8967.9368582339
 20
6213.928333118
 10
8967.092426364
 20
6210.9653538785
 10
8965.7047419542
 20
6208.2298418372
 10
8963.8271329382
 20
6205.8269211876
 10
8961.5317547776
 20
6203.8489348227
 10
8958.9068175678
 20
6202.3718956494
 10
8956.0531961736
 20
6201.4525654546
 10
8953.0805536649
 20
6201.1262735823
  0
LWPOLYLINE
  5
205
330
1F
100
AcDbEntity
  8
0
  6
Continuous
 62
     7
370
    25
100
AcDbPolyline
 90
       13
 70
   128
 43
0.0
 10
8953.0805536649
 20
6201.1262735823
 10
8950.1031270263
 20
6201.405559246
 10
8947.2353370938
 20
6202.2796896544
 10
8944.587391426
 20
6203.715072466
 10
8942.2610490902
 20
6205.6565467244
 10
8940.3457101175
 20
6208.0295026627
 10
8938.9149799107
 20
6210.7427489148
 10
8938.0238406291
 20
6213.692016949
 10
8937.7065382556
 20
6216.7639680486
 10
8937.9752665426
 20
6219.8405488557
 10
8938.8196984125
 20
6222.8035280951
 10
8939.7271882629
 20
6224.731407966
 10
8940.8796144838
 20
6226.5139990093
  0
LINE
  5
206
330
1F
100
AcDbEntity
  8
0
  6
Continuous
 62
     7
370
    25
100
AcDbLine
 10
8940.8796144838
 20
6226.5139990092
 30
0.0
 11
8941.87018549
 21
6227.711824026
 31
0.0
  0
ARC
  5
207
330
1F
100
AcDbEntity
  8
0
  6
Continuous
 62
     7
370
    25
100
AcDbCircle
 10
8952.9911517386
 20
6217.6386100725
 30
0.0
 40
15.00485511232237
100
AcDbArc
 50
90.619549066
 51
137.8301630494
  0
ARC
  5
208
330
1F
100
AcDbEntity
  8
0
  6
Continuous
 62
     7
370
    25
100
AcDbCircle
 10
8952.9719702115
 20
6214.8708208497
 30
0.0
 40
20.67105141421809
100
AcDbArc
 50
54.9653682735
 51
125.9398989663
  0
LINE
  5
209
330
1F
100
AcDbEntity
  8
0
  6
Continuous
 62
     7
370
    25
100
AcDbLine
 10
8964.8519553578
 20
6230.1097603484
 30
0.0
 11
8964.8386308328
 21
6231.7963853091
 31
0.0
  0
LWPOLYLINE
  5
20A
330
1F
100
AcDbEntity
  8
0
  6
Continuous
 62
     7
370
    25
100
AcDbPolyline
 90
        8
 70
   128
 43
0.0
 10
8963.8598234567
 20
6229.1098624948
 10
8964.0612563404
 20
6228.9933826069
 10
8964.2470539763
 20
6228.9504160511
 10
8964.3993548717
 20
6228.9720268288
 10
8964.5327314386
 20
6229.0482068694
 10
8964.6679561648
 20
6229.2114615737
 10
8964.794857536
 20
6229.5422498342
 10
8964.8519553578
 20
6230.1097603484
  0
ARC
  5
20B
330
1F
100
AcDbEntity
  8
0
  6
Continuous
 62
     7
370
    25
100
AcDbCircle
 10
8953.0619943062
 20
6214.3819812915
 30
0.0
 40
18.26208090828527
100
AcDbArc
 50
53.7527835146
 51
90.7229895891
  0
ARC
  5
20C
330
1F
100
AcDbEntity
  8
0
  6
Continuous
 62
     7
370
    25
100
AcDbCircle
 10
8952.8896022605
 20
6214.3807897313
 30
0.0
 40
18.2618982833669
100
AcDbArc
 50
90.1904354231
 51
127.1526093353
  0
LWPOLYLINE
  5
20D
330
1F
100
AcDbEntity
  8
0
  6
Continuous
 62
     7
370
    25
100
AcDbPolyline
 90
        8
 70
   128
 43
0.0
 10
8940.8527042638
 20
6229.9201635932
 10
8940.937101037
 20
6229.2875265962
 10
8941.0350211877
 20
6229.0517813951
 10
8941.1935651464
 20
6228.8598957281
 10
8941.3322142173
 20
6228.7868924184
 10
8941.4890210438
 20
6228.7714781439
 10
8941.6779312422
 20
6228.8239068564
 10
8941.8605099539
 20
6228.9360654691
  0
LINE
  5
20E
330
1F
100
AcDbEntity
  8
0
  6
Continuous
 62
     7
370
    25
100
AcDbLine
 10
8940.8393797389
 20
6231.6067885538
 30
0.0
 11
8940.8527042638
 21
6229.9201635932
 31
0.0
  0
LWPOLYLINE
  5
20F
330
1F
100
AcDbEntity
  8
0
  6
Continuous
 62
     7
370
    25
100
AcDbPolyline
 90
       13
 70
   128
 43
0.0
 10
8966.4663947506
 20
6216.6987795849
 10
8965.3027005246
 20
6214.6625198387
 10
8963.7252274806
 20
6212.6884562708
 10
8961.7630504548
 20
6211.0478618208
 10
8959.4965493143
 20
6209.7866343015
 10
8957.0129288412
 20
6208.9579449821
 10
8954.4097204106
 20
6208.5835529124
 10
8951.7842161472
 20
6208.647855941
 10
8949.2074993488
 20
6209.1347818105
 10
8946.7719215415
 20
6210.0691397792
 10
8944.6119634759
 20
6211.5245476606
 10
8942.919631041
 20
6213.4785581154
 10
8941.7037671785
 20
6215.6164760473
  0
LINE
  5
210
330
1F
100
AcDbEntity
  8
0
  6
Continuous
 62
     7
370
    25
100
AcDbLine
 10
8964.3124957978
 20
6216.6817635434
 30
0.0
 11
8966.4663947506
 21
6216.6987795849
 31
0.0
  0
LWPOLYLINE
  5
211
330
1F
100
AcDbEntity
  8
0
  6
Continuous
 62
     7
370
    25
100
AcDbPolyline
 90
       13
 70
   128
 43
0.0
 10
8940.0086629193
 20
6215.9133486005
 10
8941.3985310596
 20
6217.8031499201
 10
8943.0750426704
 20
6219.5345523867
 10
8945.004126182
 20
6220.9252041628
 10
8947.1479922221
 20
6221.9651136984
 10
8949.4691192611
 20
6222.6551052518
 10
8951.9292131452
 20
6222.9948090401
 10
8954.4729144089
 20
6222.9680153128
 10
8956.9836943266
 20
6222.518103939
 10
8959.3287487404
 20
6221.5679663838
 10
8961.3223657219
 20
6220.1528831444
 10
8962.9638637208
 20
6218.4592435071
 10
8964.3124957978
 20
6216.6817635434
  0
LINE
  5
212
330
1F
100
AcDbEntity
  8
0
  6
Continuous
 62
     7
370
    25
100
AcDbLine
 10
8940.0086629193
 20
6215.9133486005
 30
0.0
 11
8941.7037671785
 21
6215.6164760473
 31
0.0
  0
LINE
  5
213
330
1F
100
AcDbEntity
  8
0
  6
Continuous
 62
     7
370
    25
100
AcDbLine
 10
8941.8605099539
 20
6228.9360654691
 30
0.0
 11
8941.870181574
 21
6227.7118270135
 31
0.0
  0
LINE
  5
214
330
1F
100
AcDbEntity
  8
0
  6
Continuous
 62
     7
370
    25
100
AcDbLine
 10
8963.8694951514
 20
6227.885614601
 30
0.0
 11
8963.8598234567
 21
6229.1098624948
 31
0.0
  0
LINE
  5
215
330
1F
100
AcDbEntity
  8
0
  6
Continuous
 62
     7
370
    25
100
AcDbLine
 10
8940.8393797389
 20
6231.6067885538
 30
0.0
 11
8940.8328413348
 21
6232.4344229715
 31
0.0
  0
ARC
  5
216
330
1F
100
AcDbEntity
  8
0
  6
Continuous
 62
     7
370
    25
100
AcDbCircle
 10
8952.9659505059
 20
6215.6327981579
 30
0.0
 40
20.72454907911991
100
AcDbArc
 50
55.0707467165
 51
125.8345205233
  0
LINE
  5
217
330
1F
100
AcDbEntity
  8
0
  6
Continuous
 62
     7
370
    25
100
AcDbLine
 10
8964.8386308328
 20
6231.7963853091
 30
0.0
 11
8964.8320924288
 21
6232.6240197267
 31
0.0
  0
LINE
  5
218
330
1F
100
AcDbEntity
  8
0
  6
Continuous
 62
     7
370
    25
100
AcDbLine
 10
8940.8764001907
 20
6226.9207214485
 30
0.0
 11
8940.8527042638
 21
6229.9201635932
 31
0.0
  0
LWPOLYLINE
  5
219
330
1F
100
AcDbEntity
  8
0
  6
Continuous
 62
     7
370
    25
100
AcDbPolyline
 90
        6
 70
   128
 43
0.0
 10
8941.87018549
 20
6227.711824026
 10
8941.3710904772
 20
6227.1944076501
 10
8941.1044126758
 20
6226.9573726937
 10
8940.9640036286
 20
6226.8691122232
 10
8940.8971377678
 20
6226.8660314786
 10
8940.8764001907
 20
6226.9207214485
  0
LINE
  5
21A
330
1F
100
AcDbEntity
  8
0
  6
Continuous
 62
     7
370
    25
100
AcDbLine
 10
8964.8519553578
 20
6230.1097603484
 30
0.0
 11
8964.8756512846
 21
6227.1103182038
 31
0.0
  0
LWPOLYLINE
  5
21B
330
1F
100
AcDbEntity
  8
0
  6
Continuous
 62
     7
370
    25
100
AcDbPolyline
 90
        6
 70
   128
 43
0.0
 10
8964.8756512846
 20
6227.1103182038
 10
8964.8481663981
 20
6227.0513246439
 10
8964.775725633
 20
6227.0627135433
 10
8964.6017491609
 20
6227.1785202422
 10
8964.2452832404
 20
6227.5020267305
 10
8963.869496349
 20
6227.885615545
  0
ELLIPSE
  5
21C
330
1F
100
AcDbEntity
  8
0
  6
Continuous
 62
     7
370
    25
100
AcDbEllipse
 10
8952.9496360593
 20
6217.697888889
 30
0.0
 11
-0.1244912766906055
 21
15.75816740453502
 31
0.0
210
0.0
220
0.0
230
1.0
 40
0.9677219274
 41
0.9057452162977754
 42
1.570780876255732
  0
ELLIPSE
  5
21D
330
1F
100
AcDbEntity
  8
0
  6
Continuous
 62
     7
370
    25
100
AcDbEllipse
 10
8952.9496360593
 20
6217.697888889
 30
0.0
 11
-0.1244912766906055
 21
15.75816740453502
 31
0.0
210
0.0
220
0.0
230
1.0
 40
0.9677219274
 41
4.712394310540571
 42
5.377440090881819
  0
LWPOLYLINE
  5
21E
330
1F
100
AcDbEntity
  8
0
  6
Continuous
 62
     7
370
    25
100
AcDbPolyline
 90
       12
 70
   128
 43
0.0
 10
8941.8313775582
 20
6216.6379112501
 10
8943.5571445863
 20
6218.5837640029
 10
8945.5925201232
 20
6220.0972580557
 10
8947.8956221314
 20
6221.17924727
 10
8950.4245685735
 20
6221.8305855073
 10
8953.1252615379
 20
6222.046610218
 10
8955.3944333314
 20
6221.8575124172
 10
8957.5491930284
 20
6221.2857548597
 10
8959.4697517063
 20
6220.2914863278
 10
8961.1137956613
 20
6218.9297787012
 10
8962.5133562178
 20
6217.3467918287
 10
8963.7034622833
 20
6215.6923582159
  0
LINE
  5
21F
330
1F
100
AcDbEntity
  8
0
  6
Continuous
 62
     7
370
    25
100
AcDbLine
 10
8963.7034622833
 20
6215.6923582159
 30
0.0
 11
8964.6606294554
 21
6215.6999199431
 31
0.0
  0
LWPOLYLINE
  5
220
330
1F
100
AcDbEntity
  8
0
  6
Continuous
 62
     7
370
    25
100
AcDbPolyline
 90
       13
 70
   128
 43
0.0
 10
8966.4662340924
 20
6216.7191157824
 10
8965.3025398664
 20
6214.6828560362
 10
8963.7250668224
 20
6212.7087924683
 10
8961.7628897965
 20
6211.0681980183
 10
8959.4963886561
 20
6209.8069704991
 10
8957.012768183
 20
6208.9782811796
 10
8954.4095597524
 20
6208.60388911
 10
8951.784055489
 20
6208.6681921386
 10
8949.2073386906
 20
6209.155118008
 10
8946.7717608832
 20
6210.0894759768
 10
8944.6118028177
 20
6211.5448838581
 10
8942.9194703828
 20
6213.4988943129
 10
8941.7036065203
 20
6215.6368122448
  0
LINE
  5
221
330
1F
100
AcDbEntity
  8
0
  6
Continuous
 62
     7
370
    25
100
AcDbLine
 10
8940.008502261
 20
6215.9336847981
 30
0.0
 11
8941.7036065203
 21
6215.6368122448
 31
0.0
  0
LWPOLYLINE
  5
222
330
1F
100
AcDbEntity
  8
0
  6
Continuous
 62
     7
370
    25
100
AcDbPolyline
 90
       13
 70
   128
 43
0.0
 10
8964.6607901137
 20
6215.6795837455
 10
8963.3881922143
 20
6213.8783283266
 10
8961.7633146722
 20
6212.336024545
 10
8959.8569225459
 20
6211.0972529324
 10
8957.7397809298
 20
6210.2065931738
 10
8955.4831194282
 20
6209.6977010689
 10
8953.1597938133
 20
6209.5659898063
 10
8950.8430155089
 20
6209.798508711
 10
8948.6107746261
 20
6210.3877130123
 10
8946.571767669
 20
6211.3607946377
 10
8944.8467931708
 20
6212.7586230098
 10
8943.5074512636
 20
6214.5515645717
 10
8942.4814142629
 20
6216.5037588314
  0
LINE
  5
223
330
1F
100
AcDbEntity
  8
0
  6
Continuous
 62
     7
370
    25
100
AcDbLine
 10
8941.8315382165
 20
6216.6175750525
 30
0.0
 11
8942.4814142629
 21
6216.5037588314
 31
0.0
  0
LWPOLYLINE
  5
224
330
1F
100
AcDbEntity
  8
0
  6
Continuous
 62
     7
370
    25
100
AcDbPolyline
 90
       12
 70
   128
 43
0.0
 10
8941.8315382165
 20
6216.6175750525
 10
8943.5573052446
 20
6218.5634278053
 10
8945.5926807814
 20
6220.0769218582
 10
8947.8957827897
 20
6221.1589110725
 10
8950.4247292317
 20
6221.8102493098
 10
8953.1254221961
 20
6222.0262740204
 10
8955.3945939896
 20
6221.8371762197
 10
8957.5493536866
 20
6221.2654186621
 10
8959.4699123645
 20
6220.2711501303
 10
8961.1139563195
 20
6218.9094425036
 10
8962.513516876
 20
6217.3264556312
 10
8963.7036229416
 20
6215.6720220183
  0
LINE
  5
225
330
1F
100
AcDbEntity
  8
0
  6
Continuous
 62
     7
370
    25
100
AcDbLine
 10
8963.7036229416
 20
6215.6720220183
 30
0.0
 11
8964.6607901137
 21
6215.6795837455
 31
0.0
  0
LWPOLYLINE
  5
226
330
1F
100
AcDbEntity
  8
0
  6
Continuous
 62
     7
370
    25
100
AcDbPolyline
 90
       12
 70
   128
 43
0.0
 10
8947.7974275278
 20
6214.6577499418
 10
8948.8071165759
 20
6214.8149330826
 10
8949.2838935188
 20
6214.8762276344
 10
8949.4928851548
 20
6214.8735928836
 10
8949.5809062617
 20
6214.8423583399
 10
8949.6528757314
 20
6214.7794993884
 10
8949.7034133668
 20
6214.6888421232
 10
8949.7259044655
 20
6214.5840536692
 10
8949.7137002831
 20
6214.4790725198
 10
8949.6606766134
 20
6214.3872862273
 10
8949.2126828639
 20
6214.1041729981
 10
8948.2071732436
 20
6213.5336112527
  0
LWPOLYLINE
  5
227
330
1F
100
AcDbEntity
  8
0
  6
Continuous
 62
     7
370
    25
100
AcDbPolyline
 90
       33
 70
   128
 43
0.0
 10
8948.2071732436
 20
6213.5336112527
 10
8948.751532741
 20
6212.6855274072
 10
8949.4609354732
 20
6211.9463481543
 10
8950.3100575526
 20
6211.3424603282
 10
8951.2685874635
 20
6210.8954212006
 10
8952.3023081067
 20
6210.6211889403
 10
8953.3743182635
 20
6210.5295529471
 10
8954.4463498763
 20
6210.6237843947
 10
8955.4801341214
 20
6210.9005194583
 10
8956.4387675098
 20
6211.3498793942
 10
8957.2880292484
 20
6211.9558231867
 10
8957.9976028359
 20
6212.6967201712
 10
8958.5421582858
 20
6213.5461221949
 10
8958.9022563424
 20
6214.4737077487
 10
8959.0650424137
 20
6215.4463643689
 10
8959.0247054479
 20
6216.4293706685
 10
8958.7826853727
 20
6217.3876358027
 10
8958.3476216942
 20
6218.2869521243
 10
8957.7350450879
 20
6219.0952163097
 10
8956.966822993
 20
6219.7835753671
 10
8956.070379
 20
6220.3274566148
 10
8955.0777138974
 20
6220.7074448647
 10
8954.0242633246
 20
6220.909975495
 10
8952.9476328091
 20
6220.9278186734
 10
8951.8862553436
 20
6220.7603374433
 10
8950.8780194257
 20
6220.4135104621
 10
8949.9589165334
 20
6219.8997185779
 10
8949.1617563211
 20
6219.2373028644
 10
8948.5149953968
 20
6218.4499098914
 10
8948.0417214936
 20
6217.5656476011
 10
8947.7588292958
 20
6216.6160819261
 10
8947.6764173409
 20
6215.6351099651
 10
8947.7974275278
 20
6214.6577499418
  0
LINE
  5
228
330
1F
100
AcDbEntity
  8
0
  6
Continuous
 62
     7
370
    25
100
AcDbLine
 10
8941.8313775582
 20
6216.6379112501
 30
0.0
 11
8941.8315382165
 21
6216.6175750525
 31
0.0
  0
LINE
  5
229
330
1F
100
AcDbEntity
  8
0
  6
Continuous
 62
     7
370
    25
100
AcDbLine
 10
8963.7034622833
 20
6215.6923582159
 30
0.0
 11
8963.7036229416
 21
6215.6720220183
 31
0.0
  0
LWPOLYLINE
  5
22A
330
1F
100
AcDbEntity
  8
0
  6
Continuous
 62
     7
370
    25
100
AcDbPolyline
 90
       16
 70
   128
 43
0.0
 10
8948.2070125854
 20
6213.5539474502
 10
8948.7513720828
 20
6212.7058636047
 10
8949.460774815
 20
6211.9666843518
 10
8950.3098968944
 20
6211.3627965258
 10
8951.2684268053
 20
6210.9157573981
 10
8952.3021474485
 20
6210.6415251379
 10
8953.3741576053
 20
6210.5498891447
 10
8954.4461892181
 20
6210.6441205923
 10
8955.4799734632
 20
6210.9208556558
 10
8956.4386068516
 20
6211.3702155918
 10
8957.2878685902
 20
6211.9761593842
 10
8957.9974421777
 20
6212.7170563687
 10
8958.5419976275
 20
6213.5664583924
 10
8958.9020956841
 20
6214.4940439463
 10
8959.0648817555
 20
6215.4667005665
 10
8959.0740358448
 20
6215.801652965
  0
LWPOLYLINE
  5
22B
330
1F
100
AcDbEntity
  8
0
  6
Continuous
 62
     7
370
    25
100
AcDbPolyline
 90
        3
 70
   128
 43
0.0
 10
8947.6754814649
 20
6215.7116031165
 10
8947.6762566826
 20
6215.6554461627
 10
8947.7972668696
 20
6214.6780861394
  0
LINE
  5
22C
330
1F
100
AcDbEntity
  8
0
  6
Continuous
 62
     7
370
    25
100
AcDbLine
 10
8947.7972668696
 20
6214.6780861394
 30
0.0
 11
8947.7974275278
 21
6214.6577499418
 31
0.0
  0
LWPOLYLINE
  5
22D
330
1F
100
AcDbEntity
  8
0
  6
Continuous
 62
     7
370
    25
100
AcDbPolyline
 90
        8
 70
   128
 43
0.0
 10
8947.7972668696
 20
6214.6780861394
 10
8948.8069559177
 20
6214.8352692801
 10
8949.2837328606
 20
6214.896563832
 10
8949.4927244966
 20
6214.8939290812
 10
8949.5807456035
 20
6214.8626945374
 10
8949.6527150731
 20
6214.7998355859
 10
8949.7032527086
 20
6214.7091783207
 10
8949.7096372109
 20
6214.679432236
  0
ARC
  5
22E
330
1F
100
AcDbEntity
  8
0
  6
Continuous
 62
     7
370
    25
100
AcDbCircle
 10
8953.3764216901
 20
6215.5461202165
 30
0.0
 40
3.216639764784452
100
AcDbArc
 50
4.2050628484
 51
176.7002043914
  0
LINE
  5
22F
330
1F
100
AcDbEntity
  8
0
  6
Continuous
 62
     7
370
    25
100
AcDbLine
 10
8964.2091654647
 20
6233.0488876695
 30
0.0
 11
8964.8286972587
 21
6233.0537820397
 31
0.0
  0
LINE
  5
230
330
1F
100
AcDbEntity
  8
0
  6
Continuous
 62
     7
370
    25
100
AcDbLine
 10
8964.8286972587
 20
6233.0537820397
 30
0.0
 11
8964.8320924288
 21
6232.6240197267
 31
0.0
  0
LINE
  5
231
330
1F
100
AcDbEntity
  8
0
  6
Continuous
 62
     7
370
    25
100
AcDbLine
 10
8941.4489779587
 20
6232.8690796546
 30
0.0
 11
8940.8294461647
 21
6232.8641852844
 31
0.0
  0
LINE
  5
232
330
1F
100
AcDbEntity
  8
0
  6
Continuous
 62
     7
370
    25
100
AcDbLine
 10
8940.8328413348
 20
6232.4344229715
 30
0.0
 11
8940.8294461647
 21
6232.8641852844
 31
0.0
  0
LWPOLYLINE
  5
233
330
1F
100
AcDbEntity
  8
0
  6
Continuous
 62
     7
370
    25
100
AcDbPolyline
 90
       25
 70
   128
 43
0.0
 10
8953.3980836667
 20
6212.8041365013
 10
8954.2280112551
 20
6212.9106100277
 10
8954.9998020375
 20
6213.2096491002
 10
8955.6608597475
 20
6213.6808747001
 10
8956.1661343945
 20
6214.2921735816
 10
8956.4811923465
 20
6215.0018867361
 10
8956.5845629245
 20
6215.761648385
 10
8956.4692015947
 20
6216.5196820275
 10
8956.1429700409
 20
6217.2243289235
 10
8955.6281004044
 20
6217.8275685516
 10
8954.9596802001
 20
6218.288291128
 10
8954.1832611603
 20
6218.5750991705
 10
8953.3517549595
 20
6218.668447185
 10
8952.5218273711
 20
6218.5619736586
 10
8951.7500365887
 20
6218.2629345861
 10
8951.0889788788
 20
6217.7917089862
 10
8950.5837042317
 20
6217.1804101047
 10
8950.2686462798
 20
6216.4706969502
 10
8950.1652757017
 20
6215.7109353013
 10
8950.2806370315
 20
6214.9529016589
 10
8950.6068685853
 20
6214.2482547628
 10
8951.1217382218
 20
6213.6450151348
 10
8951.7901584261
 20
6213.1842925583
 10
8952.5665774659
 20
6212.8974845158
 10
8953.3980836667
 20
6212.8041365013
  0
LINE
  5
234
330
1F
100
AcDbEntity
  8
0
  6
Continuous
 62
     7
370
    25
100
AcDbLine
 10
8941.7036065203
 20
6215.6368122448
 30
0.0
 11
8941.7037671785
 21
6215.6164760473
 31
0.0
  0
LINE
  5
235
330
1F
100
AcDbEntity
  8
0
  6
Continuous
 62
     7
370
    25
100
AcDbLine
 10
8964.6606294554
 20
6215.6999199431
 30
0.0
 11
8964.6607901137
 21
6215.6795837455
 31
0.0
  0
LWPOLYLINE
  5
236
330
1F
100
AcDbEntity
  8
0
  6
Continuous
 62
     7
370
    25
100
AcDbPolyline
 90
       34
 70
   128
 43
0.0
 10
8913.8457722326
 20
6201.576551386
 10
8916.7088206976
 20
6201.9156846687
 10
8919.4154419082
 20
6202.8604263483
 10
8921.8301825222
 20
6204.3336540708
 10
8923.8569365092
 20
6206.2261775015
 10
8925.4514578119
 20
6208.4347108463
 10
8926.5946202975
 20
6210.8729503689
 10
8927.2697776516
 20
6213.4373683082
 10
8927.4816139991
 20
6216.0808165883
 10
8927.2287729846
 20
6218.701808107
 10
8926.5093371307
 20
6221.2670417708
 10
8925.3396194508
 20
6223.6642544848
 10
8923.7104056121
 20
6225.8519770438
 10
8921.6747130601
 20
6227.7000495959
 10
8919.2442484839
 20
6229.1398979359
 10
8917.9243280165
 20
6229.6633344584
 10
8916.54434963
 20
6230.0458980004
 10
8913.6477677982
 20
6230.3525342411
 10
8910.7758586969
 20
6230.0179264451
 10
8908.0599063706
 20
6229.0737419951
 10
8905.6439340967
 20
6227.6027767309
 10
8903.614764992
 20
6225.7112277061
 10
8902.0124326777
 20
6223.4936269749
 10
8900.8710201079
 20
6221.059885881
 10
8900.192989488
 20
6218.4830049253
 10
8899.9826428763
 20
6215.8429106125
 10
8900.2387060506
 20
6213.209588815
 10
8900.9586055676
 20
6210.6520401503
 10
8902.1394894196
 20
6208.240132826
 10
8903.7645381138
 20
6206.0650677684
 10
8905.8209152839
 20
6204.2056009591
 10
8908.2458434123
 20
6202.7771368695
 10
8910.9635951028
 20
6201.8734551027
 10
8913.8457722326
 20
6201.576551386
  0
LINE
  5
237
330
1F
100
AcDbEntity
  8
0
  6
Continuous
 62
     7
370
    25
100
AcDbLine
 10
8913.6001289911
 20
6232.3326754476
 30
0.0
 11
8913.602783612
 21
6232.3326966077
 31
0.0
  0
ARC
  5
238
330
1F
100
AcDbEntity
  8
0
  6
Continuous
 62
     7
370
    25
100
AcDbCircle
 10
8913.6799596544
 20
6217.3272887269
 30
0.0
 40
15.00560712489532
100
AcDbArc
 50
43.0763488232
 51
90.2946819355
  0
LINE
  5
239
330
1F
100
AcDbEntity
  8
0
  6
Continuous
 62
     7
370
    25
100
AcDbLine
 10
8925.6500885985
 20
6226.3936825564
 30
0.0
 11
8924.6407204983
 21
6227.5757038488
 31
0.0
  0
LWPOLYLINE
  5
23A
330
1F
100
AcDbEntity
  8
0
  6
Continuous
 62
     7
370
    25
100
AcDbPolyline
 90
       13
 70
   128
 43
0.0
 10
8925.6500868858
 20
6226.3936847766
 10
8926.8305331738
 20
6224.629523356
 10
8927.7683690152
 20
6222.7162213627
 10
8928.6595082968
 20
6219.7669533285
 10
8928.9768106702
 20
6216.6950022289
 10
8928.7080823833
 20
6213.6184214218
 10
8927.8636505133
 20
6210.6554421824
 10
8926.4759661035
 20
6207.919930141
 10
8924.5983570876
 20
6205.5170094914
 10
8922.302978927
 20
6203.5390231266
 10
8919.6780417171
 20
6202.0619839532
 10
8916.8244203229
 20
6201.1426537585
 10
8913.8517778143
 20
6200.8163618861
  0
LWPOLYLINE
  5
23B
330
1F
100
AcDbEntity
  8
0
  6
Continuous
 62
     7
370
    25
100
AcDbPolyline
 90
       13
 70
   128
 43
0.0
 10
8913.8517778143
 20
6200.8163618861
 10
8910.8743511757
 20
6201.0956475499
 10
8908.0065612431
 20
6201.9697779582
 10
8905.3586155754
 20
6203.4051607699
 10
8903.0322732395
 20
6205.3466350283
 10
8901.1169342669
 20
6207.7195909665
 10
8899.68620406
 20
6210.4328372187
 10
8898.7950647784
 20
6213.3821052528
 10
8898.477762405
 20
6216.4540563524
 10
8898.7464906919
 20
6219.5306371595
 10
8899.5909225619
 20
6222.493616399
 10
8900.4984124123
 20
6224.4214962698
 10
8901.6508386331
 20
6226.2040873131
  0
LINE
  5
23C
330
1F
100
AcDbEntity
  8
0
  6
Continuous
 62
     7
370
    25
100
AcDbLine
 10
8901.6508386331
 20
6226.2040873131
 30
0.0
 11
8902.6414096393
 21
6227.4019123298
 31
0.0
  0
ARC
  5
23D
330
1F
100
AcDbEntity
  8
0
  6
Continuous
 62
     7
370
    25
100
AcDbCircle
 10
8913.762375888
 20
6217.3286983764
 30
0.0
 40
15.00485511232982
100
AcDbArc
 50
90.619549066
 51
137.8301630494
  0
ARC
  5
23E
330
1F
100
AcDbEntity
  8
0
  6
Continuous
 62
     7
370
    25
100
AcDbCircle
 10
8913.7431943608
 20
6214.5609091535
 30
0.0
 40
20.67105141422394
100
AcDbArc
 50
54.9653682735
 51
125.9398989663
  0
LINE
  5
23F
330
1F
100
AcDbEntity
  8
0
  6
Continuous
 62
     7
370
    25
100
AcDbLine
 10
8925.6231795071
 20
6229.7998486523
 30
0.0
 11
8925.6098549822
 21
6231.4864736129
 31
0.0
  0
LWPOLYLINE
  5
240
330
1F
100
AcDbEntity
  8
0
  6
Continuous
 62
     7
370
    25
100
AcDbPolyline
 90
        8
 70
   128
 43
0.0
 10
8924.6310476061
 20
6228.7999507986
 10
8924.8324804898
 20
6228.6834709107
 10
8925.0182781257
 20
6228.6405043549
 10
8925.1705790211
 20
6228.6621151326
 10
8925.3039555879
 20
6228.7382951733
 10
8925.4391803142
 20
6228.9015498775
 10
8925.5660816853
 20
6229.232338138
 10
8925.6231795071
 20
6229.7998486523
  0
ARC
  5
241
330
1F
100
AcDbEntity
  8
0
  6
Continuous
 62
     7
370
    25
100
AcDbCircle
 10
8913.8332184555
 20
6214.0720695953
 30
0.0
 40
18.26208090831413
100
AcDbArc
 50
53.7527835147
 51
90.7229895891
  0
ARC
  5
242
330
1F
100
AcDbEntity
  8
0
  6
Continuous
 62
     7
370
    25
100
AcDbCircle
 10
8913.6608264099
 20
6214.0708780351
 30
0.0
 40
18.26189828337743
100
AcDbArc
 50
90.1904354231
 51
127.1526093352
  0
LWPOLYLINE
  5
243
330
1F
100
AcDbEntity
  8
0
  6
Continuous
 62
     7
370
    25
100
AcDbPolyline
 90
        8
 70
   128
 43
0.0
 10
8901.6239284132
 20
6229.6102518971
 10
8901.7083251864
 20
6228.9776149
 10
8901.806245337
 20
6228.7418696989
 10
8901.9647892958
 20
6228.5499840319
 10
8902.1034383666
 20
6228.4769807223
 10
8902.2602451931
 20
6228.4615664478
 10
8902.4491553916
 20
6228.5139951602
 10
8902.6317341033
 20
6228.626153773
  0
LINE
  5
244
330
1F
100
AcDbEntity
  8
0
  6
Continuous
 62
     7
370
    25
100
AcDbLine
 10
8901.6106038882
 20
6231.2968768577
 30
0.0
 11
8901.6239284132
 21
6229.6102518971
 31
0.0
  0
LWPOLYLINE
  5
245
330
1F
100
AcDbEntity
  8
0
  6
Continuous
 62
     7
370
    25
100
AcDbPolyline
 90
       13
 70
   128
 43
0.0
 10
8927.2376189
 20
6216.3888678887
 10
8926.073924674
 20
6214.3526081425
 10
8924.4964516299
 20
6212.3785445746
 10
8922.5342746041
 20
6210.7379501246
 10
8920.2677734636
 20
6209.4767226053
 10
8917.7841529906
 20
6208.6480332859
 10
8915.1809445599
 20
6208.2736412163
 10
8912.5554402966
 20
6208.3379442449
 10
8909.9787234982
 20
6208.8248701143
 10
8907.5431456908
 20
6209.759228083
 10
8905.3831876253
 20
6211.2146359644
 10
8903.6908551903
 20
6213.1686464192
 10
8902.4749913279
 20
6215.3065643511
  0
LINE
  5
246
330
1F
100
AcDbEntity
  8
0
  6
Continuous
 62
     7
370
    25
100
AcDbLine
 10
8925.0837199471
 20
6216.3718518472
 30
0.0
 11
8927.2376189
 21
6216.3888678887
 31
0.0
  0
LWPOLYLINE
  5
247
330
1F
100
AcDbEntity
  8
0
  6
Continuous
 62
     7
370
    25
100
AcDbPolyline
 90
       13
 70
   128
 43
0.0
 10
8900.7798870686
 20
6215.6034369044
 10
8902.1697552089
 20
6217.4932382239
 10
8903.8462668198
 20
6219.2246406905
 10
8905.7753503313
 20
6220.6152924667
 10
8907.9192163714
 20
6221.6552020023
 10
8910.2403434105
 20
6222.3451935557
 10
8912.7004372945
 20
6222.684897344
 10
8915.2441385583
 20
6222.6581036166
 10
8917.7549184759
 20
6222.2081922428
 10
8920.0999728898
 20
6221.2580546876
 10
8922.0935898713
 20
6219.8429714482
 10
8923.7350878701
 20
6218.149331811
 10
8925.0837199471
 20
6216.3718518472
  0
LINE
  5
248
330
1F
100
AcDbEntity
  8
0
  6
Continuous
 62
     7
370
    25
100
AcDbLine
 10
8900.7798870686
 20
6215.6034369044
 30
0.0
 11
8902.4749913279
 21
6215.3065643511
 31
0.0
  0
LINE
  5
249
330
1F
100
AcDbEntity
  8
0
  6
Continuous
 62
     7
370
    25
100
AcDbLine
 10
8902.6317341033
 20
6228.626153773
 30
0.0
 11
8902.6414057234
 21
6227.4019153173
 31
0.0
  0
LINE
  5
24A
330
1F
100
AcDbEntity
  8
0
  6
Continuous
 62
     7
370
    25
100
AcDbLine
 10
8924.6407193007
 20
6227.5757029048
 30
0.0
 11
8924.6310476061
 21
6228.7999507986
 31
0.0
  0
LINE
  5
24B
330
1F
100
AcDbEntity
  8
0
  6
Continuous
 62
     7
370
    25
100
AcDbLine
 10
8901.6106038882
 20
6231.2968768577
 30
0.0
 11
8901.6040654842
 21
6232.1245112753
 31
0.0
  0
ARC
  5
24C
330
1F
100
AcDbEntity
  8
0
  6
Continuous
 62
     7
370
    25
100
AcDbCircle
 10
8913.7371746553
 20
6215.3228864617
 30
0.0
 40
20.72454907912856
100
AcDbArc
 50
55.0707467165
 51
125.8345205233
  0
LINE
  5
24D
330
1F
100
AcDbEntity
  8
0
  6
Continuous
 62
     7
370
    25
100
AcDbLine
 10
8925.6098549822
 20
6231.4864736129
 30
0.0
 11
8925.6033165781
 21
6232.3141080305
 31
0.0
  0
LINE
  5
24E
330
1F
100
AcDbEntity
  8
0
  6
Continuous
 62
     7
370
    25
100
AcDbLine
 10
8901.64762434
 20
6226.6108097524
 30
0.0
 11
8901.6239284132
 21
6229.6102518971
 31
0.0
  0
LWPOLYLINE
  5
24F
330
1F
100
AcDbEntity
  8
0
  6
Continuous
 62
     7
370
    25
100
AcDbPolyline
 90
        6
 70
   128
 43
0.0
 10
8902.6414096393
 20
6227.4019123298
 10
8902.1423146266
 20
6226.8844959539
 10
8901.8756368251
 20
6226.6474609976
 10
8901.7352277779
 20
6226.559200527
 10
8901.6683619172
 20
6226.5561197825
 10
8901.64762434
 20
6226.6108097524
  0
LINE
  5
250
330
1F
100
AcDbEntity
  8
0
  6
Continuous
 62
     7
370
    25
100
AcDbLine
 10
8925.6231795071
 20
6229.7998486523
 30
0.0
 11
8925.646875434
 21
6226.8004065076
 31
0.0
  0
LWPOLYLINE
  5
251
330
1F
100
AcDbEntity
  8
0
  6
Continuous
 62
     7
370
    25
100
AcDbPolyline
 90
        6
 70
   128
 43
0.0
 10
8925.646875434
 20
6226.8004065076
 10
8925.6193905474
 20
6226.7414129478
 10
8925.5469497824
 20
6226.7528018472
 10
8925.3729733102
 20
6226.868608546
 10
8925.0165073897
 20
6227.1921150343
 10
8924.6407204983
 20
6227.5757038488
  0
ELLIPSE
  5
252
330
1F
100
AcDbEntity
  8
0
  6
Continuous
 62
     7
370
    25
100
AcDbEllipse
 10
8913.7208602086
 20
6217.3879771929
 30
0.0
 11
-0.1244912766906055
 21
15.75816740453502
 31
0.0
210
0.0
220
0.0
230
1.0
 40
0.9677219274
 41
0.9057452162978483
 42
1.570780876255789
  0
ELLIPSE
  5
253
330
1F
100
AcDbEntity
  8
0
  6
Continuous
 62
     7
370
    25
100
AcDbEllipse
 10
8913.7208602086
 20
6217.3879771929
 30
0.0
 11
-0.1244912766906055
 21
15.75816740453502
 31
0.0
210
0.0
220
0.0
230
1.0
 40
0.9677219274
 41
4.712394310540572
 42
5.377440090881699
  0
LWPOLYLINE
  5
254
330
1F
100
AcDbEntity
  8
0
  6
Continuous
 62
     7
370
    25
100
AcDbPolyline
 90
       12
 70
   128
 43
0.0
 10
8902.6026017076
 20
6216.3279995539
 10
8904.3283687357
 20
6218.2738523067
 10
8906.3637442726
 20
6219.7873463596
 10
8908.6668462808
 20
6220.8693355739
 10
8911.1957927228
 20
6221.5206738111
 10
8913.8964856873
 20
6221.7366985218
 10
8916.1656574808
 20
6221.5476007211
 10
8918.3204171777
 20
6220.9758431635
 10
8920.2409758557
 20
6219.9815746316
 10
8921.8850198106
 20
6218.619867005
 10
8923.2845803671
 20
6217.0368801326
 10
8924.4746864327
 20
6215.3824465197
  0
LINE
  5
255
330
1F
100
AcDbEntity
  8
0
  6
Continuous
 62
     7
370
    25
100
AcDbLine
 10
8924.4746864327
 20
6215.3824465197
 30
0.0
 11
8925.4318536048
 21
6215.3900082469
 31
0.0
  0
LWPOLYLINE
  5
256
330
1F
100
AcDbEntity
  8
0
  6
Continuous
 62
     7
370
    25
100
AcDbPolyline
 90
       13
 70
   128
 43
0.0
 10
8927.2374582417
 20
6216.4092040862
 10
8926.0737640158
 20
6214.37294434
 10
8924.4962909717
 20
6212.3988807721
 10
8922.5341139459
 20
6210.7582863221
 10
8920.2676128054
 20
6209.4970588029
 10
8917.7839923323
 20
6208.6683694835
 10
8915.1807839017
 20
6208.2939774138
 10
8912.5552796383
 20
6208.3582804424
 10
8909.97856284
 20
6208.8452063118
 10
8907.5429850326
 20
6209.7795642806
 10
8905.383026967
 20
6211.2349721619
 10
8903.6906945321
 20
6213.1889826168
 10
8902.4748306696
 20
6215.3269005486
  0
LINE
  5
257
330
1F
100
AcDbEntity
  8
0
  6
Continuous
 62
     7
370
    25
100
AcDbLine
 10
8900.7797264104
 20
6215.6237731019
 30
0.0
 11
8902.4748306696
 21
6215.3269005486
 31
0.0
  0
LINE
  5
258
330
1F
100
AcDbEntity
  8
0
  6
Continuous
 62
     7
370
    25
100
AcDbLine
 10
8902.6026017076
 20
6216.3279995539
 30
0.0
 11
8902.6027623658
 21
6216.3076633564
 31
0.0
  0
LINE
  5
259
330
1F
100
AcDbEntity
  8
0
  6
Continuous
 62
     7
370
    25
100
AcDbLine
 10
8924.4746864327
 20
6215.3824465197
 30
0.0
 11
8924.4748470909
 21
6215.3621103221
 31
0.0
  0
LWPOLYLINE
  5
25A
330
1F
100
AcDbEntity
  8
0
  6
Continuous
 62
     7
370
    25
100
AcDbPolyline
 90
       12
 70
   128
 43
0.0
 10
8902.6027623658
 20
6216.3076633564
 10
8904.3285293939
 20
6218.2535161092
 10
8906.3639049308
 20
6219.767010162
 10
8908.667006939
 20
6220.8489993763
 10
8911.195953381
 20
6221.5003376136
 10
8913.8966463455
 20
6221.7163623242
 10
8916.165818139
 20
6221.5272645235
 10
8918.320577836
 20
6220.9555069659
 10
8920.2411365139
 20
6219.9612384341
 10
8921.8851804688
 20
6218.5995308075
 10
8923.2847410253
 20
6217.016543935
 10
8924.4748470909
 20
6215.3621103221
  0
LWPOLYLINE
  5
25B
330
1F
100
AcDbEntity
  8
0
  6
Continuous
 62
     7
370
    25
100
AcDbPolyline
 90
       13
 70
   128
 43
0.0
 10
8925.432014263
 20
6215.3696720493
 10
8924.1594163637
 20
6213.5684166304
 10
8922.5345388216
 20
6212.0261128488
 10
8920.6281466952
 20
6210.7873412362
 10
8918.5110050791
 20
6209.8966814777
 10
8916.2543435776
 20
6209.3877893728
 10
8913.9310179627
 20
6209.2560781102
 10
8911.6142396582
 20
6209.4885970148
 10
8909.3819987754
 20
6210.0778013162
 10
8907.3429918183
 20
6211.0508829415
 10
8905.6180173202
 20
6212.4487113137
 10
8904.278675413
 20
6214.2416528755
 10
8903.2526384122
 20
6216.1938471352
  0
LINE
  5
25C
330
1F
100
AcDbEntity
  8
0
  6
Continuous
 62
     7
370
    25
100
AcDbLine
 10
8902.6027623658
 20
6216.3076633564
 30
0.0
 11
8903.2526384122
 21
6216.1938471352
 31
0.0
  0
LINE
  5
25D
330
1F
100
AcDbEntity
  8
0
  6
Continuous
 62
     7
370
    25
100
AcDbLine
 10
8924.4748470909
 20
6215.3621103221
 30
0.0
 11
8925.432014263
 21
6215.3696720493
 31
0.0
  0
LWPOLYLINE
  5
25E
330
1F
100
AcDbEntity
  8
0
  6
Continuous
 62
     7
370
    25
100
AcDbPolyline
 90
       12
 70
   128
 43
0.0
 10
8908.5686516771
 20
6214.3478382457
 10
8909.5783407253
 20
6214.5050213864
 10
8910.0551176682
 20
6214.5663159383
 10
8910.2641093041
 20
6214.5636811875
 10
8910.3521304111
 20
6214.5324466437
 10
8910.4240998807
 20
6214.4695876922
 10
8910.4746375162
 20
6214.378930427
 10
8910.4971286149
 20
6214.2741419731
 10
8910.4849244325
 20
6214.1691608236
 10
8910.4319007628
 20
6214.0773745312
 10
8909.9839070133
 20
6213.7942613019
 10
8908.978397393
 20
6213.2236995565
  0
LWPOLYLINE
  5
25F
330
1F
100
AcDbEntity
  8
0
  6
Continuous
 62
     7
370
    25
100
AcDbPolyline
 90
       33
 70
   128
 43
0.0
 10
8908.978397393
 20
6213.2236995565
 10
8909.5227568904
 20
6212.375615711
 10
8910.2321596225
 20
6211.6364364581
 10
8911.0812817019
 20
6211.032548632
 10
8912.0398116128
 20
6210.5855095044
 10
8913.073532256
 20
6210.3112772441
 10
8914.1455424129
 20
6210.219641251
 10
8915.2175740257
 20
6210.3138726986
 10
8916.2513582708
 20
6210.5906077621
 10
8917.2099916592
 20
6211.039967698
 10
8918.0592533978
 20
6211.6459114905
 10
8918.7688269853
 20
6212.386808475
 10
8919.3133824351
 20
6213.2362104987
 10
8919.6734804917
 20
6214.1637960525
 10
8919.8362665631
 20
6215.1364526728
 10
8919.7959295972
 20
6216.1194589723
 10
8919.553909522
 20
6217.0777241065
 10
8919.1188458435
 20
6217.9770404281
 10
8918.5062692373
 20
6218.7853046136
 10
8917.7380471424
 20
6219.4736636709
 10
8916.8416031493
 20
6220.0175449186
 10
8915.8489380467
 20
6220.3975331685
 10
8914.795487474
 20
6220.6000637989
 10
8913.7188569585
 20
6220.6179069772
 10
8912.657479493
 20
6220.4504257472
 10
8911.649243575
 20
6220.1035987659
 10
8910.7301406828
 20
6219.5898068817
 10
8909.9329804704
 20
6218.9273911683
 10
8909.2862195461
 20
6218.1399981952
 10
8908.812945643
 20
6217.2557359049
 10
8908.5300534451
 20
6216.30617023
 10
8908.4476414902
 20
6215.3251982689
 10
8908.5686516771
 20
6214.3478382457
  0
LWPOLYLINE
  5
260
330
1F
100
AcDbEntity
  8
0
  6
Continuous
 62
     7
370
    25
100
AcDbPolyline
 90
       16
 70
   128
 43
0.0
 10
8908.9782367348
 20
6213.244035754
 10
8909.5225962321
 20
6212.3959519085
 10
8910.2319989643
 20
6211.6567726557
 10
8911.0811210437
 20
6211.0528848296
 10
8912.0396509546
 20
6210.605845702
 10
8913.0733715978
 20
6210.3316134417
 10
8914.1453817546
 20
6210.2399774485
 10
8915.2174133674
 20
6210.3342088961
 10
8916.2511976126
 20
6210.6109439597
 10
8917.209831001
 20
6211.0603038956
 10
8918.0590927395
 20
6211.666247688
 10
8918.7686663271
 20
6212.4071446726
 10
8919.3132217769
 20
6213.2565466963
 10
8919.6733198335
 20
6214.1841322501
 10
8919.8361059049
 20
6215.1567888703
 10
8919.8452599942
 20
6215.4917412688
  0
LWPOLYLINE
  5
261
330
1F
100
AcDbEntity
  8
0
  6
Continuous
 62
     7
370
    25
100
AcDbPolyline
 90
        3
 70
   128
 43
0.0
 10
8908.4467056143
 20
6215.4016914203
 10
8908.447480832
 20
6215.3455344665
 10
8908.5684910189
 20
6214.3681744432
  0
LINE
  5
262
330
1F
100
AcDbEntity
  8
0
  6
Continuous
 62
     7
370
    25
100
AcDbLine
 10
8908.5684910189
 20
6214.3681744432
 30
0.0
 11
8908.5686516771
 21
6214.3478382457
 31
0.0
  0
LWPOLYLINE
  5
263
330
1F
100
AcDbEntity
  8
0
  6
Continuous
 62
     7
370
    25
100
AcDbPolyline
 90
        8
 70
   128
 43
0.0
 10
8908.5684910189
 20
6214.3681744432
 10
8909.578180067
 20
6214.525357584
 10
8910.0549570099
 20
6214.5866521358
 10
8910.2639486459
 20
6214.584017385
 10
8910.3519697528
 20
6214.5527828412
 10
8910.4239392225
 20
6214.4899238897
 10
8910.474476858
 20
6214.3992666246
 10
8910.4808613603
 20
6214.3695205398
  0
ARC
  5
264
330
1F
100
AcDbEntity
  8
0
  6
Continuous
 62
     7
370
    25
100
AcDbCircle
 10
8914.1476458395
 20
6215.2362085203
 30
0.0
 40
3.216639764780871
100
AcDbArc
 50
4.2050628484
 51
176.7002043914
  0
LINE
  5
265
330
1F
100
AcDbEntity
  8
0
  6
Continuous
 62
     7
370
    25
100
AcDbLine
 10
8924.9803896141
 20
6232.7389759734
 30
0.0
 11
8925.599921408
 21
6232.7438703435
 31
0.0
  0
LINE
  5
266
330
1F
100
AcDbEntity
  8
0
  6
Continuous
 62
     7
370
    25
100
AcDbLine
 10
8925.599921408
 20
6232.7438703435
 30
0.0
 11
8925.6033165781
 21
6232.3141080305
 31
0.0
  0
LINE
  5
267
330
1F
100
AcDbEntity
  8
0
  6
Continuous
 62
     7
370
    25
100
AcDbLine
 10
8902.220202108
 20
6232.5591679584
 30
0.0
 11
8901.6006703141
 21
6232.5542735883
 31
0.0
  0
LINE
  5
268
330
1F
100
AcDbEntity
  8
0
  6
Continuous
 62
     7
370
    25
100
AcDbLine
 10
8901.6040654842
 20
6232.1245112753
 30
0.0
 11
8901.6006703141
 21
6232.5542735883
 31
0.0
  0
LWPOLYLINE
  5
269
330
1F
100
AcDbEntity
  8
0
  6
Continuous
 62
     7
370
    25
100
AcDbPolyline
 90
       25
 70
   128
 43
0.0
 10
8914.1693078161
 20
6212.4942248051
 10
8914.9992354045
 20
6212.6006983315
 10
8915.7710261869
 20
6212.899737404
 10
8916.4320838968
 20
6213.3709630039
 10
8916.9373585439
 20
6213.9822618854
 10
8917.2524164958
 20
6214.6919750399
 10
8917.3557870739
 20
6215.4517366888
 10
8917.2404257441
 20
6216.2097703313
 10
8916.9141941903
 20
6216.9144172273
 10
8916.3993245538
 20
6217.5176568554
 10
8915.7309043495
 20
6217.9783794318
 10
8914.9544853097
 20
6218.2651874743
 10
8914.1229791089
 20
6218.3585354889
 10
8913.2930515204
 20
6218.2520619625
 10
8912.5212607381
 20
6217.95302289
 10
8911.8602030281
 20
6217.4817972901
 10
8911.3549283811
 20
6216.8704984086
 10
8911.0398704291
 20
6216.1607852541
 10
8910.936499851
 20
6215.4010236052
 10
8911.0518611809
 20
6214.6429899627
 10
8911.3780927347
 20
6213.9383430667
 10
8911.8929623712
 20
6213.3351034386
 10
8912.5613825754
 20
6212.8743808622
 10
8913.3378016152
 20
6212.5875728196
 10
8914.1693078161
 20
6212.4942248051
  0
LINE
  5
26A
330
1F
100
AcDbEntity
  8
0
  6
Continuous
 62
     7
370
    25
100
AcDbLine
 10
8902.4748306696
 20
6215.3269005486
 30
0.0
 11
8902.4749913279
 21
6215.3065643511
 31
0.0
  0
LINE
  5
26B
330
1F
100
AcDbEntity
  8
0
  6
Continuous
 62
     7
370
    25
100
AcDbLine
 10
8925.4318536048
 20
6215.3900082469
 30
0.0
 11
8925.432014263
 21
6215.3696720493
 31
0.0
  0
LWPOLYLINE
  5
26C
330
1F
100
AcDbEntity
  8
0
  6
Continuous
 62
     7
370
    25
100
AcDbPolyline
 90
       16
 70
   128
 43
0.0
 10
8938.6189234755
 20
6238.2536197511
 10
8938.6629288884
 20
6238.2869273625
 10
8938.7206135328
 20
6238.3259617609
 10
8938.8426632967
 20
6238.4005867273
 10
8938.9418983198
 20
6238.4460188962
 10
8938.9603751101
 20
6238.4477056979
 10
8938.9726825868
 20
6238.4421429369
 10
8938.9765254779
 20
6238.4282667324
 10
8938.9699125776
 20
6238.4053680783
 10
8938.9552107793
 20
6238.3770644824
 10
8938.9350952937
 20
6238.3458167131
 10
8938.8866554801
 20
6238.2806023178
 10
8938.7785850038
 20
6238.1514043693
 10
8938.5477949903
 20
6237.8987071851
 10
8937.5981880351
 20
6236.9285625985
 10
8935.7534938819
 20
6235.0136589943
  0
ARC
  5
26D
330
1F
100
AcDbEntity
  8
0
  6
Continuous
 62
     7
370
    25
100
AcDbCircle
 10
8955.7602332687
 20
6212.3463028729
 30
0.0
 40
31.0647626382818
100
AcDbArc
 50
15.54216822
 51
123.4944138
  0
LWPOLYLINE
  5
26E
330
1F
100
AcDbEntity
  8
0
  6
Continuous
 62
     7
370
    25
100
AcDbPolyline
 90
        3
 70
   128
 43
0.0
 10
8939.1172224612
 20
6183.5331851876
 10
8939.2009565244
 20
6183.4739840056
 10
8939.2319853146
 20
6183.4585619468
  0
LINE
  5
26F
330
1F
100
AcDbEntity
  8
0
  6
Continuous
 62
     7
370
    25
100
AcDbLine
 10
8934.187250975
 20
6188.2244008765
 30
0.0
 11
8934.5955317353
 21
6187.753052657
 31
0.0
  0
LINE
  5
270
330
1F
100
AcDbEntity
  8
0
  6
Continuous
 62
     7
370
    25
100
AcDbLine
 10
8934.2262517483
 20
6188.2699602962
 30
0.0
 11
8934.1872509892
 21
6188.22440086
 31
0.0
  0
LWPOLYLINE
  5
271
330
1F
100
AcDbEntity
  8
0
  6
Continuous
 62
     7
370
    25
100
AcDbPolyline
 90
       40
 70
   128
 43
0.0
 10
8933.4477989428
 20
6232.309336051
 10
8936.5865553658
 20
6235.3195737067
 10
8940.248635408
 20
6237.9408559932
 10
8944.3086443977
 20
6240.0116470778
 10
8948.6365136738
 20
6241.4332200603
 10
8953.1596296722
 20
6242.1850439635
 10
8956.3952787063
 20
6242.2879015543
 10
8959.6326434224
 20
6242.040410966
 10
8962.8038805669
 20
6241.4487596041
 10
8966.3339127339
 20
6240.3445000676
 10
8969.6902758154
 20
6238.8209313759
 10
8972.7951679746
 20
6236.928212719
 10
8975.9203807052
 20
6234.4263559652
 10
8978.6820452692
 20
6231.567408827
 10
8981.0320179834
 20
6228.4326726781
 10
8983.0518056428
 20
6224.8590838745
 10
8984.590602561
 20
6221.0736709109
 10
8985.6322671418
 20
6217.1626178629
 10
8986.1740853576
 20
6213.1669161557
 10
8986.2229492542
 20
6209.1273154866
 10
8985.7790248479
 20
6205.1201290238
 10
8984.6702018483
 20
6200.652949378
 10
8982.9250218213
 20
6196.3590257603
 10
8981.3449600129
 20
6193.5368769801
 10
8979.4654765362
 20
6190.8631180131
 10
8977.3070027256
 20
6188.38198328
 10
8973.9191920836
 20
6185.3557090457
 10
8970.071837401
 20
6182.8334550915
 10
8965.9624286616
 20
6180.9637274692
 10
8961.5791168591
 20
6179.7235883976
 10
8958.4824316875
 20
6179.2722166405
 10
8955.3395910663
 20
6179.1465907411
 10
8952.2126260773
 20
6179.3492760277
 10
8949.0525495019
 20
6179.9012392874
 10
8945.9733240115
 20
6180.7866327623
 10
8943.0341333913
 20
6181.9821449267
 10
8940.2721409265
 20
6183.4673130111
 10
8937.6919532148
 20
6185.2188383577
 10
8935.3280351255
 20
6187.1977908902
 10
8934.2262517483
 20
6188.2699602962
  0
ARC
  5
272
330
1F
100
AcDbEntity
  8
0
  6
Continuous
 62
     7
370
    25
100
AcDbCircle
 10
8934.9921207158
 20
6234.2769380587
 30
0.0
 40
2.501277153658493
100
AcDbArc
 50
231.494586874
 51
231.8725152366
  0
LWPOLYLINE
  5
273
330
1F
100
AcDbEntity
  8
0
  6
Continuous
 62
     7
370
    25
100
AcDbPolyline
 90
        3
 70
   128
 43
0.0
 10
8935.7534938819
 20
6235.0136589943
 10
8934.6672746905
 20
6233.8008188414
 10
8933.434854144
 20
6232.3195652727
  0
ARC
  5
274
330
1F
100
AcDbEntity
  8
0
  6
Continuous
 62
     7
370
    25
100
AcDbCircle
 10
8933.0391855605
 20
6189.5825628082
 30
0.0
 40
1.769760291329073
100
AcDbArc
 50
312.1249535488
 51
346.7958813715
  0
LWPOLYLINE
  5
275
330
1F
100
AcDbEntity
  8
0
  6
Continuous
 62
     7
370
    25
100
AcDbPolyline
 90
       38
 70
   128
 43
0.0
 10
8934.7621577888
 20
6189.1783126512
 10
8935.9270989594
 20
6188.0443590546
 10
8939.4564159077
 20
6185.2456141728
 10
8943.4206859448
 20
6182.9853953404
 10
8946.270726332
 20
6181.8286505654
 10
8949.2564031062
 20
6180.9713746042
 10
8952.3204606496
 20
6180.4361685398
 10
8956.8746825792
 20
6180.2584226805
 10
8961.3960810184
 20
6180.7902109206
 10
8965.6486770684
 20
6181.9845278945
 10
8969.6362693883
 20
6183.7873709495
 10
8973.3818556279
 20
6186.2288542763
 10
8976.6812431446
 20
6189.1606522632
 10
8979.7453286448
 20
6192.8537493488
 10
8982.1747000313
 20
6196.9230483174
 10
8983.8867762445
 20
6201.1147650927
 10
8984.9760730454
 20
6205.4778174215
 10
8985.4147220168
 20
6209.3973754085
 10
8985.3705369282
 20
6213.3495470974
 10
8984.843474938
 20
6217.2593365638
 10
8983.8280295831
 20
6221.0829648239
 10
8982.3261985161
 20
6224.7842257776
 10
8980.3533250831
 20
6228.2787197641
 10
8978.0620476942
 20
6231.3376917086
 10
8975.368671936
 20
6234.1280095246
 10
8972.3197836485
 20
6236.5699310403
 10
8969.3001478157
 20
6238.4113375651
 10
8966.0354954141
 20
6239.8939264343
 10
8962.601399921
 20
6240.9685060729
 10
8959.5201050741
 20
6241.543428752
 10
8956.3743655615
 20
6241.783957136
 10
8953.2302751077
 20
6241.684030918
 10
8948.8337923073
 20
6240.9530930281
 10
8944.6276077054
 20
6239.571229813
 10
8940.6755003535
 20
6237.5547606838
 10
8937.1116057801
 20
6235.0026295733
 10
8934.4636276376
 20
6232.5046987617
 10
8934.4635885292
 20
6232.5046571904
  0
LINE
  5
276
330
1F
100
AcDbEntity
  8
0
  6
Continuous
 62
     7
370
    25
100
AcDbLine
 10
8934.4635885292
 20
6232.5046571904
 30
0.0
 11
8934.0391565803
 21
6232.0544823996
 31
0.0
  0
ARC
  5
277
330
1F
100
AcDbEntity
  8
0
  6
Continuous
 62
     7
370
    25
100
AcDbCircle
 10
8934.0316793334
 20
6232.8506467523
 30
0.0
 40
0.7961994635585427
100
AcDbArc
 50
222.8333450881
 51
270.5380824887
  0
LWPOLYLINE
  5
278
330
1F
100
AcDbEntity
  8
0
  6
Continuous
 62
     7
370
    25
100
AcDbPolyline
 90
       40
 70
   128
 43
0.0
 10
8932.1006606972
 20
6232.4859897975
 10
8932.1006209349
 20
6232.4860307477
 10
8928.8856961262
 20
6235.3564634958
 10
8925.2453332133
 20
6237.7636003479
 10
8922.2359327414
 20
6239.2203175675
 10
8919.0418163062
 20
6240.3349725393
 10
8915.7331096375
 20
6241.0730570799
 10
8912.6748473394
 20
6241.3974768954
 10
8909.5849421336
 20
6241.397269191
 10
8906.5258300946
 20
6241.0720426064
 10
8902.2109742876
 20
6240.0263187692
 10
8898.1381045077
 20
6238.3533661103
 10
8894.3214817765
 20
6236.0469133594
 10
8890.9326849724
 20
6233.2347766049
 10
8887.7793464397
 20
6229.6873022749
 10
8885.2366772887
 20
6225.7513142901
 10
8883.8121208308
 20
6222.7461670001
 10
8882.7186670474
 20
6219.6190420276
 10
8881.9627053321
 20
6216.4179483104
 10
8881.5016519334
 20
6212.5108320545
 10
8881.5214169821
 20
6208.5694269219
 10
8882.0207907446
 20
6204.6680966504
 10
8883.0064961636
 20
6200.8426769814
 10
8884.4759392959
 20
6197.1366005993
 10
8886.4144072248
 20
6193.6331619934
 10
8888.6885884064
 20
6190.5414132522
 10
8891.3697282579
 20
6187.7172991681
 10
8894.4116716774
 20
6185.240942558
 10
8897.4277168784
 20
6183.3699266267
 10
8900.6940061345
 20
6181.8577173012
 10
8904.1350207984
 20
6180.754664607
 10
8907.2129994446
 20
6180.1586136013
 10
8910.3586743507
 20
6179.8961487734
 10
8913.5058421057
 20
6179.9740124474
 10
8917.8973072102
 20
6180.6707181333
 10
8922.1052608517
 20
6182.0159208374
 10
8926.0648287284
 20
6183.993609677
 10
8929.6429488705
 20
6186.5070564957
 10
8930.9648993074
 20
6187.6566246681
 10
8932.4901384121
 20
6189.1639788083
  0
ARC
  5
279
330
1F
100
AcDbEntity
  8
0
  6
Continuous
 62
     7
370
    25
100
AcDbCircle
 10
8934.0347504764
 20
6189.494940451
 30
0.0
 40
1.579671263562598
100
AcDbArc
 50
192.0938059325
 51
231.0692177521
  0
LWPOLYLINE
  5
27A
330
1F
100
AcDbEntity
  8
0
  6
Continuous
 62
     7
370
    25
100
AcDbPolyline
 90
       40
 70
   128
 43
0.0
 10
8933.0421149428
 20
6188.2661052309
 10
8930.2100412489
 20
6185.6255574056
 10
8926.5276150979
 20
6183.0322408942
 10
8922.4521344632
 20
6180.9921628901
 10
8918.11116904
 20
6179.6022306488
 10
8913.5807311039
 20
6178.8841054842
 10
8910.3328106361
 20
6178.8060703616
 10
8907.0864718576
 20
6179.0809370856
 10
8903.9101761736
 20
6179.7016784948
 10
8900.3662444037
 20
6180.8459506928
 10
8897.0026415529
 20
6182.4129269646
 10
8893.8975805262
 20
6184.3505558349
 10
8890.7801741173
 20
6186.9021130177
 10
8888.033199615
 20
6189.8096003721
 10
8885.7043284732
 20
6192.9907673181
 10
8883.7262700618
 20
6196.5825080323
 10
8882.2275940701
 20
6200.3798383154
 10
8881.223579491
 20
6204.2978471124
 10
8880.7175597496
 20
6208.2864682294
 10
8880.7010493345
 20
6212.3151228893
 10
8881.1754018622
 20
6216.308144052
 10
8881.9509880886
 20
6219.5819382926
 10
8883.0714568386
 20
6222.7797604498
 10
8884.530033148
 20
6225.8525878572
 10
8886.1946213879
 20
6228.5768926728
 10
8888.1474248826
 20
6231.1456906038
 10
8890.3671371541
 20
6233.5158880176
 10
8893.8472854923
 20
6236.4023924084
 10
8897.7658817692
 20
6238.7695266813
 10
8901.9558460393
 20
6240.4901499744
 10
8906.3941279222
 20
6241.5655036065
 10
8909.5424378931
 20
6241.9002074317
 10
8912.7223444888
 20
6241.9004321388
 10
8915.8697749132
 20
6241.566570188
 10
8919.2723226995
 20
6240.8077710762
 10
8922.5574217004
 20
6239.6618022237
 10
8925.6530068433
 20
6238.1638124062
 10
8928.3490521857
 20
6236.4487849756
 10
8930.8381856296
 20
6234.4742423386
 10
8933.1194406074
 20
6232.3067096228
  0
ARC
  5
27B
330
1F
100
AcDbEntity
  8
0
  6
Continuous
 62
     7
370
    25
100
AcDbCircle
 10
8932.5270804973
 20
6232.8387284289
 30
0.0
 40
0.7962000440563345
100
AcDbArc
 50
270.3672136923
 51
318.0719080761
  0
LINE
  5
27C
330
1F
100
AcDbEntity
  8
0
  6
Continuous
 62
     7
370
    25
100
AcDbLine
 10
8932.5321833785
 20
6232.0425447373
 30
0.0
 11
8932.1006606972
 21
6232.4859897975
 31
0.0
  0
LINE
  5
27D
330
1F
100
AcDbEntity
  8
0
  6
Continuous
 62
     7
370
    25
100
AcDbLine
 10
8933.0817044698
 20
6188.2218369762
 30
0.0
 11
8933.0421149428
 21
6188.2661052309
 31
0.0
  0
LINE
  5
27E
330
1F
100
AcDbEntity
  8
0
  6
Continuous
 62
     7
370
    25
100
AcDbLine
 10
8932.6757753518
 20
6187.7378867849
 30
0.0
 11
8933.0817044699
 21
6188.2218369762
 31
0.0
  0
LWPOLYLINE
  5
27F
330
1F
100
AcDbEntity
  8
0
  6
Continuous
 62
     7
370
    25
100
AcDbPolyline
 90
        3
 70
   128
 43
0.0
 10
8928.1080817874
 20
6183.370857987
 10
8928.1385204286
 20
6183.3865912919
 10
8928.2119740533
 20
6183.4386188604
  0
ARC
  5
280
330
1F
100
AcDbEntity
  8
0
  6
Continuous
 62
     7
370
    25
100
AcDbCircle
 10
8911.1270755816
 20
6212.0073929442
 30
0.0
 40
31.05218583593447
100
AcDbArc
 50
57.4001897195
 51
165.3585542291
  0
LWPOLYLINE
  5
281
330
1F
100
AcDbEntity
  8
0
  6
Continuous
 62
     7
370
    25
100
AcDbPolyline
 90
       13
 70
   128
 43
0.0
 10
8930.7712764215
 20
6234.9743022402
 10
8928.8965653631
 20
6236.8598208367
 10
8927.9317532727
 20
6237.814839983
 10
8927.5869024587
 20
6238.1913335385
 10
8927.5168320186
 20
6238.2867003522
 10
8927.5016848483
 20
6238.3147681305
 10
8927.494710723
 20
6238.3375596331
 10
8927.4983336313
 20
6238.3514950204
 10
8927.5105515035
 20
6238.3572516718
 10
8927.5290524559
 20
6238.3558571984
 10
8927.6289921927
 20
6238.3119990821
 10
8927.8104991838
 20
6238.201193987
 10
8927.8550251565
 20
6238.1685858791
  0
LWPOLYLINE
  5
282
330
1F
100
AcDbEntity
  8
0
  6
Continuous
 62
     7
370
    25
100
AcDbPolyline
 90
        3
 70
   128
 43
0.0
 10
8933.132219769
 20
6232.317140107
 10
8931.8765204715
 20
6233.7787737365
 10
8930.7712764215
 20
6234.9743022402
  0
ARC
  5
283
330
1F
100
AcDbEntity
  8
0
  6
Continuous
 62
     7
370
    25
100
AcDbCircle
 10
8931.5442274422
 20
6234.2496639695
 30
0.0
 40
2.501273297561183
100
AcDbArc
 50
309.0327510183
 51
309.4106085792
  0
LWPOLYLINE
  5
284
330
1F
100
AcDbEntity
  8
0
  6
Continuous
 62
     7
370
    25
100
AcDbPolyline
 90
       34
 70
   128
 43
0.0
 10
8935.2891487953
 20
6208.0203530618
 10
8936.2844736052
 20
6205.4652183338
 10
8937.5368876014
 20
6203.0193325043
 10
8939.7156228037
 20
6199.8695175989
 10
8942.4009445626
 20
6197.1292489878
 10
8943.9337257991
 20
6195.9540166624
 10
8945.5684254444
 20
6194.9472974317
 10
8947.2950703811
 20
6194.1284984604
 10
8949.119437881
 20
6193.5095992352
 10
8951.003141337
 20
6193.1150462953
 10
8952.9059058329
 20
6192.9606885314
 10
8954.8279974792
 20
6193.0501869484
 10
8956.7294160614
 20
6193.3802718511
 10
8958.5660960751
 20
6193.9376110831
 10
8960.337377245
 20
6194.7129666325
 10
8962.0010755712
 20
6195.6809448925
 10
8963.5507243259
 20
6196.8194254235
 10
8966.2885817263
 20
6199.5215794674
 10
8968.5063028651
 20
6202.6433567999
 10
8970.2250683367
 20
6206.0787325976
 10
8971.4367182003
 20
6209.6969169866
 10
8972.170804358
 20
6213.471187354
 10
8972.4232918186
 20
6217.2871598681
 10
8972.2078294626
 20
6221.1151128382
 10
8971.5186503596
 20
6224.8838569934
 10
8970.3567838711
 20
6228.5049659704
 10
8968.6937268
 20
6231.9648377447
 10
8966.5356576487
 20
6235.1285581001
 10
8963.8650347662
 20
6237.8961451203
 10
8962.3503513848
 20
6239.0766745933
 10
8960.7258115997
 20
6240.0945626792
 10
8958.9838699334
 20
6240.9323456651
 10
8957.1695798187
 20
6241.5573428288
 10
8956.8136842054
 20
6241.6336671266
  0
ARC
  5
285
330
1F
100
AcDbEntity
  8
0
  6
Continuous
 62
     7
370
    25
100
AcDbCircle
 10
8954.9928268336
 20
6221.4220979587
 30
0.0
 40
20.49350204774666
100
AcDbArc
 50
147.10677718
 51
163.0702986418
  0
LINE
  5
286
330
1F
100
AcDbEntity
  8
0
  6
Continuous
 62
     7
370
    25
100
AcDbLine
 10
8935.3063212039
 20
6227.4060904584
 30
0.0
 11
8934.6600565548
 21
6225.412568862
 31
0.0
  0
ARC
  5
287
330
1F
100
AcDbEntity
  8
0
  6
Continuous
 62
     7
370
    25
100
AcDbCircle
 10
9145.8971387345
 20
6248.5094315622
 30
0.0
 40
212.49604691474
100
AcDbArc
 50
184.4412305058
 51
186.2399863369
  0
LINE
  5
288
330
1F
100
AcDbEntity
  8
0
  6
Continuous
 62
     7
370
    25
100
AcDbLine
 10
8934.7966516948
 20
6189.463527595
 30
0.0
 11
8934.7621577888
 21
6189.1783126512
 31
0.0
  0
LWPOLYLINE
  5
289
330
1F
100
AcDbEntity
  8
0
  6
Continuous
 62
     7
370
    25
100
AcDbPolyline
 90
        4
 70
   128
 43
0.0
 10
8934.7880500886
 20
6207.9737851489
 10
8934.7353287566
 20
6199.4709430039
 10
8934.73683932
 20
6197.16661098
 10
8934.7966516948
 20
6189.463527595
  0
LINE
  5
28A
330
1F
100
AcDbEntity
  8
0
  6
Continuous
 62
     7
370
    25
100
AcDbLine
 10
8934.7880500886
 20
6207.9737851489
 30
0.0
 11
8934.8003666353
 21
6207.9377235301
 31
0.0
  0
ARC
  5
28B
330
1F
100
AcDbEntity
  8
0
  6
Continuous
 62
     7
370
    25
100
AcDbCircle
 10
8911.7617129928
 20
6221.0849740718
 30
0.0
 40
20.48009663108158
100
AcDbArc
 50
17.8337908248
 51
33.8225571303
  0
LWPOLYLINE
  5
28C
330
1F
100
AcDbEntity
  8
0
  6
Continuous
 62
     7
370
    25
100
AcDbPolyline
 90
       35
 70
   128
 43
0.0
 10
8909.6080925981
 20
6241.2605697591
 10
8909.2560241711
 20
6241.179266315
 10
8907.4517573085
 20
6240.5258564089
 10
8905.7231499613
 20
6239.6607997137
 10
8904.114772664
 20
6238.6174881674
 10
8902.6188184366
 20
6237.4132759333
 10
8899.9920088558
 20
6234.6039624438
 10
8897.883980511
 20
6231.4066140673
 10
8896.2755876325
 20
6227.9209043228
 10
8895.1709011279
 20
6224.2818732133
 10
8894.5411939657
 20
6220.5026838144
 10
8894.3860979549
 20
6216.6717324643
 10
8894.6987207281
 20
6212.8601533331
 10
8895.4922367422
 20
6209.0978565369
 10
8896.7608082651
 20
6205.4991615087
 10
8898.5335524984
 20
6202.091260036
 10
8900.8002612064
 20
6199.0047763315
 10
8903.5804222084
 20
6196.3460780508
 10
8905.1478556353
 20
6195.2321466184
 10
8906.8266310384
 20
6194.2904991631
 10
8908.6099486804
 20
6193.5431472046
 10
8910.4552200511
 20
6193.0148217922
 10
8912.3616345332
 20
6192.7147499216
 10
8914.2849392109
 20
6192.6555667611
 10
8916.1850663705
 20
6192.8399133208
 10
8918.0623395375
 20
6193.2641333255
 10
8919.8767534643
 20
6193.9117485199
 10
8921.5902946609
 20
6194.7577043964
 10
8923.2089287403
 20
6195.7901127416
 10
8924.7229961632
 20
6196.9894146231
 10
8927.3647657597
 20
6199.7717860923
 10
8929.4935257442
 20
6202.9556733961
 10
8930.7071793379
 20
6205.4210965687
 10
8931.6620367875
 20
6207.9916984731
 10
8931.6620367875
 20
6207.9916984731
  0
LINE
  5
28D
330
1F
100
AcDbEntity
  8
0
  6
Continuous
 62
     7
370
    25
100
AcDbLine
 10
8932.1520634233
 20
6207.9168016399
 30
0.0
 11
8932.1642017524
 21
6207.9542666535
 31
0.0
  0
LWPOLYLINE
  5
28E
330
1F
100
AcDbEntity
  8
0
  6
Continuous
 62
     7
370
    25
100
AcDbPolyline
 90
        4
 70
   128
 43
0.0
 10
8932.4513922008
 20
6189.4485219818
 10
8932.3888210682
 20
6197.0401009008
 10
8932.3539034981
 20
6199.3440359497
 10
8932.1642017524
 20
6207.9542666535
  0
LINE
  5
28F
330
1F
100
AcDbEntity
  8
0
  6
Continuous
 62
     7
370
    25
100
AcDbLine
 10
8932.4901386071
 20
6189.1639790121
 30
0.0
 11
8932.4513922008
 21
6189.4485219818
 31
0.0
  0
ARC
  5
290
330
1F
100
AcDbEntity
  8
0
  6
Continuous
 62
     7
370
    25
100
AcDbCircle
 10
8717.2673698965
 20
6245.2286187085
 30
0.0
 40
215.6682926862151
100
AcDbArc
 50
354.719275482
 51
356.4947194034
  0
LINE
  5
291
330
1F
100
AcDbEntity
  8
0
  6
Continuous
 62
     7
370
    25
100
AcDbLine
 10
8932.0203053592
 20
6225.3794580117
 30
0.0
 11
8931.33858673
 21
6227.3747449266
 31
0.0
  0
ARC
  5
292
330
1F
100
AcDbEntity
  8
0
  6
Continuous
 62
     7
370
    25
100
AcDbCircle
 10
8913.8389615681
 20
6226.7431223192
 30
0.0
 40
16.78883708708782
100
AcDbArc
 50
55.0134256672
 51
102.860853712
  0
ARC
  5
293
330
1F
100
AcDbEntity
  8
0
  6
Continuous
 62
     7
370
    25
100
AcDbCircle
 10
8952.6391720938
 20
6227.8481349525
 30
0.0
 40
16.02765178468885
100
AcDbArc
 50
76.8543764878
 51
127.124461798
  0
LWPOLYLINE
  5
294
330
1F
100
AcDbEntity
  8
0
  6
Continuous
 62
     7
370
    25
100
AcDbPolyline
 90
        3
 70
   128
 43
0.0
 10
8935.7534938819
 20
6235.0136589943
 10
8933.2620279015
 20
6235.0393647983
 10
8930.7712764215
 20
6234.9743022402
  0
LINE
  5
295
330
1F
100
AcDbEntity
  8
0
  6
Continuous
 62
     7
370
    25
100
AcDbLine
 10
8933.132219769
 20
6232.317140107
 30
0.0
 11
8933.434854144
 21
6232.3195652727
 31
0.0
  0
LINE
  5
296
330
1F
100
AcDbEntity
  8
0
  6
Continuous
 62
     7
370
    25
100
AcDbLine
 10
8933.5171500433
 20
6231.8177878919
 30
0.0
 11
8933.0580183955
 21
6231.8141241133
 31
0.0
  0
ARC
  5
297
330
1F
100
AcDbEntity
  8
0
  6
Continuous
 62
     7
370
    25
100
AcDbCircle
 10
8930.0209940617
 20
6232.5191053629
 30
0.0
 40
3.117774104447034
100
AcDbArc
 50
346.9314385412
 51
356.285854986
  0
ARC
  5
298
330
1F
100
AcDbEntity
  8
0
  6
Continuous
 62
     7
370
    25
100
AcDbCircle
 10
8936.5372289421
 20
6232.5707446829
 30
0.0
 40
3.112526382878928
100
AcDbArc
 50
184.6287757528
 51
193.9994025519
  0
ARC
  5
299
330
1F
100
AcDbEntity
  8
0
  6
Continuous
 62
     7
370
    25
100
AcDbCircle
 10
8937.7528647309
 20
6232.6660589133
 30
0.0
 40
4.319819746237781
100
AcDbArc
 50
184.7367752282
 51
191.3246042177
  0
ARC
  5
29A
330
1F
100
AcDbEntity
  8
0
  6
Continuous
 62
     7
370
    25
100
AcDbCircle
 10
8928.7987445263
 20
6232.5953501155
 30
0.0
 40
4.330326541848762
100
AcDbArc
 50
349.6064683814
 51
356.178082038
  0
ARC
  5
29B
330
1F
100
AcDbEntity
  8
0
  6
Continuous
 62
     7
370
    25
100
AcDbCircle
 10
8933.445520856
 20
6232.6697234238
 30
0.0
 40
0.8549414547849956
100
AcDbArc
 50
274.8060212071
 51
313.9761067609
  0
ARC
  5
29C
330
1F
100
AcDbEntity
  8
0
  6
Continuous
 62
     7
370
    25
100
AcDbCircle
 10
8933.1160146549
 20
6232.6670930087
 30
0.0
 40
0.8549383034094538
100
AcDbArc
 50
226.929881758
 51
266.1102517318
  0
ARC
  5
29D
330
1F
100
AcDbEntity
  8
0
  6
Continuous
 62
     7
370
    25
100
AcDbCircle
 10
8840.6596789246
 20
6234.4216423061
 30
0.0
 40
92.43512475301988
100
AcDbArc
 50
354.0410407614
 51
358.3835191517
  0
ARC
  5
29E
330
1F
100
AcDbEntity
  8
0
  6
Continuous
 62
     7
370
    25
100
AcDbCircle
 10
9023.5283874053
 20
6236.0150343505
 30
0.0
 40
90.10904354878905
100
AcDbArc
 50
182.6697825757
 51
187.1140178686
  0
LWPOLYLINE
  5
29F
330
1F
100
AcDbEntity
  8
0
  6
Continuous
 62
     7
370
    25
100
AcDbPolyline
 90
        3
 70
   128
 43
0.0
 10
8934.1130331809
 20
6224.8555469882
 10
8933.292466785
 20
6224.7255553491
 10
8932.5953317372
 20
6224.8253914746
  0
ARC
  5
2A0
330
1F
100
AcDbEntity
  8
0
  6
Continuous
 62
     7
370
    25
100
AcDbCircle
 10
8932.8301922754
 20
6225.6445594007
 30
0.0
 40
0.8521710881447152
100
AcDbArc
 50
198.1248948085
 51
254.0020736582
  0
ARC
  5
2A1
330
1F
100
AcDbEntity
  8
0
  6
Continuous
 62
     7
370
    25
100
AcDbCircle
 10
8933.8451159666
 20
6225.665768219
 30
0.0
 40
0.8533686639336096
100
AcDbArc
 50
288.2975879661
 51
342.740152445
  0
LINE
  5
2A2
330
1F
100
AcDbEntity
  8
0
  6
Continuous
 62
     7
370
    25
100
AcDbLine
 10
8933.6426372894
 20
6188.2501814054
 30
0.0
 11
8933.6238253628
 21
6188.2501337235
 31
0.0
  0
LWPOLYLINE
  5
2A3
330
1F
100
AcDbEntity
  8
0
  6
Continuous
 62
     7
370
    25
100
AcDbPolyline
 90
        5
 70
   128
 43
0.0
 10
8933.6238253628
 20
6188.2501337235
 10
8933.6215630704
 20
6188.5773644191
 10
8933.6188882726
 20
6188.9414016091
 10
8933.6162935222
 20
6189.2732803775
 10
8933.614242326
 20
6189.5157048804
  0
LINE
  5
2A4
330
1F
100
AcDbEntity
  8
0
  6
Continuous
 62
     7
370
    25
100
AcDbLine
 10
8933.614242326
 20
6189.5157048804
 30
0.0
 11
8933.6424162704
 21
6189.5158017186
 31
0.0
  0
ARC
  5
2A5
330
1F
100
AcDbEntity
  8
0
  6
Continuous
 62
     7
370
    25
100
AcDbCircle
 10
8678.0458959452
 20
6188.838355964
 30
0.0
 40
255.5974180915896
100
AcDbArc
 50
359.8681522301
 51
0.1518592336
  0
LINE
  5
2A6
330
1F
100
AcDbEntity
  8
0
  6
Continuous
 62
     7
370
    25
100
AcDbLine
 10
8933.6238253628
 20
6188.2501337235
 30
0.0
 11
8933.0817044698
 21
6188.2218369762
 31
0.0
  0
ARC
  5
2A7
330
1F
100
AcDbEntity
  8
0
  6
Continuous
 62
     7
370
    25
100
AcDbCircle
 10
8935.7637894704
 20
6188.2703668837
 30
0.0
 40
2.682524017033899
100
AcDbArc
 50
153.6759534739
 51
181.036602305
  0
LWPOLYLINE
  5
2A8
330
1F
100
AcDbEntity
  8
0
  6
Continuous
 62
     7
370
    25
100
AcDbPolyline
 90
        3
 70
   128
 43
0.0
 10
8933.3594421251
 20
6189.4599251822
 10
8933.4969830074
 20
6189.5027438518
 10
8933.614242326
 20
6189.5157048804
  0
ARC
  5
2A9
330
1F
100
AcDbEntity
  8
0
  6
Continuous
 62
     7
370
    25
100
AcDbCircle
 10
8935.5640283441
 20
6188.2660753143
 30
0.0
 40
2.521913401519762
100
AcDbArc
 50
151.942337562
 51
179.9993203205
  0
LINE
  5
2AA
330
1F
100
AcDbEntity
  8
0
  6
Continuous
 62
     7
370
    25
100
AcDbLine
 10
8933.3385036476
 20
6189.4522823072
 30
0.0
 11
8933.3594421251
 21
6189.4599251822
 31
0.0
  0
ARC
  5
2AB
330
1F
100
AcDbEntity
  8
0
  6
Continuous
 62
     7
370
    25
100
AcDbCircle
 10
8931.5452053324
 20
6188.2607280842
 30
0.0
 40
2.64229538846325
100
AcDbArc
 50
359.2122522649
 51
27.0257306271
  0
LINE
  5
2AC
330
1F
100
AcDbEntity
  8
0
  6
Continuous
 62
     7
370
    25
100
AcDbLine
 10
8934.1872509892
 20
6188.2244008599
 30
0.0
 11
8933.6426372894
 21
6188.2501814054
 31
0.0
  0
LWPOLYLINE
  5
2AD
330
1F
100
AcDbEntity
  8
0
  6
Continuous
 62
     7
370
    25
100
AcDbPolyline
 90
        3
 70
   128
 43
0.0
 10
8933.6424162704
 20
6189.5158017186
 10
8933.7602370318
 20
6189.5035576843
 10
8933.8989688139
 20
6189.461362247
  0
ARC
  5
2AE
330
1F
100
AcDbEntity
  8
0
  6
Continuous
 62
     7
370
    25
100
AcDbCircle
 10
8931.7378758695
 20
6188.2575419428
 30
0.0
 40
2.488406865714142
100
AcDbArc
 50
0.2859348285
 51
28.7362534504
  0
LINE
  5
2AF
330
1F
100
AcDbEntity
  8
0
  6
Continuous
 62
     7
370
    25
100
AcDbLine
 10
8933.8989688139
 20
6189.461362247
 30
0.0
 11
8933.9198158473
 21
6189.4539142355
 31
0.0
  0
LWPOLYLINE
  5
2B0
330
1F
100
AcDbEntity
  8
0
  6
Continuous
 62
     7
370
    25
100
AcDbPolyline
 90
        3
 70
   128
 43
0.0
 10
8932.4901386071
 20
6189.1639790121
 10
8932.7056086684
 20
6189.3805148486
 10
8932.9602512302
 20
6189.5374037929
  0
LWPOLYLINE
  5
2B1
330
1F
100
AcDbEntity
  8
0
  6
Continuous
 62
     7
370
    25
100
AcDbPolyline
 90
       10
 70
   128
 43
0.0
 10
8932.9602512302
 20
6189.5374037929
 10
8932.9449635801
 20
6189.4918585625
 10
8932.9479201401
 20
6189.4722097901
 10
8932.9574755658
 20
6189.4551492104
 10
8932.973063096
 20
6189.4409298501
 10
8932.9939346867
 20
6189.4295802628
 10
8933.0484050337
 20
6189.4152596073
 10
8933.1147837502
 20
6189.4114419495
 10
8933.1878161914
 20
6189.4168917952
 10
8933.3385036476
 20
6189.4522823072
  0
LWPOLYLINE
  5
2B2
330
1F
100
AcDbEntity
  8
0
  6
Continuous
 62
     7
370
    25
100
AcDbPolyline
 90
        3
 70
   128
 43
0.0
 10
8934.7621577888
 20
6189.1783126513
 10
8934.5478850221
 20
6189.3886700926
 10
8934.2963125362
 20
6189.5408687643
  0
LWPOLYLINE
  5
2B3
330
1F
100
AcDbEntity
  8
0
  6
Continuous
 62
     7
370
    25
100
AcDbPolyline
 90
       10
 70
   128
 43
0.0
 10
8933.9198158473
 20
6189.4539142355
 10
8934.0704124868
 20
6189.4196008458
 10
8934.1432413451
 20
6189.4146093181
 10
8934.2093701283
 20
6189.4187722708
 10
8934.2635762695
 20
6189.4332951062
 10
8934.2843120936
 20
6189.444689026
 10
8934.299760048
 20
6189.4589148991
 10
8934.3091690808
 20
6189.4759456881
 10
8934.3119670171
 20
6189.4955321903
 10
8934.2963125362
 20
6189.5408687643
  0
LWPOLYLINE
  5
2B4
330
1F
100
AcDbEntity
  8
0
  6
Continuous
 62
     7
370
    25
100
AcDbPolyline
 90
        3
 70
   128
 43
0.0
 10
8932.6757753518
 20
6187.7378867849
 10
8933.6354733018
 20
6187.7679053382
 10
8934.5955317353
 20
6187.753052657
  0
LWPOLYLINE
  5
2B5
330
1F
100
AcDbEntity
  8
0
  6
Continuous
 62
     7
370
    25
100
AcDbPolyline
 90
        4
 70
   128
 43
0.0
 10
8934.2001225807
 20
6189.719271632
 10
8934.0288520088
 20
6197.5053033106
 10
8933.9990995085
 20
6199.8387890959
 10
8933.9710433688
 20
6208.7183094148
  0
LINE
  5
2B6
330
1F
100
AcDbEntity
  8
0
  6
Continuous
 62
     7
370
    25
100
AcDbLine
 10
8934.2963125362
 20
6189.5408687643
 30
0.0
 11
8934.2001225807
 21
6189.719271632
 31
0.0
  0
LINE
  5
2B7
330
1F
100
AcDbEntity
  8
0
  6
Continuous
 62
     7
370
    25
100
AcDbLine
 10
8933.0534407131
 20
6189.7149787973
 30
0.0
 11
8932.9602512302
 21
6189.5374037929
 31
0.0
  0
LWPOLYLINE
  5
2B8
330
1F
100
AcDbEntity
  8
0
  6
Continuous
 62
     7
370
    25
100
AcDbPolyline
 90
        4
 70
   128
 43
0.0
 10
8932.9719072168
 20
6208.7119385199
 10
8933.088492274
 20
6199.7225857396
 10
8933.0963766305
 20
6197.3892729276
 10
8933.0534407131
 20
6189.7149787973
  0
LINE
  5
2B9
330
1F
100
AcDbEntity
  8
0
  6
Continuous
 62
     7
370
    25
100
AcDbLine
 10
8932.9719072168
 20
6208.7119385199
 30
0.0
 11
8933.9710433688
 21
6208.7183094148
 31
0.0
  0
LWPOLYLINE
  5
2BA
330
1F
100
AcDbEntity
  8
0
  6
Continuous
 62
     7
370
    25
100
AcDbPolyline
 90
        3
 70
   128
 43
0.0
 10
8932.4513922008
 20
6189.4485219818
 10
8932.7233734573
 20
6189.6252104292
 10
8933.0534407131
 20
6189.7149787973
  0
LWPOLYLINE
  5
2BB
330
1F
100
AcDbEntity
  8
0
  6
Continuous
 62
     7
370
    25
100
AcDbPolyline
 90
        3
 70
   128
 43
0.0
 10
8934.7966516948
 20
6189.463527595
 10
8934.5262182289
 20
6189.6340003169
 10
8934.2001225807
 20
6189.719271632
  0
ARC
  5
2BC
330
1F
100
AcDbEntity
  8
0
  6
Continuous
 62
     7
370
    25
100
AcDbCircle
 10
8933.1828710195
 20
6207.6776860444
 30
0.0
 40
1.055549103061476
100
AcDbArc
 50
101.5288697745
 51
164.8097275406
  0
ARC
  5
2BD
330
1F
100
AcDbEntity
  8
0
  6
Continuous
 62
     7
370
    25
100
AcDbCircle
 10
8933.8003388361
 20
6207.710451154
 30
0.0
 40
1.022212458928994
100
AcDbArc
 50
14.92840206
 51
80.3868430011
  0
LINE
  5
2BE
330
1F
100
AcDbEntity
  8
0
  6
Continuous
 62
     7
370
    25
100
AcDbLine
 10
8926.3693008745
 20
6230.2937703814
 30
0.0
 11
8926.3740407934
 21
6229.693789104
 31
0.0
  0
LINE
  5
2BF
330
1F
100
AcDbEntity
  8
0
  6
Continuous
 62
     7
370
    25
100
AcDbLine
 10
8940.1036123564
 20
6229.8022542839
 30
0.0
 11
8940.0988724378
 21
6230.4022355251
 31
0.0
  0
LINE
  5
2C0
330
1F
100
AcDbEntity
  8
0
  6
Continuous
 62
     7
370
    25
100
AcDbLine
 10
8965.5980767252
 20
6230.6036820775
 30
0.0
 11
8965.602816644
 21
6230.0037008002
 31
0.0
  0
LINE
  5
2C1
330
1F
100
AcDbEntity
  8
0
  6
Continuous
 62
     7
370
    25
100
AcDbLine
 10
8900.8748365058
 20
6229.4923425877
 30
0.0
 11
8900.8700965872
 21
6230.0923238289
 31
0.0
  0
ARC
  5
2C2
330
1F
100
AcDbEntity
  8
0
  6
Continuous
 62
     7
370
    25
100
AcDbCircle
 10
8952.9482815277
 20
6217.8693461636
 30
0.0
 40
15.99999999999914
100
AcDbArc
 50
323.51052812
 51
41.8622557292
  0
ARC
  5
2C3
330
1F
100
AcDbEntity
  8
0
  6
Continuous
 62
     7
370
    25
100
AcDbCircle
 10
8952.9482815277
 20
6217.8693461636
 30
0.0
 40
16.00000000000167
100
AcDbArc
 50
139.0430115106
 51
216.2912598606
  0
ARC
  5
2C4
330
1F
100
AcDbEntity
  8
0
  6
Continuous
 62
     7
370
    25
100
AcDbCircle
 10
8913.8495016205
 20
6217.5604614499
 30
0.0
 40
16.0000000000002
100
AcDbArc
 50
318.3788636313
 51
42.5612509411
  0
ARC
  5
2C5
330
1F
100
AcDbEntity
  8
0
  6
Continuous
 62
     7
370
    25
100
AcDbCircle
 10
8913.8495016205
 20
6217.5604614499
 30
0.0
 40
15.99999999999999
100
AcDbArc
 50
139.7518133138
 51
212.4164097226
  0
ARC
  5
2C6
330
1F
100
AcDbEntity
  8
0
  6
Continuous
 62
     7
370
    25
100
AcDbCircle
 10
8917.6227235497
 20
6217.5598585355
 30
0.0
 40
13.07311165843617
100
AcDbArc
 50
335.1374996984
 51
23.8435391342
  0
ARC
  5
2C7
330
1F
100
AcDbEntity
  8
0
  6
Continuous
 62
     7
370
    25
100
AcDbCircle
 10
8929.5244165315
 20
6211.116171094
 30
0.0
 40
0.9480542299364879
100
AcDbArc
 50
92.430544467
 51
158.6041982398
  0
ARC
  5
2C8
330
1F
100
AcDbEntity
  8
0
  6
Continuous
 62
     7
370
    25
100
AcDbCircle
 10
8929.5984301142
 20
6223.7756166787
 30
0.0
 40
0.9312582767526737
100
AcDbArc
 50
200.0917251564
 51
268.8709996131
  0
ARC
  5
2C9
330
1F
100
AcDbEntity
  8
0
  6
Continuous
 62
     7
370
    25
100
AcDbCircle
 10
8949.1789783962
 20
6217.8092142147
 30
0.0
 40
13.07624507102463
100
AcDbArc
 50
157.0679423964
 51
205.7615532507
  0
ARC
  5
2CA
330
1F
100
AcDbEntity
  8
0
  6
Continuous
 62
     7
370
    25
100
AcDbCircle
 10
8937.0957433378
 20
6223.8449067976
 30
0.0
 40
0.9415423467772798
100
AcDbArc
 50
272.4615213033
 51
340.3862884072
  0
ARC
  5
2CB
330
1F
100
AcDbEntity
  8
0
  6
Continuous
 62
     7
370
    25
100
AcDbCircle
 10
8937.3856216133
 20
6211.1905006657
 30
0.0
 40
0.9355760984602137
100
AcDbArc
 50
21.8017356078
 51
88.9740561658
  0
LINE
  5
2CC
330
1F
100
AcDbEntity
  8
0
  6
Continuous
 62
     7
370
    25
100
AcDbLine
 10
8929.4842111807
 20
6212.0633724204
 30
0.0
 11
8937.4023732353
 21
6212.125926782
 31
0.0
  0
LINE
  5
2CD
330
1F
100
AcDbEntity
  8
0
  6
Continuous
 62
     7
370
    25
100
AcDbLine
 10
8937.1361811098
 20
6222.9042332212
 30
0.0
 11
8929.5800810678
 21
6222.8445391897
 31
0.0
  0
ARC
  5
2CE
330
1F
100
AcDbEntity
  8
0
  6
Continuous
 62
     7
370
    25
100
AcDbCircle
 10
8933.3988915741
 20
6217.7149038068
 30
0.0
 40
9.877114280502152
100
AcDbArc
 50
102.0399583139
 51
125.8606963561
  0
ARC
  5
2CF
330
1F
100
AcDbEntity
  8
0
  6
Continuous
 62
     7
370
    25
100
AcDbCircle
 10
8933.3988915741
 20
6217.7149038068
 30
0.0
 40
9.877114280500587
100
AcDbArc
 50
55.0445708837
 51
78.8653085752
  0
ARC
  5
2D0
330
1F
100
AcDbEntity
  8
0
  6
Continuous
 62
     7
370
    25
100
AcDbCircle
 10
8933.3988915741
 20
6217.7149038068
 30
0.0
 40
9.877114280501683
100
AcDbArc
 50
235.0445708837
 51
262.7479737355
  0
ARC
  5
2D1
330
1F
100
AcDbEntity
  8
0
  6
Continuous
 62
     7
370
    25
100
AcDbCircle
 10
8933.3988915741
 20
6217.7149038068
 30
0.0
 40
9.877114280500757
100
AcDbArc
 50
278.1572935043
 51
305.8606963561
  0
LINE
  5
2D2
330
1F
100
AcDbEntity
  8
0
  6
Continuous
 62
     7
370
    25
100
AcDbLine
 10
8939.3840153552
 20
6209.3834352991
 30
0.0
 11
8939.0085792293
 21
6209.5854025354
 31
0.0
  0
ARC
  5
2D3
330
1F
100
AcDbEntity
  8
0
  6
Continuous
 62
     7
370
    25
100
AcDbCircle
 10
8954.4365223585
 20
6218.3943289818
 30
0.0
 40
15.01745293862928
100
AcDbArc
 50
325.6180312008
 51
358.4942145051
  0
ARC
  5
2D4
330
1F
100
AcDbEntity
  8
0
  6
Continuous
 62
     7
370
    25
100
AcDbCircle
 10
8954.758217269
 20
6217.4749956702
 30
0.0
 40
14.69993968908266
100
AcDbArc
 50
2.0455761834
 51
35.6527125904
  0
ARC
  5
2D5
330
1F
100
AcDbEntity
  8
0
  6
Continuous
 62
     7
370
    25
100
AcDbCircle
 10
8912.3612607897
 20
6217.0354786317
 30
0.0
 40
15.01745293861925
100
AcDbArc
 50
145.6180312007
 51
178.4942145051
  0
ARC
  5
2D6
330
1F
100
AcDbEntity
  8
0
  6
Continuous
 62
     7
370
    25
100
AcDbCircle
 10
8912.0395658791
 20
6217.9548119434
 30
0.0
 40
14.69993968905655
100
AcDbArc
 50
182.0455761834
 51
215.6527125904
  0
LWPOLYLINE
  5
2D7
330
1F
100
AcDbEntity
  8
0
  6
Continuous
 62
     7
370
    25
100
AcDbPolyline
 90
        3
 70
   128
 43
0.0
 10
8938.879410322
 20
6225.9320383903
 10
8939.0905417473
 20
6226.0473949224
 10
8939.2516429274
 20
6226.1399018313
  0
LWPOLYLINE
  5
2D8
330
1F
100
AcDbEntity
  8
0
  6
Continuous
 62
     7
370
    25
100
AcDbPolyline
 90
        3
 70
   128
 43
0.0
 10
8927.9180145533
 20
6209.498008189
 10
8927.707114721
 20
6209.382615778
 10
8927.5462044116
 20
6209.2900120877
  0
LWPOLYLINE
  5
2D9
330
1F
100
AcDbEntity
  8
0
  6
Continuous
 62
     7
370
    25
100
AcDbPolyline
 90
        3
 70
   128
 43
0.0
 10
8927.4138280615
 20
6226.0462759777
 10
8927.6212058705
 20
6225.9319474122
 10
8927.7888779751
 20
6225.844180154
  0
ARC
  5
2DA
330
1F
100
AcDbEntity
  8
0
  6
Continuous
 62
     7
370
    25
100
AcDbCircle
 10
8933.3988915741
 20
6217.7149038068
 30
0.0
 40
11.24999999999986
100
AcDbArc
 50
103.7548780884
 51
125.5262995217
  0
ARC
  5
2DB
330
1F
100
AcDbEntity
  8
0
  6
Continuous
 62
     7
370
    25
100
AcDbCircle
 10
8933.3988915741
 20
6217.7149038068
 30
0.0
 40
11.24999999999828
100
AcDbArc
 50
55.3789677181
 51
77.2285262581
  0
ARC
  5
2DC
330
1F
100
AcDbEntity
  8
0
  6
Continuous
 62
     7
370
    25
100
AcDbCircle
 10
8933.3988915741
 20
6217.7149038068
 30
0.0
 40
11.24999999999983
100
AcDbArc
 50
282.2475061402
 51
305.5262995216
  0
ARC
  5
2DD
330
1F
100
AcDbEntity
  8
0
  6
Continuous
 62
     7
370
    25
100
AcDbCircle
 10
8933.3988915741
 20
6217.7149038068
 30
0.0
 40
11.25000000000144
100
AcDbArc
 50
235.3789677182
 51
258.6568646802
  0
LINE
  5
2DE
330
1F
100
AcDbEntity
  8
0
  6
Continuous
 62
     7
370
    25
100
AcDbLine
 10
8946.8477063317
 20
6195.3302182899
 30
0.0
 11
8944.9924464704
 21
6195.3302182899
 31
0.0
  0
LINE
  5
2DF
330
1F
100
AcDbEntity
  8
0
  6
Continuous
 62
     7
370
    25
100
AcDbLine
 10
8922.4204877505
 20
6195.3302182899
 30
0.0
 11
8919.9500768165
 21
6195.3302182899
 31
0.0
  0
LINE
  5
2E0
330
1F
100
AcDbEntity
  8
0
  6
Continuous
 62
     7
370
    25
100
AcDbLine
 10
8944.5560171105
 20
6248.9735345771
 30
0.0
 11
8922.2417660377
 21
6248.9735345771
 31
0.0
  0
LINE
  5
2E1
330
1F
100
AcDbEntity
  8
0
  6
Continuous
 62
     7
370
    25
100
AcDbLine
 10
8933.1488915741
 20
6252.5187508173
 30
0.0
 11
8933.1488915741
 21
6267.5187508173
 31
0.0
  0
LINE
  5
2E2
330
1F
100
AcDbEntity
  8
0
  6
Continuous
 62
     7
370
    25
100
AcDbLine
 10
8933.1488915741
 20
6267.5187508173
 30
0.0
 11
8933.6488915741
 21
6267.5187508173
 31
0.0
  0
LINE
  5
2E3
330
1F
100
AcDbEntity
  8
0
  6
Continuous
 62
     7
370
    25
100
AcDbLine
 10
8933.6488915741
 20
6267.5187508173
 30
0.0
 11
8933.6488915741
 21
6252.5187508173
 31
0.0
  0
LINE
  5
2E4
330
1F
100
AcDbEntity
  8
0
  6
Continuous
 62
     7
370
    25
100
AcDbLine
 10
8933.1488915741
 20
6252.5187508173
 30
0.0
 11
8933.6488915741
 21
6252.5187508173
 31
0.0
  0
LWPOLYLINE
  5
2E5
330
1F
100
AcDbEntity
  8
0
  6
Continuous
 62
     7
370
    25
100
AcDbPolyline
 90
        9
 70
   128
 43
0.0
 10
8933.3988915741
 20
6268.0187508173
 10
8933.4476641546
 20
6268.0091434575
 10
8933.4945624322
 20
6267.9806905836
 10
8933.5377841324
 20
6267.9344856235
 10
8933.5756682694
 20
6267.8723042079
 10
8933.6067589772
 20
6267.7965359338
 10
8933.6298614572
 20
6267.7100925335
 10
8933.6440878942
 20
6267.6162959783
 10
8933.6488915741
 20
6267.5187508173
  0
LWPOLYLINE
  5
2E6
330
1F
100
AcDbEntity
  8
0
  6
Continuous
 62
     7
370
    25
100
AcDbPolyline
 90
        9
 70
   128
 43
0.0
 10
8933.3988915741
 20
6268.0187508173
 10
8933.3501189936
 20
6268.0091434575
 10
8933.303220716
 20
6267.9806905836
 10
8933.2599990158
 20
6267.9344856235
 10
8933.2221148788
 20
6267.8723042079
 10
8933.191024171
 20
6267.7965359338
 10
8933.167921691
 20
6267.7100925335
 10
8933.153695254
 20
6267.6162959783
 10
8933.1488915741
 20
6267.5187508173
  0
LWPOLYLINE
  5
2E7
330
1F
100
AcDbEntity
  8
0
  6
Continuous
 62
     7
370
    25
100
AcDbPolyline
 90
        9
 70
   128
 43
0.0
 10
8933.6488915741
 20
6252.5187508173
 10
8933.6440878942
 20
6252.4212056563
 10
8933.6298614572
 20
6252.3274091011
 10
8933.6067589772
 20
6252.2409657008
 10
8933.5756682694
 20
6252.1651974267
 10
8933.5377841324
 20
6252.1030160112
 10
8933.4945624322
 20
6252.0568110511
 10
8933.4476641546
 20
6252.0283581771
 10
8933.3988915741
 20
6252.0187508173
  0
LWPOLYLINE
  5
2E8
330
1F
100
AcDbEntity
  8
0
  6
Continuous
 62
     7
370
    25
100
AcDbPolyline
 90
        9
 70
   128
 43
0.0
 10
8933.1488915741
 20
6252.5187508173
 10
8933.153695254
 20
6252.4212056563
 10
8933.167921691
 20
6252.3274091011
 10
8933.191024171
 20
6252.2409657008
 10
8933.2221148788
 20
6252.1651974267
 10
8933.2599990158
 20
6252.1030160112
 10
8933.303220716
 20
6252.0568110511
 10
8933.3501189936
 20
6252.0283581771
 10
8933.3988915741
 20
6252.0187508173
  0
LINE
  5
2E9
330
1F
100
AcDbEntity
  8
0
  6
Continuous
 62
     7
370
    25
100
AcDbLine
 10
8921.8988915741
 20
6268.0187508173
 30
0.0
 11
8933.3988915741
 21
6268.0187508173
 31
0.0
  0
LINE
  5
2EA
330
1F
100
AcDbEntity
  8
0
  6
Continuous
 62
     7
370
    25
100
AcDbLine
 10
8933.1488915741
 20
6267.5187508173
 30
0.0
 11
8921.6488915741
 21
6267.5187508173
 31
0.0
  0
LWPOLYLINE
  5
2EB
330
1F
100
AcDbEntity
  8
0
  6
Continuous
 62
     7
370
    25
100
AcDbPolyline
 90
        9
 70
   128
 43
0.0
 10
8921.8988915741
 20
6268.0187508173
 10
8921.8501189936
 20
6268.0091434575
 10
8921.803220716
 20
6267.9806905836
 10
8921.7599990158
 20
6267.9344856235
 10
8921.7221148788
 20
6267.8723042079
 10
8921.691024171
 20
6267.7965359338
 10
8921.667921691
 20
6267.7100925335
 10
8921.653695254
 20
6267.6162959783
 10
8921.6488915741
 20
6267.5187508173
  0
LINE
  5
2EC
330
1F
100
AcDbEntity
  8
0
  6
Continuous
 62
     7
370
    25
100
AcDbLine
 10
8945.1488915741
 20
6252.5187508173
 30
0.0
 11
8945.1488915741
 21
6267.5187508173
 31
0.0
  0
LINE
  5
2ED
330
1F
100
AcDbEntity
  8
0
  6
Continuous
 62
     7
370
    25
100
AcDbLine
 10
8933.6488915741
 20
6252.5187508173
 30
0.0
 11
8945.1488915741
 21
6252.5187508173
 31
0.0
  0
LINE
  5
2EE
330
1F
100
AcDbEntity
  8
0
  6
Continuous
 62
     7
370
    25
100
AcDbLine
 10
8945.1488915741
 20
6267.5187508173
 30
0.0
 11
8933.6488915741
 21
6267.5187508173
 31
0.0
  0
LINE
  5
2EF
330
1F
100
AcDbEntity
  8
0
  6
Continuous
 62
     7
370
    25
100
AcDbLine
 10
8921.6488915741
 20
6252.5187508173
 30
0.0
 11
8933.1488915741
 21
6252.5187508173
 31
0.0
  0
LINE
  5
2F0
330
1F
100
AcDbEntity
  8
0
  6
Continuous
 62
     7
370
    25
100
AcDbLine
 10
8921.6488915741
 20
6267.5187508173
 30
0.0
 11
8921.6488915741
 21
6252.5187508173
 31
0.0
  0
LINE
  5
2F1
330
1F
100
AcDbEntity
  8
0
  6
Continuous
 62
     7
370
    25
100
AcDbLine
 10
8933.3988915741
 20
6268.0187508173
 30
0.0
 11
8944.8988915741
 21
6268.0187508173
 31
0.0
  0
LWPOLYLINE
  5
2F2
330
1F
100
AcDbEntity
  8
0
  6
Continuous
 62
     7
370
    25
100
AcDbPolyline
 90
        9
 70
   128
 43
0.0
 10
8944.8988915741
 20
6268.0187508173
 10
8944.9476641546
 20
6268.0091434575
 10
8944.9945624322
 20
6267.9806905836
 10
8945.0377841324
 20
6267.9344856235
 10
8945.0756682694
 20
6267.8723042079
 10
8945.1067589772
 20
6267.7965359338
 10
8945.1298614572
 20
6267.7100925335
 10
8945.1440878942
 20
6267.6162959783
 10
8945.1488915741
 20
6267.5187508173
  0
LWPOLYLINE
  5
2F3
330
1F
100
AcDbEntity
  8
0
  6
Continuous
 62
     7
370
    25
100
AcDbPolyline
 90
        9
 70
   128
 43
0.0
 10
8945.1488915741
 20
6252.5187508173
 10
8945.1440878942
 20
6252.4212056563
 10
8945.1298614572
 20
6252.3274091011
 10
8945.1067589772
 20
6252.2409657008
 10
8945.0756682694
 20
6252.1651974267
 10
8945.0377841324
 20
6252.1030160112
 10
8944.9945624322
 20
6252.0568110511
 10
8944.9476641546
 20
6252.0283581771
 10
8944.8988915741
 20
6252.0187508173
  0
LINE
  5
2F4
330
1F
100
AcDbEntity
  8
0
  6
Continuous
 62
     7
370
    25
100
AcDbLine
 10
8944.8988915741
 20
6252.0187508173
 30
0.0
 11
8933.3988915741
 21
6252.0187508173
 31
0.0
  0
LINE
  5
2F5
330
1F
100
AcDbEntity
  8
0
  6
Continuous
 62
     7
370
    25
100
AcDbLine
 10
8933.3988915741
 20
6252.0187508173
 30
0.0
 11
8921.8988915741
 21
6252.0187508173
 31
0.0
  0
LWPOLYLINE
  5
2F6
330
1F
100
AcDbEntity
  8
0
  6
Continuous
 62
     7
370
    25
100
AcDbPolyline
 90
        9
 70
   128
 43
0.0
 10
8921.6488915741
 20
6252.5187508173
 10
8921.653695254
 20
6252.4212056563
 10
8921.667921691
 20
6252.3274091011
 10
8921.691024171
 20
6252.2409657008
 10
8921.7221148788
 20
6252.1651974267
 10
8921.7599990158
 20
6252.1030160112
 10
8921.803220716
 20
6252.0568110511
 10
8921.8501189936
 20
6252.0283581771
 10
8921.8988915741
 20
6252.0187508173
  0
ARC
  5
2F7
330
1F
100
AcDbEntity
  8
0
  6
Continuous
 62
     7
370
    25
100
AcDbCircle
 10
8944.8988915741
 20
6267.5187508173
 30
0.0
 40
0.5
100
AcDbArc
 50
0.0
 51
90.0
  0
LINE
  5
2F8
330
1F
100
AcDbEntity
  8
0
  6
Continuous
 62
     7
370
    25
100
AcDbLine
 10
8945.1488915741
 20
6267.5187508173
 30
0.0
 11
8945.3988915741
 21
6267.5187508173
 31
0.0
  0
LINE
  5
2F9
330
1F
100
AcDbEntity
  8
0
  6
Continuous
 62
     7
370
    25
100
AcDbLine
 10
8921.3988915741
 20
6267.5187508173
 30
0.0
 11
8921.6488915741
 21
6267.5187508173
 31
0.0
  0
ARC
  5
2FA
330
1F
100
AcDbEntity
  8
0
  6
Continuous
 62
     7
370
    25
100
AcDbCircle
 10
8921.8988915741
 20
6267.5187508173
 30
0.0
 40
0.500000000001819
100
AcDbArc
 50
90.0
 51
180.0
  0
LINE
  5
2FB
330
1F
100
AcDbEntity
  8
0
  6
Continuous
 62
     7
370
    25
100
AcDbLine
 10
8945.3988915741
 20
6267.5187508173
 30
0.0
 11
8945.3988915741
 21
6252.5187508173
 31
0.0
  0
LINE
  5
2FC
330
1F
100
AcDbEntity
  8
0
  6
Continuous
 62
     7
370
    25
100
AcDbLine
 10
8945.1488915741
 20
6252.5187508173
 30
0.0
 11
8945.3988915741
 21
6252.5187508173
 31
0.0
  0
LINE
  5
2FD
330
1F
100
AcDbEntity
  8
0
  6
Continuous
 62
     7
370
    25
100
AcDbLine
 10
8921.3988915741
 20
6252.5187508173
 30
0.0
 11
8921.3988915741
 21
6267.5187508173
 31
0.0
  0
LINE
  5
2FE
330
1F
100
AcDbEntity
  8
0
  6
Continuous
 62
     7
370
    25
100
AcDbLine
 10
8921.3988915741
 20
6252.5187508173
 30
0.0
 11
8921.6488915741
 21
6252.5187508173
 31
0.0
  0
ARC
  5
2FF
330
1F
100
AcDbEntity
  8
0
  6
Continuous
 62
     7
370
    25
100
AcDbCircle
 10
8944.8988915741
 20
6252.5187508173
 30
0.0
 40
0.5
100
AcDbArc
 50
270.0
 51
0.0
  0
ARC
  5
300
330
1F
100
AcDbEntity
  8
0
  6
Continuous
 62
     7
370
    25
100
AcDbCircle
 10
8921.8988915741
 20
6252.5187508173
 30
0.0
 40
0.500000000001819
100
AcDbArc
 50
180.0
 51
270.0
  0
LINE
  5
301
330
1F
100
AcDbEntity
  8
0
  6
Continuous
 62
     7
370
    25
100
AcDbLine
 10
8935.3988915741
 20
6151.1633822029
 30
0.0
 11
8931.3988915741
 21
6151.1633822029
 31
0.0
  0
LINE
  5
302
330
1F
100
AcDbEntity
  8
0
  6
Continuous
 62
     7
370
    25
100
AcDbLine
 10
8935.8988915741
 20
6152.1775509809
 30
0.0
 11
8935.8988915741
 21
6151.5476094089
 31
0.0
  0
ARC
  5
303
330
1F
100
AcDbEntity
  8
0
  6
Continuous
 62
     7
370
    25
100
AcDbCircle
 10
8935.4500763012
 20
6151.6142167785
 30
0.0
 40
0.4537308573384555
100
AcDbArc
 50
263.5227574654
 51
351.5585137499
  0
ARC
  5
304
330
1F
100
AcDbEntity
  8
0
  6
Continuous
 62
     7
370
    25
100
AcDbCircle
 10
8931.347706847
 20
6151.6142167785
 30
0.0
 40
0.4537308573389576
100
AcDbArc
 50
188.4414862503
 51
276.4772425345
  0
LINE
  5
305
330
1F
100
AcDbEntity
  8
0
  6
Continuous
 62
     7
370
    25
100
AcDbLine
 10
8930.8988915741
 20
6151.5476094089
 30
0.0
 11
8930.8988915741
 21
6152.1775509809
 31
0.0
  0
LINE
  5
306
330
1F
100
AcDbEntity
  8
0
  6
Continuous
 62
     7
370
    25
100
AcDbLine
 10
8931.3988915741
 20
6151.1633822029
 30
0.0
 11
8931.3988915741
 21
6094.4729718405
 31
0.0
  0
LWPOLYLINE
  5
307
330
1F
100
AcDbEntity
  8
0
  6
Continuous
 62
     7
370
    25
100
AcDbPolyline
 90
        9
 70
   128
 43
0.0
 10
8931.3988915741
 20
6094.4729718405
 10
8931.3013464131
 20
6094.479179694
 10
8931.2075498579
 20
6094.4975646901
 10
8931.1211064576
 20
6094.5274203039
 10
8931.0453381835
 20
6094.5675992007
 10
8930.9831567679
 20
6094.6165573281
 10
8930.9369518078
 20
6094.6724132527
 10
8930.9084989339
 20
6094.7330204627
 10
8930.8988915741
 20
6094.796049857
  0
LINE
  5
308
330
1F
100
AcDbEntity
  8
0
  6
Continuous
 62
     7
370
    25
100
AcDbLine
 10
8930.8988915741
 20
6094.796049857
 30
0.0
 11
8930.8988915741
 21
6151.5476094089
 31
0.0
  0
LINE
  5
309
330
1F
100
AcDbEntity
  8
0
  6
Continuous
 62
     7
370
    25
100
AcDbLine
 10
8935.3988915741
 20
6094.4729718405
 30
0.0
 11
8935.3988915741
 21
6151.1633822029
 31
0.0
  0
LINE
  5
30A
330
1F
100
AcDbEntity
  8
0
  6
Continuous
 62
     7
370
    25
100
AcDbLine
 10
8935.3988915741
 20
6094.4729718405
 30
0.0
 11
8931.3988915741
 21
6094.4729718405
 31
0.0
  0
LWPOLYLINE
  5
30B
330
1F
100
AcDbEntity
  8
0
  6
Continuous
 62
     7
370
    25
100
AcDbPolyline
 90
        9
 70
   128
 43
0.0
 10
8935.3988915741
 20
6094.4729718405
 10
8935.4964367351
 20
6094.479179694
 10
8935.5902332903
 20
6094.4975646901
 10
8935.6766766906
 20
6094.5274203039
 10
8935.7524449647
 20
6094.5675992007
 10
8935.8146263803
 20
6094.6165573281
 10
8935.8608313404
 20
6094.6724132527
 10
8935.8892842143
 20
6094.7330204627
 10
8935.8988915741
 20
6094.796049857
  0
LINE
  5
30C
330
1F
100
AcDbEntity
  8
0
  6
Continuous
 62
     7
370
    25
100
AcDbLine
 10
8935.8988915741
 20
6151.5476094089
 30
0.0
 11
8935.8988915741
 21
6094.796049857
 31
0.0
  0
LINE
  5
30D
330
1F
100
AcDbEntity
  8
0
  6
Continuous
 62
     7
370
    25
100
AcDbLine
 10
8935.8988915741
 20
6094.796049857
 30
0.0
 11
8935.8988915741
 21
6088.7628416771
 31
0.0
  0
LINE
  5
30E
330
1F
100
AcDbEntity
  8
0
  6
Continuous
 62
     7
370
    25
100
AcDbLine
 10
8930.8988915741
 20
6088.7628416771
 30
0.0
 11
8930.8988915741
 21
6094.796049857
 31
0.0
  0
ARC
  5
30F
330
1F
100
AcDbEntity
  8
0
  6
Continuous
 62
     8
370
    25
100
AcDbCircle
 10
8953.4437193323
 20
6203.4168599439
 30
0.0
 40
24.50732613747314
100
AcDbArc
 50
219.7283136603
 51
234.2266635421
  0
ARC
  5
310
330
1F
100
AcDbEntity
  8
0
  6
Continuous
 62
     8
370
    25
100
AcDbCircle
 10
8913.8486872628
 20
6202.8185395934
 30
0.0
 40
24.12229953886524
100
AcDbArc
 50
306.5437234667
 51
321.3049845275
  0
LINE
  5
311
330
1F
100
AcDbEntity
  8
0
  6
Continuous
 62
     8
370
    25
100
AcDbLine
 10
8925.9772132211
 20
6229.2906416399
 30
0.0
 11
8925.9661534104
 21
6230.6905979537
 31
0.0
  0
LINE
  5
312
330
1F
100
AcDbEntity
  8
0
  6
Continuous
 62
     8
370
    25
100
AcDbLine
 10
8940.4957000102
 20
6230.8053829892
 30
0.0
 11
8940.5067598209
 21
6229.4054266754
 31
0.0
  0
LINE
  5
313
330
1F
100
AcDbEntity
  8
0
  6
Continuous
 62
     8
370
    25
100
AcDbLine
 10
8965.2059890717
 20
6229.600553336
 30
0.0
 11
8965.194929261
 21
6231.0005096498
 31
0.0
  0
LINE
  5
314
330
1F
100
AcDbEntity
  8
0
  6
Continuous
 62
     8
370
    25
100
AcDbLine
 10
8901.2669241595
 20
6230.4954712931
 30
0.0
 11
8901.2779839702
 21
6229.0955149793
 31
0.0
  0
ARC
  5
315
330
1F
100
AcDbEntity
  8
0
  6
Continuous
 62
     8
370
    25
100
AcDbCircle
 10
8932.7948010442
 20
6224.8681426846
 30
0.0
 40
8.452654254359478
100
AcDbArc
 50
117.7068458968
 51
139.867352624
  0
ARC
  5
316
330
1F
100
AcDbEntity
  8
0
  6
Continuous
 62
     8
370
    25
100
AcDbCircle
 10
8934.3431101519
 20
6225.6580322259
 30
0.0
 40
7.60847791157626
100
AcDbArc
 50
40.2966775793
 51
63.5839907836
  0
ARC
  5
317
330
1F
100
AcDbEntity
  8
0
  6
Continuous
 62
     8
370
    25
100
AcDbCircle
 10
8932.9868575455
 20
6211.8930958403
 30
0.0
 40
10.50219286377488
100
AcDbArc
 50
297.5282546232
 51
327.2203141821
  0
ARC
  5
318
330
1F
100
AcDbEntity
  8
0
  6
Continuous
 62
     8
370
    25
100
AcDbCircle
 10
8933.7767308211
 20
6211.7311168327
 30
0.0
 40
10.34952135278892
100
AcDbArc
 50
212.7811817428
 51
243.5432411834
  0
LINE
  5
319
330
1F
100
AcDbEntity
  8
0
  6
Continuous
 62
     8
370
    25
100
AcDbLine
 10
8920.9024393512
 20
6155.1860617363
 30
0.0
 11
8945.895343797
 21
6155.1860617363
 31
0.0
  0
LINE
  5
31A
330
1F
100
AcDbEntity
  8
0
  6
Continuous
 62
     8
370
    25
100
AcDbLine
 10
8945.605956069
 20
6154.7649512161
 30
0.0
 11
8921.1918270792
 21
6154.7649512161
 31
0.0
  0
LINE
  5
31B
330
1F
100
AcDbEntity
  8
0
  6
Continuous
 62
     8
370
    25
100
AcDbLine
 10
8935.3988915741
 20
6151.1633822029
 30
0.0
 11
8935.3988915741
 21
6152.1374503164
 31
0.0
  0
LINE
  5
31C
330
1F
100
AcDbEntity
  8
0
  6
Continuous
 62
     8
370
    25
100
AcDbLine
 10
8931.3988915741
 20
6152.1374503164
 30
0.0
 11
8931.3988915741
 21
6151.1633822029
 31
0.0
  0
LINE
  5
31D
330
1F
100
AcDbEntity
  8
0
  6
Continuous
 62
     8
370
    25
100
AcDbLine
 10
8935.3988915741
 20
6088.2628416771
 30
0.0
 11
8935.3988915741
 21
6094.4729718405
 31
0.0
  0
LINE
  5
31E
330
1F
100
AcDbEntity
  8
0
  6
Continuous
 62
     8
370
    25
100
AcDbLine
 10
8931.3988915741
 20
6094.4729718405
 30
0.0
 11
8931.3988915741
 21
6088.2628416771
 31
0.0
  0
ENDSEC
  0
SECTION
  2
OBJECTS
  0
DICTIONARY
  5
C
330
0
100
AcDbDictionary
281
     1
  3
ACAD_GROUP
350
D
  3
ACAD_LAYOUT
350
1A
  3
ACAD_MLINESTYLE
350
17
  3
ACAD_PLOTSETTINGS
350
19
  3
ACAD_PLOTSTYLENAME
350
E
  3
ACAD_SCALELIST
350
47
  3
DWGPROPS
350
31F
  0
DICTIONARY
  5
D
102
{ACAD_REACTORS
330
C
102
}
330
C
100
AcDbDictionary
281
     1
  0
DICTIONARY
  5
1A
102
{ACAD_REACTORS
330
C
102
}
330
C
100
AcDbDictionary
281
     1
  3
Layout1
350
1E
  3
Layout2
350
26
  3
Model
350
22
  0
DICTIONARY
  5
17
102
{ACAD_REACTORS
330
C
102
}
330
C
100
AcDbDictionary
281
     1
  3
Standard
350
18
  0
DICTIONARY
  5
19
102
{ACAD_REACTORS
330
C
102
}
330
C
100
AcDbDictionary
281
     1
  0
ACDBDICTIONARYWDFLT
  5
E
102
{ACAD_REACTORS
330
C
102
}
330
C
100
AcDbDictionary
281
     1
  3
Normal
350
F
100
AcDbDictionaryWithDefault
340
F
  0
DICTIONARY
  5
47
102
{ACAD_REACTORS
330
C
102
}
330
C
100
AcDbDictionary
281
     1
  3
A0
350
48
  3
A1
350
49
  3
A2
350
4A
  3
A3
350
4B
  3
A4
350
4C
  3
A5
350
4D
  3
A6
350
4E
  3
A7
350
4F
  3
A8
350
50
  3
A9
350
51
  3
B0
350
52
  3
B1
350
53
  3
B2
350
54
  3
B3
350
55
  3
B4
350
56
  3
B5
350
57
  3
B6
350
58
  3
B7
350
59
  3
B8
350
5A
  3
B9
350
5B
  3
C0
350
5C
  3
C1
350
5D
  3
C2
350
5E
  3
C3
350
5F
  3
C4
350
60
  3
C5
350
61
  3
C6
350
62
  3
C7
350
63
  3
C8
350
64
  3
C9
350
65
  3
D0
350
66
  3
D1
350
67
  3
D2
350
68
  0
XRECORD
  5
31F
102
{ACAD_REACTORS
330
C
102
}
330
C
100
AcDbXrecord
280
     1
  1
DWGPROPS COOKIE
  2

  3

  4

  6

  7

  8
radek.stransky
  9

300
=
301
=
302
=
303
=
304
=
305
=
306
=
307
=
308
=
309
=
 40
0.0
 41
2459115.464324063
 42
2459115.464324248
  1

 90
        0
  0
LAYOUT
  5
1E
102
{ACAD_REACTORS
330
1A
102
}
330
1A
100
AcDbPlotSettings
  1

  2
none_device
  4

  6

 40
0.0
 41
0.0
 42
0.0
 43
0.0
 44
0.0
 45
0.0
 46
0.0
 47
0.0
 48
0.0
 49
0.0
140
0.0
141
0.0
142
1.0
143
1.0
 70
   688
 72
     1
 73
     0
 74
     5
  7

 75
    16
147
1.0
148
0.0
149
0.0
100
AcDbLayout
  1
Layout1
 70
     1
 71
     1
 10
0.0
 20
0.0
 11
420.0
 21
297.0
 12
0.0
 22
0.0
 32
0.0
 14
1.0000000000E+20
 24
1.0000000000E+20
 34
1.0000000000E+20
 15
-1.0000000000E+20
 25
-1.0000000000E+20
 35
-1.0000000000E+20
146
0.0
 13
0.0
 23
0.0
 33
0.0
 16
1.0
 26
0.0
 36
0.0
 17
0.0
 27
1.0
 37
0.0
 76
     0
330
1B
  0
LAYOUT
  5
26
102
{ACAD_REACTORS
330
1A
102
}
330
1A
100
AcDbPlotSettings
  1

  2
none_device
  4

  6

 40
0.0
 41
0.0
 42
0.0
 43
0.0
 44
0.0
 45
0.0
 46
0.0
 47
0.0
 48
0.0
 49
0.0
140
0.0
141
0.0
142
1.0
143
1.0
 70
   688
 72
     1
 73
     0
 74
     5
  7

 75
    16
147
1.0
148
0.0
149
0.0
100
AcDbLayout
  1
Layout2
 70
     1
 71
     2
 10
0.0
 20
0.0
 11
0.0
 21
0.0
 12
0.0
 22
0.0
 32
0.0
 14
0.0
 24
0.0
 34
0.0
 15
0.0
 25
0.0
 35
0.0
146
0.0
 13
0.0
 23
0.0
 33
0.0
 16
1.0
 26
0.0
 36
0.0
 17
0.0
 27
1.0
 37
0.0
 76
     0
330
23
  0
LAYOUT
  5
22
102
{ACAD_REACTORS
330
1A
102
}
330
1A
100
AcDbPlotSettings
  1

  2
none_device
  4
Letter_(8.50_x_11.00_Inches)
  6

 40
6.35
 41
6.35
 42
6.35000508
 43
6.35000508
 44
215.9
 45
279.4
 46
0.0
 47
0.0
 48
0.0
 49
0.0
140
0.0
141
0.0
142
1.0
143
1.0
 70
  1712
 72
     1
 73
     0
 74
     0
  7

 75
     0
147
1.0
148
0.0
149
0.0
100
AcDbLayout
  1
Model
 70
     1
 71
     0
 10
0.0
 20
0.0
 11
20000.0
 21
10000.0
 12
0.0
 22
0.0
 32
0.0
 14
0.0
 24
0.0
 34
0.0
 15
20000.0
 25
10000.0
 35
0.0
146
0.0
 13
0.0
 23
0.0
 33
0.0
 16
1.0
 26
0.0
 36
0.0
 17
0.0
 27
1.0
 37
0.0
 76
     0
330
1F
331
29
  0
MLINESTYLE
  5
18
102
{ACAD_REACTORS
330
17
102
}
330
17
100
AcDbMlineStyle
  2
Standard
 70
     0
  3

 62
   256
 51
90.0
 52
90.0
 71
     2
 49
0.5
 62
   256
  6
BYLAYER
 49
-0.5
 62
   256
  6
BYLAYER
  0
ACDBPLACEHOLDER
  5
F
102
{ACAD_REACTORS
330
E
102
}
330
E
  0
SCALE
  5
48
102
{ACAD_REACTORS
330
47
102
}
330
47
100
AcDbScale
 70
     0
300
1:1
140
1.0
141
1.0
290
     1
  0
SCALE
  5
49
102
{ACAD_REACTORS
330
47
102
}
330
47
100
AcDbScale
 70
     0
300
1:2
140
1.0
141
2.0
290
     0
  0
SCALE
  5
4A
102
{ACAD_REACTORS
330
47
102
}
330
47
100
AcDbScale
 70
     0
300
1:4
140
1.0
141
4.0
290
     0
  0
SCALE
  5
4B
102
{ACAD_REACTORS
330
47
102
}
330
47
100
AcDbScale
 70
     0
300
1:5
140
1.0
141
5.0
290
     0
  0
SCALE
  5
4C
102
{ACAD_REACTORS
330
47
102
}
330
47
100
AcDbScale
 70
     0
300
1:8
140
1.0
141
8.0
290
     0
  0
SCALE
  5
4D
102
{ACAD_REACTORS
330
47
102
}
330
47
100
AcDbScale
 70
     0
300
1:10
140
1.0
141
10.0
290
     0
  0
SCALE
  5
4E
102
{ACAD_REACTORS
330
47
102
}
330
47
100
AcDbScale
 70
     0
300
1:16
140
1.0
141
16.0
290
     0
  0
SCALE
  5
4F
102
{ACAD_REACTORS
330
47
102
}
330
47
100
AcDbScale
 70
     0
300
1:20
140
1.0
141
20.0
290
     0
  0
SCALE
  5
50
102
{ACAD_REACTORS
330
47
102
}
330
47
100
AcDbScale
 70
     0
300
1:30
140
1.0
141
30.0
290
     0
  0
SCALE
  5
51
102
{ACAD_REACTORS
330
47
102
}
330
47
100
AcDbScale
 70
     0
300
1:40
140
1.0
141
40.0
290
     0
  0
SCALE
  5
52
102
{ACAD_REACTORS
330
47
102
}
330
47
100
AcDbScale
 70
     0
300
1:50
140
1.0
141
50.0
290
     0
  0
SCALE
  5
53
102
{ACAD_REACTORS
330
47
102
}
330
47
100
AcDbScale
 70
     0
300
1:100
140
1.0
141
100.0
290
     0
  0
SCALE
  5
54
102
{ACAD_REACTORS
330
47
102
}
330
47
100
AcDbScale
 70
     0
300
2:1
140
2.0
141
1.0
290
     0
  0
SCALE
  5
55
102
{ACAD_REACTORS
330
47
102
}
330
47
100
AcDbScale
 70
     0
300
4:1
140
4.0
141
1.0
290
     0
  0
SCALE
  5
56
102
{ACAD_REACTORS
330
47
102
}
330
47
100
AcDbScale
 70
     0
300
8:1
140
8.0
141
1.0
290
     0
  0
SCALE
  5
57
102
{ACAD_REACTORS
330
47
102
}
330
47
100
AcDbScale
 70
     0
300
10:1
140
10.0
141
1.0
290
     0
  0
SCALE
  5
58
102
{ACAD_REACTORS
330
47
102
}
330
47
100
AcDbScale
 70
     0
300
100:1
140
100.0
141
1.0
290
     0
  0
SCALE
  5
59
102
{ACAD_REACTORS
330
47
102
}
330
47
100
AcDbScale
 70
     0
300
1/128" = 1'-0"
140
0.0078125
141
12.0
290
     0
  0
SCALE
  5
5A
102
{ACAD_REACTORS
330
47
102
}
330
47
100
AcDbScale
 70
     0
300
1/64" = 1'-0"
140
0.015625
141
12.0
290
     0
  0
SCALE
  5
5B
102
{ACAD_REACTORS
330
47
102
}
330
47
100
AcDbScale
 70
     0
300
1/32" = 1'-0"
140
0.03125
141
12.0
290
     0
  0
SCALE
  5
5C
102
{ACAD_REACTORS
330
47
102
}
330
47
100
AcDbScale
 70
     0
300
1/16" = 1'-0"
140
0.0625
141
12.0
290
     0
  0
SCALE
  5
5D
102
{ACAD_REACTORS
330
47
102
}
330
47
100
AcDbScale
 70
     0
300
3/32" = 1'-0"
140
0.09375
141
12.0
290
     0
  0
SCALE
  5
5E
102
{ACAD_REACTORS
330
47
102
}
330
47
100
AcDbScale
 70
     0
300
1/8" = 1'-0"
140
0.125
141
12.0
290
     0
  0
SCALE
  5
5F
102
{ACAD_REACTORS
330
47
102
}
330
47
100
AcDbScale
 70
     0
300
3/16" = 1'-0"
140
0.1875
141
12.0
290
     0
  0
SCALE
  5
60
102
{ACAD_REACTORS
330
47
102
}
330
47
100
AcDbScale
 70
     0
300
1/4" = 1'-0"
140
0.25
141
12.0
290
     0
  0
SCALE
  5
61
102
{ACAD_REACTORS
330
47
102
}
330
47
100
AcDbScale
 70
     0
300
3/8" = 1'-0"
140
0.375
141
12.0
290
     0
  0
SCALE
  5
62
102
{ACAD_REACTORS
330
47
102
}
330
47
100
AcDbScale
 70
     0
300
1/2" = 1'-0"
140
0.5
141
12.0
290
     0
  0
SCALE
  5
63
102
{ACAD_REACTORS
330
47
102
}
330
47
100
AcDbScale
 70
     0
300
3/4" = 1'-0"
140
0.75
141
12.0
290
     0
  0
SCALE
  5
64
102
{ACAD_REACTORS
330
47
102
}
330
47
100
AcDbScale
 70
     0
300
1" = 1'-0"
140
1.0
141
12.0
290
     0
  0
SCALE
  5
65
102
{ACAD_REACTORS
330
47
102
}
330
47
100
AcDbScale
 70
     0
300
1-1/2" = 1'-0"
140
1.5
141
12.0
290
     0
  0
SCALE
  5
66
102
{ACAD_REACTORS
330
47
102
}
330
47
100
AcDbScale
 70
     0
300
3" = 1'-0"
140
3.0
141
12.0
290
     0
  0
SCALE
  5
67
102
{ACAD_REACTORS
330
47
102
}
330
47
100
AcDbScale
 70
     0
300
6" = 1'-0"
140
6.0
141
12.0
290
     0
  0
SCALE
  5
68
102
{ACAD_REACTORS
330
47
102
}
330
47
100
AcDbScale
 70
     0
300
1'-0" = 1'-0"
140
12.0
141
12.0
290
     0
  0
ENDSEC
  0
EOF
