  0
SECTION
  2
HEADER
  9
$ACADVER
  1
AC1015
  9
$ACADMAINTVER
 70
     6
  9
$DWGCODEPAGE
  3
ANSI_1250
  9
$INSBASE
 10
0.0
 20
0.0
 30
0.0
  9
$EXTMIN
 10
5074.0187553361
 20
4127.0748517784
 30
0.0
  9
$EXTMAX
 10
8364.9508716943
 20
5412.7431966076
 30
0.0
  9
$LIMMIN
 10
0.0
 20
0.0
  9
$LIMMAX
 10
420.0
 20
297.0
  9
$ORTHOMODE
 70
     0
  9
$REGENMODE
 70
     1
  9
$FILLMODE
 70
     1
  9
$QTEXTMODE
 70
     0
  9
$MIRRTEXT
 70
     1
  9
$LTSCALE
 40
1.0
  9
$ATTMODE
 70
     1
  9
$TEXTSIZE
 40
3.5
  9
$TRACEWID
 40
1.0
  9
$TEXTSTYLE
  7
Standard
  9
$CLAYER
  8
0
  9
$CELTYPE
  6
ByLayer
  9
$CECOLOR
 62
   256
  9
$CELTSCALE
 40
1.0
  9
$DISPSILH
 70
     0
  9
$DIMSCALE
 40
1.0
  9
$DIMASZ
 40
3.302
  9
$DIMEXO
 40
0.0
  9
$DIMDLI
 40
3.75
  9
$DIMRND
 40
0.0
  9
$DIMDLE
 40
0.0
  9
$DIMEXE
 40
1.0
  9
$DIMTP
 40
0.0
  9
$DIMTM
 40
0.0
  9
$DIMTXT
 40
3.5
  9
$DIMCEN
 40
2.5
  9
$DIMTSZ
 40
0.0
  9
$DIMTOL
 70
     0
  9
$DIMLIM
 70
     0
  9
$DIMTIH
 70
     1
  9
$DIMTOH
 70
     1
  9
$DIMSE1
 70
     0
  9
$DIMSE2
 70
     0
  9
$DIMTAD
 70
     1
  9
$DIMZIN
 70
     0
  9
$DIMBLK
  1

  9
$DIMASO
 70
     1
  9
$DIMSHO
 70
     1
  9
$DIMPOST
  1

  9
$DIMAPOST
  1

  9
$DIMALT
 70
     0
  9
$DIMALTD
 70
     3
  9
$DIMALTF
 40
0.0393700787
  9
$DIMLFAC
 40
1.0
  9
$DIMTOFL
 70
     1
  9
$DIMTVP
 40
0.0
  9
$DIMTIX
 70
     0
  9
$DIMSOXD
 70
     0
  9
$DIMSAH
 70
     0
  9
$DIMBLK1
  1

  9
$DIMBLK2
  1

  9
$DIMSTYLE
  2
ISO-25
  9
$DIMCLRD
 70
     0
  9
$DIMCLRE
 70
     0
  9
$DIMCLRT
 70
     0
  9
$DIMTFAC
 40
1.0
  9
$DIMGAP
 40
1.524
  9
$DIMJUST
 70
     0
  9
$DIMSD1
 70
     0
  9
$DIMSD2
 70
     0
  9
$DIMTOLJ
 70
     0
  9
$DIMTZIN
 70
     0
  9
$DIMALTZ
 70
     0
  9
$DIMALTTZ
 70
     0
  9
$DIMUPT
 70
     0
  9
$DIMDEC
 70
     2
  9
$DIMTDEC
 70
     2
  9
$DIMALTU
 70
     2
  9
$DIMALTTD
 70
     3
  9
$DIMTXSTY
  7
Standard
  9
$DIMAUNIT
 70
     0
  9
$DIMADEC
 70
     2
  9
$DIMALTRND
 40
0.0
  9
$DIMAZIN
 70
     0
  9
$DIMDSEP
 70
    44
  9
$DIMATFIT
 70
     3
  9
$DIMFRAC
 70
     0
  9
$DIMLDRBLK
  1

  9
$DIMLUNIT
 70
     2
  9
$DIMLWD
 70
    -2
  9
$DIMLWE
 70
    -2
  9
$DIMTMOVE
 70
     0
  9
$LUNITS
 70
     2
  9
$LUPREC
 70
     2
  9
$SKETCHINC
 40
1.0
  9
$FILLETRAD
 40
10.0
  9
$AUNITS
 70
     0
  9
$AUPREC
 70
     2
  9
$MENU
  1
.
  9
$ELEVATION
 40
0.0
  9
$PELEVATION
 40
0.0
  9
$THICKNESS
 40
0.0
  9
$LIMCHECK
 70
     0
  9
$CHAMFERA
 40
0.0
  9
$CHAMFERB
 40
0.0
  9
$CHAMFERC
 40
0.0
  9
$CHAMFERD
 40
0.0
  9
$SKPOLY
 70
     0
  9
$TDCREATE
 40
2459096.414170173
  9
$TDUCREATE
 40
2459096.33083684
  9
$TDUPDATE
 40
2459096.414200393
  9
$TDUUPDATE
 40
2459096.33086706
  9
$TDINDWG
 40
0.0000000116
  9
$TDUSRTIMER
 40
0.0000000116
  9
$USRTIMER
 70
     1
  9
$ANGBASE
 50
0.0
  9
$ANGDIR
 70
     0
  9
$PDMODE
 70
     0
  9
$PDSIZE
 40
-1.0
  9
$PLINEWID
 40
0.0
  9
$SPLFRAME
 70
     0
  9
$SPLINETYPE
 70
     6
  9
$SPLINESEGS
 70
     8
  9
$HANDSEED
  5
569
  9
$SURFTAB1
 70
     6
  9
$SURFTAB2
 70
     6
  9
$SURFTYPE
 70
     6
  9
$SURFU
 70
     6
  9
$SURFV
 70
     6
  9
$UCSBASE
  2

  9
$UCSNAME
  2

  9
$UCSORG
 10
0.0
 20
0.0
 30
0.0
  9
$UCSXDIR
 10
1.0
 20
0.0
 30
0.0
  9
$UCSYDIR
 10
0.0
 20
1.0
 30
0.0
  9
$UCSORTHOREF
  2

  9
$UCSORTHOVIEW
 70
     0
  9
$UCSORGTOP
 10
0.0
 20
0.0
 30
0.0
  9
$UCSORGBOTTOM
 10
0.0
 20
0.0
 30
0.0
  9
$UCSORGLEFT
 10
0.0
 20
0.0
 30
0.0
  9
$UCSORGRIGHT
 10
0.0
 20
0.0
 30
0.0
  9
$UCSORGFRONT
 10
0.0
 20
0.0
 30
0.0
  9
$UCSORGBACK
 10
0.0
 20
0.0
 30
0.0
  9
$PUCSBASE
  2

  9
$PUCSNAME
  2

  9
$PUCSORG
 10
0.0
 20
0.0
 30
0.0
  9
$PUCSXDIR
 10
1.0
 20
0.0
 30
0.0
  9
$PUCSYDIR
 10
0.0
 20
1.0
 30
0.0
  9
$PUCSORTHOREF
  2

  9
$PUCSORTHOVIEW
 70
     0
  9
$PUCSORGTOP
 10
0.0
 20
0.0
 30
0.0
  9
$PUCSORGBOTTOM
 10
0.0
 20
0.0
 30
0.0
  9
$PUCSORGLEFT
 10
0.0
 20
0.0
 30
0.0
  9
$PUCSORGRIGHT
 10
0.0
 20
0.0
 30
0.0
  9
$PUCSORGFRONT
 10
0.0
 20
0.0
 30
0.0
  9
$PUCSORGBACK
 10
0.0
 20
0.0
 30
0.0
  9
$USERI1
 70
     0
  9
$USERI2
 70
     0
  9
$USERI3
 70
     0
  9
$USERI4
 70
     0
  9
$USERI5
 70
     0
  9
$USERR1
 40
0.0
  9
$USERR2
 40
0.0
  9
$USERR3
 40
0.0
  9
$USERR4
 40
0.0
  9
$USERR5
 40
0.0
  9
$WORLDVIEW
 70
     1
  9
$SHADEDGE
 70
     3
  9
$SHADEDIF
 70
    70
  9
$TILEMODE
 70
     1
  9
$MAXACTVP
 70
    64
  9
$PINSBASE
 10
0.0
 20
0.0
 30
0.0
  9
$PLIMCHECK
 70
     0
  9
$PEXTMIN
 10
1.0000000000E+20
 20
1.0000000000E+20
 30
1.0000000000E+20
  9
$PEXTMAX
 10
-1.0000000000E+20
 20
-1.0000000000E+20
 30
-1.0000000000E+20
  9
$PLIMMIN
 10
0.0
 20
0.0
  9
$PLIMMAX
 10
420.0
 20
297.0
  9
$UNITMODE
 70
     0
  9
$VISRETAIN
 70
     1
  9
$PLINEGEN
 70
     0
  9
$PSLTSCALE
 70
     1
  9
$TREEDEPTH
 70
  3020
  9
$CMLSTYLE
  2
Standard
  9
$CMLJUST
 70
     0
  9
$CMLSCALE
 40
20.0
  9
$PROXYGRAPHICS
 70
     1
  9
$MEASUREMENT
 70
     1
  9
$CELWEIGHT
370
    -1
  9
$ENDCAPS
280
     0
  9
$JOINSTYLE
280
     0
  9
$LWDISPLAY
290
     1
  9
$INSUNITS
 70
     4
  9
$HYPERLINKBASE
  1

  9
$STYLESHEET
  1

  9
$XEDIT
290
     1
  9
$CEPSNTYPE
380
     0
  9
$PSTYLEMODE
290
     1
  9
$FINGERPRINTGUID
  2
{d8517afb-2102-4af8-a218-3d27191b1ab7}
  9
$VERSIONGUID
  2
{FAEB1C32-E019-11D5-929B-00C0DF256EC4}
  9
$EXTNAMES
290
     1
  9
$PSVPSCALE
 40
0.0
  9
$OLESTARTUP
290
     0
  0
ENDSEC
  0
SECTION
  2
CLASSES
  0
CLASS
  1
ACDBDICTIONARYWDFLT
  2
AcDbDictionaryWithDefault
  3
ObjectDBX Classes
 90
        0
280
     0
281
     0
  0
CLASS
  1
VISUALSTYLE
  2
AcDbVisualStyle
  3
ObjectDBX Classes
 90
     4095
280
     0
281
     0
  0
CLASS
  1
MATERIAL
  2
AcDbMaterial
  3
ObjectDBX Classes
 90
     1153
280
     0
281
     0
  0
CLASS
  1
SCALE
  2
AcDbScale
  3
ObjectDBX Classes
 90
     1153
280
     0
281
     0
  0
CLASS
  1
TABLESTYLE
  2
AcDbTableStyle
  3
ObjectDBX Classes
 90
     4095
280
     0
281
     0
  0
CLASS
  1
MLEADERSTYLE
  2
AcDbMLeaderStyle
  3
ACDB_MLEADERSTYLE_CLASS
 90
     4095
280
     0
281
     0
  0
CLASS
  1
SUN
  2
AcDbSun
  3
SCENEOE
 90
     1153
280
     0
281
     0
  0
CLASS
  1
ACDBPLACEHOLDER
  2
AcDbPlaceHolder
  3
ObjectDBX Classes
 90
        0
280
     0
281
     0
  0
CLASS
  1
LAYOUT
  2
AcDbLayout
  3
ObjectDBX Classes
 90
        0
280
     0
281
     0
  0
ENDSEC
  0
SECTION
  2
TABLES
  0
TABLE
  2
VPORT
  5
8
330
0
100
AcDbSymbolTable
 70
     1
  0
VPORT
  5
29
330
8
100
AcDbSymbolTableRecord
100
AcDbViewportTableRecord
  2
*Active
 70
     0
 10
0.0
 20
0.0
 11
1.0
 21
1.0
 12
6719.4848135152
 22
4769.909024193
 13
0.0
 23
0.0
 14
10.0
 24
10.0
 15
10.0
 25
10.0
 16
0.0
 26
0.0
 36
1.0
 17
0.0
 27
0.0
 37
0.0
 40
1311.3817117258
 41
2.5597053312
 42
50.0
 43
0.0
 44
0.0
 50
0.0
 51
0.0
 71
     0
 72
   100
 73
     1
 74
     3
 75
     0
 76
     0
 77
     0
 78
     0
281
     0
 65
     1
110
0.0
120
0.0
130
0.0
111
1.0
121
0.0
131
0.0
112
0.0
122
1.0
132
0.0
 79
     0
146
0.0
  0
ENDTAB
  0
TABLE
  2
LTYPE
  5
5
330
0
100
AcDbSymbolTable
 70
     6
  0
LTYPE
  5
14
330
5
100
AcDbSymbolTableRecord
100
AcDbLinetypeTableRecord
  2
ByBlock
 70
     0
  3

 72
    65
 73
     0
 40
0.0
  0
LTYPE
  5
15
330
5
100
AcDbSymbolTableRecord
100
AcDbLinetypeTableRecord
  2
ByLayer
 70
     0
  3

 72
    65
 73
     0
 40
0.0
  0
LTYPE
  5
16
330
5
100
AcDbSymbolTableRecord
100
AcDbLinetypeTableRecord
  2
Continuous
 70
     0
  3
Solid line
 72
    65
 73
     0
 40
0.0
  0
LTYPE
  5
6E
330
5
100
AcDbSymbolTableRecord
100
AcDbLinetypeTableRecord
  2
HIDDEN
 70
     0
  3
Hidden __ __ __ __ __ __ __ __ __ __ __ __ __ __
 72
    65
 73
     2
 40
1.905
 49
1.27
 74
     0
 49
-0.635
 74
     0
  0
LTYPE
  5
6F
330
5
100
AcDbSymbolTableRecord
100
AcDbLinetypeTableRecord
  2
PHANTOM
 70
     0
  3
Phantom ______  __  __  ______  __  __  ______
 72
    65
 73
     6
 40
12.7
 49
6.35
 74
     0
 49
-1.27
 74
     0
 49
1.27
 74
     0
 49
-1.27
 74
     0
 49
1.27
 74
     0
 49
-1.27
 74
     0
  0
LTYPE
  5
70
330
5
100
AcDbSymbolTableRecord
100
AcDbLinetypeTableRecord
  2
CENTER
 70
     0
  3
Center ____ _ ____ _ ____ _ ____ _ ____ _ ____
 72
    65
 73
     4
 40
10.16
 49
6.35
 74
     0
 49
-1.27
 74
     0
 49
1.27
 74
     0
 49
-1.27
 74
     0
  0
LTYPE
  5
71
330
5
100
AcDbSymbolTableRecord
100
AcDbLinetypeTableRecord
  2
CENTERX2
 70
     0
  3
Center (2x) ________  __  ________  __  _____
 72
    65
 73
     4
 40
20.32
 49
12.7
 74
     0
 49
-2.54
 74
     0
 49
2.54
 74
     0
 49
-2.54
 74
     0
  0
LTYPE
  5
72
330
5
100
AcDbSymbolTableRecord
100
AcDbLinetypeTableRecord
  2
DOT2
 70
     0
  3
Dot (.5x) ........................................
 72
    65
 73
     2
 40
0.635
 49
0.0
 74
     0
 49
-0.635
 74
     0
  0
ENDTAB
  0
TABLE
  2
LAYER
  5
2
330
0
100
AcDbSymbolTable
 70
     1
  0
LAYER
  5
10
330
2
100
AcDbSymbolTableRecord
100
AcDbLayerTableRecord
  2
0
 70
     0
 62
     7
  6
Continuous
370
    -3
390
F
  0
ENDTAB
  0
TABLE
  2
STYLE
  5
3
330
0
100
AcDbSymbolTable
 70
     1
  0
STYLE
  5
11
330
3
100
AcDbSymbolTableRecord
100
AcDbTextStyleTableRecord
  2
Standard
 70
     0
 40
0.0
 41
1.0
 50
0.0
 71
     0
 42
3.5
  3
txt
  4

  0
ENDTAB
  0
TABLE
  2
VIEW
  5
6
330
0
100
AcDbSymbolTable
 70
     0
  0
ENDTAB
  0
TABLE
  2
UCS
  5
7
330
0
100
AcDbSymbolTable
 70
     0
  0
ENDTAB
  0
TABLE
  2
APPID
  5
9
330
0
100
AcDbSymbolTable
 70
     1
  0
APPID
  5
12
330
9
100
AcDbSymbolTableRecord
100
AcDbRegAppTableRecord
  2
ACAD
 70
     0
  0
ENDTAB
  0
TABLE
  2
DIMSTYLE
  5
A
330
0
100
AcDbSymbolTable
 70
     1
100
AcDbDimStyleTable
  0
DIMSTYLE
105
27
330
A
100
AcDbSymbolTableRecord
100
AcDbDimStyleTableRecord
  2
ISO-25
 70
     0
 41
2.5
 42
0.625
 43
3.75
 44
1.25
 73
     0
 74
     0
 77
     1
 78
     8
140
2.5
141
2.5
143
0.0393700787
147
0.625
171
     3
172
     1
178
     0
271
     2
272
     2
274
     3
278
    44
283
     0
284
     8
340
11
  0
ENDTAB
  0
TABLE
  2
BLOCK_RECORD
  5
1
330
0
100
AcDbSymbolTable
 70
     1
  0
BLOCK_RECORD
  5
1F
330
1
100
AcDbSymbolTableRecord
100
AcDbBlockTableRecord
  2
*Model_Space
340
22
  0
BLOCK_RECORD
  5
1B
330
1
100
AcDbSymbolTableRecord
100
AcDbBlockTableRecord
  2
*Paper_Space
340
1E
  0
BLOCK_RECORD
  5
23
330
1
100
AcDbSymbolTableRecord
100
AcDbBlockTableRecord
  2
*Paper_Space0
340
26
  0
ENDTAB
  0
ENDSEC
  0
SECTION
  2
BLOCKS
  0
BLOCK
  5
20
330
1F
100
AcDbEntity
  8
0
100
AcDbBlockBegin
  2
*Model_Space
 70
     0
 10
0.0
 20
0.0
 30
0.0
  3
*Model_Space
  1

  0
ENDBLK
  5
21
330
1F
100
AcDbEntity
  8
0
100
AcDbBlockEnd
  0
BLOCK
  5
1C
330
1B
100
AcDbEntity
 67
     1
  8
0
100
AcDbBlockBegin
  2
*Paper_Space
 70
     0
 10
0.0
 20
0.0
 30
0.0
  3
*Paper_Space
  1

  0
ENDBLK
  5
1D
330
1B
100
AcDbEntity
 67
     1
  8
0
100
AcDbBlockEnd
  0
BLOCK
  5
24
330
23
100
AcDbEntity
  8
0
100
AcDbBlockBegin
  2
*Paper_Space0
 70
     0
 10
0.0
 20
0.0
 30
0.0
  3
*Paper_Space0
  1

  0
ENDBLK
  5
25
330
23
100
AcDbEntity
  8
0
100
AcDbBlockEnd
  0
ENDSEC
  0
SECTION
  2
ENTITIES
  0
ARC
  5
73
330
1F
100
AcDbEntity
  8
0
  6
Continuous
 62
     7
100
AcDbCircle
 10
7147.9719183146
 20
5428.3926043574
 30
0.0
 40
201.2000000000001
100
AcDbArc
 50
288.2898993817
 51
309.2240685987
  0
ARC
  5
74
330
1F
100
AcDbEntity
  8
0
  6
Continuous
 62
     7
100
AcDbCircle
 10
7200.0655923576
 20
5428.3926043574
 30
0.0
 40
201.1999999999996
100
AcDbArc
 50
230.7759314013
 51
251.7101006183
  0
ARC
  5
75
330
1F
100
AcDbEntity
  8
0
  6
Continuous
 62
     7
100
AcDbCircle
 10
5347.9719183146
 20
5428.3926043574
 30
0.0
 40
201.1999999999989
100
AcDbArc
 50
288.2898993817
 51
309.2240685987
  0
ARC
  5
76
330
1F
100
AcDbEntity
  8
0
  6
Continuous
 62
     7
100
AcDbCircle
 10
5400.0655923576
 20
5428.3926043574
 30
0.0
 40
201.1999999999989
100
AcDbArc
 50
230.7759314013
 51
251.7101006183
  0
ARC
  5
77
330
1F
100
AcDbEntity
  8
0
  6
Continuous
 62
     7
100
AcDbCircle
 10
6547.9719183146
 20
5428.3926043574
 30
0.0
 40
201.1999999999989
100
AcDbArc
 50
288.2898993817
 51
309.2240685987
  0
ARC
  5
78
330
1F
100
AcDbEntity
  8
0
  6
Continuous
 62
     7
100
AcDbCircle
 10
6600.0655923576
 20
5428.3926043574
 30
0.0
 40
201.1999999999995
100
AcDbArc
 50
230.7759314013
 51
251.7101006183
  0
ARC
  5
79
330
1F
100
AcDbEntity
  8
0
  6
Continuous
 62
     7
100
AcDbCircle
 10
5947.9719183146
 20
5428.3926043574
 30
0.0
 40
201.1999999999989
100
AcDbArc
 50
288.2898993817
 51
309.2240685987
  0
ARC
  5
7A
330
1F
100
AcDbEntity
  8
0
  6
Continuous
 62
     7
100
AcDbCircle
 10
6000.0655923576
 20
5428.3926043574
 30
0.0
 40
201.199999999999
100
AcDbArc
 50
230.7759314013
 51
251.7101006183
  0
ARC
  5
7B
330
1F
100
AcDbEntity
  8
0
  6
Continuous
 62
     7
100
AcDbCircle
 10
5334.1623368771
 20
5229.0016293433
 30
0.0
 40
8.800000000000223
100
AcDbArc
 50
60.9454504842
 51
71.7101750396
  0
ARC
  5
7C
330
1F
100
AcDbEntity
  8
0
  6
Continuous
 62
     7
100
AcDbCircle
 10
5413.8751636428
 20
5229.0016259878
 30
0.0
 40
8.799999999999205
100
AcDbArc
 50
108.289755343
 51
119.0545045288
  0
ARC
  5
7D
330
1F
100
AcDbEntity
  8
0
  6
Continuous
 62
     7
100
AcDbCircle
 10
5934.162322162
 20
5229.001634207
 30
0.0
 40
8.800000000000155
100
AcDbArc
 50
60.9453852781
 51
71.7100741333
  0
ARC
  5
7E
330
1F
100
AcDbEntity
  8
0
  6
Continuous
 62
     7
100
AcDbCircle
 10
6013.8751857153
 20
5229.0016332832
 30
0.0
 40
8.800000000000251
100
AcDbArc
 50
108.2899067011
 51
119.054602337
  0
ARC
  5
7F
330
1F
100
AcDbEntity
  8
0
  6
Continuous
 62
     7
100
AcDbCircle
 10
7134.1622191549
 20
5229.0016682539
 30
0.0
 40
8.80000000000078
100
AcDbArc
 50
60.944928823
 51
71.7093677799
  0
ARC
  5
80
330
1F
100
AcDbEntity
  8
0
  6
Continuous
 62
     7
100
AcDbCircle
 10
7213.8751194982
 20
5229.0016113972
 30
0.0
 40
8.80000000000017
100
AcDbArc
 50
108.2894526304
 51
119.0543089161
  0
ARC
  5
81
330
1F
100
AcDbEntity
  8
0
  6
Continuous
 62
     7
100
AcDbCircle
 10
6534.162307447
 20
5229.0016390706
 30
0.0
 40
8.800000000000214
100
AcDbArc
 50
60.9453200726
 51
71.7099732283
  0
ARC
  5
82
330
1F
100
AcDbEntity
  8
0
  6
Continuous
 62
     7
100
AcDbCircle
 10
6613.875207788
 20
5229.0016405788
 30
0.0
 40
8.799999999999542
100
AcDbArc
 50
108.2900580605
 51
119.0547001465
  0
ARC
  5
83
330
1F
100
AcDbEntity
  8
0
  6
Continuous
 62
     7
100
AcDbCircle
 10
5949.0187501805
 20
5185.3557026396
 30
0.0
 40
3.000000000000015
100
AcDbArc
 50
179.9999550342
 51
270.0001161137
  0
ARC
  5
84
330
1F
100
AcDbEntity
  8
0
  6
Continuous
 62
     7
100
AcDbCircle
 10
5999.0187593596
 20
5185.3557026396
 30
0.0
 40
2.999999999999794
100
AcDbArc
 50
269.9998838882
 51
0.0000449658
  0
ARC
  5
85
330
1F
100
AcDbEntity
  8
0
  6
Continuous
 62
     7
100
AcDbCircle
 10
7149.0187233584
 20
5185.3557026395
 30
0.0
 40
3.000000000000015
100
AcDbArc
 50
179.9999550329
 51
270.0004007057
  0
ARC
  5
86
330
1F
100
AcDbEntity
  8
0
  6
Continuous
 62
     7
100
AcDbCircle
 10
7199.0187176364
 20
5185.3557026395
 30
0.0
 40
3.000000000000015
100
AcDbArc
 50
269.9995992962
 51
0.0000449671
  0
ARC
  5
87
330
1F
100
AcDbEntity
  8
0
  6
Continuous
 62
     7
100
AcDbCircle
 10
5349.0187412398
 20
5185.3557026395
 30
0.0
 40
3.000000000000015
100
AcDbArc
 50
179.9999550329
 51
270.0004007057
  0
ARC
  5
88
330
1F
100
AcDbEntity
  8
0
  6
Continuous
 62
     7
100
AcDbCircle
 10
5399.0187653201
 20
5185.3557026395
 30
0.0
 40
3.000000000000924
100
AcDbArc
 50
269.9995992962
 51
0.0000449671
  0
ARC
  5
89
330
1F
100
AcDbEntity
  8
0
  6
Continuous
 62
     7
100
AcDbCircle
 10
6549.0187591212
 20
5185.3557026395
 30
0.0
 40
3.000000000000015
100
AcDbArc
 50
179.9999550329
 51
270.0004007057
  0
ARC
  5
8A
330
1F
100
AcDbEntity
  8
0
  6
Continuous
 62
     7
100
AcDbCircle
 10
6599.0187533992
 20
5185.3557026395
 30
0.0
 40
2.999999999999698
100
AcDbArc
 50
269.9995992943
 51
0.0000449671
  0
ARC
  5
8B
330
1F
100
AcDbEntity
  8
0
  6
Continuous
 62
     7
100
AcDbCircle
 10
6549.6891278865
 20
5141.6557033521
 30
0.0
 40
3.000000000000064
100
AcDbArc
 50
90.0006483841
 51
173.3455640184
  0
ARC
  5
8C
330
1F
100
AcDbEntity
  8
0
  6
Continuous
 62
     7
100
AcDbCircle
 10
6598.3483846339
 20
5141.6557033521
 30
0.0
 40
2.999999999998949
100
AcDbArc
 50
6.6544359815
 51
89.9993516159
  0
ARC
  5
8D
330
1F
100
AcDbEntity
  8
0
  6
Continuous
 62
     7
100
AcDbCircle
 10
6549.8969171344
 20
5017.6557025322
 30
0.0
 40
3.000000000000631
100
AcDbArc
 50
185.8481372336
 51
270.0003475766
  0
ARC
  5
8E
330
1F
100
AcDbEntity
  8
0
  6
Continuous
 62
     7
100
AcDbCircle
 10
6598.140595386
 20
5017.6557025322
 30
0.0
 40
3.000000000001597
100
AcDbArc
 50
269.9996524234
 51
354.1518627664
  0
ARC
  5
8F
330
1F
100
AcDbEntity
  8
0
  6
Continuous
 62
     7
100
AcDbCircle
 10
6554.0187543528
 20
5158.1557032626
 30
0.0
 40
3.00000000000004
100
AcDbArc
 50
89.9995992943
 51
180.0000093922
  0
ARC
  5
90
330
1F
100
AcDbEntity
  8
0
  6
Continuous
 62
     7
100
AcDbCircle
 10
6594.0187581675
 20
5158.1557032626
 30
0.0
 40
3.00000000000004
100
AcDbArc
 50
359.9999906078
 51
90.0004007038
  0
ARC
  5
91
330
1F
100
AcDbEntity
  8
0
  6
Continuous
 62
     7
100
AcDbCircle
 10
7149.6890921237
 20
5141.6557033521
 30
0.0
 40
3.000000000001072
100
AcDbArc
 50
90.0006483841
 51
173.3455640184
  0
ARC
  5
92
330
1F
100
AcDbEntity
  8
0
  6
Continuous
 62
     7
100
AcDbCircle
 10
7198.3483488711
 20
5141.6557033521
 30
0.0
 40
3.000000000001072
100
AcDbArc
 50
6.6544359816
 51
89.9993516159
  0
ARC
  5
93
330
1F
100
AcDbEntity
  8
0
  6
Continuous
 62
     7
100
AcDbCircle
 10
7149.8969409763
 20
5017.6557025322
 30
0.0
 40
3.000000000000631
100
AcDbArc
 50
185.8481372336
 51
270.0003475766
  0
ARC
  5
94
330
1F
100
AcDbEntity
  8
0
  6
Continuous
 62
     7
100
AcDbCircle
 10
7198.1406192278
 20
5017.6557025322
 30
0.0
 40
3.000000000000631
100
AcDbArc
 50
269.9996524234
 51
354.1518627664
  0
ARC
  5
95
330
1F
100
AcDbEntity
  8
0
  6
Continuous
 62
     7
100
AcDbCircle
 10
7154.0187185901
 20
5158.1557032626
 30
0.0
 40
3.00000000000095
100
AcDbArc
 50
89.9995992963
 51
180.0000093922
  0
ARC
  5
96
330
1F
100
AcDbEntity
  8
0
  6
Continuous
 62
     7
100
AcDbCircle
 10
7194.0187224048
 20
5158.1557032626
 30
0.0
 40
3.00000000000004
100
AcDbArc
 50
359.9999906078
 51
90.0004007057
  0
ARC
  5
97
330
1F
100
AcDbEntity
  8
0
  6
Continuous
 62
     7
100
AcDbCircle
 10
5349.6891100051
 20
5141.6557033519
 30
0.0
 40
3.000000000001313
100
AcDbArc
 50
90.0000792017
 51
173.3455640148
  0
ARC
  5
98
330
1F
100
AcDbEntity
  8
0
  6
Continuous
 62
     7
100
AcDbCircle
 10
5398.3483965548
 20
5141.6557033519
 30
0.0
 40
3.000000000000304
100
AcDbArc
 50
6.6544359852
 51
89.9999207983
  0
ARC
  5
99
330
1F
100
AcDbEntity
  8
0
  6
Continuous
 62
     7
100
AcDbCircle
 10
5349.8969290554
 20
5017.6557025323
 30
0.0
 40
3.000000000000612
100
AcDbArc
 50
185.8481372342
 51
269.9997783928
  0
ARC
  5
9A
330
1F
100
AcDbEntity
  8
0
  6
Continuous
 62
     7
100
AcDbCircle
 10
5398.1405775046
 20
5017.6557025323
 30
0.0
 40
3.000000000000612
100
AcDbArc
 50
270.0002216053
 51
354.1518627658
  0
ARC
  5
9B
330
1F
100
AcDbEntity
  8
0
  6
Continuous
 62
     7
100
AcDbCircle
 10
5354.0187662738
 20
5158.1557032625
 30
0.0
 40
3.00000000000004
100
AcDbArc
 50
90.0001684782
 51
180.000009391
  0
ARC
  5
9C
330
1F
100
AcDbEntity
  8
0
  6
Continuous
 62
     7
100
AcDbCircle
 10
5394.0187700885
 20
5158.1557032626
 30
0.0
 40
3.00000000000004
100
AcDbArc
 50
359.9999906078
 51
90.0004007056
  0
ARC
  5
9D
330
1F
100
AcDbEntity
  8
0
  6
Continuous
 62
     7
100
AcDbCircle
 10
5949.6891040446
 20
5141.6557033519
 30
0.0
 40
2.999999999999296
100
AcDbArc
 50
90.0000791997
 51
173.3455640148
  0
ARC
  5
9E
330
1F
100
AcDbEntity
  8
0
  6
Continuous
 62
     7
100
AcDbCircle
 10
5998.3484054955
 20
5141.6557033519
 30
0.0
 40
2.999999999999296
100
AcDbArc
 50
6.6544359852
 51
89.9999207984
  0
ARC
  5
9F
330
1F
100
AcDbEntity
  8
0
  6
Continuous
 62
     7
100
AcDbCircle
 10
5949.8969230949
 20
5017.6557025323
 30
0.0
 40
3.000000000000903
100
AcDbArc
 50
185.8481372346
 51
270.0000629848
  0
ARC
  5
A0
330
1F
100
AcDbEntity
  8
0
  6
Continuous
 62
     7
100
AcDbCircle
 10
5998.1405864453
 20
5017.6557025323
 30
0.0
 40
3.000000000000639
100
AcDbArc
 50
269.9999370133
 51
354.1518627654
  0
ARC
  5
A1
330
1F
100
AcDbEntity
  8
0
  6
Continuous
 62
     7
100
AcDbCircle
 10
5954.0187603133
 20
5158.1557032625
 30
0.0
 40
3.00000000000004
100
AcDbArc
 50
90.0001684782
 51
180.000009391
  0
ARC
  5
A2
330
1F
100
AcDbEntity
  8
0
  6
Continuous
 62
     7
100
AcDbCircle
 10
5994.0187492268
 20
5158.1557032625
 30
0.0
 40
3.00000000000004
100
AcDbArc
 50
359.999990609
 51
89.9998315218
  0
CIRCLE
  5
A3
330
1F
100
AcDbEntity
  8
0
  6
Continuous
 62
     7
100
AcDbCircle
 10
5092.0187553361
 20
5224.7432056916
 30
0.0
 40
4.000000000000909
  0
CIRCLE
  5
A4
330
1F
100
AcDbEntity
  8
0
  6
Continuous
 62
     7
100
AcDbCircle
 10
7456.0187553361
 20
5224.7432056916
 30
0.0
 40
4.0
  0
ARC
  5
A5
330
1F
100
AcDbEntity
  8
0
  6
Continuous
 62
     7
100
AcDbCircle
 10
5974.0187553366
 20
5122.6557034939
 30
0.0
 40
40.00000000000081
100
AcDbArc
 50
0.0
 51
54.9003678056
  0
ARC
  5
A6
330
1F
100
AcDbEntity
  8
0
  6
Continuous
 62
     7
100
AcDbCircle
 10
5974.0187553366
 20
5122.6557034939
 30
0.0
 40
40.00000000000144
100
AcDbArc
 50
125.0996321963
 51
216.1070114046
  0
ARC
  5
A7
330
1F
100
AcDbEntity
  8
0
  6
Continuous
 62
     7
100
AcDbCircle
 10
5974.0187553366
 20
5122.6557034939
 30
0.0
 40
40.0
100
AcDbArc
 50
323.8929885931
 51
0.0
  0
ARC
  5
A8
330
1F
100
AcDbEntity
  8
0
  6
Continuous
 62
     7
100
AcDbCircle
 10
5374.0187553366
 20
5122.6557034939
 30
0.0
 40
40.00000000000081
100
AcDbArc
 50
0.0
 51
54.9003678056
  0
ARC
  5
A9
330
1F
100
AcDbEntity
  8
0
  6
Continuous
 62
     7
100
AcDbCircle
 10
5374.0187553366
 20
5122.6557034939
 30
0.0
 40
40.00000000000144
100
AcDbArc
 50
125.0996321963
 51
216.1070114046
  0
ARC
  5
AA
330
1F
100
AcDbEntity
  8
0
  6
Continuous
 62
     7
100
AcDbCircle
 10
5374.0187553366
 20
5122.6557034939
 30
0.0
 40
40.0
100
AcDbArc
 50
323.8929885931
 51
0.0
  0
ARC
  5
AB
330
1F
100
AcDbEntity
  8
0
  6
Continuous
 62
     7
100
AcDbCircle
 10
6574.0187553366
 20
5122.6557034939
 30
0.0
 40
39.9999999999985
100
AcDbArc
 50
0.0
 51
54.9003678056
  0
ARC
  5
AC
330
1F
100
AcDbEntity
  8
0
  6
Continuous
 62
     7
100
AcDbCircle
 10
6574.0187553366
 20
5122.6557034939
 30
0.0
 40
40.00000000000249
100
AcDbArc
 50
125.0996321963
 51
216.1070114046
  0
ARC
  5
AD
330
1F
100
AcDbEntity
  8
0
  6
Continuous
 62
     7
100
AcDbCircle
 10
6574.0187553366
 20
5122.6557034939
 30
0.0
 40
39.99999999999818
100
AcDbArc
 50
323.8929885931
 51
0.0
  0
ARC
  5
AE
330
1F
100
AcDbEntity
  8
0
  6
Continuous
 62
     7
100
AcDbCircle
 10
7174.0187553366
 20
5122.6557034939
 30
0.0
 40
40.00000000000029
100
AcDbArc
 50
0.0
 51
54.9003678056
  0
ARC
  5
AF
330
1F
100
AcDbEntity
  8
0
  6
Continuous
 62
     7
100
AcDbCircle
 10
7174.0187553366
 20
5122.6557034939
 30
0.0
 40
40.00000000000271
100
AcDbArc
 50
125.0996321963
 51
216.1070114046
  0
ARC
  5
B0
330
1F
100
AcDbEntity
  8
0
  6
Continuous
 62
     7
100
AcDbCircle
 10
7174.0187553366
 20
5122.6557034939
 30
0.0
 40
39.99999999999909
100
AcDbArc
 50
323.8929885931
 51
0.0
  0
ARC
  5
B1
330
1F
100
AcDbEntity
  8
0
  6
Continuous
 62
     7
100
AcDbCircle
 10
8184.8073835366
 20
5229.0016899822
 30
0.0
 40
8.800000000001146
100
AcDbArc
 50
108.2910480579
 51
119.0553624769
  0
ARC
  5
B2
330
1F
100
AcDbEntity
  8
0
  6
Continuous
 62
     7
100
AcDbCircle
 10
8119.9508459451
 20
5185.3557026395
 30
0.0
 40
3.000000000000924
100
AcDbArc
 50
179.9999550329
 51
270.0004007038
  0
ARC
  5
B3
330
1F
100
AcDbEntity
  8
0
  6
Continuous
 62
     7
100
AcDbCircle
 10
8169.9508402231
 20
5185.3557026395
 30
0.0
 40
3.000000000000924
100
AcDbArc
 50
269.9995992943
 51
0.0000449671
  0
ARC
  5
B4
330
1F
100
AcDbEntity
  8
0
  6
Continuous
 62
     7
100
AcDbCircle
 10
7879.8562457445
 20
5142.655702577
 30
0.0
 40
20.00000000000096
100
AcDbArc
 50
0.0000039488
 51
89.9999453587
  0
ARC
  5
B5
330
1F
100
AcDbEntity
  8
0
  6
Continuous
 62
     7
100
AcDbCircle
 10
7879.8562457445
 20
5102.6557025025
 30
0.0
 40
20.00000000000091
100
AcDbArc
 50
270.0000546413
 51
0.0000040554
  0
ARC
  5
B6
330
1F
100
AcDbEntity
  8
0
  6
Continuous
 62
     7
100
AcDbCircle
 10
8169.2804714578
 20
5141.6557033521
 30
0.0
 40
2.999999999998046
100
AcDbArc
 50
6.6544359815
 51
89.999351616
  0
ARC
  5
B7
330
1F
100
AcDbEntity
  8
0
  6
Continuous
 62
     7
100
AcDbCircle
 10
8120.8289443537
 20
5017.6557025322
 30
0.0
 40
3.000000000000692
100
AcDbArc
 50
185.8481372336
 51
270.0003475766
  0
ARC
  5
B8
330
1F
100
AcDbEntity
  8
0
  6
Continuous
 62
     7
100
AcDbCircle
 10
8169.0726226052
 20
5017.6557025322
 30
0.0
 40
3.000000000000692
100
AcDbArc
 50
269.9996524234
 51
354.1518627664
  0
ARC
  5
B9
330
1F
100
AcDbEntity
  8
0
  6
Continuous
 62
     7
100
AcDbCircle
 10
8087.9507810953
 20
5145.6557040077
 30
0.0
 40
3.00000000000004
100
AcDbArc
 50
89.9995992962
 51
180.0000093941
  0
ARC
  5
BA
330
1F
100
AcDbEntity
  8
0
  6
Continuous
 62
     7
100
AcDbCircle
 10
8087.9507810953
 20
5099.6557047972
 30
0.0
 40
3.000000000000313
100
AcDbArc
 50
180.0000261809
 51
270.0004007038
  0
ARC
  5
BB
330
1F
100
AcDbEntity
  8
0
  6
Continuous
 62
     7
100
AcDbCircle
 10
8124.9508411767
 20
5158.1557032626
 30
0.0
 40
3.00000000000004
100
AcDbArc
 50
89.9995992943
 51
180.0000093922
  0
ARC
  5
BC
330
1F
100
AcDbEntity
  8
0
  6
Continuous
 62
     7
100
AcDbCircle
 10
8164.9508449914
 20
5158.1557032626
 30
0.0
 40
3.00000000000095
100
AcDbArc
 50
359.9999906078
 51
90.0004007038
  0
ARC
  5
BD
330
1F
100
AcDbEntity
  8
0
  6
Continuous
 62
     7
100
AcDbCircle
 10
8050.9508268886
 20
5242.3557008515
 30
0.0
 40
42.50000000000152
100
AcDbArc
 50
227.444102089
 51
270.0000462616
  0
ARC
  5
BE
330
1F
100
AcDbEntity
  8
0
  6
Continuous
 62
     7
100
AcDbCircle
 10
7868.1508324029
 20
5374.7432049521
 30
0.0
 40
1.999999999999318
100
AcDbArc
 50
179.9998838825
 51
269.9992623399
  0
ARC
  5
BF
330
1F
100
AcDbEntity
  8
0
  6
Continuous
 62
     7
100
AcDbCircle
 10
8122.5821345457
 20
5141.7969143864
 30
0.0
 40
2.860574337899742
100
AcDbArc
 50
92.0244078243
 51
175.8616872388
  0
ARC
  5
C0
330
1F
100
AcDbEntity
  8
0
  6
Continuous
 62
     7
100
AcDbCircle
 10
5974.018830841
 20
4506.1678346117
 30
0.0
 40
8.552641741589886
100
AcDbArc
 50
275.0303286591
 51
299.7665501849
  0
ARC
  5
C1
330
1F
100
AcDbEntity
  8
0
  6
Continuous
 62
     7
100
AcDbCircle
 10
5974.018678699
 20
4506.1678346117
 30
0.0
 40
8.552641741589486
100
AcDbArc
 50
240.2334498153
 51
264.9696713417
  0
ARC
  5
C2
330
1F
100
AcDbEntity
  8
0
  6
Continuous
 62
     7
100
AcDbCircle
 10
5374.018839512
 20
4506.1678361619
 30
0.0
 40
8.552641741589323
100
AcDbArc
 50
275.030210219
 51
299.7665292669
  0
ARC
  5
C3
330
1F
100
AcDbEntity
  8
0
  6
Continuous
 62
     7
100
AcDbCircle
 10
5374.0186670479
 20
4506.1678361619
 30
0.0
 40
8.552641741591135
100
AcDbArc
 50
240.2334707331
 51
264.969789781
  0
ARC
  5
C4
330
1F
100
AcDbEntity
  8
0
  6
Continuous
 62
     7
100
AcDbCircle
 10
6574.0186903503
 20
4506.1678330614
 30
0.0
 40
8.552641741589648
100
AcDbArc
 50
240.2334288968
 51
264.9695529011
  0
ARC
  5
C5
330
1F
100
AcDbEntity
  8
0
  6
Continuous
 62
     7
100
AcDbCircle
 10
6574.01882217
 20
4506.1678330614
 30
0.0
 40
8.55264174159005
100
AcDbArc
 50
275.0304470997
 51
299.7665711034
  0
ARC
  5
C6
330
1F
100
AcDbEntity
  8
0
  6
Continuous
 62
     7
100
AcDbCircle
 10
7174.0187141922
 20
4506.1678330614
 30
0.0
 40
8.552641741590875
100
AcDbArc
 50
240.2334288966
 51
264.9695529004
  0
ARC
  5
C7
330
1F
100
AcDbEntity
  8
0
  6
Continuous
 62
     7
100
AcDbCircle
 10
7174.0188460119
 20
4506.1678330614
 30
0.0
 40
8.55264174159005
100
AcDbArc
 50
275.0304470997
 51
299.7665711034
  0
CIRCLE
  5
C8
330
1F
100
AcDbEntity
  8
0
  6
Continuous
 62
     7
100
AcDbCircle
 10
5374.0187553361
 20
4347.0748994621
 30
0.0
 40
169.776170925541
  0
CIRCLE
  5
C9
330
1F
100
AcDbEntity
  8
0
  6
Continuous
 62
     7
100
AcDbCircle
 10
5974.0187553361
 20
4347.0748994621
 30
0.0
 40
169.776170925541
  0
CIRCLE
  5
CA
330
1F
100
AcDbEntity
  8
0
  6
Continuous
 62
     7
100
AcDbCircle
 10
6574.0187553361
 20
4347.0748994621
 30
0.0
 40
169.776170925541
  0
CIRCLE
  5
CB
330
1F
100
AcDbEntity
  8
0
  6
Continuous
 62
     7
100
AcDbCircle
 10
7174.0187553361
 20
4347.0748994621
 30
0.0
 40
169.776170925541
  0
CIRCLE
  5
CC
330
1F
100
AcDbEntity
  8
0
  6
Continuous
 62
     7
100
AcDbCircle
 10
5374.0187553361
 20
4347.0748994621
 30
0.0
 40
165.0
  0
CIRCLE
  5
CD
330
1F
100
AcDbEntity
  8
0
  6
Continuous
 62
     7
100
AcDbCircle
 10
6574.0187553361
 20
4347.0748994621
 30
0.0
 40
165.0
  0
CIRCLE
  5
CE
330
1F
100
AcDbEntity
  8
0
  6
Continuous
 62
     7
100
AcDbCircle
 10
5974.0187553361
 20
4347.0748994621
 30
0.0
 40
165.0
  0
CIRCLE
  5
CF
330
1F
100
AcDbEntity
  8
0
  6
Continuous
 62
     7
100
AcDbCircle
 10
7174.0187553361
 20
4347.0748994621
 30
0.0
 40
165.0
  0
CIRCLE
  5
D0
330
1F
100
AcDbEntity
  8
0
  6
Continuous
 62
     7
100
AcDbCircle
 10
6574.0187553361
 20
4347.0748994621
 30
0.0
 40
36.71817853400262
  0
CIRCLE
  5
D1
330
1F
100
AcDbEntity
  8
0
  6
Continuous
 62
     7
100
AcDbCircle
 10
5374.0187553361
 20
4347.0748994621
 30
0.0
 40
36.71817853400262
  0
CIRCLE
  5
D2
330
1F
100
AcDbEntity
  8
0
  6
Continuous
 62
     7
100
AcDbCircle
 10
7174.0187553361
 20
4347.0748994621
 30
0.0
 40
36.71817853400353
  0
CIRCLE
  5
D3
330
1F
100
AcDbEntity
  8
0
  6
Continuous
 62
     7
100
AcDbCircle
 10
5974.0187553361
 20
4347.0748994621
 30
0.0
 40
36.71817853400353
  0
ARC
  5
D4
330
1F
100
AcDbEntity
  8
0
  6
Continuous
 62
     7
100
AcDbCircle
 10
5974.0187553361
 20
4347.0748994621
 30
0.0
 40
15.00000000000076
100
AcDbArc
 50
270.0
 51
289.4629509606
  0
ARC
  5
D5
330
1F
100
AcDbEntity
  8
0
  6
Continuous
 62
     7
100
AcDbCircle
 10
5974.0187553361
 20
4347.0748994621
 30
0.0
 40
15.00000000000185
100
AcDbArc
 50
310.5370510532
 51
349.4629489746
  0
ARC
  5
D6
330
1F
100
AcDbEntity
  8
0
  6
Continuous
 62
     7
100
AcDbCircle
 10
5974.0187553361
 20
4347.0748994621
 30
0.0
 40
15.00000000000076
100
AcDbArc
 50
10.5370495964
 51
49.4629504113
  0
ARC
  5
D7
330
1F
100
AcDbEntity
  8
0
  6
Continuous
 62
     7
100
AcDbCircle
 10
5974.0187553361
 20
4347.0748994621
 30
0.0
 40
15.00000000000038
100
AcDbArc
 50
70.5370490849
 51
109.4629509179
  0
ARC
  5
D8
330
1F
100
AcDbEntity
  8
0
  6
Continuous
 62
     7
100
AcDbCircle
 10
5974.0187553361
 20
4347.0748994621
 30
0.0
 40
15.00000000000057
100
AcDbArc
 50
130.5370509089
 51
169.4629490646
  0
ARC
  5
D9
330
1F
100
AcDbEntity
  8
0
  6
Continuous
 62
     7
100
AcDbCircle
 10
5974.0187553361
 20
4347.0748994621
 30
0.0
 40
15.00000000000022
100
AcDbArc
 50
190.5370486873
 51
229.4629513178
  0
ARC
  5
DA
330
1F
100
AcDbEntity
  8
0
  6
Continuous
 62
     7
100
AcDbCircle
 10
5974.0187553361
 20
4347.0748994621
 30
0.0
 40
15.00000000000012
100
AcDbArc
 50
250.5370490407
 51
270.0
  0
ARC
  5
DB
330
1F
100
AcDbEntity
  8
0
  6
Continuous
 62
     7
100
AcDbCircle
 10
7174.0187553361
 20
4347.0748994621
 30
0.0
 40
15.0
100
AcDbArc
 50
270.0
 51
289.4629527012
  0
ARC
  5
DC
330
1F
100
AcDbEntity
  8
0
  6
Continuous
 62
     7
100
AcDbCircle
 10
7174.0187553361
 20
4347.0748994621
 30
0.0
 40
15.00000000000012
100
AcDbArc
 50
310.5370500741
 51
349.46294994
  0
ARC
  5
DD
330
1F
100
AcDbEntity
  8
0
  6
Continuous
 62
     7
100
AcDbCircle
 10
7174.0187553361
 20
4347.0748994621
 30
0.0
 40
15.00000000000107
100
AcDbArc
 50
10.537047971
 51
49.4629520137
  0
ARC
  5
DE
330
1F
100
AcDbEntity
  8
0
  6
Continuous
 62
     7
100
AcDbCircle
 10
7174.0187553361
 20
4347.0748994621
 30
0.0
 40
15.00000000000031
100
AcDbArc
 50
70.5370479746
 51
109.4629520102
  0
ARC
  5
DF
330
1F
100
AcDbEntity
  8
0
  6
Continuous
 62
     7
100
AcDbCircle
 10
7174.0187553361
 20
4347.0748994621
 30
0.0
 40
15.00000000000018
100
AcDbArc
 50
130.5370493161
 51
169.4629506801
  0
ARC
  5
E0
330
1F
100
AcDbEntity
  8
0
  6
Continuous
 62
     7
100
AcDbCircle
 10
7174.0187553361
 20
4347.0748994621
 30
0.0
 40
14.99999999999946
100
AcDbArc
 50
190.5370514788
 51
229.462948487
  0
ARC
  5
E1
330
1F
100
AcDbEntity
  8
0
  6
Continuous
 62
     7
100
AcDbCircle
 10
7174.0187553361
 20
4347.0748994621
 30
0.0
 40
15.00000000000048
100
AcDbArc
 50
250.5370473236
 51
270.0
  0
ARC
  5
E2
330
1F
100
AcDbEntity
  8
0
  6
Continuous
 62
     7
100
AcDbCircle
 10
5374.0187553361
 20
4347.0748994621
 30
0.0
 40
15.00000000000011
100
AcDbArc
 50
270.0
 51
289.4629509206
  0
ARC
  5
E3
330
1F
100
AcDbEntity
  8
0
  6
Continuous
 62
     7
100
AcDbCircle
 10
5374.0187553361
 20
4347.0748994621
 30
0.0
 40
14.99999999999993
100
AcDbArc
 50
310.5370510344
 51
349.4629489932
  0
ARC
  5
E4
330
1F
100
AcDbEntity
  8
0
  6
Continuous
 62
     7
100
AcDbCircle
 10
5374.0187553361
 20
4347.0748994621
 30
0.0
 40
14.99999999999906
100
AcDbArc
 50
10.5370493896
 51
49.4629506151
  0
ARC
  5
E5
330
1F
100
AcDbEntity
  8
0
  6
Continuous
 62
     7
100
AcDbCircle
 10
5374.0187553361
 20
4347.0748994621
 30
0.0
 40
15.00000000000031
100
AcDbArc
 50
70.5370491101
 51
109.4629508869
  0
ARC
  5
E6
330
1F
100
AcDbEntity
  8
0
  6
Continuous
 62
     7
100
AcDbCircle
 10
5374.0187553361
 20
4347.0748994621
 30
0.0
 40
15.00000000000194
100
AcDbArc
 50
130.537049571
 51
169.4629504216
  0
ARC
  5
E7
330
1F
100
AcDbEntity
  8
0
  6
Continuous
 62
     7
100
AcDbCircle
 10
5374.0187553361
 20
4347.0748994621
 30
0.0
 40
15.00000000000118
100
AcDbArc
 50
190.5370479087
 51
229.4629521074
  0
ARC
  5
E8
330
1F
100
AcDbEntity
  8
0
  6
Continuous
 62
     7
100
AcDbCircle
 10
5374.0187553361
 20
4347.0748994621
 30
0.0
 40
15.00000000000046
100
AcDbArc
 50
250.5370490808
 51
270.0
  0
ARC
  5
E9
330
1F
100
AcDbEntity
  8
0
  6
Continuous
 62
     7
100
AcDbCircle
 10
6574.0187553361
 20
4347.0748994621
 30
0.0
 40
15.0
100
AcDbArc
 50
270.0
 51
289.4629506358
  0
ARC
  5
EA
330
1F
100
AcDbEntity
  8
0
  6
Continuous
 62
     7
100
AcDbCircle
 10
6574.0187553361
 20
4347.0748994621
 30
0.0
 40
15.00000000000002
100
AcDbArc
 50
310.5370505584
 51
349.4629494625
  0
ARC
  5
EB
330
1F
100
AcDbEntity
  8
0
  6
Continuous
 62
     7
100
AcDbCircle
 10
6574.0187553361
 20
4347.0748994621
 30
0.0
 40
15.00000000000146
100
AcDbArc
 50
10.5370494062
 51
49.4629505988
  0
ARC
  5
EC
330
1F
100
AcDbEntity
  8
0
  6
Continuous
 62
     7
100
AcDbCircle
 10
6574.0187553361
 20
4347.0748994621
 30
0.0
 40
15.00000000000056
100
AcDbArc
 50
70.5370491218
 51
109.4629508799
  0
ARC
  5
ED
330
1F
100
AcDbEntity
  8
0
  6
Continuous
 62
     7
100
AcDbCircle
 10
6574.0187553361
 20
4347.0748994621
 30
0.0
 40
14.99999999999968
100
AcDbArc
 50
130.5370505975
 51
169.4629493805
  0
ARC
  5
EE
330
1F
100
AcDbEntity
  8
0
  6
Continuous
 62
     7
100
AcDbCircle
 10
6574.0187553361
 20
4347.0748994621
 30
0.0
 40
15.00000000000034
100
AcDbArc
 50
190.5370506477
 51
229.4629493298
  0
ARC
  5
EF
330
1F
100
AcDbEntity
  8
0
  6
Continuous
 62
     7
100
AcDbCircle
 10
6574.0187553361
 20
4347.0748994621
 30
0.0
 40
15.0
100
AcDbArc
 50
250.5370493566
 51
270.0
  0
ARC
  5
F0
330
1F
100
AcDbEntity
  8
0
  6
Continuous
 62
     7
100
AcDbCircle
 10
6574.0187562602
 20
4459.2634041336
 30
0.0
 40
44.11688505316577
100
AcDbArc
 50
75.2882434895
 51
104.7117565105
  0
ARC
  5
F1
330
1F
100
AcDbEntity
  8
0
  6
Continuous
 62
     7
100
AcDbCircle
 10
6574.5676364963
 20
4538.9875852514
 30
0.0
 40
41.0130429312724
100
AcDbArc
 50
272.8976730599
 51
285.0577569559
  0
ARC
  5
F2
330
1F
100
AcDbEntity
  8
0
  6
Continuous
 62
     7
100
AcDbCircle
 10
6573.4698760241
 20
4538.9875852514
 30
0.0
 40
41.0130429312724
100
AcDbArc
 50
254.9422430441
 51
267.1023269403
  0
ARC
  5
F3
330
1F
100
AcDbEntity
  8
0
  6
Continuous
 62
     7
100
AcDbCircle
 10
7174.0187204974
 20
4459.2636232256
 30
0.0
 40
44.11667314400448
100
AcDbArc
 50
75.2881712283
 51
104.7118287717
  0
ARC
  5
F4
330
1F
100
AcDbEntity
  8
0
  6
Continuous
 62
     7
100
AcDbCircle
 10
7174.5677393091
 20
4538.9866169649
 30
0.0
 40
41.01207189067637
100
AcDbArc
 50
272.8976312589
 51
285.0579214388
  0
ARC
  5
F5
330
1F
100
AcDbEntity
  8
0
  6
Continuous
 62
     7
100
AcDbCircle
 10
7173.4695893097
 20
4538.9860879434
 30
0.0
 40
41.01153183906769
100
AcDbArc
 50
254.9420381582
 51
267.1026545055
  0
ARC
  5
F6
330
1F
100
AcDbEntity
  8
0
  6
Continuous
 62
     7
100
AcDbCircle
 10
5374.01875328
 20
4459.2633151835
 30
0.0
 40
44.11697487139811
100
AcDbArc
 50
75.2882541089
 51
104.7117458911
  0
ARC
  5
F7
330
1F
100
AcDbEntity
  8
0
  6
Continuous
 62
     7
100
AcDbCircle
 10
5374.5677075647
 20
4538.9872108651
 30
0.0
 40
41.01266603366975
100
AcDbArc
 50
272.897616975
 51
285.0578130412
  0
ARC
  5
F8
330
1F
100
AcDbEntity
  8
0
  6
Continuous
 62
     7
100
AcDbCircle
 10
5373.4698581428
 20
4538.9875852514
 30
0.0
 40
41.01304293127245
100
AcDbArc
 50
254.9422430441
 51
267.1023269402
  0
ARC
  5
F9
330
1F
100
AcDbEntity
  8
0
  6
Continuous
 62
     7
100
AcDbCircle
 10
5974.0187547701
 20
4459.2634144311
 30
0.0
 40
44.11687698538673
100
AcDbArc
 50
75.2882307341
 51
104.7117692659
  0
ARC
  5
FA
330
1F
100
AcDbEntity
  8
0
  6
Continuous
 62
     7
100
AcDbCircle
 10
5974.5677536886
 20
4538.9868811871
 30
0.0
 40
41.01233414426776
100
AcDbArc
 50
272.8975675869
 51
285.0578624296
  0
ARC
  5
FB
330
1F
100
AcDbEntity
  8
0
  6
Continuous
 62
     7
100
AcDbCircle
 10
5973.4697558516
 20
4538.9868811871
 30
0.0
 40
41.0123341442679
100
AcDbArc
 50
254.9421375704
 51
267.1024324131
  0
ARC
  5
FC
330
1F
100
AcDbEntity
  8
0
  6
Continuous
 62
     7
100
AcDbCircle
 10
5974.0187553361
 20
4347.0748994621
 30
0.0
 40
5.250000000000943
100
AcDbArc
 50
278.2132107017
 51
81.7867892983
  0
ARC
  5
FD
330
1F
100
AcDbEntity
  8
0
  6
Continuous
 62
     7
100
AcDbCircle
 10
5974.0187553361
 20
4347.0748994621
 30
0.0
 40
5.250000000000943
100
AcDbArc
 50
98.2132107017
 51
261.7867892983
  0
ARC
  5
FE
330
1F
100
AcDbEntity
  8
0
  6
Continuous
 62
     7
100
AcDbCircle
 10
5974.0187553361
 20
4347.0748994621
 30
0.0
 40
5.250000000000943
100
AcDbArc
 50
81.7867892983
 51
98.2132107017
  0
ARC
  5
FF
330
1F
100
AcDbEntity
  8
0
  6
Continuous
 62
     7
100
AcDbCircle
 10
5974.0187553361
 20
4347.0748994621
 30
0.0
 40
5.250000000000943
100
AcDbArc
 50
261.7867892983
 51
278.2132107017
  0
ARC
  5
100
330
1F
100
AcDbEntity
  8
0
  6
Continuous
 62
     7
100
AcDbCircle
 10
5974.0187547701
 20
4489.6629115366
 30
0.0
 40
12.5480995784767
100
AcDbArc
 50
86.5733986398
 51
93.4266013602
  0
ARC
  5
101
330
1F
100
AcDbEntity
  8
0
  6
Continuous
 62
     7
100
AcDbCircle
 10
5974.0187547701
 20
4510.3924297612
 30
0.0
 40
12.54809957847657
100
AcDbArc
 50
266.5733986397
 51
273.4266013603
  0
ARC
  5
102
330
1F
100
AcDbEntity
  8
0
  6
Continuous
 62
     7
100
AcDbCircle
 10
5374.01875328
 20
4489.6633273798
 30
0.0
 40
12.54768403338374
100
AcDbArc
 50
86.5733191066
 51
93.4266808934
  0
ARC
  5
103
330
1F
100
AcDbEntity
  8
0
  6
Continuous
 62
     7
100
AcDbCircle
 10
5374.01875328
 20
4510.392013918
 30
0.0
 40
12.5476840333856
100
AcDbArc
 50
266.5733191066
 51
273.4266808934
  0
ARC
  5
104
330
1F
100
AcDbEntity
  8
0
  6
Continuous
 62
     7
100
AcDbCircle
 10
7174.0187553361
 20
4347.0748994621
 30
0.0
 40
5.250000000001073
100
AcDbArc
 50
278.2132107017
 51
81.7867892983
  0
ARC
  5
105
330
1F
100
AcDbEntity
  8
0
  6
Continuous
 62
     7
100
AcDbCircle
 10
7174.0187553361
 20
4347.0748994621
 30
0.0
 40
5.250000000000943
100
AcDbArc
 50
98.2132107017
 51
261.7867892983
  0
ARC
  5
106
330
1F
100
AcDbEntity
  8
0
  6
Continuous
 62
     7
100
AcDbCircle
 10
7174.0187553361
 20
4347.0748994621
 30
0.0
 40
5.250000000001073
100
AcDbArc
 50
81.7867892983
 51
98.2132107017
  0
ARC
  5
107
330
1F
100
AcDbEntity
  8
0
  6
Continuous
 62
     7
100
AcDbCircle
 10
7174.0187553361
 20
4347.0748994621
 30
0.0
 40
5.250000000000173
100
AcDbArc
 50
261.7867892983
 51
278.2132107017
  0
ARC
  5
108
330
1F
100
AcDbEntity
  8
0
  6
Continuous
 62
     7
100
AcDbCircle
 10
6574.0187562602
 20
4489.6629401037
 30
0.0
 40
12.54807150771001
100
AcDbArc
 50
86.573356884
 51
93.426643116
  0
ARC
  5
109
330
1F
100
AcDbEntity
  8
0
  6
Continuous
 62
     7
100
AcDbCircle
 10
6574.0187562602
 20
4510.3924011941
 30
0.0
 40
12.54807150770949
100
AcDbArc
 50
266.573356884
 51
273.426643116
  0
ARC
  5
10A
330
1F
100
AcDbEntity
  8
0
  6
Continuous
 62
     7
100
AcDbCircle
 10
7174.0187801021
 20
4489.6629402006
 30
0.0
 40
12.54807141100769
100
AcDbArc
 50
86.5733568574
 51
93.4266431426
  0
ARC
  5
10B
330
1F
100
AcDbEntity
  8
0
  6
Continuous
 62
     7
100
AcDbCircle
 10
7174.0187801021
 20
4510.3924010972
 30
0.0
 40
12.54807141100833
100
AcDbArc
 50
266.5733568576
 51
273.4266431424
  0
ARC
  5
10C
330
1F
100
AcDbEntity
  8
0
  6
Continuous
 62
     7
100
AcDbCircle
 10
5374.0187553361
 20
4347.0748994621
 30
0.0
 40
5.250000000001073
100
AcDbArc
 50
98.2132107017
 51
261.7867892983
  0
ARC
  5
10D
330
1F
100
AcDbEntity
  8
0
  6
Continuous
 62
     7
100
AcDbCircle
 10
5374.0187553361
 20
4347.0748994621
 30
0.0
 40
5.250000000000814
100
AcDbArc
 50
278.2132107017
 51
81.7867892983
  0
ARC
  5
10E
330
1F
100
AcDbEntity
  8
0
  6
Continuous
 62
     7
100
AcDbCircle
 10
5374.0187553361
 20
4347.0748994621
 30
0.0
 40
5.250000000001073
100
AcDbArc
 50
81.7867892983
 51
98.2132107017
  0
ARC
  5
10F
330
1F
100
AcDbEntity
  8
0
  6
Continuous
 62
     7
100
AcDbCircle
 10
5374.0187553361
 20
4347.0748994621
 30
0.0
 40
5.250000000001073
100
AcDbArc
 50
261.7867892983
 51
278.2132107017
  0
ARC
  5
110
330
1F
100
AcDbEntity
  8
0
  6
Continuous
 62
     7
100
AcDbCircle
 10
6574.0187553361
 20
4347.0748994621
 30
0.0
 40
5.250000000000943
100
AcDbArc
 50
98.2132107017
 51
261.7867892983
  0
ARC
  5
111
330
1F
100
AcDbEntity
  8
0
  6
Continuous
 62
     7
100
AcDbCircle
 10
6574.0187553361
 20
4347.0748994621
 30
0.0
 40
5.250000000000943
100
AcDbArc
 50
278.2132107017
 51
81.7867892983
  0
ARC
  5
112
330
1F
100
AcDbEntity
  8
0
  6
Continuous
 62
     7
100
AcDbCircle
 10
6574.0187553361
 20
4347.0748994621
 30
0.0
 40
5.250000000000943
100
AcDbArc
 50
81.7867892983
 51
98.2132107017
  0
ARC
  5
113
330
1F
100
AcDbEntity
  8
0
  6
Continuous
 62
     7
100
AcDbCircle
 10
6574.0187553361
 20
4347.0748994621
 30
0.0
 40
5.250000000000043
100
AcDbArc
 50
261.7867892983
 51
278.2132107017
  0
CIRCLE
  5
114
330
1F
100
AcDbEntity
  8
0
  6
Continuous
 62
     7
100
AcDbCircle
 10
5974.0187553361
 20
4347.0748994621
 30
0.0
 40
24.96512544439429
  0
CIRCLE
  5
115
330
1F
100
AcDbEntity
  8
0
  6
Continuous
 62
     7
100
AcDbCircle
 10
5974.0187553361
 20
4347.0748994621
 30
0.0
 40
35.0
  0
CIRCLE
  5
116
330
1F
100
AcDbEntity
  8
0
  6
Continuous
 62
     7
100
AcDbCircle
 10
5974.0187553361
 20
4347.0748994621
 30
0.0
 40
35.16921944985916
  0
CIRCLE
  5
117
330
1F
100
AcDbEntity
  8
0
  6
Continuous
 62
     7
100
AcDbCircle
 10
5974.0187553361
 20
4347.0748994621
 30
0.0
 40
22.0
  0
CIRCLE
  5
118
330
1F
100
AcDbEntity
  8
0
  6
Continuous
 62
     7
100
AcDbCircle
 10
5974.0187553361
 20
4347.0748994621
 30
0.0
 40
20.5
  0
CIRCLE
  5
119
330
1F
100
AcDbEntity
  8
0
  6
Continuous
 62
     7
100
AcDbCircle
 10
5974.0187553361
 20
4347.0748994621
 30
0.0
 40
19.48700763430315
  0
CIRCLE
  5
11A
330
1F
100
AcDbEntity
  8
0
  6
Continuous
 62
     7
100
AcDbCircle
 10
5974.0187553361
 20
4347.0748994621
 30
0.0
 40
5.699999999999818
  0
CIRCLE
  5
11B
330
1F
100
AcDbEntity
  8
0
  6
Continuous
 62
     7
100
AcDbCircle
 10
5974.0187553361
 20
4361.0748994621
 30
0.0
 40
5.0
  0
CIRCLE
  5
11C
330
1F
100
AcDbEntity
  8
0
  6
Continuous
 62
     7
100
AcDbCircle
 10
5986.1431109891
 20
4354.0748994621
 30
0.0
 40
5.0
  0
CIRCLE
  5
11D
330
1F
100
AcDbEntity
  8
0
  6
Continuous
 62
     7
100
AcDbCircle
 10
5986.1431109891
 20
4340.0748994621
 30
0.0
 40
5.000000000000909
  0
CIRCLE
  5
11E
330
1F
100
AcDbEntity
  8
0
  6
Continuous
 62
     7
100
AcDbCircle
 10
5974.0187553361
 20
4333.0748994621
 30
0.0
 40
5.0
  0
CIRCLE
  5
11F
330
1F
100
AcDbEntity
  8
0
  6
Continuous
 62
     7
100
AcDbCircle
 10
5961.8943996831
 20
4340.0748994621
 30
0.0
 40
5.0
  0
CIRCLE
  5
120
330
1F
100
AcDbEntity
  8
0
  6
Continuous
 62
     7
100
AcDbCircle
 10
5961.8943996831
 20
4354.0748994621
 30
0.0
 40
4.999999999998181
  0
CIRCLE
  5
121
330
1F
100
AcDbEntity
  8
0
  6
Continuous
 62
     7
100
AcDbCircle
 10
7174.0187553361
 20
4347.0748994621
 30
0.0
 40
24.96512544439429
  0
CIRCLE
  5
122
330
1F
100
AcDbEntity
  8
0
  6
Continuous
 62
     7
100
AcDbCircle
 10
7174.0187553361
 20
4347.0748994621
 30
0.0
 40
35.00000000000091
  0
CIRCLE
  5
123
330
1F
100
AcDbEntity
  8
0
  6
Continuous
 62
     7
100
AcDbCircle
 10
7174.0187553361
 20
4347.0748994621
 30
0.0
 40
35.16921944985916
  0
CIRCLE
  5
124
330
1F
100
AcDbEntity
  8
0
  6
Continuous
 62
     7
100
AcDbCircle
 10
7174.0187553361
 20
4347.0748994621
 30
0.0
 40
22.00000000000091
  0
CIRCLE
  5
125
330
1F
100
AcDbEntity
  8
0
  6
Continuous
 62
     7
100
AcDbCircle
 10
7174.0187553361
 20
4347.0748994621
 30
0.0
 40
20.50000000000091
  0
CIRCLE
  5
126
330
1F
100
AcDbEntity
  8
0
  6
Continuous
 62
     7
100
AcDbCircle
 10
7174.0187553361
 20
4347.0748994621
 30
0.0
 40
19.48700763430315
  0
CIRCLE
  5
127
330
1F
100
AcDbEntity
  8
0
  6
Continuous
 62
     7
100
AcDbCircle
 10
7174.0187553361
 20
4347.0748994621
 30
0.0
 40
5.700000000000728
  0
CIRCLE
  5
128
330
1F
100
AcDbEntity
  8
0
  6
Continuous
 62
     7
100
AcDbCircle
 10
7174.0187553361
 20
4361.0748994621
 30
0.0
 40
5.0
  0
CIRCLE
  5
129
330
1F
100
AcDbEntity
  8
0
  6
Continuous
 62
     7
100
AcDbCircle
 10
7186.1431109891
 20
4354.0748994621
 30
0.0
 40
4.999999999999091
  0
CIRCLE
  5
12A
330
1F
100
AcDbEntity
  8
0
  6
Continuous
 62
     7
100
AcDbCircle
 10
7186.1431109891
 20
4340.0748994621
 30
0.0
 40
5.0
  0
CIRCLE
  5
12B
330
1F
100
AcDbEntity
  8
0
  6
Continuous
 62
     7
100
AcDbCircle
 10
7174.0187553361
 20
4333.0748994621
 30
0.0
 40
5.000000000000909
  0
CIRCLE
  5
12C
330
1F
100
AcDbEntity
  8
0
  6
Continuous
 62
     7
100
AcDbCircle
 10
7161.8943996831
 20
4340.0748994621
 30
0.0
 40
5.000000000000909
  0
CIRCLE
  5
12D
330
1F
100
AcDbEntity
  8
0
  6
Continuous
 62
     7
100
AcDbCircle
 10
7161.8943996831
 20
4354.0748994621
 30
0.0
 40
5.0
  0
CIRCLE
  5
12E
330
1F
100
AcDbEntity
  8
0
  6
Continuous
 62
     7
100
AcDbCircle
 10
5374.0187553361
 20
4347.0748994621
 30
0.0
 40
35.0
  0
CIRCLE
  5
12F
330
1F
100
AcDbEntity
  8
0
  6
Continuous
 62
     7
100
AcDbCircle
 10
5374.0187553361
 20
4347.0748994621
 30
0.0
 40
35.16921944985825
  0
CIRCLE
  5
130
330
1F
100
AcDbEntity
  8
0
  6
Continuous
 62
     7
100
AcDbCircle
 10
5374.0187553361
 20
4347.0748994621
 30
0.0
 40
24.96512544439429
  0
CIRCLE
  5
131
330
1F
100
AcDbEntity
  8
0
  6
Continuous
 62
     7
100
AcDbCircle
 10
5374.0187553361
 20
4347.0748994621
 30
0.0
 40
22.0
  0
CIRCLE
  5
132
330
1F
100
AcDbEntity
  8
0
  6
Continuous
 62
     7
100
AcDbCircle
 10
5374.0187553361
 20
4347.0748994621
 30
0.0
 40
20.5
  0
CIRCLE
  5
133
330
1F
100
AcDbEntity
  8
0
  6
Continuous
 62
     7
100
AcDbCircle
 10
5374.0187553361
 20
4347.0748994621
 30
0.0
 40
19.48700763430224
  0
CIRCLE
  5
134
330
1F
100
AcDbEntity
  8
0
  6
Continuous
 62
     7
100
AcDbCircle
 10
5374.0187553361
 20
4347.0748994621
 30
0.0
 40
5.699999999999818
  0
CIRCLE
  5
135
330
1F
100
AcDbEntity
  8
0
  6
Continuous
 62
     7
100
AcDbCircle
 10
5374.0187553361
 20
4361.0748994621
 30
0.0
 40
4.999999999999091
  0
CIRCLE
  5
136
330
1F
100
AcDbEntity
  8
0
  6
Continuous
 62
     7
100
AcDbCircle
 10
5386.1431109891
 20
4354.0748994621
 30
0.0
 40
5.0
  0
CIRCLE
  5
137
330
1F
100
AcDbEntity
  8
0
  6
Continuous
 62
     7
100
AcDbCircle
 10
5386.1431109891
 20
4340.0748994621
 30
0.0
 40
5.000000000000909
  0
CIRCLE
  5
138
330
1F
100
AcDbEntity
  8
0
  6
Continuous
 62
     7
100
AcDbCircle
 10
5374.0187553361
 20
4333.0748994621
 30
0.0
 40
4.999999999999091
  0
CIRCLE
  5
139
330
1F
100
AcDbEntity
  8
0
  6
Continuous
 62
     7
100
AcDbCircle
 10
5361.8943996831
 20
4340.0748994621
 30
0.0
 40
5.000000000000909
  0
CIRCLE
  5
13A
330
1F
100
AcDbEntity
  8
0
  6
Continuous
 62
     7
100
AcDbCircle
 10
5361.8943996831
 20
4354.0748994621
 30
0.0
 40
4.999999999999091
  0
CIRCLE
  5
13B
330
1F
100
AcDbEntity
  8
0
  6
Continuous
 62
     7
100
AcDbCircle
 10
6574.0187553361
 20
4347.0748994621
 30
0.0
 40
24.96512544439429
  0
CIRCLE
  5
13C
330
1F
100
AcDbEntity
  8
0
  6
Continuous
 62
     7
100
AcDbCircle
 10
6574.0187553361
 20
4347.0748994621
 30
0.0
 40
35.0
  0
CIRCLE
  5
13D
330
1F
100
AcDbEntity
  8
0
  6
Continuous
 62
     7
100
AcDbCircle
 10
6574.0187553361
 20
4347.0748994621
 30
0.0
 40
35.16921944985916
  0
CIRCLE
  5
13E
330
1F
100
AcDbEntity
  8
0
  6
Continuous
 62
     7
100
AcDbCircle
 10
6574.0187553361
 20
4347.0748994621
 30
0.0
 40
22.0
  0
CIRCLE
  5
13F
330
1F
100
AcDbEntity
  8
0
  6
Continuous
 62
     7
100
AcDbCircle
 10
6574.0187553361
 20
4347.0748994621
 30
0.0
 40
20.5
  0
CIRCLE
  5
140
330
1F
100
AcDbEntity
  8
0
  6
Continuous
 62
     7
100
AcDbCircle
 10
6574.0187553361
 20
4347.0748994621
 30
0.0
 40
19.48700763430224
  0
CIRCLE
  5
141
330
1F
100
AcDbEntity
  8
0
  6
Continuous
 62
     7
100
AcDbCircle
 10
6574.0187553361
 20
4347.0748994621
 30
0.0
 40
5.699999999999818
  0
CIRCLE
  5
142
330
1F
100
AcDbEntity
  8
0
  6
Continuous
 62
     7
100
AcDbCircle
 10
6574.0187553361
 20
4361.0748994621
 30
0.0
 40
5.0
  0
CIRCLE
  5
143
330
1F
100
AcDbEntity
  8
0
  6
Continuous
 62
     7
100
AcDbCircle
 10
6586.1431109891
 20
4354.0748994621
 30
0.0
 40
4.999999999999091
  0
CIRCLE
  5
144
330
1F
100
AcDbEntity
  8
0
  6
Continuous
 62
     7
100
AcDbCircle
 10
6586.1431109891
 20
4340.0748994621
 30
0.0
 40
5.0
  0
CIRCLE
  5
145
330
1F
100
AcDbEntity
  8
0
  6
Continuous
 62
     7
100
AcDbCircle
 10
6574.0187553361
 20
4333.0748994621
 30
0.0
 40
5.000000000000909
  0
CIRCLE
  5
146
330
1F
100
AcDbEntity
  8
0
  6
Continuous
 62
     7
100
AcDbCircle
 10
6561.8943996831
 20
4340.0748994621
 30
0.0
 40
5.000000000000909
  0
CIRCLE
  5
147
330
1F
100
AcDbEntity
  8
0
  6
Continuous
 62
     7
100
AcDbCircle
 10
6561.8943996831
 20
4354.0748994621
 30
0.0
 40
5.0
  0
LINE
  5
148
330
1F
100
AcDbEntity
  8
0
  6
Continuous
 62
     7
100
AcDbLine
 10
7138.4359396594
 20
5236.6942174445
 30
0.0
 11
7139.0453375476
 21
5236.355700315
 31
0.0
  0
LINE
  5
149
330
1F
100
AcDbEntity
  8
0
  6
Continuous
 62
     7
100
AcDbLine
 10
7208.9922226565
 20
5236.355700315
 30
0.0
 11
7209.6015013354
 21
5236.6942174445
 31
0.0
  0
LINE
  5
14A
330
1F
100
AcDbEntity
  8
0
  6
Continuous
 62
     7
100
AcDbLine
 10
5338.4359873431
 20
5236.6942174445
 30
0.0
 11
5339.0452958243
 21
5236.355700315
 31
0.0
  0
LINE
  5
14B
330
1F
100
AcDbEntity
  8
0
  6
Continuous
 62
     7
100
AcDbLine
 10
5408.9922107356
 20
5236.355700315
 30
0.0
 11
5409.6015192168
 21
5236.6942174445
 31
0.0
  0
LINE
  5
14C
330
1F
100
AcDbEntity
  8
0
  6
Continuous
 62
     7
100
AcDbLine
 10
6538.4359754222
 20
5236.6942174445
 30
0.0
 11
6539.0453137057
 21
5236.355700315
 31
0.0
  0
LINE
  5
14D
330
1F
100
AcDbEntity
  8
0
  6
Continuous
 62
     7
100
AcDbLine
 10
6608.9921988147
 20
5236.355700315
 30
0.0
 11
6609.6015370982
 21
5236.6942174445
 31
0.0
  0
LINE
  5
14E
330
1F
100
AcDbEntity
  8
0
  6
Continuous
 62
     7
100
AcDbLine
 10
5938.4359813826
 20
5236.6942174445
 30
0.0
 11
5939.045304765
 21
5236.355700315
 31
0.0
  0
LINE
  5
14F
330
1F
100
AcDbEntity
  8
0
  6
Continuous
 62
     7
100
AcDbLine
 10
6008.9922047751
 20
5236.355700315
 30
0.0
 11
6009.6015281575
 21
5236.6942174445
 31
0.0
  0
LINE
  5
150
330
1F
100
AcDbEntity
  8
0
  6
Continuous
 62
     7
100
AcDbLine
 10
5944.0187610286
 20
5196.3557012091
 30
0.0
 11
5946.0187501805
 21
5192.3557042788
 31
0.0
  0
LINE
  5
151
330
1F
100
AcDbEntity
  8
0
  6
Continuous
 62
     7
100
AcDbLine
 10
6002.0187593596
 20
5192.3557042788
 30
0.0
 11
6004.0187485116
 21
5196.3557012091
 31
0.0
  0
LINE
  5
152
330
1F
100
AcDbEntity
  8
0
  6
Continuous
 62
     7
100
AcDbLine
 10
5946.0187501805
 20
5192.3557042788
 30
0.0
 11
5946.0187501805
 21
5185.355704994
 31
0.0
  0
LINE
  5
153
330
1F
100
AcDbEntity
  8
0
  6
Continuous
 62
     7
100
AcDbLine
 10
6002.0187593596
 20
5185.355704994
 30
0.0
 11
6002.0187593596
 21
5192.3557042788
 31
0.0
  0
LINE
  5
154
330
1F
100
AcDbEntity
  8
0
  6
Continuous
 62
     7
100
AcDbLine
 10
5958.0187595981
 20
5182.3557026396
 30
0.0
 11
5958.0187595981
 21
5161.1557032625
 31
0.0
  0
LINE
  5
155
330
1F
100
AcDbEntity
  8
0
  6
Continuous
 62
     7
100
AcDbLine
 10
5958.0187595981
 20
5147.1557037617
 30
0.0
 11
5958.0187595981
 21
5144.6557033519
 31
0.0
  0
LINE
  5
156
330
1F
100
AcDbEntity
  8
0
  6
Continuous
 62
     7
100
AcDbLine
 10
5990.0187499421
 20
5144.6557033519
 30
0.0
 11
5990.0187499421
 21
5147.1557037617
 31
0.0
  0
LINE
  5
157
330
1F
100
AcDbEntity
  8
0
  6
Continuous
 62
     7
100
AcDbLine
 10
5990.0187499421
 20
5161.1557032625
 30
0.0
 11
5990.0187499421
 21
5182.3557026396
 31
0.0
  0
LINE
  5
158
330
1F
100
AcDbEntity
  8
0
  6
Continuous
 62
     7
100
AcDbLine
 10
7144.0187491076
 20
5196.3557012091
 30
0.0
 11
7146.0187233584
 21
5192.3557042788
 31
0.0
  0
LINE
  5
159
330
1F
100
AcDbEntity
  8
0
  6
Continuous
 62
     7
100
AcDbLine
 10
7202.0187176364
 20
5192.3557042788
 30
0.0
 11
7204.0188110965
 21
5196.3557012091
 31
0.0
  0
LINE
  5
15A
330
1F
100
AcDbEntity
  8
0
  6
Continuous
 62
     7
100
AcDbLine
 10
7146.0187233584
 20
5192.3557042788
 30
0.0
 11
7146.0187233584
 21
5185.355704994
 31
0.0
  0
LINE
  5
15B
330
1F
100
AcDbEntity
  8
0
  6
Continuous
 62
     7
100
AcDbLine
 10
7202.0187176364
 20
5185.355704994
 30
0.0
 11
7202.0187176364
 21
5192.3557042788
 31
0.0
  0
LINE
  5
15C
330
1F
100
AcDbEntity
  8
0
  6
Continuous
 62
     7
100
AcDbLine
 10
7158.0188072818
 20
5182.3557026396
 30
0.0
 11
7158.0188072818
 21
5161.1557032625
 31
0.0
  0
LINE
  5
15D
330
1F
100
AcDbEntity
  8
0
  6
Continuous
 62
     7
100
AcDbLine
 10
7158.0188072818
 20
5147.1557037617
 30
0.0
 11
7158.0188072818
 21
5144.6557033519
 31
0.0
  0
LINE
  5
15E
330
1F
100
AcDbEntity
  8
0
  6
Continuous
 62
     7
100
AcDbLine
 10
7190.0187529223
 20
5144.6557033519
 30
0.0
 11
7190.0187529223
 21
5147.1557037617
 31
0.0
  0
LINE
  5
15F
330
1F
100
AcDbEntity
  8
0
  6
Continuous
 62
     7
100
AcDbLine
 10
7190.0187529223
 20
5161.1557032625
 30
0.0
 11
7190.0187529223
 21
5182.3557026396
 31
0.0
  0
LINE
  5
160
330
1F
100
AcDbEntity
  8
0
  6
Continuous
 62
     7
100
AcDbLine
 10
5344.018766989
 20
5196.3557012091
 30
0.0
 11
5346.0187412398
 21
5192.3557042788
 31
0.0
  0
LINE
  5
161
330
1F
100
AcDbEntity
  8
0
  6
Continuous
 62
     7
100
AcDbLine
 10
5402.0187653201
 20
5192.3557042788
 30
0.0
 11
5404.0187693732
 21
5196.3557012091
 31
0.0
  0
LINE
  5
162
330
1F
100
AcDbEntity
  8
0
  6
Continuous
 62
     7
100
AcDbLine
 10
5346.0187412398
 20
5192.3557042788
 30
0.0
 11
5346.0187412398
 21
5185.355704994
 31
0.0
  0
LINE
  5
163
330
1F
100
AcDbEntity
  8
0
  6
Continuous
 62
     7
100
AcDbLine
 10
5402.0187653201
 20
5185.355704994
 30
0.0
 11
5402.0187653201
 21
5192.3557042788
 31
0.0
  0
LINE
  5
164
330
1F
100
AcDbEntity
  8
0
  6
Continuous
 62
     7
100
AcDbLine
 10
5358.0187655585
 20
5182.3557026396
 30
0.0
 11
5358.0187655585
 21
5161.1557032625
 31
0.0
  0
LINE
  5
165
330
1F
100
AcDbEntity
  8
0
  6
Continuous
 62
     7
100
AcDbLine
 10
5358.0187655585
 20
5147.1557037617
 30
0.0
 11
5358.0187655585
 21
5144.6557033519
 31
0.0
  0
LINE
  5
166
330
1F
100
AcDbEntity
  8
0
  6
Continuous
 62
     7
100
AcDbLine
 10
5390.0187410014
 20
5144.6557033519
 30
0.0
 11
5390.0187410014
 21
5147.1557037617
 31
0.0
  0
LINE
  5
167
330
1F
100
AcDbEntity
  8
0
  6
Continuous
 62
     7
100
AcDbLine
 10
5390.0187410014
 20
5161.1557032625
 30
0.0
 11
5390.0187410014
 21
5182.3557026396
 31
0.0
  0
LINE
  5
168
330
1F
100
AcDbEntity
  8
0
  6
Continuous
 62
     7
100
AcDbLine
 10
6544.0187848704
 20
5196.3557012091
 30
0.0
 11
6546.0187591212
 21
5192.3557042788
 31
0.0
  0
LINE
  5
169
330
1F
100
AcDbEntity
  8
0
  6
Continuous
 62
     7
100
AcDbLine
 10
6602.0187533992
 20
5192.3557042788
 30
0.0
 11
6604.01872765
 21
5196.3557012091
 31
0.0
  0
LINE
  5
16A
330
1F
100
AcDbEntity
  8
0
  6
Continuous
 62
     7
100
AcDbLine
 10
6546.0187591212
 20
5192.3557042788
 30
0.0
 11
6546.0187591212
 21
5185.355704994
 31
0.0
  0
LINE
  5
16B
330
1F
100
AcDbEntity
  8
0
  6
Continuous
 62
     7
100
AcDbLine
 10
6602.0187533992
 20
5185.355704994
 30
0.0
 11
6602.0187533992
 21
5192.3557042788
 31
0.0
  0
LINE
  5
16C
330
1F
100
AcDbEntity
  8
0
  6
Continuous
 62
     7
100
AcDbLine
 10
6558.0187834399
 20
5182.3557026396
 30
0.0
 11
6558.0187834399
 21
5161.1557032625
 31
0.0
  0
LINE
  5
16D
330
1F
100
AcDbEntity
  8
0
  6
Continuous
 62
     7
100
AcDbLine
 10
6558.0187834399
 20
5147.1557037617
 30
0.0
 11
6558.0187834399
 21
5144.6557033519
 31
0.0
  0
LINE
  5
16E
330
1F
100
AcDbEntity
  8
0
  6
Continuous
 62
     7
100
AcDbLine
 10
6590.0187290805
 20
5144.6557033519
 30
0.0
 11
6590.0187290805
 21
5147.1557037617
 31
0.0
  0
LINE
  5
16F
330
1F
100
AcDbEntity
  8
0
  6
Continuous
 62
     7
100
AcDbLine
 10
6590.0187290805
 20
5161.1557032625
 30
0.0
 11
6590.0187290805
 21
5182.3557026396
 31
0.0
  0
LINE
  5
170
330
1F
100
AcDbEntity
  8
0
  6
Continuous
 62
     7
100
AcDbLine
 10
6540.0187767642
 20
5084.6557028304
 30
0.0
 11
6546.9125307696
 21
5017.3500261913
 31
0.0
  0
LINE
  5
171
330
1F
100
AcDbEntity
  8
0
  6
Continuous
 62
     7
100
AcDbLine
 10
6601.1249817508
 20
5017.3500261913
 30
0.0
 11
6608.0187357562
 21
5084.6557028304
 31
0.0
  0
LINE
  5
172
330
1F
100
AcDbEntity
  8
0
  6
Continuous
 62
     7
100
AcDbLine
 10
6608.0187357562
 20
5084.6557028304
 30
0.0
 11
6601.3281739848
 21
5142.0033460195
 31
0.0
  0
LINE
  5
173
330
1F
100
AcDbEntity
  8
0
  6
Continuous
 62
     7
100
AcDbLine
 10
6546.7093385356
 20
5142.0033460195
 30
0.0
 11
6540.0187767642
 21
5084.6557028304
 31
0.0
  0
LINE
  5
174
330
1F
100
AcDbEntity
  8
0
  6
Continuous
 62
     7
100
AcDbLine
 10
6599.0187324183
 20
5147.1557037617
 30
0.0
 11
6597.0187581675
 21
5151.155703486
 31
0.0
  0
LINE
  5
175
330
1F
100
AcDbEntity
  8
0
  6
Continuous
 62
     7
100
AcDbLine
 10
6551.0187543528
 20
5151.155703486
 30
0.0
 11
6549.0187801021
 21
5147.1557037617
 31
0.0
  0
LINE
  5
176
330
1F
100
AcDbEntity
  8
0
  6
Continuous
 62
     7
100
AcDbLine
 10
6551.0187543528
 20
5158.1557027708
 30
0.0
 11
6551.0187543528
 21
5151.155703486
 31
0.0
  0
LINE
  5
177
330
1F
100
AcDbEntity
  8
0
  6
Continuous
 62
     7
100
AcDbLine
 10
6597.0187581675
 20
5151.155703486
 30
0.0
 11
6597.0187581675
 21
5158.1557027708
 31
0.0
  0
LINE
  5
178
330
1F
100
AcDbEntity
  8
0
  6
Continuous
 62
     7
100
AcDbLine
 10
6558.0187834399
 20
5147.1557037617
 30
0.0
 11
6558.0187834399
 21
5144.6557033519
 31
0.0
  0
LINE
  5
179
330
1F
100
AcDbEntity
  8
0
  6
Continuous
 62
     7
100
AcDbLine
 10
6590.0187290805
 20
5144.6557033519
 30
0.0
 11
6590.0187290805
 21
5147.1557037617
 31
0.0
  0
LINE
  5
17A
330
1F
100
AcDbEntity
  8
0
  6
Continuous
 62
     7
100
AcDbLine
 10
7140.0188006061
 20
5084.6557028304
 30
0.0
 11
7146.9125546115
 21
5017.3500261913
 31
0.0
  0
LINE
  5
17B
330
1F
100
AcDbEntity
  8
0
  6
Continuous
 62
     7
100
AcDbLine
 10
7201.1250055926
 20
5017.3500261913
 30
0.0
 11
7208.0187595981
 21
5084.6557028304
 31
0.0
  0
LINE
  5
17C
330
1F
100
AcDbEntity
  8
0
  6
Continuous
 62
     7
100
AcDbLine
 10
7208.0187595981
 20
5084.6557028304
 30
0.0
 11
7201.328138222
 21
5142.0033460195
 31
0.0
  0
LINE
  5
17D
330
1F
100
AcDbEntity
  8
0
  6
Continuous
 62
     7
100
AcDbLine
 10
7146.7093027728
 20
5142.0033460195
 30
0.0
 11
7140.0188006061
 21
5084.6557028304
 31
0.0
  0
LINE
  5
17E
330
1F
100
AcDbEntity
  8
0
  6
Continuous
 62
     7
100
AcDbLine
 10
7199.0186966556
 20
5147.1557037617
 30
0.0
 11
7197.0187224048
 21
5151.155703486
 31
0.0
  0
LINE
  5
17F
330
1F
100
AcDbEntity
  8
0
  6
Continuous
 62
     7
100
AcDbLine
 10
7151.0187185901
 20
5151.155703486
 30
0.0
 11
7149.0187443393
 21
5147.1557037617
 31
0.0
  0
LINE
  5
180
330
1F
100
AcDbEntity
  8
0
  6
Continuous
 62
     7
100
AcDbLine
 10
7151.0187185901
 20
5158.1557027708
 30
0.0
 11
7151.0187185901
 21
5151.155703486
 31
0.0
  0
LINE
  5
181
330
1F
100
AcDbEntity
  8
0
  6
Continuous
 62
     7
100
AcDbLine
 10
7197.0187224048
 20
5151.155703486
 30
0.0
 11
7197.0187224048
 21
5158.1557027708
 31
0.0
  0
LINE
  5
182
330
1F
100
AcDbEntity
  8
0
  6
Continuous
 62
     7
100
AcDbLine
 10
7158.0188072818
 20
5147.1557037617
 30
0.0
 11
7158.0188072818
 21
5144.6557033519
 31
0.0
  0
LINE
  5
183
330
1F
100
AcDbEntity
  8
0
  6
Continuous
 62
     7
100
AcDbLine
 10
7190.0187529223
 20
5144.6557033519
 30
0.0
 11
7190.0187529223
 21
5147.1557037617
 31
0.0
  0
LINE
  5
184
330
1F
100
AcDbEntity
  8
0
  6
Continuous
 62
     7
100
AcDbLine
 10
5340.0187588828
 20
5084.6557028304
 30
0.0
 11
5346.9125426906
 21
5017.3500261913
 31
0.0
  0
LINE
  5
185
330
1F
100
AcDbEntity
  8
0
  6
Continuous
 62
     7
100
AcDbLine
 10
5401.1249638694
 20
5017.3500261913
 30
0.0
 11
5408.0187476771
 21
5084.6557028304
 31
0.0
  0
LINE
  5
186
330
1F
100
AcDbEntity
  8
0
  6
Continuous
 62
     7
100
AcDbLine
 10
5408.0187476771
 20
5084.6557028304
 30
0.0
 11
5401.3281859057
 21
5142.0033460195
 31
0.0
  0
LINE
  5
187
330
1F
100
AcDbEntity
  8
0
  6
Continuous
 62
     7
100
AcDbLine
 10
5346.7093206542
 20
5142.0033460195
 30
0.0
 11
5340.0187588828
 21
5084.6557028304
 31
0.0
  0
LINE
  5
188
330
1F
100
AcDbEntity
  8
0
  6
Continuous
 62
     7
100
AcDbLine
 10
5399.0187443393
 20
5147.1557037617
 30
0.0
 11
5397.0187700885
 21
5151.155703486
 31
0.0
  0
LINE
  5
189
330
1F
100
AcDbEntity
  8
0
  6
Continuous
 62
     7
100
AcDbLine
 10
5351.0187662738
 20
5151.155703486
 30
0.0
 11
5349.0187622207
 21
5147.1557037617
 31
0.0
  0
LINE
  5
18A
330
1F
100
AcDbEntity
  8
0
  6
Continuous
 62
     7
100
AcDbLine
 10
5351.0187662738
 20
5158.1557027708
 30
0.0
 11
5351.0187662738
 21
5151.155703486
 31
0.0
  0
LINE
  5
18B
330
1F
100
AcDbEntity
  8
0
  6
Continuous
 62
     7
100
AcDbLine
 10
5397.0187700885
 20
5151.155703486
 30
0.0
 11
5397.0187700885
 21
5158.1557027708
 31
0.0
  0
LINE
  5
18C
330
1F
100
AcDbEntity
  8
0
  6
Continuous
 62
     7
100
AcDbLine
 10
5358.0187655585
 20
5147.1557037617
 30
0.0
 11
5358.0187655585
 21
5144.6557033519
 31
0.0
  0
LINE
  5
18D
330
1F
100
AcDbEntity
  8
0
  6
Continuous
 62
     7
100
AcDbLine
 10
5390.0187410014
 20
5144.6557033519
 30
0.0
 11
5390.0187410014
 21
5147.1557037617
 31
0.0
  0
LINE
  5
18E
330
1F
100
AcDbEntity
  8
0
  6
Continuous
 62
     7
100
AcDbLine
 10
6008.0187566178
 20
5084.6557028304
 30
0.0
 11
6001.3281948464
 21
5142.0033460195
 31
0.0
  0
LINE
  5
18F
330
1F
100
AcDbEntity
  8
0
  6
Continuous
 62
     7
100
AcDbLine
 10
5946.7093146937
 20
5142.0033460195
 30
0.0
 11
5940.0187529223
 21
5084.6557028304
 31
0.0
  0
LINE
  5
190
330
1F
100
AcDbEntity
  8
0
  6
Continuous
 62
     7
100
AcDbLine
 10
5940.0187529223
 20
5084.6557028304
 30
0.0
 11
5946.9125367301
 21
5017.3500261913
 31
0.0
  0
LINE
  5
191
330
1F
100
AcDbEntity
  8
0
  6
Continuous
 62
     7
100
AcDbLine
 10
6001.1249728101
 20
5017.3500261913
 30
0.0
 11
6008.0187566178
 21
5084.6557028304
 31
0.0
  0
LINE
  5
192
330
1F
100
AcDbEntity
  8
0
  6
Continuous
 62
     7
100
AcDbLine
 10
5999.01875328
 20
5147.1557037617
 30
0.0
 11
5997.0187492268
 21
5151.155703486
 31
0.0
  0
LINE
  5
193
330
1F
100
AcDbEntity
  8
0
  6
Continuous
 62
     7
100
AcDbLine
 10
5951.0187603133
 20
5151.155703486
 30
0.0
 11
5949.0187562602
 21
5147.1557037617
 31
0.0
  0
LINE
  5
194
330
1F
100
AcDbEntity
  8
0
  6
Continuous
 62
     7
100
AcDbLine
 10
5951.0187603133
 20
5158.1557027708
 30
0.0
 11
5951.0187603133
 21
5151.155703486
 31
0.0
  0
LINE
  5
195
330
1F
100
AcDbEntity
  8
0
  6
Continuous
 62
     7
100
AcDbLine
 10
5997.0187492268
 20
5151.155703486
 30
0.0
 11
5997.0187492268
 21
5158.1557027708
 31
0.0
  0
LINE
  5
196
330
1F
100
AcDbEntity
  8
0
  6
Continuous
 62
     7
100
AcDbLine
 10
5958.0187595981
 20
5147.1557037617
 30
0.0
 11
5958.0187595981
 21
5144.6557033519
 31
0.0
  0
LINE
  5
197
330
1F
100
AcDbEntity
  8
0
  6
Continuous
 62
     7
100
AcDbLine
 10
5990.0187499421
 20
5144.6557033519
 30
0.0
 11
5990.0187499421
 21
5147.1557037617
 31
0.0
  0
LINE
  5
198
330
1F
100
AcDbEntity
  8
0
  6
Continuous
 62
     7
100
AcDbLine
 10
7139.018753876
 20
5236.355700315
 30
0.0
 11
7142.0187748568
 21
5229.3557010303
 31
0.0
  0
LINE
  5
199
330
1F
100
AcDbEntity
  8
0
  6
Continuous
 62
     7
100
AcDbLine
 10
7206.0187853473
 20
5229.3557010303
 30
0.0
 11
7209.0188063281
 21
5236.355700315
 31
0.0
  0
LINE
  5
19A
330
1F
100
AcDbEntity
  8
0
  6
Continuous
 62
     7
100
AcDbLine
 10
7142.0187748568
 20
5229.3557010303
 30
0.0
 11
7147.5187338488
 21
5223.8557047854
 31
0.0
  0
LINE
  5
19B
330
1F
100
AcDbEntity
  8
0
  6
Continuous
 62
     7
100
AcDbLine
 10
7200.518707146
 20
5223.8557047854
 30
0.0
 11
7206.0187853473
 21
5229.3557010303
 31
0.0
  0
LINE
  5
19C
330
1F
100
AcDbEntity
  8
0
  6
Continuous
 62
     7
100
AcDbLine
 10
7144.518712868
 20
5199.3556998382
 30
0.0
 11
7144.518712868
 21
5196.3557012091
 31
0.0
  0
LINE
  5
19D
330
1F
100
AcDbEntity
  8
0
  6
Continuous
 62
     7
100
AcDbLine
 10
7203.5187281268
 20
5196.3557012091
 30
0.0
 11
7203.5187281268
 21
5199.3556998382
 31
0.0
  0
LINE
  5
19E
330
1F
100
AcDbEntity
  8
0
  6
Continuous
 62
     7
100
AcDbLine
 10
7147.5187338488
 20
5223.8557047854
 30
0.0
 11
7147.5187338488
 21
5199.3556998382
 31
0.0
  0
LINE
  5
19F
330
1F
100
AcDbEntity
  8
0
  6
Continuous
 62
     7
100
AcDbLine
 10
7200.518707146
 20
5199.3556998382
 30
0.0
 11
7200.518707146
 21
5223.8557047854
 31
0.0
  0
LINE
  5
1A0
330
1F
100
AcDbEntity
  8
0
  6
Continuous
 62
     7
100
AcDbLine
 10
6539.0187300342
 20
5236.355700315
 30
0.0
 11
6542.018751015
 21
5229.3557010303
 31
0.0
  0
LINE
  5
1A1
330
1F
100
AcDbEntity
  8
0
  6
Continuous
 62
     7
100
AcDbLine
 10
6606.0187615054
 20
5229.3557010303
 30
0.0
 11
6609.0187824862
 21
5236.355700315
 31
0.0
  0
LINE
  5
1A2
330
1F
100
AcDbEntity
  8
0
  6
Continuous
 62
     7
100
AcDbLine
 10
6542.018751015
 20
5229.3557010303
 30
0.0
 11
6547.5187696116
 21
5223.8557047854
 31
0.0
  0
LINE
  5
1A3
330
1F
100
AcDbEntity
  8
0
  6
Continuous
 62
     7
100
AcDbLine
 10
6600.5187429088
 20
5223.8557047854
 30
0.0
 11
6606.0187615054
 21
5229.3557010303
 31
0.0
  0
LINE
  5
1A4
330
1F
100
AcDbEntity
  8
0
  6
Continuous
 62
     7
100
AcDbLine
 10
6544.5187486308
 20
5199.3556998382
 30
0.0
 11
6544.5187486308
 21
5196.3557012091
 31
0.0
  0
LINE
  5
1A5
330
1F
100
AcDbEntity
  8
0
  6
Continuous
 62
     7
100
AcDbLine
 10
6603.5187638896
 20
5196.3557012091
 30
0.0
 11
6603.5187638896
 21
5199.3556998382
 31
0.0
  0
LINE
  5
1A6
330
1F
100
AcDbEntity
  8
0
  6
Continuous
 62
     7
100
AcDbLine
 10
6547.5187696116
 20
5223.8557047854
 30
0.0
 11
6547.5187696116
 21
5199.3556998382
 31
0.0
  0
LINE
  5
1A7
330
1F
100
AcDbEntity
  8
0
  6
Continuous
 62
     7
100
AcDbLine
 10
6600.5187429088
 20
5199.3556998382
 30
0.0
 11
6600.5187429088
 21
5223.8557047854
 31
0.0
  0
LINE
  5
1A8
330
1F
100
AcDbEntity
  8
0
  6
Continuous
 62
     7
100
AcDbLine
 10
5339.0187419551
 20
5236.355700315
 30
0.0
 11
5342.0187629359
 21
5229.3557010303
 31
0.0
  0
LINE
  5
1A9
330
1F
100
AcDbEntity
  8
0
  6
Continuous
 62
     7
100
AcDbLine
 10
5406.018743624
 20
5229.3557010303
 30
0.0
 11
5409.0187646048
 21
5236.355700315
 31
0.0
  0
LINE
  5
1AA
330
1F
100
AcDbEntity
  8
0
  6
Continuous
 62
     7
100
AcDbLine
 10
5342.0187629359
 20
5229.3557010303
 30
0.0
 11
5347.5187517302
 21
5223.8557047854
 31
0.0
  0
LINE
  5
1AB
330
1F
100
AcDbEntity
  8
0
  6
Continuous
 62
     7
100
AcDbLine
 10
5400.5187548297
 20
5223.8557047854
 30
0.0
 11
5406.018743624
 21
5229.3557010303
 31
0.0
  0
LINE
  5
1AC
330
1F
100
AcDbEntity
  8
0
  6
Continuous
 62
     7
100
AcDbLine
 10
5344.5187605517
 20
5199.3556998382
 30
0.0
 11
5344.5187605517
 21
5196.3557012091
 31
0.0
  0
LINE
  5
1AD
330
1F
100
AcDbEntity
  8
0
  6
Continuous
 62
     7
100
AcDbLine
 10
5403.5187460082
 20
5196.3557012091
 30
0.0
 11
5403.5187460082
 21
5199.3556998382
 31
0.0
  0
LINE
  5
1AE
330
1F
100
AcDbEntity
  8
0
  6
Continuous
 62
     7
100
AcDbLine
 10
5347.5187517302
 20
5223.8557047854
 30
0.0
 11
5347.5187517302
 21
5199.3556998382
 31
0.0
  0
LINE
  5
1AF
330
1F
100
AcDbEntity
  8
0
  6
Continuous
 62
     7
100
AcDbLine
 10
5400.5187548297
 20
5199.3556998382
 30
0.0
 11
5400.5187548297
 21
5223.8557047854
 31
0.0
  0
LINE
  5
1B0
330
1F
100
AcDbEntity
  8
0
  6
Continuous
 62
     7
100
AcDbLine
 10
5939.0187508958
 20
5236.355700315
 30
0.0
 11
5942.0187569755
 21
5229.3557010303
 31
0.0
  0
LINE
  5
1B1
330
1F
100
AcDbEntity
  8
0
  6
Continuous
 62
     7
100
AcDbLine
 10
6006.0187525647
 20
5229.3557010303
 30
0.0
 11
6009.0187586444
 21
5236.355700315
 31
0.0
  0
LINE
  5
1B2
330
1F
100
AcDbEntity
  8
0
  6
Continuous
 62
     7
100
AcDbLine
 10
5942.0187569755
 20
5229.3557010303
 30
0.0
 11
5947.5187606709
 21
5223.8557047854
 31
0.0
  0
LINE
  5
1B3
330
1F
100
AcDbEntity
  8
0
  6
Continuous
 62
     7
100
AcDbLine
 10
6000.5187488692
 20
5223.8557047854
 30
0.0
 11
6006.0187525647
 21
5229.3557010303
 31
0.0
  0
LINE
  5
1B4
330
1F
100
AcDbEntity
  8
0
  6
Continuous
 62
     7
100
AcDbLine
 10
5944.5187545913
 20
5199.3556998382
 30
0.0
 11
5944.5187545913
 21
5196.3557012091
 31
0.0
  0
LINE
  5
1B5
330
1F
100
AcDbEntity
  8
0
  6
Continuous
 62
     7
100
AcDbLine
 10
6003.5187549489
 20
5196.3557012091
 30
0.0
 11
6003.5187549489
 21
5199.3556998382
 31
0.0
  0
LINE
  5
1B6
330
1F
100
AcDbEntity
  8
0
  6
Continuous
 62
     7
100
AcDbLine
 10
5947.5187606709
 20
5223.8557047854
 30
0.0
 11
5947.5187606709
 21
5199.3556998382
 31
0.0
  0
LINE
  5
1B7
330
1F
100
AcDbEntity
  8
0
  6
Continuous
 62
     7
100
AcDbLine
 10
6000.5187488692
 20
5199.3556998382
 30
0.0
 11
6000.5187488692
 21
5223.8557047854
 31
0.0
  0
LINE
  5
1B8
330
1F
100
AcDbEntity
  8
0
  6
Continuous
 62
     7
100
AcDbLine
 10
5074.0187562602
 20
5372.7432049523
 30
0.0
 11
7474.018792023
 21
5372.7432049523
 31
0.0
  0
LINE
  5
1B9
330
1F
100
AcDbEntity
  8
0
  6
Continuous
 62
     7
100
AcDbLine
 10
7474.018792023
 20
5272.7432109128
 30
0.0
 11
7474.018792023
 21
5372.7432049523
 31
0.0
  0
LINE
  5
1BA
330
1F
100
AcDbEntity
  8
0
  6
Continuous
 62
     7
100
AcDbLine
 10
5074.0187562602
 20
5272.7432109128
 30
0.0
 11
7474.018792023
 21
5272.7432109128
 31
0.0
  0
LINE
  5
1BB
330
1F
100
AcDbEntity
  8
0
  6
Continuous
 62
     7
100
AcDbLine
 10
5074.0187562602
 20
5272.7432109128
 30
0.0
 11
5074.0187562602
 21
5372.7432049523
 31
0.0
  0
LINE
  5
1BC
330
1F
100
AcDbEntity
  8
0
  6
Continuous
 62
     7
100
AcDbLine
 10
7474.018792023
 20
5182.7432073365
 30
0.0
 11
7474.018792023
 21
5272.7432109128
 31
0.0
  0
LINE
  5
1BD
330
1F
100
AcDbEntity
  8
0
  6
Continuous
 62
     7
100
AcDbLine
 10
7474.018792023
 20
5182.7432073365
 30
0.0
 11
7472.8187121051
 21
5182.7432073365
 31
0.0
  0
LINE
  5
1BE
330
1F
100
AcDbEntity
  8
0
  6
Continuous
 62
     7
100
AcDbLine
 10
7472.8187121051
 20
5182.9592071186
 30
0.0
 11
7472.8187121051
 21
5272.5272036801
 31
0.0
  0
LINE
  5
1BF
330
1F
100
AcDbEntity
  8
0
  6
Continuous
 62
     7
100
AcDbLine
 10
5075.2187765735
 20
5272.5272036801
 30
0.0
 11
7472.8187121051
 21
5272.5272036801
 31
0.0
  0
LINE
  5
1C0
330
1F
100
AcDbEntity
  8
0
  6
Continuous
 62
     7
100
AcDbLine
 10
5075.2187765735
 20
5182.9592071186
 30
0.0
 11
5075.2187765735
 21
5272.5272036801
 31
0.0
  0
LINE
  5
1C1
330
1F
100
AcDbEntity
  8
0
  6
Continuous
 62
     7
100
AcDbLine
 10
5075.2187765735
 20
5182.7432073365
 30
0.0
 11
5074.0187562602
 21
5182.7432073365
 31
0.0
  0
LINE
  5
1C2
330
1F
100
AcDbEntity
  8
0
  6
Continuous
 62
     7
100
AcDbLine
 10
5074.0187562602
 20
5272.7432109128
 30
0.0
 11
5074.0187562602
 21
5182.7432073365
 31
0.0
  0
LINE
  5
1C3
330
1F
100
AcDbEntity
  8
0
  6
Continuous
 62
     7
100
AcDbLine
 10
5074.0187562602
 20
5374.7432090054
 30
0.0
 11
7474.018792023
 21
5374.7432090054
 31
0.0
  0
LINE
  5
1C4
330
1F
100
AcDbEntity
  8
0
  6
Continuous
 62
     7
100
AcDbLine
 10
7474.018792023
 20
5374.7432090054
 30
0.0
 11
7474.018792023
 21
5372.7432049523
 31
0.0
  0
LINE
  5
1C5
330
1F
100
AcDbEntity
  8
0
  6
Continuous
 62
     7
100
AcDbLine
 10
5074.0187562602
 20
5372.7432049523
 30
0.0
 11
5074.0187562602
 21
5374.7432090054
 31
0.0
  0
LINE
  5
1C6
330
1F
100
AcDbEntity
  8
0
  6
Continuous
 62
     7
100
AcDbLine
 10
5114.0187777179
 20
5272.5272036801
 30
0.0
 11
5114.0187777179
 21
5182.7432073365
 31
0.0
  0
LINE
  5
1C7
330
1F
100
AcDbEntity
  8
0
  6
Continuous
 62
     7
100
AcDbLine
 10
5114.0187777179
 20
5182.7432073365
 30
0.0
 11
5075.2187765735
 21
5182.7432073365
 31
0.0
  0
LINE
  5
1C8
330
1F
100
AcDbEntity
  8
0
  6
Continuous
 62
     7
100
AcDbLine
 10
5075.2187765735
 20
5182.7432073365
 30
0.0
 11
5075.2187765735
 21
5182.9592071186
 31
0.0
  0
LINE
  5
1C9
330
1F
100
AcDbEntity
  8
0
  6
Continuous
 62
     7
100
AcDbLine
 10
7472.8187121051
 20
5182.7432073365
 30
0.0
 11
7472.8187121051
 21
5182.9592071186
 31
0.0
  0
LINE
  5
1CA
330
1F
100
AcDbEntity
  8
0
  6
Continuous
 62
     7
100
AcDbLine
 10
7472.8187121051
 20
5182.7432073365
 30
0.0
 11
7434.0187109607
 21
5182.7432073365
 31
0.0
  0
LINE
  5
1CB
330
1F
100
AcDbEntity
  8
0
  6
Continuous
 62
     7
100
AcDbLine
 10
7434.0187109607
 20
5182.7432073365
 30
0.0
 11
7434.0187109607
 21
5272.5272036801
 31
0.0
  0
LINE
  5
1CC
330
1F
100
AcDbEntity
  8
0
  6
Continuous
 62
     7
100
AcDbLine
 10
5074.0187562602
 20
5412.7431966076
 30
0.0
 11
7474.018792023
 21
5412.7431966076
 31
0.0
  0
LINE
  5
1CD
330
1F
100
AcDbEntity
  8
0
  6
Continuous
 62
     7
100
AcDbLine
 10
7474.018792023
 20
5412.7431966076
 30
0.0
 11
7474.018792023
 21
5374.7432090054
 31
0.0
  0
LINE
  5
1CE
330
1F
100
AcDbEntity
  8
0
  6
Continuous
 62
     7
100
AcDbLine
 10
5074.0187562602
 20
5412.7431966076
 30
0.0
 11
5074.0187562602
 21
5374.7432090054
 31
0.0
  0
LINE
  5
1CF
330
1F
100
AcDbEntity
  8
0
  6
Continuous
 62
     7
100
AcDbLine
 10
5974.0187622207
 20
5192.3557042788
 30
0.0
 11
6002.0187593596
 21
5192.3557042788
 31
0.0
  0
LINE
  5
1D0
330
1F
100
AcDbEntity
  8
0
  6
Continuous
 62
     7
100
AcDbLine
 10
5946.0187501805
 20
5192.3557042788
 30
0.0
 11
5974.0187622207
 21
5192.3557042788
 31
0.0
  0
LINE
  5
1D1
330
1F
100
AcDbEntity
  8
0
  6
Continuous
 62
     7
100
AcDbLine
 10
5974.0187622207
 20
5196.3557012091
 30
0.0
 11
6004.0187485116
 21
5196.3557012091
 31
0.0
  0
LINE
  5
1D2
330
1F
100
AcDbEntity
  8
0
  6
Continuous
 62
     7
100
AcDbLine
 10
5944.0187610286
 20
5196.3557012091
 30
0.0
 11
5974.0187622207
 21
5196.3557012091
 31
0.0
  0
LINE
  5
1D3
330
1F
100
AcDbEntity
  8
0
  6
Continuous
 62
     7
100
AcDbLine
 10
5974.0187622207
 20
5182.3557026396
 30
0.0
 11
5999.01875328
 21
5182.3557026396
 31
0.0
  0
LINE
  5
1D4
330
1F
100
AcDbEntity
  8
0
  6
Continuous
 62
     7
100
AcDbLine
 10
5949.0187562602
 20
5182.3557026396
 30
0.0
 11
5974.0187622207
 21
5182.3557026396
 31
0.0
  0
LINE
  5
1D5
330
1F
100
AcDbEntity
  8
0
  6
Continuous
 62
     7
100
AcDbLine
 10
7174.0187204974
 20
5192.3557042788
 30
0.0
 11
7202.0187176364
 21
5192.3557042788
 31
0.0
  0
LINE
  5
1D6
330
1F
100
AcDbEntity
  8
0
  6
Continuous
 62
     7
100
AcDbLine
 10
7146.0187233584
 20
5192.3557042788
 30
0.0
 11
7174.0187204974
 21
5192.3557042788
 31
0.0
  0
LINE
  5
1D7
330
1F
100
AcDbEntity
  8
0
  6
Continuous
 62
     7
100
AcDbLine
 10
7174.0187204974
 20
5196.3557012091
 30
0.0
 11
7204.0188110965
 21
5196.3557012091
 31
0.0
  0
LINE
  5
1D8
330
1F
100
AcDbEntity
  8
0
  6
Continuous
 62
     7
100
AcDbLine
 10
7144.0187491076
 20
5196.3557012091
 30
0.0
 11
7174.0187204974
 21
5196.3557012091
 31
0.0
  0
LINE
  5
1D9
330
1F
100
AcDbEntity
  8
0
  6
Continuous
 62
     7
100
AcDbLine
 10
7174.0187204974
 20
5182.3557026396
 30
0.0
 11
7199.0186966556
 21
5182.3557026396
 31
0.0
  0
LINE
  5
1DA
330
1F
100
AcDbEntity
  8
0
  6
Continuous
 62
     7
100
AcDbLine
 10
7149.0187443393
 20
5182.3557026396
 30
0.0
 11
7174.0187204974
 21
5182.3557026396
 31
0.0
  0
LINE
  5
1DB
330
1F
100
AcDbEntity
  8
0
  6
Continuous
 62
     7
100
AcDbLine
 10
5374.0187681811
 20
5192.3557042788
 30
0.0
 11
5402.0187653201
 21
5192.3557042788
 31
0.0
  0
LINE
  5
1DC
330
1F
100
AcDbEntity
  8
0
  6
Continuous
 62
     7
100
AcDbLine
 10
5346.0187412398
 20
5192.3557042788
 30
0.0
 11
5374.0187681811
 21
5192.3557042788
 31
0.0
  0
LINE
  5
1DD
330
1F
100
AcDbEntity
  8
0
  6
Continuous
 62
     7
100
AcDbLine
 10
5374.0187681811
 20
5196.3557012091
 30
0.0
 11
5404.0187693732
 21
5196.3557012091
 31
0.0
  0
LINE
  5
1DE
330
1F
100
AcDbEntity
  8
0
  6
Continuous
 62
     7
100
AcDbLine
 10
5344.018766989
 20
5196.3557012091
 30
0.0
 11
5374.0187681811
 21
5196.3557012091
 31
0.0
  0
LINE
  5
1DF
330
1F
100
AcDbEntity
  8
0
  6
Continuous
 62
     7
100
AcDbLine
 10
5374.0187681811
 20
5182.3557026396
 30
0.0
 11
5399.0187443393
 21
5182.3557026396
 31
0.0
  0
LINE
  5
1E0
330
1F
100
AcDbEntity
  8
0
  6
Continuous
 62
     7
100
AcDbLine
 10
5349.0187622207
 20
5182.3557026396
 30
0.0
 11
5374.0187681811
 21
5182.3557026396
 31
0.0
  0
LINE
  5
1E1
330
1F
100
AcDbEntity
  8
0
  6
Continuous
 62
     7
100
AcDbLine
 10
6574.0187562602
 20
5192.3557042788
 30
0.0
 11
6602.0187533992
 21
5192.3557042788
 31
0.0
  0
LINE
  5
1E2
330
1F
100
AcDbEntity
  8
0
  6
Continuous
 62
     7
100
AcDbLine
 10
6546.0187591212
 20
5192.3557042788
 30
0.0
 11
6574.0187562602
 21
5192.3557042788
 31
0.0
  0
LINE
  5
1E3
330
1F
100
AcDbEntity
  8
0
  6
Continuous
 62
     7
100
AcDbLine
 10
6574.0187562602
 20
5196.3557012091
 30
0.0
 11
6604.01872765
 21
5196.3557012091
 31
0.0
  0
LINE
  5
1E4
330
1F
100
AcDbEntity
  8
0
  6
Continuous
 62
     7
100
AcDbLine
 10
6544.0187848704
 20
5196.3557012091
 30
0.0
 11
6574.0187562602
 21
5196.3557012091
 31
0.0
  0
LINE
  5
1E5
330
1F
100
AcDbEntity
  8
0
  6
Continuous
 62
     7
100
AcDbLine
 10
6574.0187562602
 20
5182.3557026396
 30
0.0
 11
6599.0187324183
 21
5182.3557026396
 31
0.0
  0
LINE
  5
1E6
330
1F
100
AcDbEntity
  8
0
  6
Continuous
 62
     7
100
AcDbLine
 10
6549.0187801021
 20
5182.3557026396
 30
0.0
 11
6574.0187562602
 21
5182.3557026396
 31
0.0
  0
LINE
  5
1E7
330
1F
100
AcDbEntity
  8
0
  6
Continuous
 62
     7
100
AcDbLine
 10
6540.0187767642
 20
5084.6557028304
 30
0.0
 11
6608.0187357562
 21
5084.6557028304
 31
0.0
  0
LINE
  5
1E8
330
1F
100
AcDbEntity
  8
0
  6
Continuous
 62
     7
100
AcDbLine
 10
6549.6890939372
 20
5144.6557033519
 30
0.0
 11
6598.3484185832
 21
5144.6557033519
 31
0.0
  0
LINE
  5
1E9
330
1F
100
AcDbEntity
  8
0
  6
Continuous
 62
     7
100
AcDbLine
 10
6549.8969353335
 20
5014.6557025323
 30
0.0
 11
6598.1405771869
 21
5014.6557025323
 31
0.0
  0
LINE
  5
1EA
330
1F
100
AcDbEntity
  8
0
  6
Continuous
 62
     7
100
AcDbLine
 10
6551.0187543528
 20
5151.155703486
 30
0.0
 11
6597.0187581675
 21
5151.155703486
 31
0.0
  0
LINE
  5
1EB
330
1F
100
AcDbEntity
  8
0
  6
Continuous
 62
     7
100
AcDbLine
 10
6549.0187801021
 20
5147.1557037617
 30
0.0
 11
6599.0187324183
 21
5147.1557037617
 31
0.0
  0
LINE
  5
1EC
330
1F
100
AcDbEntity
  8
0
  6
Continuous
 62
     7
100
AcDbLine
 10
6554.0187753337
 20
5161.1557032625
 30
0.0
 11
6594.0187371867
 21
5161.1557032625
 31
0.0
  0
LINE
  5
1ED
330
1F
100
AcDbEntity
  8
0
  6
Continuous
 62
     7
100
AcDbLine
 10
6590.5187524455
 20
5144.6557033519
 30
0.0
 11
6590.0187290805
 21
5145.0219729627
 31
0.0
  0
LINE
  5
1EE
330
1F
100
AcDbEntity
  8
0
  6
Continuous
 62
     7
100
AcDbLine
 10
6558.0187834399
 20
5145.0219729627
 30
0.0
 11
6557.5187600749
 21
5144.6557033519
 31
0.0
  0
LINE
  5
1EF
330
1F
100
AcDbEntity
  8
0
  6
Continuous
 62
     7
100
AcDbLine
 10
7140.0188006061
 20
5084.6557028304
 30
0.0
 11
7208.0187595981
 21
5084.6557028304
 31
0.0
  0
LINE
  5
1F0
330
1F
100
AcDbEntity
  8
0
  6
Continuous
 62
     7
100
AcDbLine
 10
7149.6890581744
 20
5144.6557033519
 30
0.0
 11
7198.3483828204
 21
5144.6557033519
 31
0.0
  0
LINE
  5
1F1
330
1F
100
AcDbEntity
  8
0
  6
Continuous
 62
     7
100
AcDbLine
 10
7149.8969591754
 20
5014.6557025323
 30
0.0
 11
7198.1406010287
 21
5014.6557025323
 31
0.0
  0
LINE
  5
1F2
330
1F
100
AcDbEntity
  8
0
  6
Continuous
 62
     7
100
AcDbLine
 10
7151.0187185901
 20
5151.155703486
 30
0.0
 11
7197.0187224048
 21
5151.155703486
 31
0.0
  0
LINE
  5
1F3
330
1F
100
AcDbEntity
  8
0
  6
Continuous
 62
     7
100
AcDbLine
 10
7149.0187443393
 20
5147.1557037617
 30
0.0
 11
7199.0186966556
 21
5147.1557037617
 31
0.0
  0
LINE
  5
1F4
330
1F
100
AcDbEntity
  8
0
  6
Continuous
 62
     7
100
AcDbLine
 10
7154.0187395709
 20
5161.1557032625
 30
0.0
 11
7194.0187014239
 21
5161.1557032625
 31
0.0
  0
LINE
  5
1F5
330
1F
100
AcDbEntity
  8
0
  6
Continuous
 62
     7
100
AcDbLine
 10
7190.5187166827
 20
5144.6557033519
 30
0.0
 11
7190.0187529223
 21
5145.0219729627
 31
0.0
  0
LINE
  5
1F6
330
1F
100
AcDbEntity
  8
0
  6
Continuous
 62
     7
100
AcDbLine
 10
7158.0188072818
 20
5145.0219729627
 30
0.0
 11
7157.5187243121
 21
5144.6557033519
 31
0.0
  0
LINE
  5
1F7
330
1F
100
AcDbEntity
  8
0
  6
Continuous
 62
     7
100
AcDbLine
 10
5340.0187588828
 20
5084.6557028304
 30
0.0
 11
5408.0187476771
 21
5084.6557028304
 31
0.0
  0
LINE
  5
1F8
330
1F
100
AcDbEntity
  8
0
  6
Continuous
 62
     7
100
AcDbLine
 10
5349.6891058581
 20
5144.6557033519
 30
0.0
 11
5398.3484007018
 21
5144.6557033519
 31
0.0
  0
LINE
  5
1F9
330
1F
100
AcDbEntity
  8
0
  6
Continuous
 62
     7
100
AcDbLine
 10
5349.8969174521
 20
5014.6557025323
 30
0.0
 11
5398.1405891078
 21
5014.6557025323
 31
0.0
  0
LINE
  5
1FA
330
1F
100
AcDbEntity
  8
0
  6
Continuous
 62
     7
100
AcDbLine
 10
5351.0187662738
 20
5151.155703486
 30
0.0
 11
5397.0187700885
 21
5151.155703486
 31
0.0
  0
LINE
  5
1FB
330
1F
100
AcDbEntity
  8
0
  6
Continuous
 62
     7
100
AcDbLine
 10
5349.0187622207
 20
5147.1557037617
 30
0.0
 11
5399.0187443393
 21
5147.1557037617
 31
0.0
  0
LINE
  5
1FC
330
1F
100
AcDbEntity
  8
0
  6
Continuous
 62
     7
100
AcDbLine
 10
5354.0187574523
 20
5161.1557032625
 30
0.0
 11
5394.0187491076
 21
5161.1557032625
 31
0.0
  0
LINE
  5
1FD
330
1F
100
AcDbEntity
  8
0
  6
Continuous
 62
     7
100
AcDbLine
 10
5390.5187643664
 20
5144.6557033519
 30
0.0
 11
5390.0187410014
 21
5145.0219729627
 31
0.0
  0
LINE
  5
1FE
330
1F
100
AcDbEntity
  8
0
  6
Continuous
 62
     7
100
AcDbLine
 10
5358.0187655585
 20
5145.0219729627
 30
0.0
 11
5357.5187421935
 21
5144.6557033519
 31
0.0
  0
LINE
  5
1FF
330
1F
100
AcDbEntity
  8
0
  6
Continuous
 62
     7
100
AcDbLine
 10
5940.0187529223
 20
5084.6557028304
 30
0.0
 11
6008.0187566178
 21
5084.6557028304
 31
0.0
  0
LINE
  5
200
330
1F
100
AcDbEntity
  8
0
  6
Continuous
 62
     7
100
AcDbLine
 10
5949.6890998977
 20
5144.6557033519
 30
0.0
 11
5998.3484096425
 21
5144.6557033519
 31
0.0
  0
LINE
  5
201
330
1F
100
AcDbEntity
  8
0
  6
Continuous
 62
     7
100
AcDbLine
 10
5949.8969263928
 20
5014.6557025323
 30
0.0
 11
5998.1405831473
 21
5014.6557025323
 31
0.0
  0
LINE
  5
202
330
1F
100
AcDbEntity
  8
0
  6
Continuous
 62
     7
100
AcDbLine
 10
5951.0187603133
 20
5151.155703486
 30
0.0
 11
5997.0187492268
 21
5151.155703486
 31
0.0
  0
LINE
  5
203
330
1F
100
AcDbEntity
  8
0
  6
Continuous
 62
     7
100
AcDbLine
 10
5949.0187562602
 20
5147.1557037617
 30
0.0
 11
5999.01875328
 21
5147.1557037617
 31
0.0
  0
LINE
  5
204
330
1F
100
AcDbEntity
  8
0
  6
Continuous
 62
     7
100
AcDbLine
 10
5954.0187514918
 20
5161.1557032625
 30
0.0
 11
5994.0187580483
 21
5161.1557032625
 31
0.0
  0
LINE
  5
205
330
1F
100
AcDbEntity
  8
0
  6
Continuous
 62
     7
100
AcDbLine
 10
5990.518758406
 20
5144.6557033519
 30
0.0
 11
5990.0187499421
 21
5145.0219729627
 31
0.0
  0
LINE
  5
206
330
1F
100
AcDbEntity
  8
0
  6
Continuous
 62
     7
100
AcDbLine
 10
5958.0187595981
 20
5145.0219729627
 30
0.0
 11
5957.5187511342
 21
5144.6557033519
 31
0.0
  0
LINE
  5
207
330
1F
100
AcDbEntity
  8
0
  6
Continuous
 62
     7
100
AcDbLine
 10
7139.018753876
 20
5236.355700315
 30
0.0
 11
7209.0188063281
 21
5236.355700315
 31
0.0
  0
LINE
  5
208
330
1F
100
AcDbEntity
  8
0
  6
Continuous
 62
     7
100
AcDbLine
 10
7142.0187748568
 20
5229.3557010303
 30
0.0
 11
7206.0187853473
 21
5229.3557010303
 31
0.0
  0
LINE
  5
209
330
1F
100
AcDbEntity
  8
0
  6
Continuous
 62
     7
100
AcDbLine
 10
7147.5187338488
 20
5223.8557047854
 30
0.0
 11
7200.518707146
 21
5223.8557047854
 31
0.0
  0
LINE
  5
20A
330
1F
100
AcDbEntity
  8
0
  6
Continuous
 62
     7
100
AcDbLine
 10
7144.518712868
 20
5199.3556998382
 30
0.0
 11
7203.5187281268
 21
5199.3556998382
 31
0.0
  0
LINE
  5
20B
330
1F
100
AcDbEntity
  8
0
  6
Continuous
 62
     7
100
AcDbLine
 10
6539.0187300342
 20
5236.355700315
 30
0.0
 11
6609.0187824862
 21
5236.355700315
 31
0.0
  0
LINE
  5
20C
330
1F
100
AcDbEntity
  8
0
  6
Continuous
 62
     7
100
AcDbLine
 10
6542.018751015
 20
5229.3557010303
 30
0.0
 11
6606.0187615054
 21
5229.3557010303
 31
0.0
  0
LINE
  5
20D
330
1F
100
AcDbEntity
  8
0
  6
Continuous
 62
     7
100
AcDbLine
 10
6547.5187696116
 20
5223.8557047854
 30
0.0
 11
6600.5187429088
 21
5223.8557047854
 31
0.0
  0
LINE
  5
20E
330
1F
100
AcDbEntity
  8
0
  6
Continuous
 62
     7
100
AcDbLine
 10
6544.5187486308
 20
5199.3556998382
 30
0.0
 11
6603.5187638896
 21
5199.3556998382
 31
0.0
  0
LINE
  5
20F
330
1F
100
AcDbEntity
  8
0
  6
Continuous
 62
     7
100
AcDbLine
 10
5339.0187419551
 20
5236.355700315
 30
0.0
 11
5409.0187646048
 21
5236.355700315
 31
0.0
  0
LINE
  5
210
330
1F
100
AcDbEntity
  8
0
  6
Continuous
 62
     7
100
AcDbLine
 10
5342.0187629359
 20
5229.3557010303
 30
0.0
 11
5406.018743624
 21
5229.3557010303
 31
0.0
  0
LINE
  5
211
330
1F
100
AcDbEntity
  8
0
  6
Continuous
 62
     7
100
AcDbLine
 10
5347.5187517302
 20
5223.8557047854
 30
0.0
 11
5400.5187548297
 21
5223.8557047854
 31
0.0
  0
LINE
  5
212
330
1F
100
AcDbEntity
  8
0
  6
Continuous
 62
     7
100
AcDbLine
 10
5344.5187605517
 20
5199.3556998382
 30
0.0
 11
5403.5187460082
 21
5199.3556998382
 31
0.0
  0
LINE
  5
213
330
1F
100
AcDbEntity
  8
0
  6
Continuous
 62
     7
100
AcDbLine
 10
5939.0187508958
 20
5236.355700315
 30
0.0
 11
6009.0187586444
 21
5236.355700315
 31
0.0
  0
LINE
  5
214
330
1F
100
AcDbEntity
  8
0
  6
Continuous
 62
     7
100
AcDbLine
 10
5942.0187569755
 20
5229.3557010303
 30
0.0
 11
6006.0187525647
 21
5229.3557010303
 31
0.0
  0
LINE
  5
215
330
1F
100
AcDbEntity
  8
0
  6
Continuous
 62
     7
100
AcDbLine
 10
5947.5187606709
 20
5223.8557047854
 30
0.0
 11
6000.5187488692
 21
5223.8557047854
 31
0.0
  0
LINE
  5
216
330
1F
100
AcDbEntity
  8
0
  6
Continuous
 62
     7
100
AcDbLine
 10
5944.5187545913
 20
5199.3556998382
 30
0.0
 11
6003.5187549489
 21
5199.3556998382
 31
0.0
  0
LINE
  5
217
330
1F
100
AcDbEntity
  8
0
  6
Continuous
 62
     7
100
AcDbLine
 10
7174.0187204974
 20
5237.3570657979
 30
0.0
 11
7211.1135239635
 21
5237.357064114
 31
0.0
  0
LINE
  5
218
330
1F
100
AcDbEntity
  8
0
  6
Continuous
 62
     7
100
AcDbLine
 10
7136.9239867087
 20
5237.357064114
 30
0.0
 11
7174.0187204974
 21
5237.3570657979
 31
0.0
  0
LINE
  5
219
330
1F
100
AcDbEntity
  8
0
  6
Continuous
 62
     7
100
AcDbLine
 10
5374.0187681811
 20
5237.3570657979
 30
0.0
 11
5411.1135239635
 21
5237.357064114
 31
0.0
  0
LINE
  5
21A
330
1F
100
AcDbEntity
  8
0
  6
Continuous
 62
     7
100
AcDbLine
 10
5336.9239867087
 20
5237.357064114
 30
0.0
 11
5374.0187681811
 21
5237.3570657979
 31
0.0
  0
LINE
  5
21B
330
1F
100
AcDbEntity
  8
0
  6
Continuous
 62
     7
100
AcDbLine
 10
6574.0187562602
 20
5237.3570657979
 30
0.0
 11
6611.1135239635
 21
5237.357064114
 31
0.0
  0
LINE
  5
21C
330
1F
100
AcDbEntity
  8
0
  6
Continuous
 62
     7
100
AcDbLine
 10
6536.9239867087
 20
5237.357064114
 30
0.0
 11
6574.0187562602
 21
5237.3570657979
 31
0.0
  0
LINE
  5
21D
330
1F
100
AcDbEntity
  8
0
  6
Continuous
 62
     7
100
AcDbLine
 10
5974.0187622207
 20
5237.3570657979
 30
0.0
 11
6011.1135239635
 21
5237.357064114
 31
0.0
  0
LINE
  5
21E
330
1F
100
AcDbEntity
  8
0
  6
Continuous
 62
     7
100
AcDbLine
 10
5936.9239867087
 20
5237.357064114
 30
0.0
 11
5974.0187622207
 21
5237.3570657979
 31
0.0
  0
LINE
  5
21F
330
1F
100
AcDbEntity
  8
0
  6
Continuous
 62
     7
100
AcDbLine
 10
5374.0187681811
 20
5236.6942174445
 30
0.0
 11
5409.6015192168
 21
5236.6942174445
 31
0.0
  0
LINE
  5
220
330
1F
100
AcDbEntity
  8
0
  6
Continuous
 62
     7
100
AcDbLine
 10
5338.4359873431
 20
5236.6942174445
 30
0.0
 11
5374.0187681811
 21
5236.6942174445
 31
0.0
  0
LINE
  5
221
330
1F
100
AcDbEntity
  8
0
  6
Continuous
 62
     7
100
AcDbLine
 10
5974.0187622207
 20
5236.6942174445
 30
0.0
 11
6009.6015281575
 21
5236.6942174445
 31
0.0
  0
LINE
  5
222
330
1F
100
AcDbEntity
  8
0
  6
Continuous
 62
     7
100
AcDbLine
 10
5938.4359813826
 20
5236.6942174445
 30
0.0
 11
5974.0187622207
 21
5236.6942174445
 31
0.0
  0
LINE
  5
223
330
1F
100
AcDbEntity
  8
0
  6
Continuous
 62
     7
100
AcDbLine
 10
7174.0187204974
 20
5236.6942174445
 30
0.0
 11
7209.6015013354
 21
5236.6942174445
 31
0.0
  0
LINE
  5
224
330
1F
100
AcDbEntity
  8
0
  6
Continuous
 62
     7
100
AcDbLine
 10
7138.4359396594
 20
5236.6942174445
 30
0.0
 11
7174.0187204974
 21
5236.6942174445
 31
0.0
  0
LINE
  5
225
330
1F
100
AcDbEntity
  8
0
  6
Continuous
 62
     7
100
AcDbLine
 10
6574.0187562602
 20
5236.6942174445
 30
0.0
 11
6609.6015370982
 21
5236.6942174445
 31
0.0
  0
LINE
  5
226
330
1F
100
AcDbEntity
  8
0
  6
Continuous
 62
     7
100
AcDbLine
 10
6538.4359754222
 20
5236.6942174445
 30
0.0
 11
6574.0187562602
 21
5236.6942174445
 31
0.0
  0
LINE
  5
227
330
1F
100
AcDbEntity
  8
0
  6
Continuous
 62
     7
100
AcDbLine
 10
5974.0187622207
 20
5185.355704994
 30
0.0
 11
6002.0187593596
 21
5185.355704994
 31
0.0
  0
LINE
  5
228
330
1F
100
AcDbEntity
  8
0
  6
Continuous
 62
     7
100
AcDbLine
 10
5946.0187501805
 20
5185.355704994
 30
0.0
 11
5974.0187622207
 21
5185.355704994
 31
0.0
  0
LINE
  5
229
330
1F
100
AcDbEntity
  8
0
  6
Continuous
 62
     7
100
AcDbLine
 10
7174.0187204974
 20
5185.355704994
 30
0.0
 11
7202.0187176364
 21
5185.355704994
 31
0.0
  0
LINE
  5
22A
330
1F
100
AcDbEntity
  8
0
  6
Continuous
 62
     7
100
AcDbLine
 10
7146.0187233584
 20
5185.355704994
 30
0.0
 11
7174.0187204974
 21
5185.355704994
 31
0.0
  0
LINE
  5
22B
330
1F
100
AcDbEntity
  8
0
  6
Continuous
 62
     7
100
AcDbLine
 10
5374.0187681811
 20
5185.355704994
 30
0.0
 11
5402.0187653201
 21
5185.355704994
 31
0.0
  0
LINE
  5
22C
330
1F
100
AcDbEntity
  8
0
  6
Continuous
 62
     7
100
AcDbLine
 10
5346.0187412398
 20
5185.355704994
 30
0.0
 11
5374.0187681811
 21
5185.355704994
 31
0.0
  0
LINE
  5
22D
330
1F
100
AcDbEntity
  8
0
  6
Continuous
 62
     7
100
AcDbLine
 10
6574.0187562602
 20
5185.355704994
 30
0.0
 11
6602.0187533992
 21
5185.355704994
 31
0.0
  0
LINE
  5
22E
330
1F
100
AcDbEntity
  8
0
  6
Continuous
 62
     7
100
AcDbLine
 10
6546.0187591212
 20
5185.355704994
 30
0.0
 11
6574.0187562602
 21
5185.355704994
 31
0.0
  0
LINE
  5
22F
330
1F
100
AcDbEntity
  8
0
  6
Continuous
 62
     7
100
AcDbLine
 10
6546.9125307696
 20
5017.3500261913
 30
0.0
 11
6601.1249817508
 21
5017.3500261913
 31
0.0
  0
LINE
  5
230
330
1F
100
AcDbEntity
  8
0
  6
Continuous
 62
     7
100
AcDbLine
 10
6601.3281739848
 20
5142.0033460195
 30
0.0
 11
6546.7093385356
 21
5142.0033460195
 31
0.0
  0
LINE
  5
231
330
1F
100
AcDbEntity
  8
0
  6
Continuous
 62
     7
100
AcDbLine
 10
6551.0187543528
 20
5158.1557027708
 30
0.0
 11
6597.0187581675
 21
5158.1557027708
 31
0.0
  0
LINE
  5
232
330
1F
100
AcDbEntity
  8
0
  6
Continuous
 62
     7
100
AcDbLine
 10
7146.9125546115
 20
5017.3500261913
 30
0.0
 11
7201.1250055926
 21
5017.3500261913
 31
0.0
  0
LINE
  5
233
330
1F
100
AcDbEntity
  8
0
  6
Continuous
 62
     7
100
AcDbLine
 10
7201.328138222
 20
5142.0033460195
 30
0.0
 11
7146.7093027728
 21
5142.0033460195
 31
0.0
  0
LINE
  5
234
330
1F
100
AcDbEntity
  8
0
  6
Continuous
 62
     7
100
AcDbLine
 10
7151.0187185901
 20
5158.1557027708
 30
0.0
 11
7197.0187224048
 21
5158.1557027708
 31
0.0
  0
LINE
  5
235
330
1F
100
AcDbEntity
  8
0
  6
Continuous
 62
     7
100
AcDbLine
 10
5346.9125426906
 20
5017.3500261913
 30
0.0
 11
5401.1249638694
 21
5017.3500261913
 31
0.0
  0
LINE
  5
236
330
1F
100
AcDbEntity
  8
0
  6
Continuous
 62
     7
100
AcDbLine
 10
5401.3281859057
 20
5142.0033460195
 30
0.0
 11
5346.7093206542
 21
5142.0033460195
 31
0.0
  0
LINE
  5
237
330
1F
100
AcDbEntity
  8
0
  6
Continuous
 62
     7
100
AcDbLine
 10
5351.0187662738
 20
5158.1557027708
 30
0.0
 11
5397.0187700885
 21
5158.1557027708
 31
0.0
  0
LINE
  5
238
330
1F
100
AcDbEntity
  8
0
  6
Continuous
 62
     7
100
AcDbLine
 10
6001.3281948464
 20
5142.0033460195
 30
0.0
 11
5946.7093146937
 21
5142.0033460195
 31
0.0
  0
LINE
  5
239
330
1F
100
AcDbEntity
  8
0
  6
Continuous
 62
     7
100
AcDbLine
 10
5946.9125367301
 20
5017.3500261913
 30
0.0
 11
6001.1249728101
 21
5017.3500261913
 31
0.0
  0
LINE
  5
23A
330
1F
100
AcDbEntity
  8
0
  6
Continuous
 62
     7
100
AcDbLine
 10
5951.0187603133
 20
5158.1557027708
 30
0.0
 11
5997.0187492268
 21
5158.1557027708
 31
0.0
  0
LINE
  5
23B
330
1F
100
AcDbEntity
  8
0
  6
Continuous
 62
     7
100
AcDbLine
 10
8182.0455553415
 20
5237.3570657979
 30
0.0
 11
8190.2439358117
 21
5240.2648634921
 31
0.0
  0
LINE
  5
23C
330
1F
100
AcDbEntity
  8
0
  6
Continuous
 62
     7
100
AcDbLine
 10
8190.2439358117
 20
5240.2648634921
 30
0.0
 11
8195.0621368768
 21
5242.1632416258
 31
0.0
  0
LINE
  5
23D
330
1F
100
AcDbEntity
  8
0
  6
Continuous
 62
     7
100
AcDbLine
 10
8179.9242260339
 20
5236.355700315
 30
0.0
 11
8180.5336239221
 21
5236.6942174445
 31
0.0
  0
LINE
  5
23E
330
1F
100
AcDbEntity
  8
0
  6
Continuous
 62
     7
100
AcDbLine
 10
8114.9508716943
 20
5196.3557012091
 30
0.0
 11
8116.9508459451
 21
5192.3557042788
 31
0.0
  0
LINE
  5
23F
330
1F
100
AcDbEntity
  8
0
  6
Continuous
 62
     7
100
AcDbLine
 10
8172.9508402231
 20
5192.3557042788
 30
0.0
 11
8174.9508144739
 21
5196.3557012091
 31
0.0
  0
LINE
  5
240
330
1F
100
AcDbEntity
  8
0
  6
Continuous
 62
     7
100
AcDbLine
 10
8116.9508459451
 20
5192.3557042788
 30
0.0
 11
8116.9508459451
 21
5185.355704994
 31
0.0
  0
LINE
  5
241
330
1F
100
AcDbEntity
  8
0
  6
Continuous
 62
     7
100
AcDbLine
 10
8172.9508402231
 20
5185.355704994
 30
0.0
 11
8172.9508402231
 21
5192.3557042788
 31
0.0
  0
LINE
  5
242
330
1F
100
AcDbEntity
  8
0
  6
Continuous
 62
     7
100
AcDbLine
 10
8128.9508106592
 20
5182.3557026396
 30
0.0
 11
8128.9508106592
 21
5161.1557032625
 31
0.0
  0
LINE
  5
243
330
1F
100
AcDbEntity
  8
0
  6
Continuous
 62
     7
100
AcDbLine
 10
8128.9508106592
 20
5147.1557037617
 30
0.0
 11
8128.9508106592
 21
5144.6557033519
 31
0.0
  0
LINE
  5
244
330
1F
100
AcDbEntity
  8
0
  6
Continuous
 62
     7
100
AcDbLine
 10
8160.950875509
 20
5144.6557033519
 30
0.0
 11
8160.950875509
 21
5147.1557037617
 31
0.0
  0
LINE
  5
245
330
1F
100
AcDbEntity
  8
0
  6
Continuous
 62
     7
100
AcDbLine
 10
8160.950875509
 20
5161.1557032625
 30
0.0
 11
8160.950875509
 21
5182.3557026396
 31
0.0
  0
LINE
  5
246
330
1F
100
AcDbEntity
  8
0
  6
Continuous
 62
     7
100
AcDbLine
 10
7879.8562648179
 20
5162.655702577
 30
0.0
 11
7864.8562791231
 21
5162.655702577
 31
0.0
  0
LINE
  5
247
330
1F
100
AcDbEntity
  8
0
  6
Continuous
 62
     7
100
AcDbLine
 10
7864.8562791231
 20
5082.6557025025
 30
0.0
 11
7879.8562648179
 21
5082.6557025025
 31
0.0
  0
LINE
  5
248
330
1F
100
AcDbEntity
  8
0
  6
Continuous
 62
     7
100
AcDbLine
 10
7864.8562791231
 20
5142.6557039554
 30
0.0
 11
7854.8562290552
 21
5142.6557039554
 31
0.0
  0
LINE
  5
249
330
1F
100
AcDbEntity
  8
0
  6
Continuous
 62
     7
100
AcDbLine
 10
7854.8562290552
 20
5102.6557039181
 30
0.0
 11
7864.8562791231
 21
5102.6557039181
 31
0.0
  0
LINE
  5
24A
330
1F
100
AcDbEntity
  8
0
  6
Continuous
 62
     7
100
AcDbLine
 10
8084.9507810953
 20
5142.6557039554
 30
0.0
 11
7899.8562457445
 21
5142.6557039554
 31
0.0
  0
LINE
  5
24B
330
1F
100
AcDbEntity
  8
0
  6
Continuous
 62
     7
100
AcDbLine
 10
7899.8562457445
 20
5102.6557039181
 30
0.0
 11
8084.9507810953
 21
5102.6557039181
 31
0.0
  0
LINE
  5
24C
330
1F
100
AcDbEntity
  8
0
  6
Continuous
 62
     7
100
AcDbLine
 10
8178.9508821847
 20
5084.6557028304
 30
0.0
 11
8172.2602608087
 21
5142.0033460195
 31
0.0
  0
LINE
  5
24D
330
1F
100
AcDbEntity
  8
0
  6
Continuous
 62
     7
100
AcDbLine
 10
8112.8219129922
 20
5100.6937183152
 30
0.0
 11
8110.9508039834
 21
5084.6557028304
 31
0.0
  0
LINE
  5
24E
330
1F
100
AcDbEntity
  8
0
  6
Continuous
 62
     7
100
AcDbLine
 10
8110.9508039834
 20
5084.6557028304
 30
0.0
 11
8117.8445579889
 21
5017.3500261913
 31
0.0
  0
LINE
  5
24F
330
1F
100
AcDbEntity
  8
0
  6
Continuous
 62
     7
100
AcDbLine
 10
8172.05700897
 20
5017.3500261913
 30
0.0
 11
8178.9508821847
 21
5084.6557028304
 31
0.0
  0
LINE
  5
250
330
1F
100
AcDbEntity
  8
0
  6
Continuous
 62
     7
100
AcDbLine
 10
8100.9508135202
 20
5150.1557033221
 30
0.0
 11
8096.9508650186
 21
5148.6557040076
 31
0.0
  0
LINE
  5
251
330
1F
100
AcDbEntity
  8
0
  6
Continuous
 62
     7
100
AcDbLine
 10
8096.9508650186
 20
5096.6557047973
 30
0.0
 11
8100.9508135202
 21
5095.1557017575
 31
0.0
  0
LINE
  5
252
330
1F
100
AcDbEntity
  8
0
  6
Continuous
 62
     7
100
AcDbLine
 10
8096.9508650186
 20
5148.6557040076
 30
0.0
 11
8087.9508020761
 21
5148.6557040076
 31
0.0
  0
LINE
  5
253
330
1F
100
AcDbEntity
  8
0
  6
Continuous
 62
     7
100
AcDbLine
 10
8087.9508020761
 20
5096.6557047973
 30
0.0
 11
8096.9508650186
 21
5096.6557047973
 31
0.0
  0
LINE
  5
254
330
1F
100
AcDbEntity
  8
0
  6
Continuous
 62
     7
100
AcDbLine
 10
8169.9508192422
 20
5147.1557037617
 30
0.0
 11
8167.9508449914
 21
5151.155703486
 31
0.0
  0
LINE
  5
255
330
1F
100
AcDbEntity
  8
0
  6
Continuous
 62
     7
100
AcDbLine
 10
8121.9508411767
 20
5151.155703486
 30
0.0
 11
8119.9508669259
 21
5147.1557037617
 31
0.0
  0
LINE
  5
256
330
1F
100
AcDbEntity
  8
0
  6
Continuous
 62
     7
100
AcDbLine
 10
8121.9508411767
 20
5158.1557027708
 30
0.0
 11
8121.9508411767
 21
5151.155703486
 31
0.0
  0
LINE
  5
257
330
1F
100
AcDbEntity
  8
0
  6
Continuous
 62
     7
100
AcDbLine
 10
8167.9508449914
 20
5151.155703486
 30
0.0
 11
8167.9508449914
 21
5158.1557027708
 31
0.0
  0
LINE
  5
258
330
1F
100
AcDbEntity
  8
0
  6
Continuous
 62
     7
100
AcDbLine
 10
8100.9508135202
 20
5100.6557017277
 30
0.0
 11
8112.8456356409
 21
5100.6557017277
 31
0.0
  0
LINE
  5
259
330
1F
100
AcDbEntity
  8
0
  6
Continuous
 62
     7
100
AcDbLine
 10
8117.9507734659
 20
5144.6557033519
 30
0.0
 11
8100.9508135202
 21
5144.6557033519
 31
0.0
  0
LINE
  5
25A
330
1F
100
AcDbEntity
  8
0
  6
Continuous
 62
     7
100
AcDbLine
 10
8128.9508106592
 20
5147.1557037617
 30
0.0
 11
8128.9508106592
 21
5144.6557033519
 31
0.0
  0
LINE
  5
25B
330
1F
100
AcDbEntity
  8
0
  6
Continuous
 62
     7
100
AcDbLine
 10
8160.950875509
 20
5144.6557033519
 30
0.0
 11
8160.950875509
 21
5147.1557037617
 31
0.0
  0
LINE
  5
25C
330
1F
100
AcDbEntity
  8
0
  6
Continuous
 62
     7
100
AcDbLine
 10
8176.9507887247
 20
5229.3557010303
 30
0.0
 11
8179.9508097055
 21
5236.355700315
 31
0.0
  0
LINE
  5
25D
330
1F
100
AcDbEntity
  8
0
  6
Continuous
 62
     7
100
AcDbLine
 10
8114.6224501016
 20
5227.6840962182
 30
0.0
 11
8117.4617769601
 21
5224.8447395573
 31
0.0
  0
LINE
  5
25E
330
1F
100
AcDbEntity
  8
0
  6
Continuous
 62
     7
100
AcDbLine
 10
8171.4508297326
 20
5223.8557047854
 30
0.0
 11
8176.9507887247
 21
5229.3557010303
 31
0.0
  0
LINE
  5
25F
330
1F
100
AcDbEntity
  8
0
  6
Continuous
 62
     7
100
AcDbLine
 10
8115.4508354547
 20
5199.3556998382
 30
0.0
 11
8115.4508354547
 21
5196.3557012091
 31
0.0
  0
LINE
  5
260
330
1F
100
AcDbEntity
  8
0
  6
Continuous
 62
     7
100
AcDbLine
 10
8174.4508507135
 20
5196.3557012091
 30
0.0
 11
8174.4508507135
 21
5199.3556998382
 31
0.0
  0
LINE
  5
261
330
1F
100
AcDbEntity
  8
0
  6
Continuous
 62
     7
100
AcDbLine
 10
8118.4508564355
 20
5199.8936690102
 30
0.0
 11
8118.4508564355
 21
5199.3556998382
 31
0.0
  0
LINE
  5
262
330
1F
100
AcDbEntity
  8
0
  6
Continuous
 62
     7
100
AcDbLine
 10
8171.4508297326
 20
5199.3556998382
 30
0.0
 11
8171.4508297326
 21
5223.8557047854
 31
0.0
  0
LINE
  5
263
330
1F
100
AcDbEntity
  8
0
  6
Continuous
 62
     7
100
AcDbLine
 10
8117.4636843088
 20
5224.855706812
 30
0.0
 11
8098.909116018
 21
5224.855706812
 31
0.0
  0
LINE
  5
264
330
1F
100
AcDbEntity
  8
0
  6
Continuous
 62
     7
100
AcDbLine
 10
8050.9508612039
 20
5199.8557008515
 30
0.0
 11
8118.468737829
 21
5199.8557008515
 31
0.0
  0
LINE
  5
265
330
1F
100
AcDbEntity
  8
0
  6
Continuous
 62
     7
100
AcDbLine
 10
7864.9508120897
 20
5412.7431966076
 30
0.0
 11
7866.1508324029
 21
5412.7431966076
 31
0.0
  0
LINE
  5
266
330
1F
100
AcDbEntity
  8
0
  6
Continuous
 62
     7
100
AcDbLine
 10
7866.1508324029
 20
5412.7431966076
 30
0.0
 11
7866.1508324029
 21
5374.7432090054
 31
0.0
  0
LINE
  5
267
330
1F
100
AcDbEntity
  8
0
  6
Continuous
 62
     7
100
AcDbLine
 10
7868.1508066537
 20
5372.7432049523
 30
0.0
 11
8364.9508716943
 21
5372.7432049523
 31
0.0
  0
LINE
  5
268
330
1F
100
AcDbEntity
  8
0
  6
Continuous
 62
     7
100
AcDbLine
 10
8364.9508716943
 20
5272.7432109128
 30
0.0
 11
8364.9508716943
 21
5372.7432049523
 31
0.0
  0
LINE
  5
269
330
1F
100
AcDbEntity
  8
0
  6
Continuous
 62
     7
100
AcDbLine
 10
8364.9508716943
 20
5272.7432109128
 30
0.0
 11
7864.9508120897
 21
5182.7432073365
 31
0.0
  0
LINE
  5
26A
330
1F
100
AcDbEntity
  8
0
  6
Continuous
 62
     7
100
AcDbLine
 10
7864.9508120897
 20
5182.7432073365
 30
0.0
 11
7864.9508120897
 21
5412.7431966076
 31
0.0
  0
LINE
  5
26B
330
1F
100
AcDbEntity
  8
0
  6
Continuous
 62
     7
100
AcDbLine
 10
7866.1508324029
 20
5182.7432073365
 30
0.0
 11
7866.1508324029
 21
5182.9592071186
 31
0.0
  0
LINE
  5
26C
330
1F
100
AcDbEntity
  8
0
  6
Continuous
 62
     7
100
AcDbLine
 10
7866.1508324029
 20
5182.7432073365
 30
0.0
 11
7864.9508120897
 21
5182.7432073365
 31
0.0
  0
LINE
  5
26D
330
1F
100
AcDbEntity
  8
0
  6
Continuous
 62
     7
100
AcDbLine
 10
8116.9508459451
 20
5192.3557042788
 30
0.0
 11
8172.9508402231
 21
5192.3557042788
 31
0.0
  0
LINE
  5
26E
330
1F
100
AcDbEntity
  8
0
  6
Continuous
 62
     7
100
AcDbLine
 10
8114.9508716943
 20
5196.3557012091
 30
0.0
 11
8174.9508144739
 21
5196.3557012091
 31
0.0
  0
LINE
  5
26F
330
1F
100
AcDbEntity
  8
0
  6
Continuous
 62
     7
100
AcDbLine
 10
8119.9508669259
 20
5182.3557026396
 30
0.0
 11
8169.9508192422
 21
5182.3557026396
 31
0.0
  0
LINE
  5
270
330
1F
100
AcDbEntity
  8
0
  6
Continuous
 62
     7
100
AcDbLine
 10
7864.8562791231
 20
5162.655702577
 30
0.0
 11
7864.8562791231
 21
5082.6557025025
 31
0.0
  0
LINE
  5
271
330
1F
100
AcDbEntity
  8
0
  6
Continuous
 62
     7
100
AcDbLine
 10
7899.8562457445
 20
5142.6557039554
 30
0.0
 11
7899.8562457445
 21
5102.6557039181
 31
0.0
  0
LINE
  5
272
330
1F
100
AcDbEntity
  8
0
  6
Continuous
 62
     7
100
AcDbLine
 10
7854.8562290552
 20
5142.6557039554
 30
0.0
 11
7854.8562290552
 21
5102.6557039181
 31
0.0
  0
LINE
  5
273
330
1F
100
AcDbEntity
  8
0
  6
Continuous
 62
     7
100
AcDbLine
 10
8110.9508039834
 20
5084.6557028304
 30
0.0
 11
8178.9508821847
 21
5084.6557028304
 31
0.0
  0
LINE
  5
274
330
1F
100
AcDbEntity
  8
0
  6
Continuous
 62
     7
100
AcDbLine
 10
8100.9508135202
 20
5150.1557033221
 30
0.0
 11
8100.9508135202
 21
5095.1557017575
 31
0.0
  0
LINE
  5
275
330
1F
100
AcDbEntity
  8
0
  6
Continuous
 62
     7
100
AcDbLine
 10
8096.9508650186
 20
5148.6557040076
 30
0.0
 11
8096.9508650186
 21
5096.6557047973
 31
0.0
  0
LINE
  5
276
330
1F
100
AcDbEntity
  8
0
  6
Continuous
 62
     7
100
AcDbLine
 10
8122.4810840967
 20
5144.6557033519
 30
0.0
 11
8169.2805054071
 21
5144.6557033519
 31
0.0
  0
LINE
  5
277
330
1F
100
AcDbEntity
  8
0
  6
Continuous
 62
     7
100
AcDbLine
 10
8120.8289625528
 20
5014.6557025323
 30
0.0
 11
8169.0726044061
 21
5014.6557025323
 31
0.0
  0
LINE
  5
278
330
1F
100
AcDbEntity
  8
0
  6
Continuous
 62
     7
100
AcDbLine
 10
8084.9507810953
 20
5145.6557035158
 30
0.0
 11
8084.9507810953
 21
5099.6557034264
 31
0.0
  0
LINE
  5
279
330
1F
100
AcDbEntity
  8
0
  6
Continuous
 62
     7
100
AcDbLine
 10
8121.9508411767
 20
5151.155703486
 30
0.0
 11
8167.9508449914
 21
5151.155703486
 31
0.0
  0
LINE
  5
27A
330
1F
100
AcDbEntity
  8
0
  6
Continuous
 62
     7
100
AcDbLine
 10
8119.9508669259
 20
5147.1557037617
 30
0.0
 11
8169.9508192422
 21
5147.1557037617
 31
0.0
  0
LINE
  5
27B
330
1F
100
AcDbEntity
  8
0
  6
Continuous
 62
     7
100
AcDbLine
 10
8124.9508621576
 20
5161.1557032625
 30
0.0
 11
8164.9508240106
 21
5161.1557032625
 31
0.0
  0
LINE
  5
27C
330
1F
100
AcDbEntity
  8
0
  6
Continuous
 62
     7
100
AcDbLine
 10
8162.7980234506
 20
5236.355700315
 30
0.0
 11
8179.9508097055
 21
5236.355700315
 31
0.0
  0
LINE
  5
27D
330
1F
100
AcDbEntity
  8
0
  6
Continuous
 62
     7
100
AcDbLine
 10
8144.9508430841
 20
5229.3557010303
 30
0.0
 11
8176.9507887247
 21
5229.3557010303
 31
0.0
  0
LINE
  5
27E
330
1F
100
AcDbEntity
  8
0
  6
Continuous
 62
     7
100
AcDbLine
 10
8123.9090921762
 20
5229.3557010303
 30
0.0
 11
8144.9508430841
 21
5229.3557010303
 31
0.0
  0
LINE
  5
27F
330
1F
100
AcDbEntity
  8
0
  6
Continuous
 62
     7
100
AcDbLine
 10
8118.9075472238
 20
5223.8557047854
 30
0.0
 11
8171.4508297326
 21
5223.8557047854
 31
0.0
  0
LINE
  5
280
330
1F
100
AcDbEntity
  8
0
  6
Continuous
 62
     7
100
AcDbLine
 10
8144.9508430841
 20
5199.3556998382
 30
0.0
 11
8174.4508507135
 21
5199.3556998382
 31
0.0
  0
LINE
  5
281
330
1F
100
AcDbEntity
  8
0
  6
Continuous
 62
     7
100
AcDbLine
 10
8115.4508354547
 20
5199.3556998382
 30
0.0
 11
8144.9508430841
 21
5199.3556998382
 31
0.0
  0
LINE
  5
282
330
1F
100
AcDbEntity
  8
0
  6
Continuous
 62
     7
100
AcDbLine
 10
8120.9507944467
 20
5206.8784765611
 30
0.0
 11
8120.9507944467
 21
5217.8329311023
 31
0.0
  0
LINE
  5
283
330
1F
100
AcDbEntity
  8
0
  6
Continuous
 62
     7
100
AcDbLine
 10
8168.3611633661
 20
5237.3570657979
 30
0.0
 11
8182.0455553415
 21
5237.3570657979
 31
0.0
  0
LINE
  5
284
330
1F
100
AcDbEntity
  8
0
  6
Continuous
 62
     7
100
AcDbLine
 10
8164.6786692026
 20
5236.6942174445
 30
0.0
 11
8180.5336239221
 21
5236.6942174445
 31
0.0
  0
LINE
  5
285
330
1F
100
AcDbEntity
  8
0
  6
Continuous
 62
     7
100
AcDbLine
 10
8116.9508459451
 20
5185.355704994
 30
0.0
 11
8172.9508402231
 21
5185.355704994
 31
0.0
  0
LINE
  5
286
330
1F
100
AcDbEntity
  8
0
  6
Continuous
 62
     7
100
AcDbLine
 10
7879.8562648179
 20
5162.655702577
 30
0.0
 11
7879.8562648179
 21
5082.6557025025
 31
0.0
  0
LINE
  5
287
330
1F
100
AcDbEntity
  8
0
  6
Continuous
 62
     7
100
AcDbLine
 10
8172.2602608087
 20
5142.0033460195
 30
0.0
 11
8119.7290184381
 21
5142.0033460195
 31
0.0
  0
LINE
  5
288
330
1F
100
AcDbEntity
  8
0
  6
Continuous
 62
     7
100
AcDbLine
 10
8117.8445579889
 20
5017.3500261913
 30
0.0
 11
8172.05700897
 21
5017.3500261913
 31
0.0
  0
LINE
  5
289
330
1F
100
AcDbEntity
  8
0
  6
Continuous
 62
     7
100
AcDbLine
 10
8087.9508020761
 20
5148.6557040076
 30
0.0
 11
8087.9508020761
 21
5096.6557047973
 31
0.0
  0
LINE
  5
28A
330
1F
100
AcDbEntity
  8
0
  6
Continuous
 62
     7
100
AcDbLine
 10
8121.9508411767
 20
5158.1557027708
 30
0.0
 11
8167.9508449914
 21
5158.1557027708
 31
0.0
  0
LINE
  5
28B
330
1F
100
AcDbEntity
  8
0
  6
Continuous
 62
     7
100
AcDbLine
 10
8050.9508612039
 20
5199.8557008515
 30
0.0
 11
8050.9508612039
 21
5216.223203362
 31
0.0
  0
LINE
  5
28C
330
1F
100
AcDbEntity
  8
0
  6
Continuous
 62
     7
100
AcDbLine
 10
5074.0187553361
 20
4627.0748994621
 30
0.0
 11
7474.0187553361
 21
4627.0748994621
 31
0.0
  0
LINE
  5
28D
330
1F
100
AcDbEntity
  8
0
  6
Continuous
 62
     7
100
AcDbLine
 10
5074.0187553361
 20
4627.0748994621
 30
0.0
 11
5074.0187553361
 21
4127.0748994621
 31
0.0
  0
LINE
  5
28E
330
1F
100
AcDbEntity
  8
0
  6
Continuous
 62
     7
100
AcDbLine
 10
5074.0187553361
 20
4127.0748994621
 30
0.0
 11
7474.0187553361
 21
4127.0748994621
 31
0.0
  0
LINE
  5
28F
330
1F
100
AcDbEntity
  8
0
  6
Continuous
 62
     7
100
AcDbLine
 10
7474.0187553361
 20
4627.0748994621
 30
0.0
 11
7474.0187553361
 21
4127.0748994621
 31
0.0
  0
LINE
  5
290
330
1F
100
AcDbEntity
  8
0
  6
Continuous
 62
     7
100
AcDbLine
 10
7168.2468451159
 20
4509.1673276695
 30
0.0
 11
7168.7750614779
 21
4509.2415950569
 31
0.0
  0
LINE
  5
291
330
1F
100
AcDbEntity
  8
0
  6
Continuous
 62
     7
100
AcDbLine
 10
7177.9732502597
 20
4509.3857190879
 30
0.0
 11
7178.2761610644
 21
4509.3526981147
 31
0.0
  0
LINE
  5
292
330
1F
100
AcDbEntity
  8
0
  6
Continuous
 62
     7
100
AcDbLine
 10
5368.2468033927
 20
4509.1673276695
 30
0.0
 11
5368.7750793593
 21
4509.2415950569
 31
0.0
  0
LINE
  5
293
330
1F
100
AcDbEntity
  8
0
  6
Continuous
 62
     7
100
AcDbLine
 10
5377.9732383387
 20
4509.3857190879
 30
0.0
 11
5378.2761491435
 21
4509.3526981147
 31
0.0
  0
LINE
  5
294
330
1F
100
AcDbEntity
  8
0
  6
Continuous
 62
     7
100
AcDbLine
 10
5968.2467974322
 20
4509.1673276695
 30
0.0
 11
5968.7750733989
 21
4509.2415950569
 31
0.0
  0
LINE
  5
295
330
1F
100
AcDbEntity
  8
0
  6
Continuous
 62
     7
100
AcDbLine
 10
5977.9732472794
 20
4509.3857190879
 30
0.0
 11
5978.276143183
 21
4509.3526981147
 31
0.0
  0
LINE
  5
296
330
1F
100
AcDbEntity
  8
0
  6
Continuous
 62
     7
100
AcDbLine
 10
6568.2468212741
 20
4509.1673276695
 30
0.0
 11
6568.7750376361
 21
4509.2415950569
 31
0.0
  0
LINE
  5
297
330
1F
100
AcDbEntity
  8
0
  6
Continuous
 62
     7
100
AcDbLine
 10
6577.9732264178
 20
4509.3857190879
 30
0.0
 11
6578.2761372226
 21
4509.3526981147
 31
0.0
  0
LINE
  5
298
330
1F
100
AcDbEntity
  8
0
  6
Continuous
 62
     7
100
AcDbLine
 10
5979.2687542336
 20
4500.0276706489
 30
0.0
 11
5979.2687542336
 21
4500.6584069999
 31
0.0
  0
LINE
  5
299
330
1F
100
AcDbEntity
  8
0
  6
Continuous
 62
     7
100
AcDbLine
 10
5968.7687553065
 20
4500.6584069999
 30
0.0
 11
5968.7687553065
 21
4500.0276706489
 31
0.0
  0
LINE
  5
29A
330
1F
100
AcDbEntity
  8
0
  6
Continuous
 62
     7
100
AcDbLine
 10
5379.2687452929
 20
4500.0276706489
 30
0.0
 11
5379.2687452929
 21
4500.6584069999
 31
0.0
  0
LINE
  5
29B
330
1F
100
AcDbEntity
  8
0
  6
Continuous
 62
     7
100
AcDbLine
 10
5368.768761267
 20
4500.6584069999
 30
0.0
 11
5368.768761267
 21
4500.0276706489
 31
0.0
  0
LINE
  5
29C
330
1F
100
AcDbEntity
  8
0
  6
Continuous
 62
     7
100
AcDbLine
 10
6579.268733372
 20
4500.0276706489
 30
0.0
 11
6579.268733372
 21
4500.6584069999
 31
0.0
  0
LINE
  5
29D
330
1F
100
AcDbEntity
  8
0
  6
Continuous
 62
     7
100
AcDbLine
 10
6568.7687791484
 20
4500.6584069999
 30
0.0
 11
6568.7687791484
 21
4500.0276706489
 31
0.0
  0
LINE
  5
29E
330
1F
100
AcDbEntity
  8
0
  6
Continuous
 62
     7
100
AcDbLine
 10
7179.2686976092
 20
4500.0276706489
 30
0.0
 11
7179.2686976092
 21
4500.6584069999
 31
0.0
  0
LINE
  5
29F
330
1F
100
AcDbEntity
  8
0
  6
Continuous
 62
     7
100
AcDbLine
 10
7168.7687433856
 20
4500.6584069999
 30
0.0
 11
7168.7687433856
 21
4500.0276706489
 31
0.0
  0
LINE
  5
2A0
330
1F
100
AcDbEntity
  8
0
  6
Continuous
 62
     7
100
AcDbLine
 10
6014.018753876
 20
4627.074911383
 30
0.0
 11
6014.018753876
 21
4627.1694443496
 31
0.0
  0
LINE
  5
2A1
330
1F
100
AcDbEntity
  8
0
  6
Continuous
 62
     7
100
AcDbLine
 10
5934.0187556641
 20
4627.1694443496
 30
0.0
 11
5934.0187556641
 21
4627.074911383
 31
0.0
  0
LINE
  5
2A2
330
1F
100
AcDbEntity
  8
0
  6
Continuous
 62
     7
100
AcDbLine
 10
5994.0187580483
 20
4627.1694443496
 30
0.0
 11
5994.0187580483
 21
4637.1694944175
 31
0.0
  0
LINE
  5
2A3
330
1F
100
AcDbEntity
  8
0
  6
Continuous
 62
     7
100
AcDbLine
 10
5954.0187514918
 20
4637.1694944175
 30
0.0
 11
5954.0187514918
 21
4627.1694443496
 31
0.0
  0
LINE
  5
2A4
330
1F
100
AcDbEntity
  8
0
  6
Continuous
 62
     7
100
AcDbLine
 10
5414.0187598365
 20
4627.074911383
 30
0.0
 11
5414.0187598365
 21
4627.1694443496
 31
0.0
  0
LINE
  5
2A5
330
1F
100
AcDbEntity
  8
0
  6
Continuous
 62
     7
100
AcDbLine
 10
5334.0187467235
 20
4627.1694443496
 30
0.0
 11
5334.0187467235
 21
4627.074911383
 31
0.0
  0
LINE
  5
2A6
330
1F
100
AcDbEntity
  8
0
  6
Continuous
 62
     7
100
AcDbLine
 10
5394.0187491076
 20
4627.1694443496
 30
0.0
 11
5394.0187491076
 21
4637.1694944175
 31
0.0
  0
LINE
  5
2A7
330
1F
100
AcDbEntity
  8
0
  6
Continuous
 62
     7
100
AcDbLine
 10
5354.0187574523
 20
4637.1694944175
 30
0.0
 11
5354.0187574523
 21
4627.1694443496
 31
0.0
  0
LINE
  5
2A8
330
1F
100
AcDbEntity
  8
0
  6
Continuous
 62
     7
100
AcDbLine
 10
6614.0187777179
 20
4627.074911383
 30
0.0
 11
6614.0187777179
 21
4627.1694443496
 31
0.0
  0
LINE
  5
2A9
330
1F
100
AcDbEntity
  8
0
  6
Continuous
 62
     7
100
AcDbLine
 10
6534.0187348025
 20
4627.1694443496
 30
0.0
 11
6534.0187348025
 21
4627.074911383
 31
0.0
  0
LINE
  5
2AA
330
1F
100
AcDbEntity
  8
0
  6
Continuous
 62
     7
100
AcDbLine
 10
6594.0187371867
 20
4627.1694443496
 30
0.0
 11
6594.0187371867
 21
4637.1694944175
 31
0.0
  0
LINE
  5
2AB
330
1F
100
AcDbEntity
  8
0
  6
Continuous
 62
     7
100
AcDbLine
 10
6554.0187753337
 20
4637.1694944175
 30
0.0
 11
6554.0187753337
 21
4627.1694443496
 31
0.0
  0
LINE
  5
2AC
330
1F
100
AcDbEntity
  8
0
  6
Continuous
 62
     7
100
AcDbLine
 10
7214.0188015597
 20
4627.074911383
 30
0.0
 11
7214.0188015597
 21
4627.1694443496
 31
0.0
  0
LINE
  5
2AD
330
1F
100
AcDbEntity
  8
0
  6
Continuous
 62
     7
100
AcDbLine
 10
7134.0187586444
 20
4627.1694443496
 30
0.0
 11
7134.0187586444
 21
4627.074911383
 31
0.0
  0
LINE
  5
2AE
330
1F
100
AcDbEntity
  8
0
  6
Continuous
 62
     7
100
AcDbLine
 10
7194.0187014239
 20
4627.1694443496
 30
0.0
 11
7194.0187014239
 21
4637.1694944175
 31
0.0
  0
LINE
  5
2AF
330
1F
100
AcDbEntity
  8
0
  6
Continuous
 62
     7
100
AcDbLine
 10
7154.0187395709
 20
4637.1694944175
 30
0.0
 11
7154.0187395709
 21
4627.1694443496
 31
0.0
  0
LINE
  5
2B0
330
1F
100
AcDbEntity
  8
0
  6
Continuous
 62
     7
100
AcDbLine
 10
5074.0187562602
 20
4625.8748910697
 30
0.0
 11
7474.018792023
 21
4625.8748910697
 31
0.0
  0
LINE
  5
2B1
330
1F
100
AcDbEntity
  8
0
  6
Continuous
 62
     7
100
AcDbLine
 10
7474.018792023
 20
4627.074911383
 30
0.0
 11
5074.0187562602
 21
4627.074911383
 31
0.0
  0
LINE
  5
2B2
330
1F
100
AcDbEntity
  8
0
  6
Continuous
 62
     7
100
AcDbLine
 10
5074.0187562602
 20
4627.074911383
 30
0.0
 11
5074.0187562602
 21
4625.8748910697
 31
0.0
  0
LINE
  5
2B3
330
1F
100
AcDbEntity
  8
0
  6
Continuous
 62
     7
100
AcDbLine
 10
7474.018792023
 20
4625.8748910697
 30
0.0
 11
7474.018792023
 21
4627.074911383
 31
0.0
  0
LINE
  5
2B4
330
1F
100
AcDbEntity
  8
0
  6
Continuous
 62
     7
100
AcDbLine
 10
7474.018792023
 20
4623.8749168189
 30
0.0
 11
5074.0187562602
 21
4623.8749168189
 31
0.0
  0
LINE
  5
2B5
330
1F
100
AcDbEntity
  8
0
  6
Continuous
 62
     7
100
AcDbLine
 10
5074.0187562602
 20
4623.8749168189
 30
0.0
 11
5074.0187562602
 21
4625.8748910697
 31
0.0
  0
LINE
  5
2B6
330
1F
100
AcDbEntity
  8
0
  6
Continuous
 62
     7
100
AcDbLine
 10
7474.018792023
 20
4625.8748910697
 30
0.0
 11
7474.018792023
 21
4623.8749168189
 31
0.0
  0
LINE
  5
2B7
330
1F
100
AcDbEntity
  8
0
  6
Continuous
 62
     7
100
AcDbLine
 10
5074.0187562602
 20
4127.0748517784
 30
0.0
 11
7474.018792023
 21
4127.0748517784
 31
0.0
  0
LINE
  5
2B8
330
1F
100
AcDbEntity
  8
0
  6
Continuous
 62
     7
100
AcDbLine
 10
5074.0187562602
 20
4623.8749168189
 30
0.0
 11
5074.0187562602
 21
4127.0748517784
 31
0.0
  0
LINE
  5
2B9
330
1F
100
AcDbEntity
  8
0
  6
Continuous
 62
     7
100
AcDbLine
 10
7474.018792023
 20
4127.0748517784
 30
0.0
 11
7474.018792023
 21
4623.8749168189
 31
0.0
  0
LINE
  5
2BA
330
1F
100
AcDbEntity
  8
0
  6
Continuous
 62
     7
100
AcDbLine
 10
6574.0187562602
 20
4493.7964818748
 30
0.0
 11
6576.4211810725
 21
4493.8696763786
 31
0.0
  0
LINE
  5
2BB
330
1F
100
AcDbEntity
  8
0
  6
Continuous
 62
     7
100
AcDbLine
 10
6576.4211810725
 20
4493.8696763786
 30
0.0
 11
6578.772405495
 21
4494.0874717506
 31
0.0
  0
LINE
  5
2BC
330
1F
100
AcDbEntity
  8
0
  6
Continuous
 62
     7
100
AcDbLine
 10
6578.772405495
 20
4494.0874717506
 30
0.0
 11
6581.0223020213
 21
4494.4453380378
 31
0.0
  0
LINE
  5
2BD
330
1F
100
AcDbEntity
  8
0
  6
Continuous
 62
     7
100
AcDbLine
 10
6581.0223020213
 20
4494.4453380378
 30
0.0
 11
6583.1229485171
 21
4494.9356458457
 31
0.0
  0
LINE
  5
2BE
330
1F
100
AcDbEntity
  8
0
  6
Continuous
 62
     7
100
AcDbLine
 10
6583.1229485171
 20
4494.9356458457
 30
0.0
 11
6585.0295222896
 21
4495.5479047569
 31
0.0
  0
LINE
  5
2BF
330
1F
100
AcDbEntity
  8
0
  6
Continuous
 62
     7
100
AcDbLine
 10
6585.0295222896
 20
4495.5479047569
 30
0.0
 11
6586.7014325755
 21
4496.2690017494
 31
0.0
  0
LINE
  5
2C0
330
1F
100
AcDbEntity
  8
0
  6
Continuous
 62
     7
100
AcDbLine
 10
6586.7014325755
 20
4496.2690017494
 30
0.0
 11
6588.1030357974
 21
4497.0837972434
 31
0.0
  0
LINE
  5
2C1
330
1F
100
AcDbEntity
  8
0
  6
Continuous
 62
     7
100
AcDbLine
 10
6588.1030357974
 20
4497.0837972434
 30
0.0
 11
6589.2044700282
 21
4497.9746482643
 31
0.0
  0
LINE
  5
2C2
330
1F
100
AcDbEntity
  8
0
  6
Continuous
 62
     7
100
AcDbLine
 10
6589.2044700282
 20
4497.9746482643
 30
0.0
 11
6589.9822510379
 21
4498.9228389533
 31
0.0
  0
LINE
  5
2C3
330
1F
100
AcDbEntity
  8
0
  6
Continuous
 62
     7
100
AcDbLine
 10
6589.9822510379
 20
4498.9228389533
 30
0.0
 11
6590.4197491305
 21
4499.9078653129
 31
0.0
  0
LINE
  5
2C4
330
1F
100
AcDbEntity
  8
0
  6
Continuous
 62
     7
100
AcDbLine
 10
6590.4197491305
 20
4499.9078653129
 30
0.0
 11
6590.5077255862
 21
4500.9089849266
 31
0.0
  0
LINE
  5
2C5
330
1F
100
AcDbEntity
  8
0
  6
Continuous
 62
     7
100
AcDbLine
 10
6590.5077255862
 20
4500.9089849266
 30
0.0
 11
6590.2442730563
 21
4501.9047401222
 31
0.0
  0
LINE
  5
2C6
330
1F
100
AcDbEntity
  8
0
  6
Continuous
 62
     7
100
AcDbLine
 10
6590.2442730563
 20
4501.9047401222
 30
0.0
 11
6589.6349943774
 21
4502.8739116462
 31
0.0
  0
LINE
  5
2C7
330
1F
100
AcDbEntity
  8
0
  6
Continuous
 62
     7
100
AcDbLine
 10
6589.6349943774
 20
4502.8739116462
 30
0.0
 11
6588.6928833621
 21
4503.7958762916
 31
0.0
  0
LINE
  5
2C8
330
1F
100
AcDbEntity
  8
0
  6
Continuous
 62
     7
100
AcDbLine
 10
6588.6928833621
 20
4503.7958762916
 30
0.0
 11
6587.4380267756
 21
4504.6509645256
 31
0.0
  0
LINE
  5
2C9
330
1F
100
AcDbEntity
  8
0
  6
Continuous
 62
     7
100
AcDbLine
 10
6587.4380267756
 20
4504.6509645256
 30
0.0
 11
6585.8971871035
 21
4505.4210565361
 31
0.0
  0
LINE
  5
2CA
330
1F
100
AcDbEntity
  8
0
  6
Continuous
 62
     7
100
AcDbLine
 10
6585.8971871035
 20
4505.4210565361
 30
0.0
 11
6584.1031469005
 21
4506.0894630226
 31
0.0
  0
LINE
  5
2CB
330
1F
100
AcDbEntity
  8
0
  6
Continuous
 62
     7
100
AcDbLine
 10
6584.1031469005
 20
4506.0894630226
 30
0.0
 11
6582.0941723483
 21
4506.6422364982
 31
0.0
  0
LINE
  5
2CC
330
1F
100
AcDbEntity
  8
0
  6
Continuous
 62
     7
100
AcDbLine
 10
6582.0941723483
 20
4506.6422364982
 30
0.0
 11
6579.913059582
 21
4507.067456034
 31
0.0
  0
LINE
  5
2CD
330
1F
100
AcDbEntity
  8
0
  6
Continuous
 62
     7
100
AcDbLine
 10
6579.913059582
 20
4507.067456034
 30
0.0
 11
6577.6063598292
 21
4507.356061724
 31
0.0
  0
LINE
  5
2CE
330
1F
100
AcDbEntity
  8
0
  6
Continuous
 62
     7
100
AcDbLine
 10
6577.6063598292
 20
4507.356061724
 30
0.0
 11
6575.2231873172
 21
4507.5018546852
 31
0.0
  0
LINE
  5
2CF
330
1F
100
AcDbEntity
  8
0
  6
Continuous
 62
     7
100
AcDbLine
 10
6575.2231873172
 20
4507.5018546852
 30
0.0
 11
6572.8143252032
 21
4507.5018546852
 31
0.0
  0
LINE
  5
2D0
330
1F
100
AcDbEntity
  8
0
  6
Continuous
 62
     7
100
AcDbLine
 10
6572.8143252032
 20
4507.5018546852
 30
0.0
 11
6570.4311526912
 21
4507.356061724
 31
0.0
  0
LINE
  5
2D1
330
1F
100
AcDbEntity
  8
0
  6
Continuous
 62
     7
100
AcDbLine
 10
6570.4311526912
 20
4507.356061724
 30
0.0
 11
6568.1244529384
 21
4507.067456034
 31
0.0
  0
LINE
  5
2D2
330
1F
100
AcDbEntity
  8
0
  6
Continuous
 62
     7
100
AcDbLine
 10
6568.1244529384
 20
4507.067456034
 30
0.0
 11
6565.9433401721
 21
4506.6422364982
 31
0.0
  0
LINE
  5
2D3
330
1F
100
AcDbEntity
  8
0
  6
Continuous
 62
     7
100
AcDbLine
 10
6565.9433401721
 20
4506.6422364982
 30
0.0
 11
6563.9343656199
 21
4506.0894630226
 31
0.0
  0
LINE
  5
2D4
330
1F
100
AcDbEntity
  8
0
  6
Continuous
 62
     7
100
AcDbLine
 10
6563.9343656199
 20
4506.0894630226
 30
0.0
 11
6562.1403254168
 21
4505.4210565361
 31
0.0
  0
LINE
  5
2D5
330
1F
100
AcDbEntity
  8
0
  6
Continuous
 62
     7
100
AcDbLine
 10
6562.1403254168
 20
4505.4210565361
 30
0.0
 11
6560.5994857448
 21
4504.6509645256
 31
0.0
  0
LINE
  5
2D6
330
1F
100
AcDbEntity
  8
0
  6
Continuous
 62
     7
100
AcDbLine
 10
6560.5994857448
 20
4504.6509645256
 30
0.0
 11
6559.3446291583
 21
4503.7958762916
 31
0.0
  0
LINE
  5
2D7
330
1F
100
AcDbEntity
  8
0
  6
Continuous
 62
     7
100
AcDbLine
 10
6559.3446291583
 20
4503.7958762916
 30
0.0
 11
6558.402518143
 21
4502.8739116462
 31
0.0
  0
LINE
  5
2D8
330
1F
100
AcDbEntity
  8
0
  6
Continuous
 62
     7
100
AcDbLine
 10
6558.402518143
 20
4502.8739116462
 30
0.0
 11
6557.7932394641
 21
4501.9047401222
 31
0.0
  0
LINE
  5
2D9
330
1F
100
AcDbEntity
  8
0
  6
Continuous
 62
     7
100
AcDbLine
 10
6557.7932394641
 20
4501.9047401222
 30
0.0
 11
6557.5297869342
 21
4500.9089849266
 31
0.0
  0
LINE
  5
2DA
330
1F
100
AcDbEntity
  8
0
  6
Continuous
 62
     7
100
AcDbLine
 10
6557.5297869342
 20
4500.9089849266
 30
0.0
 11
6557.6177633899
 21
4499.9078653129
 31
0.0
  0
LINE
  5
2DB
330
1F
100
AcDbEntity
  8
0
  6
Continuous
 62
     7
100
AcDbLine
 10
6557.6177633899
 20
4499.9078653129
 30
0.0
 11
6558.0552614825
 21
4498.9228389533
 31
0.0
  0
LINE
  5
2DC
330
1F
100
AcDbEntity
  8
0
  6
Continuous
 62
     7
100
AcDbLine
 10
6558.0552614825
 20
4498.9228389533
 30
0.0
 11
6558.8330424922
 21
4497.9746482643
 31
0.0
  0
LINE
  5
2DD
330
1F
100
AcDbEntity
  8
0
  6
Continuous
 62
     7
100
AcDbLine
 10
6558.8330424922
 20
4497.9746482643
 30
0.0
 11
6559.934476723
 21
4497.0837972434
 31
0.0
  0
LINE
  5
2DE
330
1F
100
AcDbEntity
  8
0
  6
Continuous
 62
     7
100
AcDbLine
 10
6559.934476723
 20
4497.0837972434
 30
0.0
 11
6561.3360799449
 21
4496.2690017494
 31
0.0
  0
LINE
  5
2DF
330
1F
100
AcDbEntity
  8
0
  6
Continuous
 62
     7
100
AcDbLine
 10
6561.3360799449
 20
4496.2690017494
 30
0.0
 11
6563.0079902308
 21
4495.5479047569
 31
0.0
  0
LINE
  5
2E0
330
1F
100
AcDbEntity
  8
0
  6
Continuous
 62
     7
100
AcDbLine
 10
6563.0079902308
 20
4495.5479047569
 30
0.0
 11
6564.9145640033
 21
4494.9356458457
 31
0.0
  0
LINE
  5
2E1
330
1F
100
AcDbEntity
  8
0
  6
Continuous
 62
     7
100
AcDbLine
 10
6564.9145640033
 20
4494.9356458457
 30
0.0
 11
6567.0152104991
 21
4494.4453380378
 31
0.0
  0
LINE
  5
2E2
330
1F
100
AcDbEntity
  8
0
  6
Continuous
 62
     7
100
AcDbLine
 10
6567.0152104991
 20
4494.4453380378
 30
0.0
 11
6569.2651070254
 21
4494.0874717506
 31
0.0
  0
LINE
  5
2E3
330
1F
100
AcDbEntity
  8
0
  6
Continuous
 62
     7
100
AcDbLine
 10
6569.2651070254
 20
4494.0874717506
 30
0.0
 11
6571.6163314479
 21
4493.8696763786
 31
0.0
  0
LINE
  5
2E4
330
1F
100
AcDbEntity
  8
0
  6
Continuous
 62
     7
100
AcDbLine
 10
6571.6163314479
 20
4493.8696763786
 30
0.0
 11
6574.0187562602
 21
4493.7964818748
 31
0.0
  0
LINE
  5
2E5
330
1F
100
AcDbEntity
  8
0
  6
Continuous
 62
     7
100
AcDbLine
 10
6592.0176900523
 20
4502.1034620079
 30
0.0
 11
6591.9201768535
 21
4502.8050086769
 31
0.0
  0
LINE
  5
2E6
330
1F
100
AcDbEntity
  8
0
  6
Continuous
 62
     7
100
AcDbLine
 10
6591.9201768535
 20
4502.8050086769
 30
0.0
 11
6591.4840496676
 21
4503.8334272178
 31
0.0
  0
LINE
  5
2E7
330
1F
100
AcDbEntity
  8
0
  6
Continuous
 62
     7
100
AcDbLine
 10
6591.4840496676
 20
4503.8334272178
 30
0.0
 11
6590.7080567973
 21
4504.8266790184
 31
0.0
  0
LINE
  5
2E8
330
1F
100
AcDbEntity
  8
0
  6
Continuous
 62
     7
100
AcDbLine
 10
6590.7080567973
 20
4504.8266790184
 30
0.0
 11
6589.6072186129
 21
4505.7653329643
 31
0.0
  0
LINE
  5
2E9
330
1F
100
AcDbEntity
  8
0
  6
Continuous
 62
     7
100
AcDbLine
 10
6589.6072186129
 20
4505.7653329643
 30
0.0
 11
6588.202933182
 21
4506.6311500343
 31
0.0
  0
LINE
  5
2EA
330
1F
100
AcDbEntity
  8
0
  6
Continuous
 62
     7
100
AcDbLine
 10
6588.202933182
 20
4506.6311500343
 30
0.0
 11
6586.5226186412
 21
4507.4072025093
 31
0.0
  0
LINE
  5
2EB
330
1F
100
AcDbEntity
  8
0
  6
Continuous
 62
     7
100
AcDbLine
 10
6586.5226186412
 20
4507.4072025093
 30
0.0
 11
6584.5988787311
 21
4508.0784700187
 31
0.0
  0
LINE
  5
2EC
330
1F
100
AcDbEntity
  8
0
  6
Continuous
 62
     7
100
AcDbLine
 10
6584.5988787311
 20
4508.0784700187
 30
0.0
 11
6582.4692643779
 21
4508.6319587501
 31
0.0
  0
LINE
  5
2ED
330
1F
100
AcDbEntity
  8
0
  6
Continuous
 62
     7
100
AcDbLine
 10
6582.4692643779
 20
4508.6319587501
 30
0.0
 11
6580.1751412051
 21
4509.0567014488
 31
0.0
  0
LINE
  5
2EE
330
1F
100
AcDbEntity
  8
0
  6
Continuous
 62
     7
100
AcDbLine
 10
6580.1751412051
 20
4509.0567014488
 30
0.0
 11
6577.7611530917
 21
4509.344591883
 31
0.0
  0
LINE
  5
2EF
330
1F
100
AcDbEntity
  8
0
  6
Continuous
 62
     7
100
AcDbLine
 10
6577.7611530917
 20
4509.344591883
 30
0.0
 11
6575.274387707
 21
4509.489908007
 31
0.0
  0
LINE
  5
2F0
330
1F
100
AcDbEntity
  8
0
  6
Continuous
 62
     7
100
AcDbLine
 10
6575.274387707
 20
4509.489908007
 30
0.0
 11
6572.7631248134
 21
4509.489908007
 31
0.0
  0
LINE
  5
2F1
330
1F
100
AcDbEntity
  8
0
  6
Continuous
 62
     7
100
AcDbLine
 10
6572.7631248134
 20
4509.489908007
 30
0.0
 11
6570.2763594287
 21
4509.344591883
 31
0.0
  0
LINE
  5
2F2
330
1F
100
AcDbEntity
  8
0
  6
Continuous
 62
     7
100
AcDbLine
 10
6570.2763594287
 20
4509.344591883
 30
0.0
 11
6567.8623713153
 21
4509.0567014488
 31
0.0
  0
LINE
  5
2F3
330
1F
100
AcDbEntity
  8
0
  6
Continuous
 62
     7
100
AcDbLine
 10
6567.8623713153
 20
4509.0567014488
 30
0.0
 11
6565.5682481425
 21
4508.6319587501
 31
0.0
  0
LINE
  5
2F4
330
1F
100
AcDbEntity
  8
0
  6
Continuous
 62
     7
100
AcDbLine
 10
6565.5682481425
 20
4508.6319587501
 30
0.0
 11
6563.4386337893
 21
4508.0784700187
 31
0.0
  0
LINE
  5
2F5
330
1F
100
AcDbEntity
  8
0
  6
Continuous
 62
     7
100
AcDbLine
 10
6563.4386337893
 20
4508.0784700187
 30
0.0
 11
6561.5148938792
 21
4507.4072025093
 31
0.0
  0
LINE
  5
2F6
330
1F
100
AcDbEntity
  8
0
  6
Continuous
 62
     7
100
AcDbLine
 10
6561.5148938792
 20
4507.4072025093
 30
0.0
 11
6559.8345793384
 21
4506.6311500343
 31
0.0
  0
LINE
  5
2F7
330
1F
100
AcDbEntity
  8
0
  6
Continuous
 62
     7
100
AcDbLine
 10
6559.8345793384
 20
4506.6311500343
 30
0.0
 11
6558.4302939074
 21
4505.7653329643
 31
0.0
  0
LINE
  5
2F8
330
1F
100
AcDbEntity
  8
0
  6
Continuous
 62
     7
100
AcDbLine
 10
6558.4302939074
 20
4505.7653329643
 30
0.0
 11
6557.3294557231
 21
4504.8266790184
 31
0.0
  0
LINE
  5
2F9
330
1F
100
AcDbEntity
  8
0
  6
Continuous
 62
     7
100
AcDbLine
 10
6557.3294557231
 20
4504.8266790184
 30
0.0
 11
6556.5534032481
 21
4503.8334272178
 31
0.0
  0
LINE
  5
2FA
330
1F
100
AcDbEntity
  8
0
  6
Continuous
 62
     7
100
AcDbLine
 10
6556.5534032481
 20
4503.8334272178
 30
0.0
 11
6556.1173356669
 21
4502.8050086769
 31
0.0
  0
LINE
  5
2FB
330
1F
100
AcDbEntity
  8
0
  6
Continuous
 62
     7
100
AcDbLine
 10
6556.1173356669
 20
4502.8050086769
 30
0.0
 11
6556.019166817
 21
4501.9714973243
 31
0.0
  0
LINE
  5
2FC
330
1F
100
AcDbEntity
  8
0
  6
Continuous
 62
     7
100
AcDbLine
 10
6585.9811104434
 20
4502.166523722
 30
0.0
 11
6585.1940311091
 21
4502.9872796806
 31
0.0
  0
LINE
  5
2FD
330
1F
100
AcDbEntity
  8
0
  6
Continuous
 62
     7
100
AcDbLine
 10
6585.1940311091
 20
4502.9872796806
 30
0.0
 11
6584.0840734141
 21
4503.7408015998
 31
0.0
  0
LINE
  5
2FE
330
1F
100
AcDbEntity
  8
0
  6
Continuous
 62
     7
100
AcDbLine
 10
6584.0840734141
 20
4503.7408015998
 30
0.0
 11
6582.6832450526
 21
4504.4052741798
 31
0.0
  0
LINE
  5
2FF
330
1F
100
AcDbEntity
  8
0
  6
Continuous
 62
     7
100
AcDbLine
 10
6582.6832450526
 20
4504.4052741798
 30
0.0
 11
6581.032077183
 21
4504.9613855155
 31
0.0
  0
LINE
  5
300
330
1F
100
AcDbEntity
  8
0
  6
Continuous
 62
     7
100
AcDbLine
 10
6581.032077183
 20
4504.9613855155
 30
0.0
 11
6579.1782535212
 21
4505.3932807716
 31
0.0
  0
LINE
  5
301
330
1F
100
AcDbEntity
  8
0
  6
Continuous
 62
     7
100
AcDbLine
 10
6579.1782535212
 20
4505.3932807716
 30
0.0
 11
6577.1752990382
 21
4505.6882045539
 31
0.0
  0
LINE
  5
302
330
1F
100
AcDbEntity
  8
0
  6
Continuous
 62
     7
100
AcDbLine
 10
6577.1752990382
 20
4505.6882045539
 30
0.0
 11
6575.0811494487
 21
4505.8379314216
 31
0.0
  0
LINE
  5
303
330
1F
100
AcDbEntity
  8
0
  6
Continuous
 62
     7
100
AcDbLine
 10
6575.0811494487
 20
4505.8379314216
 30
0.0
 11
6572.9563630717
 21
4505.8379314216
 31
0.0
  0
LINE
  5
304
330
1F
100
AcDbEntity
  8
0
  6
Continuous
 62
     7
100
AcDbLine
 10
6572.9563630717
 20
4505.8379314216
 30
0.0
 11
6570.8622134822
 21
4505.6882045539
 31
0.0
  0
LINE
  5
305
330
1F
100
AcDbEntity
  8
0
  6
Continuous
 62
     7
100
AcDbLine
 10
6570.8622134822
 20
4505.6882045539
 30
0.0
 11
6568.8592589991
 21
4505.3932807716
 31
0.0
  0
LINE
  5
306
330
1F
100
AcDbEntity
  8
0
  6
Continuous
 62
     7
100
AcDbLine
 10
6568.8592589991
 20
4505.3932807716
 30
0.0
 11
6567.0054353373
 21
4504.9613855155
 31
0.0
  0
LINE
  5
307
330
1F
100
AcDbEntity
  8
0
  6
Continuous
 62
     7
100
AcDbLine
 10
6567.0054353373
 20
4504.9613855155
 30
0.0
 11
6565.3542674678
 21
4504.4052741798
 31
0.0
  0
LINE
  5
308
330
1F
100
AcDbEntity
  8
0
  6
Continuous
 62
     7
100
AcDbLine
 10
6565.3542674678
 20
4504.4052741798
 30
0.0
 11
6563.9534391063
 21
4503.7408015998
 31
0.0
  0
LINE
  5
309
330
1F
100
AcDbEntity
  8
0
  6
Continuous
 62
     7
100
AcDbLine
 10
6563.9534391063
 20
4503.7408015998
 30
0.0
 11
6562.8434814113
 21
4502.9872796806
 31
0.0
  0
LINE
  5
30A
330
1F
100
AcDbEntity
  8
0
  6
Continuous
 62
     7
100
AcDbLine
 10
6562.8434814113
 20
4502.9872796806
 30
0.0
 11
6562.056402077
 21
4502.166523722
 31
0.0
  0
LINE
  5
30B
330
1F
100
AcDbEntity
  8
0
  6
Continuous
 62
     7
100
AcDbLine
 10
6562.056402077
 20
4502.166523722
 30
0.0
 11
6562.0349444049
 21
4502.1034620079
 31
0.0
  0
LINE
  5
30C
330
1F
100
AcDbEntity
  8
0
  6
Continuous
 62
     7
100
AcDbLine
 10
6562.0349444049
 20
4502.1034620079
 30
0.0
 11
6562.0603359836
 21
4502.0406387123
 31
0.0
  0
LINE
  5
30D
330
1F
100
AcDbEntity
  8
0
  6
Continuous
 62
     7
100
AcDbLine
 10
6562.0603359836
 20
4502.0406387123
 30
0.0
 11
6562.1303118365
 21
4501.9840142997
 31
0.0
  0
LINE
  5
30E
330
1F
100
AcDbEntity
  8
0
  6
Continuous
 62
     7
100
AcDbLine
 10
6562.1303118365
 20
4501.9840142997
 30
0.0
 11
6562.2381962436
 21
4501.938833979
 31
0.0
  0
LINE
  5
30F
330
1F
100
AcDbEntity
  8
0
  6
Continuous
 62
     7
100
AcDbLine
 10
6562.2381962436
 20
4501.938833979
 30
0.0
 11
6562.3739160197
 21
4501.9093892845
 31
0.0
  0
LINE
  5
310
330
1F
100
AcDbEntity
  8
0
  6
Continuous
 62
     7
100
AcDbLine
 10
6562.3739160197
 20
4501.9093892845
 30
0.0
 11
6562.524715771
 21
4501.8983028205
 31
0.0
  0
LINE
  5
311
330
1F
100
AcDbEntity
  8
0
  6
Continuous
 62
     7
100
AcDbLine
 10
6562.524715771
 20
4501.8983028205
 30
0.0
 11
6562.6764691966
 21
4501.9067666801
 31
0.0
  0
LINE
  5
312
330
1F
100
AcDbEntity
  8
0
  6
Continuous
 62
     7
100
AcDbLine
 10
6562.6764691966
 20
4501.9067666801
 30
0.0
 11
6562.8149903911
 21
4501.9339463981
 31
0.0
  0
LINE
  5
313
330
1F
100
AcDbEntity
  8
0
  6
Continuous
 62
     7
100
AcDbLine
 10
6585.2225221293
 20
4501.9339463981
 30
0.0
 11
6585.3610433238
 21
4501.9067666801
 31
0.0
  0
LINE
  5
314
330
1F
100
AcDbEntity
  8
0
  6
Continuous
 62
     7
100
AcDbLine
 10
6585.3610433238
 20
4501.9067666801
 30
0.0
 11
6585.5127967494
 21
4501.8983028205
 31
0.0
  0
LINE
  5
315
330
1F
100
AcDbEntity
  8
0
  6
Continuous
 62
     7
100
AcDbLine
 10
6585.5127967494
 20
4501.8983028205
 30
0.0
 11
6585.6635965007
 21
4501.9093892845
 31
0.0
  0
LINE
  5
316
330
1F
100
AcDbEntity
  8
0
  6
Continuous
 62
     7
100
AcDbLine
 10
6585.6635965007
 20
4501.9093892845
 30
0.0
 11
6585.7993162768
 21
4501.938833979
 31
0.0
  0
LINE
  5
317
330
1F
100
AcDbEntity
  8
0
  6
Continuous
 62
     7
100
AcDbLine
 10
6585.7993162768
 20
4501.938833979
 30
0.0
 11
6585.9072006839
 21
4501.9840142997
 31
0.0
  0
LINE
  5
318
330
1F
100
AcDbEntity
  8
0
  6
Continuous
 62
     7
100
AcDbLine
 10
6585.9072006839
 20
4501.9840142997
 30
0.0
 11
6585.9771765368
 21
4502.0406387123
 31
0.0
  0
LINE
  5
319
330
1F
100
AcDbEntity
  8
0
  6
Continuous
 62
     7
100
AcDbLine
 10
6585.9771765368
 20
4502.0406387123
 30
0.0
 11
6586.0025681155
 21
4502.1034620079
 31
0.0
  0
LINE
  5
31A
330
1F
100
AcDbEntity
  8
0
  6
Continuous
 62
     7
100
AcDbLine
 10
6586.0025681155
 20
4502.1034620079
 30
0.0
 11
6585.9811104434
 21
4502.166523722
 31
0.0
  0
LINE
  5
31B
330
1F
100
AcDbEntity
  8
0
  6
Continuous
 62
     7
100
AcDbLine
 10
6562.8149903911
 20
4499.3827483924
 30
0.0
 11
6562.6764691966
 21
4499.4099281105
 31
0.0
  0
LINE
  5
31C
330
1F
100
AcDbEntity
  8
0
  6
Continuous
 62
     7
100
AcDbLine
 10
6562.6764691966
 20
4499.4099281105
 30
0.0
 11
6562.524715771
 21
4499.41839197
 31
0.0
  0
LINE
  5
31D
330
1F
100
AcDbEntity
  8
0
  6
Continuous
 62
     7
100
AcDbLine
 10
6562.524715771
 20
4499.41839197
 30
0.0
 11
6562.3739160197
 21
4499.4074247154
 31
0.0
  0
LINE
  5
31E
330
1F
100
AcDbEntity
  8
0
  6
Continuous
 62
     7
100
AcDbLine
 10
6562.3739160197
 20
4499.4074247154
 30
0.0
 11
6562.2381962436
 21
4499.3778608116
 31
0.0
  0
LINE
  5
31F
330
1F
100
AcDbEntity
  8
0
  6
Continuous
 62
     7
100
AcDbLine
 10
6562.2381962436
 20
4499.3778608116
 30
0.0
 11
6562.1303118365
 21
4499.3326804908
 31
0.0
  0
LINE
  5
320
330
1F
100
AcDbEntity
  8
0
  6
Continuous
 62
     7
100
AcDbLine
 10
6562.1303118365
 20
4499.3326804908
 30
0.0
 11
6562.0603359836
 21
4499.2760560783
 31
0.0
  0
LINE
  5
321
330
1F
100
AcDbEntity
  8
0
  6
Continuous
 62
     7
100
AcDbLine
 10
6562.0603359836
 20
4499.2760560783
 30
0.0
 11
6562.0349444049
 21
4499.2132327827
 31
0.0
  0
LINE
  5
322
330
1F
100
AcDbEntity
  8
0
  6
Continuous
 62
     7
100
AcDbLine
 10
6562.0349444049
 20
4499.2132327827
 30
0.0
 11
6562.056402077
 21
4499.1501710685
 31
0.0
  0
LINE
  5
323
330
1F
100
AcDbEntity
  8
0
  6
Continuous
 62
     7
100
AcDbLine
 10
6562.056402077
 20
4499.1501710685
 30
0.0
 11
6562.8434814113
 21
4498.32941511
 31
0.0
  0
LINE
  5
324
330
1F
100
AcDbEntity
  8
0
  6
Continuous
 62
     7
100
AcDbLine
 10
6562.8434814113
 20
4498.32941511
 30
0.0
 11
6563.9534391063
 21
4497.5758931907
 31
0.0
  0
LINE
  5
325
330
1F
100
AcDbEntity
  8
0
  6
Continuous
 62
     7
100
AcDbLine
 10
6563.9534391063
 20
4497.5758931907
 30
0.0
 11
6565.3542674678
 21
4496.9114206108
 31
0.0
  0
LINE
  5
326
330
1F
100
AcDbEntity
  8
0
  6
Continuous
 62
     7
100
AcDbLine
 10
6565.3542674678
 20
4496.9114206108
 30
0.0
 11
6567.0054353373
 21
4496.355309275
 31
0.0
  0
LINE
  5
327
330
1F
100
AcDbEntity
  8
0
  6
Continuous
 62
     7
100
AcDbLine
 10
6567.0054353373
 20
4496.355309275
 30
0.0
 11
6568.8592589991
 21
4495.9235332283
 31
0.0
  0
LINE
  5
328
330
1F
100
AcDbEntity
  8
0
  6
Continuous
 62
     7
100
AcDbLine
 10
6568.8592589991
 20
4495.9235332283
 30
0.0
 11
6570.8622134822
 21
4495.6284902366
 31
0.0
  0
LINE
  5
329
330
1F
100
AcDbEntity
  8
0
  6
Continuous
 62
     7
100
AcDbLine
 10
6570.8622134822
 20
4495.6284902366
 30
0.0
 11
6572.9563630717
 21
4495.4787633689
 31
0.0
  0
LINE
  5
32A
330
1F
100
AcDbEntity
  8
0
  6
Continuous
 62
     7
100
AcDbLine
 10
6572.9563630717
 20
4495.4787633689
 30
0.0
 11
6575.0811494487
 21
4495.4787633689
 31
0.0
  0
LINE
  5
32B
330
1F
100
AcDbEntity
  8
0
  6
Continuous
 62
     7
100
AcDbLine
 10
6575.0811494487
 20
4495.4787633689
 30
0.0
 11
6577.1752990382
 21
4495.6284902366
 31
0.0
  0
LINE
  5
32C
330
1F
100
AcDbEntity
  8
0
  6
Continuous
 62
     7
100
AcDbLine
 10
6577.1752990382
 20
4495.6284902366
 30
0.0
 11
6579.1782535212
 21
4495.9235332283
 31
0.0
  0
LINE
  5
32D
330
1F
100
AcDbEntity
  8
0
  6
Continuous
 62
     7
100
AcDbLine
 10
6579.1782535212
 20
4495.9235332283
 30
0.0
 11
6581.032077183
 21
4496.355309275
 31
0.0
  0
LINE
  5
32E
330
1F
100
AcDbEntity
  8
0
  6
Continuous
 62
     7
100
AcDbLine
 10
6581.032077183
 20
4496.355309275
 30
0.0
 11
6582.6832450526
 21
4496.9114206108
 31
0.0
  0
LINE
  5
32F
330
1F
100
AcDbEntity
  8
0
  6
Continuous
 62
     7
100
AcDbLine
 10
6582.6832450526
 20
4496.9114206108
 30
0.0
 11
6584.0840734141
 21
4497.5758931907
 31
0.0
  0
LINE
  5
330
330
1F
100
AcDbEntity
  8
0
  6
Continuous
 62
     7
100
AcDbLine
 10
6584.0840734141
 20
4497.5758931907
 30
0.0
 11
6585.1940311091
 21
4498.32941511
 31
0.0
  0
LINE
  5
331
330
1F
100
AcDbEntity
  8
0
  6
Continuous
 62
     7
100
AcDbLine
 10
6585.1940311091
 20
4498.32941511
 30
0.0
 11
6585.9811104434
 21
4499.1501710685
 31
0.0
  0
LINE
  5
332
330
1F
100
AcDbEntity
  8
0
  6
Continuous
 62
     7
100
AcDbLine
 10
6585.9811104434
 20
4499.1501710685
 30
0.0
 11
6586.0025681155
 21
4499.2132327827
 31
0.0
  0
LINE
  5
333
330
1F
100
AcDbEntity
  8
0
  6
Continuous
 62
     7
100
AcDbLine
 10
6586.0025681155
 20
4499.2132327827
 30
0.0
 11
6585.9771765368
 21
4499.2760560783
 31
0.0
  0
LINE
  5
334
330
1F
100
AcDbEntity
  8
0
  6
Continuous
 62
     7
100
AcDbLine
 10
6585.9771765368
 20
4499.2760560783
 30
0.0
 11
6585.9072006839
 21
4499.3326804908
 31
0.0
  0
LINE
  5
335
330
1F
100
AcDbEntity
  8
0
  6
Continuous
 62
     7
100
AcDbLine
 10
6585.9072006839
 20
4499.3326804908
 30
0.0
 11
6585.7993162768
 21
4499.3778608116
 31
0.0
  0
LINE
  5
336
330
1F
100
AcDbEntity
  8
0
  6
Continuous
 62
     7
100
AcDbLine
 10
6585.7993162768
 20
4499.3778608116
 30
0.0
 11
6585.6635965007
 21
4499.4074247154
 31
0.0
  0
LINE
  5
337
330
1F
100
AcDbEntity
  8
0
  6
Continuous
 62
     7
100
AcDbLine
 10
6585.6635965007
 20
4499.4074247154
 30
0.0
 11
6585.5127967494
 21
4499.41839197
 31
0.0
  0
LINE
  5
338
330
1F
100
AcDbEntity
  8
0
  6
Continuous
 62
     7
100
AcDbLine
 10
6585.5127967494
 20
4499.41839197
 30
0.0
 11
6585.3610433238
 21
4499.4099281105
 31
0.0
  0
LINE
  5
339
330
1F
100
AcDbEntity
  8
0
  6
Continuous
 62
     7
100
AcDbLine
 10
6585.3610433238
 20
4499.4099281105
 30
0.0
 11
6585.2225221293
 21
4499.3827483924
 31
0.0
  0
LINE
  5
33A
330
1F
100
AcDbEntity
  8
0
  6
Continuous
 62
     7
100
AcDbLine
 10
7174.0187204974
 20
4493.7964818748
 30
0.0
 11
7176.4211453097
 21
4493.8696763786
 31
0.0
  0
LINE
  5
33B
330
1F
100
AcDbEntity
  8
0
  6
Continuous
 62
     7
100
AcDbLine
 10
7176.4211453097
 20
4493.8696763786
 30
0.0
 11
7178.7724293368
 21
4494.0874717506
 31
0.0
  0
LINE
  5
33C
330
1F
100
AcDbEntity
  8
0
  6
Continuous
 62
     7
100
AcDbLine
 10
7178.7724293368
 20
4494.0874717506
 30
0.0
 11
7181.0222662585
 21
4494.4453380378
 31
0.0
  0
LINE
  5
33D
330
1F
100
AcDbEntity
  8
0
  6
Continuous
 62
     7
100
AcDbLine
 10
7181.0222662585
 20
4494.4453380378
 30
0.0
 11
7183.122972359
 21
4494.9356458457
 31
0.0
  0
LINE
  5
33E
330
1F
100
AcDbEntity
  8
0
  6
Continuous
 62
     7
100
AcDbLine
 10
7183.122972359
 20
4494.9356458457
 30
0.0
 11
7185.0294865268
 21
4495.5479047569
 31
0.0
  0
LINE
  5
33F
330
1F
100
AcDbEntity
  8
0
  6
Continuous
 62
     7
100
AcDbLine
 10
7185.0294865268
 20
4495.5479047569
 30
0.0
 11
7186.7013968127
 21
4496.2690017494
 31
0.0
  0
LINE
  5
340
330
1F
100
AcDbEntity
  8
0
  6
Continuous
 62
     7
100
AcDbLine
 10
7186.7013968127
 20
4496.2690017494
 30
0.0
 11
7188.1030596393
 21
4497.0837972434
 31
0.0
  0
LINE
  5
341
330
1F
100
AcDbEntity
  8
0
  6
Continuous
 62
     7
100
AcDbLine
 10
7188.1030596393
 20
4497.0837972434
 30
0.0
 11
7189.2044342654
 21
4497.9746482643
 31
0.0
  0
LINE
  5
342
330
1F
100
AcDbEntity
  8
0
  6
Continuous
 62
     7
100
AcDbLine
 10
7189.2044342654
 20
4497.9746482643
 30
0.0
 11
7189.9822748797
 21
4498.9228389533
 31
0.0
  0
LINE
  5
343
330
1F
100
AcDbEntity
  8
0
  6
Continuous
 62
     7
100
AcDbLine
 10
7189.9822748797
 20
4498.9228389533
 30
0.0
 11
7190.4197729724
 21
4499.9078653129
 31
0.0
  0
LINE
  5
344
330
1F
100
AcDbEntity
  8
0
  6
Continuous
 62
     7
100
AcDbLine
 10
7190.4197729724
 20
4499.9078653129
 30
0.0
 11
7190.5077494281
 21
4500.9089849266
 31
0.0
  0
LINE
  5
345
330
1F
100
AcDbEntity
  8
0
  6
Continuous
 62
     7
100
AcDbLine
 10
7190.5077494281
 20
4500.9089849266
 30
0.0
 11
7190.2442968982
 21
4501.9047401222
 31
0.0
  0
LINE
  5
346
330
1F
100
AcDbEntity
  8
0
  6
Continuous
 62
     7
100
AcDbLine
 10
7190.2442968982
 20
4501.9047401222
 30
0.0
 11
7189.6350182193
 21
4502.8739116462
 31
0.0
  0
LINE
  5
347
330
1F
100
AcDbEntity
  8
0
  6
Continuous
 62
     7
100
AcDbLine
 10
7189.6350182193
 20
4502.8739116462
 30
0.0
 11
7188.692907204
 21
4503.7958762916
 31
0.0
  0
LINE
  5
348
330
1F
100
AcDbEntity
  8
0
  6
Continuous
 62
     7
100
AcDbLine
 10
7188.692907204
 20
4503.7958762916
 30
0.0
 11
7187.4379910129
 21
4504.6509645256
 31
0.0
  0
LINE
  5
349
330
1F
100
AcDbEntity
  8
0
  6
Continuous
 62
     7
100
AcDbLine
 10
7187.4379910129
 20
4504.6509645256
 30
0.0
 11
7185.8972109454
 21
4505.4210565361
 31
0.0
  0
LINE
  5
34A
330
1F
100
AcDbEntity
  8
0
  6
Continuous
 62
     7
100
AcDbLine
 10
7185.8972109454
 20
4505.4210565361
 30
0.0
 11
7184.1031111377
 21
4506.0894630226
 31
0.0
  0
LINE
  5
34B
330
1F
100
AcDbEntity
  8
0
  6
Continuous
 62
     7
100
AcDbLine
 10
7184.1031111377
 20
4506.0894630226
 30
0.0
 11
7182.0941961902
 21
4506.6422364982
 31
0.0
  0
LINE
  5
34C
330
1F
100
AcDbEntity
  8
0
  6
Continuous
 62
     7
100
AcDbLine
 10
7182.0941961902
 20
4506.6422364982
 30
0.0
 11
7179.9130238192
 21
4507.067456034
 31
0.0
  0
LINE
  5
34D
330
1F
100
AcDbEntity
  8
0
  6
Continuous
 62
     7
100
AcDbLine
 10
7179.9130238192
 20
4507.067456034
 30
0.0
 11
7177.6063240664
 21
4507.356061724
 31
0.0
  0
LINE
  5
34E
330
1F
100
AcDbEntity
  8
0
  6
Continuous
 62
     7
100
AcDbLine
 10
7177.6063240664
 20
4507.356061724
 30
0.0
 11
7175.223211159
 21
4507.5018546852
 31
0.0
  0
LINE
  5
34F
330
1F
100
AcDbEntity
  8
0
  6
Continuous
 62
     7
100
AcDbLine
 10
7175.223211159
 20
4507.5018546852
 30
0.0
 11
7172.8143490451
 21
4507.5018546852
 31
0.0
  0
LINE
  5
350
330
1F
100
AcDbEntity
  8
0
  6
Continuous
 62
     7
100
AcDbLine
 10
7172.8143490451
 20
4507.5018546852
 30
0.0
 11
7170.4311169284
 21
4507.356061724
 31
0.0
  0
LINE
  5
351
330
1F
100
AcDbEntity
  8
0
  6
Continuous
 62
     7
100
AcDbLine
 10
7170.4311169284
 20
4507.356061724
 30
0.0
 11
7168.1244171756
 21
4507.067456034
 31
0.0
  0
LINE
  5
352
330
1F
100
AcDbEntity
  8
0
  6
Continuous
 62
     7
100
AcDbLine
 10
7168.1244171756
 20
4507.067456034
 30
0.0
 11
7165.9433640139
 21
4506.6422364982
 31
0.0
  0
LINE
  5
353
330
1F
100
AcDbEntity
  8
0
  6
Continuous
 62
     7
100
AcDbLine
 10
7165.9433640139
 20
4506.6422364982
 30
0.0
 11
7163.9343298572
 21
4506.0894630226
 31
0.0
  0
LINE
  5
354
330
1F
100
AcDbEntity
  8
0
  6
Continuous
 62
     7
100
AcDbLine
 10
7163.9343298572
 20
4506.0894630226
 30
0.0
 11
7162.1403492587
 21
4505.4210565361
 31
0.0
  0
LINE
  5
355
330
1F
100
AcDbEntity
  8
0
  6
Continuous
 62
     7
100
AcDbLine
 10
7162.1403492587
 20
4505.4210565361
 30
0.0
 11
7160.599449982
 21
4504.6509645256
 31
0.0
  0
LINE
  5
356
330
1F
100
AcDbEntity
  8
0
  6
Continuous
 62
     7
100
AcDbLine
 10
7160.599449982
 20
4504.6509645256
 30
0.0
 11
7159.3446530002
 21
4503.7958762916
 31
0.0
  0
LINE
  5
357
330
1F
100
AcDbEntity
  8
0
  6
Continuous
 62
     7
100
AcDbLine
 10
7159.3446530002
 20
4503.7958762916
 30
0.0
 11
7158.4025419848
 21
4502.8739116462
 31
0.0
  0
LINE
  5
358
330
1F
100
AcDbEntity
  8
0
  6
Continuous
 62
     7
100
AcDbLine
 10
7158.4025419848
 20
4502.8739116462
 30
0.0
 11
7157.7932633059
 21
4501.9047401222
 31
0.0
  0
LINE
  5
359
330
1F
100
AcDbEntity
  8
0
  6
Continuous
 62
     7
100
AcDbLine
 10
7157.7932633059
 20
4501.9047401222
 30
0.0
 11
7157.529810776
 21
4500.9089849266
 31
0.0
  0
LINE
  5
35A
330
1F
100
AcDbEntity
  8
0
  6
Continuous
 62
     7
100
AcDbLine
 10
7157.529810776
 20
4500.9089849266
 30
0.0
 11
7157.6177872317
 21
4499.9078653129
 31
0.0
  0
LINE
  5
35B
330
1F
100
AcDbEntity
  8
0
  6
Continuous
 62
     7
100
AcDbLine
 10
7157.6177872317
 20
4499.9078653129
 30
0.0
 11
7158.0552853244
 21
4498.9228389533
 31
0.0
  0
LINE
  5
35C
330
1F
100
AcDbEntity
  8
0
  6
Continuous
 62
     7
100
AcDbLine
 10
7158.0552853244
 20
4498.9228389533
 30
0.0
 11
7158.8330067294
 21
4497.9746482643
 31
0.0
  0
LINE
  5
35D
330
1F
100
AcDbEntity
  8
0
  6
Continuous
 62
     7
100
AcDbLine
 10
7158.8330067294
 20
4497.9746482643
 30
0.0
 11
7159.9345005649
 21
4497.0837972434
 31
0.0
  0
LINE
  5
35E
330
1F
100
AcDbEntity
  8
0
  6
Continuous
 62
     7
100
AcDbLine
 10
7159.9345005649
 20
4497.0837972434
 30
0.0
 11
7161.3360441821
 21
4496.2690017494
 31
0.0
  0
LINE
  5
35F
330
1F
100
AcDbEntity
  8
0
  6
Continuous
 62
     7
100
AcDbLine
 10
7161.3360441821
 20
4496.2690017494
 30
0.0
 11
7163.0079544681
 21
4495.5479047569
 31
0.0
  0
LINE
  5
360
330
1F
100
AcDbEntity
  8
0
  6
Continuous
 62
     7
100
AcDbLine
 10
7163.0079544681
 20
4495.5479047569
 30
0.0
 11
7164.9145878451
 21
4494.9356458457
 31
0.0
  0
LINE
  5
361
330
1F
100
AcDbEntity
  8
0
  6
Continuous
 62
     7
100
AcDbLine
 10
7164.9145878451
 20
4494.9356458457
 30
0.0
 11
7167.0151747363
 21
4494.4453380378
 31
0.0
  0
LINE
  5
362
330
1F
100
AcDbEntity
  8
0
  6
Continuous
 62
     7
100
AcDbLine
 10
7167.0151747363
 20
4494.4453380378
 30
0.0
 11
7169.2651308673
 21
4494.0874717506
 31
0.0
  0
LINE
  5
363
330
1F
100
AcDbEntity
  8
0
  6
Continuous
 62
     7
100
AcDbLine
 10
7169.2651308673
 20
4494.0874717506
 30
0.0
 11
7171.6162956851
 21
4493.8696763786
 31
0.0
  0
LINE
  5
364
330
1F
100
AcDbEntity
  8
0
  6
Continuous
 62
     7
100
AcDbLine
 10
7171.6162956851
 20
4493.8696763786
 30
0.0
 11
7174.0187204974
 21
4493.7964818748
 31
0.0
  0
LINE
  5
365
330
1F
100
AcDbEntity
  8
0
  6
Continuous
 62
     7
100
AcDbLine
 10
7192.0176542895
 20
4502.1034620079
 30
0.0
 11
7191.9201410907
 21
4502.8050086769
 31
0.0
  0
LINE
  5
366
330
1F
100
AcDbEntity
  8
0
  6
Continuous
 62
     7
100
AcDbLine
 10
7191.9201410907
 20
4502.8050086769
 30
0.0
 11
7191.4840735095
 21
4503.8334272178
 31
0.0
  0
LINE
  5
367
330
1F
100
AcDbEntity
  8
0
  6
Continuous
 62
     7
100
AcDbLine
 10
7191.4840735095
 20
4503.8334272178
 30
0.0
 11
7190.7080210345
 21
4504.8266790184
 31
0.0
  0
LINE
  5
368
330
1F
100
AcDbEntity
  8
0
  6
Continuous
 62
     7
100
AcDbLine
 10
7190.7080210345
 20
4504.8266790184
 30
0.0
 11
7189.6072424548
 21
4505.7653329643
 31
0.0
  0
LINE
  5
369
330
1F
100
AcDbEntity
  8
0
  6
Continuous
 62
     7
100
AcDbLine
 10
7189.6072424548
 20
4505.7653329643
 30
0.0
 11
7188.2029570239
 21
4506.6311500343
 31
0.0
  0
LINE
  5
36A
330
1F
100
AcDbEntity
  8
0
  6
Continuous
 62
     7
100
AcDbLine
 10
7188.2029570239
 20
4506.6311500343
 30
0.0
 11
7186.5225828784
 21
4507.4072025093
 31
0.0
  0
LINE
  5
36B
330
1F
100
AcDbEntity
  8
0
  6
Continuous
 62
     7
100
AcDbLine
 10
7186.5225828784
 20
4507.4072025093
 30
0.0
 11
7184.5989025729
 21
4508.0784700187
 31
0.0
  0
LINE
  5
36C
330
1F
100
AcDbEntity
  8
0
  6
Continuous
 62
     7
100
AcDbLine
 10
7184.5989025729
 20
4508.0784700187
 30
0.0
 11
7182.4692286151
 21
4508.6319587501
 31
0.0
  0
LINE
  5
36D
330
1F
100
AcDbEntity
  8
0
  6
Continuous
 62
     7
100
AcDbLine
 10
7182.4692286151
 20
4508.6319587501
 30
0.0
 11
7180.175165047
 21
4509.0567014488
 31
0.0
  0
LINE
  5
36E
330
1F
100
AcDbEntity
  8
0
  6
Continuous
 62
     7
100
AcDbLine
 10
7180.175165047
 20
4509.0567014488
 30
0.0
 11
7177.7611769336
 21
4509.344591883
 31
0.0
  0
LINE
  5
36F
330
1F
100
AcDbEntity
  8
0
  6
Continuous
 62
     7
100
AcDbLine
 10
7177.7611769336
 20
4509.344591883
 30
0.0
 11
7175.2743519442
 21
4509.489908007
 31
0.0
  0
LINE
  5
370
330
1F
100
AcDbEntity
  8
0
  6
Continuous
 62
     7
100
AcDbLine
 10
7175.2743519442
 20
4509.489908007
 30
0.0
 11
7172.7630890506
 21
4509.489908007
 31
0.0
  0
LINE
  5
371
330
1F
100
AcDbEntity
  8
0
  6
Continuous
 62
     7
100
AcDbLine
 10
7172.7630890506
 20
4509.489908007
 30
0.0
 11
7170.2763832705
 21
4509.344591883
 31
0.0
  0
LINE
  5
372
330
1F
100
AcDbEntity
  8
0
  6
Continuous
 62
     7
100
AcDbLine
 10
7170.2763832705
 20
4509.344591883
 30
0.0
 11
7167.8623951571
 21
4509.0567014488
 31
0.0
  0
LINE
  5
373
330
1F
100
AcDbEntity
  8
0
  6
Continuous
 62
     7
100
AcDbLine
 10
7167.8623951571
 20
4509.0567014488
 30
0.0
 11
7165.5682123797
 21
4508.6319587501
 31
0.0
  0
LINE
  5
374
330
1F
100
AcDbEntity
  8
0
  6
Continuous
 62
     7
100
AcDbLine
 10
7165.5682123797
 20
4508.6319587501
 30
0.0
 11
7163.4386576312
 21
4508.0784700187
 31
0.0
  0
LINE
  5
375
330
1F
100
AcDbEntity
  8
0
  6
Continuous
 62
     7
100
AcDbLine
 10
7163.4386576312
 20
4508.0784700187
 30
0.0
 11
7161.5148581164
 21
4507.4072025093
 31
0.0
  0
LINE
  5
376
330
1F
100
AcDbEntity
  8
0
  6
Continuous
 62
     7
100
AcDbLine
 10
7161.5148581164
 20
4507.4072025093
 30
0.0
 11
7159.8346031802
 21
4506.6311500343
 31
0.0
  0
LINE
  5
377
330
1F
100
AcDbEntity
  8
0
  6
Continuous
 62
     7
100
AcDbLine
 10
7159.8346031802
 20
4506.6311500343
 30
0.0
 11
7158.4303177493
 21
4505.7653329643
 31
0.0
  0
LINE
  5
378
330
1F
100
AcDbEntity
  8
0
  6
Continuous
 62
     7
100
AcDbLine
 10
7158.4303177493
 20
4505.7653329643
 30
0.0
 11
7157.3294199603
 21
4504.8266790184
 31
0.0
  0
LINE
  5
379
330
1F
100
AcDbEntity
  8
0
  6
Continuous
 62
     7
100
AcDbLine
 10
7157.3294199603
 20
4504.8266790184
 30
0.0
 11
7156.5534866946
 21
4503.8334272178
 31
0.0
  0
LINE
  5
37A
330
1F
100
AcDbEntity
  8
0
  6
Continuous
 62
     7
100
AcDbLine
 10
7156.5534866946
 20
4503.8334272178
 30
0.0
 11
7156.1174191134
 21
4502.8050086769
 31
0.0
  0
LINE
  5
37B
330
1F
100
AcDbEntity
  8
0
  6
Continuous
 62
     7
100
AcDbLine
 10
7156.1174191134
 20
4502.8050086769
 30
0.0
 11
7156.0191906588
 21
4501.9714973243
 31
0.0
  0
LINE
  5
37C
330
1F
100
AcDbEntity
  8
0
  6
Continuous
 62
     7
100
AcDbLine
 10
7185.9811342853
 20
4502.166523722
 30
0.0
 11
7185.1941145556
 21
4502.9872796806
 31
0.0
  0
LINE
  5
37D
330
1F
100
AcDbEntity
  8
0
  6
Continuous
 62
     7
100
AcDbLine
 10
7185.1941145556
 20
4502.9872796806
 30
0.0
 11
7184.0840376513
 21
4503.7408015998
 31
0.0
  0
LINE
  5
37E
330
1F
100
AcDbEntity
  8
0
  6
Continuous
 62
     7
100
AcDbLine
 10
7184.0840376513
 20
4503.7408015998
 30
0.0
 11
7182.6832092898
 21
4504.4052741798
 31
0.0
  0
LINE
  5
37F
330
1F
100
AcDbEntity
  8
0
  6
Continuous
 62
     7
100
AcDbLine
 10
7182.6832092898
 20
4504.4052741798
 30
0.0
 11
7181.0320414203
 21
4504.9613855155
 31
0.0
  0
LINE
  5
380
330
1F
100
AcDbEntity
  8
0
  6
Continuous
 62
     7
100
AcDbLine
 10
7181.0320414203
 20
4504.9613855155
 30
0.0
 11
7179.1782177585
 21
4505.3932807716
 31
0.0
  0
LINE
  5
381
330
1F
100
AcDbEntity
  8
0
  6
Continuous
 62
     7
100
AcDbLine
 10
7179.1782177585
 20
4505.3932807716
 30
0.0
 11
7177.1752632754
 21
4505.6882045539
 31
0.0
  0
LINE
  5
382
330
1F
100
AcDbEntity
  8
0
  6
Continuous
 62
     7
100
AcDbLine
 10
7177.1752632754
 20
4505.6882045539
 30
0.0
 11
7175.0811136859
 21
4505.8379314216
 31
0.0
  0
LINE
  5
383
330
1F
100
AcDbEntity
  8
0
  6
Continuous
 62
     7
100
AcDbLine
 10
7175.0811136859
 20
4505.8379314216
 30
0.0
 11
7172.9563273089
 21
4505.8379314216
 31
0.0
  0
LINE
  5
384
330
1F
100
AcDbEntity
  8
0
  6
Continuous
 62
     7
100
AcDbLine
 10
7172.9563273089
 20
4505.8379314216
 30
0.0
 11
7170.8621777194
 21
4505.6882045539
 31
0.0
  0
LINE
  5
385
330
1F
100
AcDbEntity
  8
0
  6
Continuous
 62
     7
100
AcDbLine
 10
7170.8621777194
 20
4505.6882045539
 30
0.0
 11
7168.8592232364
 21
4505.3932807716
 31
0.0
  0
LINE
  5
386
330
1F
100
AcDbEntity
  8
0
  6
Continuous
 62
     7
100
AcDbLine
 10
7168.8592232364
 20
4505.3932807716
 30
0.0
 11
7167.0053995746
 21
4504.9613855155
 31
0.0
  0
LINE
  5
387
330
1F
100
AcDbEntity
  8
0
  6
Continuous
 62
     7
100
AcDbLine
 10
7167.0053995746
 20
4504.9613855155
 30
0.0
 11
7165.354231705
 21
4504.4052741798
 31
0.0
  0
LINE
  5
388
330
1F
100
AcDbEntity
  8
0
  6
Continuous
 62
     7
100
AcDbLine
 10
7165.354231705
 20
4504.4052741798
 30
0.0
 11
7163.9534033435
 21
4503.7408015998
 31
0.0
  0
LINE
  5
389
330
1F
100
AcDbEntity
  8
0
  6
Continuous
 62
     7
100
AcDbLine
 10
7163.9534033435
 20
4503.7408015998
 30
0.0
 11
7162.8434456485
 21
4502.9872796806
 31
0.0
  0
LINE
  5
38A
330
1F
100
AcDbEntity
  8
0
  6
Continuous
 62
     7
100
AcDbLine
 10
7162.8434456485
 20
4502.9872796806
 30
0.0
 11
7162.0564259189
 21
4502.166523722
 31
0.0
  0
LINE
  5
38B
330
1F
100
AcDbEntity
  8
0
  6
Continuous
 62
     7
100
AcDbLine
 10
7162.0564259189
 20
4502.166523722
 30
0.0
 11
7162.0349682467
 21
4502.1034620079
 31
0.0
  0
LINE
  5
38C
330
1F
100
AcDbEntity
  8
0
  6
Continuous
 62
     7
100
AcDbLine
 10
7162.0349682467
 20
4502.1034620079
 30
0.0
 11
7162.0603598254
 21
4502.0406387123
 31
0.0
  0
LINE
  5
38D
330
1F
100
AcDbEntity
  8
0
  6
Continuous
 62
     7
100
AcDbLine
 10
7162.0603598254
 20
4502.0406387123
 30
0.0
 11
7162.1303356784
 21
4501.9840142997
 31
0.0
  0
LINE
  5
38E
330
1F
100
AcDbEntity
  8
0
  6
Continuous
 62
     7
100
AcDbLine
 10
7162.1303356784
 20
4501.9840142997
 30
0.0
 11
7162.2382200854
 21
4501.938833979
 31
0.0
  0
LINE
  5
38F
330
1F
100
AcDbEntity
  8
0
  6
Continuous
 62
     7
100
AcDbLine
 10
7162.2382200854
 20
4501.938833979
 30
0.0
 11
7162.3738802569
 21
4501.9093892845
 31
0.0
  0
LINE
  5
390
330
1F
100
AcDbEntity
  8
0
  6
Continuous
 62
     7
100
AcDbLine
 10
7162.3738802569
 20
4501.9093892845
 30
0.0
 11
7162.5246800082
 21
4501.8983028205
 31
0.0
  0
LINE
  5
391
330
1F
100
AcDbEntity
  8
0
  6
Continuous
 62
     7
100
AcDbLine
 10
7162.5246800082
 20
4501.8983028205
 30
0.0
 11
7162.6764334338
 21
4501.9067666801
 31
0.0
  0
LINE
  5
392
330
1F
100
AcDbEntity
  8
0
  6
Continuous
 62
     7
100
AcDbLine
 10
7162.6764334338
 20
4501.9067666801
 30
0.0
 11
7162.8149546283
 21
4501.9339463981
 31
0.0
  0
LINE
  5
393
330
1F
100
AcDbEntity
  8
0
  6
Continuous
 62
     7
100
AcDbLine
 10
7185.2224863665
 20
4501.9339463981
 30
0.0
 11
7185.361007561
 21
4501.9067666801
 31
0.0
  0
LINE
  5
394
330
1F
100
AcDbEntity
  8
0
  6
Continuous
 62
     7
100
AcDbLine
 10
7185.361007561
 20
4501.9067666801
 30
0.0
 11
7185.5127609866
 21
4501.8983028205
 31
0.0
  0
LINE
  5
395
330
1F
100
AcDbEntity
  8
0
  6
Continuous
 62
     7
100
AcDbLine
 10
7185.5127609866
 20
4501.8983028205
 30
0.0
 11
7185.6635607379
 21
4501.9093892845
 31
0.0
  0
LINE
  5
396
330
1F
100
AcDbEntity
  8
0
  6
Continuous
 62
     7
100
AcDbLine
 10
7185.6635607379
 20
4501.9093892845
 30
0.0
 11
7185.7993401187
 21
4501.938833979
 31
0.0
  0
LINE
  5
397
330
1F
100
AcDbEntity
  8
0
  6
Continuous
 62
     7
100
AcDbLine
 10
7185.7993401187
 20
4501.938833979
 30
0.0
 11
7185.9072245257
 21
4501.9840142997
 31
0.0
  0
LINE
  5
398
330
1F
100
AcDbEntity
  8
0
  6
Continuous
 62
     7
100
AcDbLine
 10
7185.9072245257
 20
4501.9840142997
 30
0.0
 11
7185.9772003787
 21
4502.0406387123
 31
0.0
  0
LINE
  5
399
330
1F
100
AcDbEntity
  8
0
  6
Continuous
 62
     7
100
AcDbLine
 10
7185.9772003787
 20
4502.0406387123
 30
0.0
 11
7186.0025919574
 21
4502.1034620079
 31
0.0
  0
LINE
  5
39A
330
1F
100
AcDbEntity
  8
0
  6
Continuous
 62
     7
100
AcDbLine
 10
7186.0025919574
 20
4502.1034620079
 30
0.0
 11
7185.9811342853
 21
4502.166523722
 31
0.0
  0
LINE
  5
39B
330
1F
100
AcDbEntity
  8
0
  6
Continuous
 62
     7
100
AcDbLine
 10
7162.8149546283
 20
4499.3827483924
 30
0.0
 11
7162.6764334338
 21
4499.4099281105
 31
0.0
  0
LINE
  5
39C
330
1F
100
AcDbEntity
  8
0
  6
Continuous
 62
     7
100
AcDbLine
 10
7162.6764334338
 20
4499.4099281105
 30
0.0
 11
7162.5246800082
 21
4499.41839197
 31
0.0
  0
LINE
  5
39D
330
1F
100
AcDbEntity
  8
0
  6
Continuous
 62
     7
100
AcDbLine
 10
7162.5246800082
 20
4499.41839197
 30
0.0
 11
7162.3738802569
 21
4499.4074247154
 31
0.0
  0
LINE
  5
39E
330
1F
100
AcDbEntity
  8
0
  6
Continuous
 62
     7
100
AcDbLine
 10
7162.3738802569
 20
4499.4074247154
 30
0.0
 11
7162.2382200854
 21
4499.3778608116
 31
0.0
  0
LINE
  5
39F
330
1F
100
AcDbEntity
  8
0
  6
Continuous
 62
     7
100
AcDbLine
 10
7162.2382200854
 20
4499.3778608116
 30
0.0
 11
7162.1303356784
 21
4499.3326804908
 31
0.0
  0
LINE
  5
3A0
330
1F
100
AcDbEntity
  8
0
  6
Continuous
 62
     7
100
AcDbLine
 10
7162.1303356784
 20
4499.3326804908
 30
0.0
 11
7162.0603598254
 21
4499.2760560783
 31
0.0
  0
LINE
  5
3A1
330
1F
100
AcDbEntity
  8
0
  6
Continuous
 62
     7
100
AcDbLine
 10
7162.0603598254
 20
4499.2760560783
 30
0.0
 11
7162.0349682467
 21
4499.2132327827
 31
0.0
  0
LINE
  5
3A2
330
1F
100
AcDbEntity
  8
0
  6
Continuous
 62
     7
100
AcDbLine
 10
7162.0349682467
 20
4499.2132327827
 30
0.0
 11
7162.0564259189
 21
4499.1501710685
 31
0.0
  0
LINE
  5
3A3
330
1F
100
AcDbEntity
  8
0
  6
Continuous
 62
     7
100
AcDbLine
 10
7162.0564259189
 20
4499.1501710685
 30
0.0
 11
7162.8434456485
 21
4498.32941511
 31
0.0
  0
LINE
  5
3A4
330
1F
100
AcDbEntity
  8
0
  6
Continuous
 62
     7
100
AcDbLine
 10
7162.8434456485
 20
4498.32941511
 30
0.0
 11
7163.9534033435
 21
4497.5758931907
 31
0.0
  0
LINE
  5
3A5
330
1F
100
AcDbEntity
  8
0
  6
Continuous
 62
     7
100
AcDbLine
 10
7163.9534033435
 20
4497.5758931907
 30
0.0
 11
7165.354231705
 21
4496.9114206108
 31
0.0
  0
LINE
  5
3A6
330
1F
100
AcDbEntity
  8
0
  6
Continuous
 62
     7
100
AcDbLine
 10
7165.354231705
 20
4496.9114206108
 30
0.0
 11
7167.0053995746
 21
4496.355309275
 31
0.0
  0
LINE
  5
3A7
330
1F
100
AcDbEntity
  8
0
  6
Continuous
 62
     7
100
AcDbLine
 10
7167.0053995746
 20
4496.355309275
 30
0.0
 11
7168.8592232364
 21
4495.9235332283
 31
0.0
  0
LINE
  5
3A8
330
1F
100
AcDbEntity
  8
0
  6
Continuous
 62
     7
100
AcDbLine
 10
7168.8592232364
 20
4495.9235332283
 30
0.0
 11
7170.8621777194
 21
4495.6284902366
 31
0.0
  0
LINE
  5
3A9
330
1F
100
AcDbEntity
  8
0
  6
Continuous
 62
     7
100
AcDbLine
 10
7170.8621777194
 20
4495.6284902366
 30
0.0
 11
7172.9563273089
 21
4495.4787633689
 31
0.0
  0
LINE
  5
3AA
330
1F
100
AcDbEntity
  8
0
  6
Continuous
 62
     7
100
AcDbLine
 10
7172.9563273089
 20
4495.4787633689
 30
0.0
 11
7175.0811136859
 21
4495.4787633689
 31
0.0
  0
LINE
  5
3AB
330
1F
100
AcDbEntity
  8
0
  6
Continuous
 62
     7
100
AcDbLine
 10
7175.0811136859
 20
4495.4787633689
 30
0.0
 11
7177.1752632754
 21
4495.6284902366
 31
0.0
  0
LINE
  5
3AC
330
1F
100
AcDbEntity
  8
0
  6
Continuous
 62
     7
100
AcDbLine
 10
7177.1752632754
 20
4495.6284902366
 30
0.0
 11
7179.1782177585
 21
4495.9235332283
 31
0.0
  0
LINE
  5
3AD
330
1F
100
AcDbEntity
  8
0
  6
Continuous
 62
     7
100
AcDbLine
 10
7179.1782177585
 20
4495.9235332283
 30
0.0
 11
7181.0320414203
 21
4496.355309275
 31
0.0
  0
LINE
  5
3AE
330
1F
100
AcDbEntity
  8
0
  6
Continuous
 62
     7
100
AcDbLine
 10
7181.0320414203
 20
4496.355309275
 30
0.0
 11
7182.6832092898
 21
4496.9114206108
 31
0.0
  0
LINE
  5
3AF
330
1F
100
AcDbEntity
  8
0
  6
Continuous
 62
     7
100
AcDbLine
 10
7182.6832092898
 20
4496.9114206108
 30
0.0
 11
7184.0840376513
 21
4497.5758931907
 31
0.0
  0
LINE
  5
3B0
330
1F
100
AcDbEntity
  8
0
  6
Continuous
 62
     7
100
AcDbLine
 10
7184.0840376513
 20
4497.5758931907
 30
0.0
 11
7185.1941145556
 21
4498.32941511
 31
0.0
  0
LINE
  5
3B1
330
1F
100
AcDbEntity
  8
0
  6
Continuous
 62
     7
100
AcDbLine
 10
7185.1941145556
 20
4498.32941511
 30
0.0
 11
7185.9811342853
 21
4499.1501710685
 31
0.0
  0
LINE
  5
3B2
330
1F
100
AcDbEntity
  8
0
  6
Continuous
 62
     7
100
AcDbLine
 10
7185.9811342853
 20
4499.1501710685
 30
0.0
 11
7186.0025919574
 21
4499.2132327827
 31
0.0
  0
LINE
  5
3B3
330
1F
100
AcDbEntity
  8
0
  6
Continuous
 62
     7
100
AcDbLine
 10
7186.0025919574
 20
4499.2132327827
 30
0.0
 11
7185.9772003787
 21
4499.2760560783
 31
0.0
  0
LINE
  5
3B4
330
1F
100
AcDbEntity
  8
0
  6
Continuous
 62
     7
100
AcDbLine
 10
7185.9772003787
 20
4499.2760560783
 30
0.0
 11
7185.9072245257
 21
4499.3326804908
 31
0.0
  0
LINE
  5
3B5
330
1F
100
AcDbEntity
  8
0
  6
Continuous
 62
     7
100
AcDbLine
 10
7185.9072245257
 20
4499.3326804908
 30
0.0
 11
7185.7993401187
 21
4499.3778608116
 31
0.0
  0
LINE
  5
3B6
330
1F
100
AcDbEntity
  8
0
  6
Continuous
 62
     7
100
AcDbLine
 10
7185.7993401187
 20
4499.3778608116
 30
0.0
 11
7185.6635607379
 21
4499.4074247154
 31
0.0
  0
LINE
  5
3B7
330
1F
100
AcDbEntity
  8
0
  6
Continuous
 62
     7
100
AcDbLine
 10
7185.6635607379
 20
4499.4074247154
 30
0.0
 11
7185.5127609866
 21
4499.41839197
 31
0.0
  0
LINE
  5
3B8
330
1F
100
AcDbEntity
  8
0
  6
Continuous
 62
     7
100
AcDbLine
 10
7185.5127609866
 20
4499.41839197
 30
0.0
 11
7185.361007561
 21
4499.4099281105
 31
0.0
  0
LINE
  5
3B9
330
1F
100
AcDbEntity
  8
0
  6
Continuous
 62
     7
100
AcDbLine
 10
7185.361007561
 20
4499.4099281105
 30
0.0
 11
7185.2224863665
 21
4499.3827483924
 31
0.0
  0
LINE
  5
3BA
330
1F
100
AcDbEntity
  8
0
  6
Continuous
 62
     7
100
AcDbLine
 10
5374.0187681811
 20
4493.7964818748
 30
0.0
 11
5376.4211631911
 21
4493.8696763786
 31
0.0
  0
LINE
  5
3BB
330
1F
100
AcDbEntity
  8
0
  6
Continuous
 62
     7
100
AcDbLine
 10
5376.4211631911
 20
4493.8696763786
 30
0.0
 11
5378.7723876136
 21
4494.0874717506
 31
0.0
  0
LINE
  5
3BC
330
1F
100
AcDbEntity
  8
0
  6
Continuous
 62
     7
100
AcDbLine
 10
5378.7723876136
 20
4494.0874717506
 30
0.0
 11
5381.0222841399
 21
4494.4453380378
 31
0.0
  0
LINE
  5
3BD
330
1F
100
AcDbEntity
  8
0
  6
Continuous
 62
     7
100
AcDbLine
 10
5381.0222841399
 20
4494.4453380378
 30
0.0
 11
5383.1229306357
 21
4494.9356458457
 31
0.0
  0
LINE
  5
3BE
330
1F
100
AcDbEntity
  8
0
  6
Continuous
 62
     7
100
AcDbLine
 10
5383.1229306357
 20
4494.9356458457
 30
0.0
 11
5385.0295044082
 21
4495.5479047569
 31
0.0
  0
LINE
  5
3BF
330
1F
100
AcDbEntity
  8
0
  6
Continuous
 62
     7
100
AcDbLine
 10
5385.0295044082
 20
4495.5479047569
 30
0.0
 11
5386.7014444964
 21
4496.2690017494
 31
0.0
  0
LINE
  5
3C0
330
1F
100
AcDbEntity
  8
0
  6
Continuous
 62
     7
100
AcDbLine
 10
5386.7014444964
 20
4496.2690017494
 30
0.0
 11
5388.1030477183
 21
4497.0837972434
 31
0.0
  0
LINE
  5
3C1
330
1F
100
AcDbEntity
  8
0
  6
Continuous
 62
     7
100
AcDbLine
 10
5388.1030477183
 20
4497.0837972434
 30
0.0
 11
5389.2044819491
 21
4497.9746482643
 31
0.0
  0
LINE
  5
3C2
330
1F
100
AcDbEntity
  8
0
  6
Continuous
 62
     7
100
AcDbLine
 10
5389.2044819491
 20
4497.9746482643
 30
0.0
 11
5389.9822331565
 21
4498.9228389533
 31
0.0
  0
LINE
  5
3C3
330
1F
100
AcDbEntity
  8
0
  6
Continuous
 62
     7
100
AcDbLine
 10
5389.9822331565
 20
4498.9228389533
 30
0.0
 11
5390.4197610515
 21
4499.9078653129
 31
0.0
  0
LINE
  5
3C4
330
1F
100
AcDbEntity
  8
0
  6
Continuous
 62
     7
100
AcDbLine
 10
5390.4197610515
 20
4499.9078653129
 30
0.0
 11
5390.5077375071
 21
4500.9089849266
 31
0.0
  0
LINE
  5
3C5
330
1F
100
AcDbEntity
  8
0
  6
Continuous
 62
     7
100
AcDbLine
 10
5390.5077375071
 20
4500.9089849266
 30
0.0
 11
5390.2442849772
 21
4501.9047401222
 31
0.0
  0
LINE
  5
3C6
330
1F
100
AcDbEntity
  8
0
  6
Continuous
 62
     7
100
AcDbLine
 10
5390.2442849772
 20
4501.9047401222
 30
0.0
 11
5389.6350062983
 21
4502.8739116462
 31
0.0
  0
LINE
  5
3C7
330
1F
100
AcDbEntity
  8
0
  6
Continuous
 62
     7
100
AcDbLine
 10
5389.6350062983
 20
4502.8739116462
 30
0.0
 11
5388.692895283
 21
4503.7958762916
 31
0.0
  0
LINE
  5
3C8
330
1F
100
AcDbEntity
  8
0
  6
Continuous
 62
     7
100
AcDbLine
 10
5388.692895283
 20
4503.7958762916
 30
0.0
 11
5387.4380386966
 21
4504.6509645256
 31
0.0
  0
LINE
  5
3C9
330
1F
100
AcDbEntity
  8
0
  6
Continuous
 62
     7
100
AcDbLine
 10
5387.4380386966
 20
4504.6509645256
 30
0.0
 11
5385.8971692222
 21
4505.4210565361
 31
0.0
  0
LINE
  5
3CA
330
1F
100
AcDbEntity
  8
0
  6
Continuous
 62
     7
100
AcDbLine
 10
5385.8971692222
 20
4505.4210565361
 30
0.0
 11
5384.1031290191
 21
4506.0894630226
 31
0.0
  0
LINE
  5
3CB
330
1F
100
AcDbEntity
  8
0
  6
Continuous
 62
     7
100
AcDbLine
 10
5384.1031290191
 20
4506.0894630226
 30
0.0
 11
5382.0941544669
 21
4506.6422364982
 31
0.0
  0
LINE
  5
3CC
330
1F
100
AcDbEntity
  8
0
  6
Continuous
 62
     7
100
AcDbLine
 10
5382.0941544669
 20
4506.6422364982
 30
0.0
 11
5379.913071503
 21
4507.067456034
 31
0.0
  0
LINE
  5
3CD
330
1F
100
AcDbEntity
  8
0
  6
Continuous
 62
     7
100
AcDbLine
 10
5379.913071503
 20
4507.067456034
 30
0.0
 11
5377.6063419478
 21
4507.356061724
 31
0.0
  0
LINE
  5
3CE
330
1F
100
AcDbEntity
  8
0
  6
Continuous
 62
     7
100
AcDbLine
 10
5377.6063419478
 20
4507.356061724
 30
0.0
 11
5375.2231694358
 21
4507.5018546852
 31
0.0
  0
LINE
  5
3CF
330
1F
100
AcDbEntity
  8
0
  6
Continuous
 62
     7
100
AcDbLine
 10
5375.2231694358
 20
4507.5018546852
 30
0.0
 11
5372.8143371241
 21
4507.5018546852
 31
0.0
  0
LINE
  5
3D0
330
1F
100
AcDbEntity
  8
0
  6
Continuous
 62
     7
100
AcDbLine
 10
5372.8143371241
 20
4507.5018546852
 30
0.0
 11
5370.4311646121
 21
4507.356061724
 31
0.0
  0
LINE
  5
3D1
330
1F
100
AcDbEntity
  8
0
  6
Continuous
 62
     7
100
AcDbLine
 10
5370.4311646121
 20
4507.356061724
 30
0.0
 11
5368.124435057
 21
4507.067456034
 31
0.0
  0
LINE
  5
3D2
330
1F
100
AcDbEntity
  8
0
  6
Continuous
 62
     7
100
AcDbLine
 10
5368.124435057
 20
4507.067456034
 30
0.0
 11
5365.943352093
 21
4506.6422364982
 31
0.0
  0
LINE
  5
3D3
330
1F
100
AcDbEntity
  8
0
  6
Continuous
 62
     7
100
AcDbLine
 10
5365.943352093
 20
4506.6422364982
 30
0.0
 11
5363.9343775409
 21
4506.0894630226
 31
0.0
  0
LINE
  5
3D4
330
1F
100
AcDbEntity
  8
0
  6
Continuous
 62
     7
100
AcDbLine
 10
5363.9343775409
 20
4506.0894630226
 30
0.0
 11
5362.1403373378
 21
4505.4210565361
 31
0.0
  0
LINE
  5
3D5
330
1F
100
AcDbEntity
  8
0
  6
Continuous
 62
     7
100
AcDbLine
 10
5362.1403373378
 20
4505.4210565361
 30
0.0
 11
5360.5994678634
 21
4504.6509645256
 31
0.0
  0
LINE
  5
3D6
330
1F
100
AcDbEntity
  8
0
  6
Continuous
 62
     7
100
AcDbLine
 10
5360.5994678634
 20
4504.6509645256
 30
0.0
 11
5359.3446112769
 21
4503.7958762916
 31
0.0
  0
LINE
  5
3D7
330
1F
100
AcDbEntity
  8
0
  6
Continuous
 62
     7
100
AcDbLine
 10
5359.3446112769
 20
4503.7958762916
 30
0.0
 11
5358.4025002616
 21
4502.8739116462
 31
0.0
  0
LINE
  5
3D8
330
1F
100
AcDbEntity
  8
0
  6
Continuous
 62
     7
100
AcDbLine
 10
5358.4025002616
 20
4502.8739116462
 30
0.0
 11
5357.7932215827
 21
4501.9047401222
 31
0.0
  0
LINE
  5
3D9
330
1F
100
AcDbEntity
  8
0
  6
Continuous
 62
     7
100
AcDbLine
 10
5357.7932215827
 20
4501.9047401222
 30
0.0
 11
5357.5297690528
 21
4500.9089849266
 31
0.0
  0
LINE
  5
3DA
330
1F
100
AcDbEntity
  8
0
  6
Continuous
 62
     7
100
AcDbLine
 10
5357.5297690528
 20
4500.9089849266
 30
0.0
 11
5357.6177455085
 21
4499.9078653129
 31
0.0
  0
LINE
  5
3DB
330
1F
100
AcDbEntity
  8
0
  6
Continuous
 62
     7
100
AcDbLine
 10
5357.6177455085
 20
4499.9078653129
 30
0.0
 11
5358.0552734034
 21
4498.9228389533
 31
0.0
  0
LINE
  5
3DC
330
1F
100
AcDbEntity
  8
0
  6
Continuous
 62
     7
100
AcDbLine
 10
5358.0552734034
 20
4498.9228389533
 30
0.0
 11
5358.8330544131
 21
4497.9746482643
 31
0.0
  0
LINE
  5
3DD
330
1F
100
AcDbEntity
  8
0
  6
Continuous
 62
     7
100
AcDbLine
 10
5358.8330544131
 20
4497.9746482643
 30
0.0
 11
5359.9344588416
 21
4497.0837972434
 31
0.0
  0
LINE
  5
3DE
330
1F
100
AcDbEntity
  8
0
  6
Continuous
 62
     7
100
AcDbLine
 10
5359.9344588416
 20
4497.0837972434
 30
0.0
 11
5361.3360918658
 21
4496.2690017494
 31
0.0
  0
LINE
  5
3DF
330
1F
100
AcDbEntity
  8
0
  6
Continuous
 62
     7
100
AcDbLine
 10
5361.3360918658
 20
4496.2690017494
 30
0.0
 11
5363.0080021518
 21
4495.5479047569
 31
0.0
  0
LINE
  5
3E0
330
1F
100
AcDbEntity
  8
0
  6
Continuous
 62
     7
100
AcDbLine
 10
5363.0080021518
 20
4495.5479047569
 30
0.0
 11
5364.9145759242
 21
4494.9356458457
 31
0.0
  0
LINE
  5
3E1
330
1F
100
AcDbEntity
  8
0
  6
Continuous
 62
     7
100
AcDbLine
 10
5364.9145759242
 20
4494.9356458457
 30
0.0
 11
5367.01522242
 21
4494.4453380378
 31
0.0
  0
LINE
  5
3E2
330
1F
100
AcDbEntity
  8
0
  6
Continuous
 62
     7
100
AcDbLine
 10
5367.01522242
 20
4494.4453380378
 30
0.0
 11
5369.2651189464
 21
4494.0874717506
 31
0.0
  0
LINE
  5
3E3
330
1F
100
AcDbEntity
  8
0
  6
Continuous
 62
     7
100
AcDbLine
 10
5369.2651189464
 20
4494.0874717506
 30
0.0
 11
5371.6163433688
 21
4493.8696763786
 31
0.0
  0
LINE
  5
3E4
330
1F
100
AcDbEntity
  8
0
  6
Continuous
 62
     7
100
AcDbLine
 10
5371.6163433688
 20
4493.8696763786
 30
0.0
 11
5374.0187681811
 21
4493.7964818748
 31
0.0
  0
LINE
  5
3E5
330
1F
100
AcDbEntity
  8
0
  6
Continuous
 62
     7
100
AcDbLine
 10
5392.0177019732
 20
4502.1034620079
 30
0.0
 11
5391.9201589721
 21
4502.8050086769
 31
0.0
  0
LINE
  5
3E6
330
1F
100
AcDbEntity
  8
0
  6
Continuous
 62
     7
100
AcDbLine
 10
5391.9201589721
 20
4502.8050086769
 30
0.0
 11
5391.4840913909
 21
4503.8334272178
 31
0.0
  0
LINE
  5
3E7
330
1F
100
AcDbEntity
  8
0
  6
Continuous
 62
     7
100
AcDbLine
 10
5391.4840913909
 20
4503.8334272178
 30
0.0
 11
5390.7080687182
 21
4504.8266790184
 31
0.0
  0
LINE
  5
3E8
330
1F
100
AcDbEntity
  8
0
  6
Continuous
 62
     7
100
AcDbLine
 10
5390.7080687182
 20
4504.8266790184
 30
0.0
 11
5389.6072007316
 21
4505.7653329643
 31
0.0
  0
LINE
  5
3E9
330
1F
100
AcDbEntity
  8
0
  6
Continuous
 62
     7
100
AcDbLine
 10
5389.6072007316
 20
4505.7653329643
 30
0.0
 11
5388.202945103
 21
4506.6311500343
 31
0.0
  0
LINE
  5
3EA
330
1F
100
AcDbEntity
  8
0
  6
Continuous
 62
     7
100
AcDbLine
 10
5388.202945103
 20
4506.6311500343
 30
0.0
 11
5386.5226007598
 21
4507.4072025093
 31
0.0
  0
LINE
  5
3EB
330
1F
100
AcDbEntity
  8
0
  6
Continuous
 62
     7
100
AcDbLine
 10
5386.5226007598
 20
4507.4072025093
 30
0.0
 11
5384.598890652
 21
4508.0784700187
 31
0.0
  0
LINE
  5
3EC
330
1F
100
AcDbEntity
  8
0
  6
Continuous
 62
     7
100
AcDbLine
 10
5384.598890652
 20
4508.0784700187
 30
0.0
 11
5382.4692464965
 21
4508.6319587501
 31
0.0
  0
LINE
  5
3ED
330
1F
100
AcDbEntity
  8
0
  6
Continuous
 62
     7
100
AcDbLine
 10
5382.4692464965
 20
4508.6319587501
 30
0.0
 11
5380.1751233237
 21
4509.0567014488
 31
0.0
  0
LINE
  5
3EE
330
1F
100
AcDbEntity
  8
0
  6
Continuous
 62
     7
100
AcDbLine
 10
5380.1751233237
 20
4509.0567014488
 30
0.0
 11
5377.7611650126
 21
4509.344591883
 31
0.0
  0
LINE
  5
3EF
330
1F
100
AcDbEntity
  8
0
  6
Continuous
 62
     7
100
AcDbLine
 10
5377.7611650126
 20
4509.344591883
 30
0.0
 11
5375.2743698256
 21
4509.489908007
 31
0.0
  0
LINE
  5
3F0
330
1F
100
AcDbEntity
  8
0
  6
Continuous
 62
     7
100
AcDbLine
 10
5375.2743698256
 20
4509.489908007
 30
0.0
 11
5372.7631367343
 21
4509.489908007
 31
0.0
  0
LINE
  5
3F1
330
1F
100
AcDbEntity
  8
0
  6
Continuous
 62
     7
100
AcDbLine
 10
5372.7631367343
 20
4509.489908007
 30
0.0
 11
5370.2763415473
 21
4509.344591883
 31
0.0
  0
LINE
  5
3F2
330
1F
100
AcDbEntity
  8
0
  6
Continuous
 62
     7
100
AcDbLine
 10
5370.2763415473
 20
4509.344591883
 30
0.0
 11
5367.8623832362
 21
4509.0567014488
 31
0.0
  0
LINE
  5
3F3
330
1F
100
AcDbEntity
  8
0
  6
Continuous
 62
     7
100
AcDbLine
 10
5367.8623832362
 20
4509.0567014488
 30
0.0
 11
5365.5682600634
 21
4508.6319587501
 31
0.0
  0
LINE
  5
3F4
330
1F
100
AcDbEntity
  8
0
  6
Continuous
 62
     7
100
AcDbLine
 10
5365.5682600634
 20
4508.6319587501
 30
0.0
 11
5363.4386159079
 21
4508.0784700187
 31
0.0
  0
LINE
  5
3F5
330
1F
100
AcDbEntity
  8
0
  6
Continuous
 62
     7
100
AcDbLine
 10
5363.4386159079
 20
4508.0784700187
 30
0.0
 11
5361.5149058001
 21
4507.4072025093
 31
0.0
  0
LINE
  5
3F6
330
1F
100
AcDbEntity
  8
0
  6
Continuous
 62
     7
100
AcDbLine
 10
5361.5149058001
 20
4507.4072025093
 30
0.0
 11
5359.834561457
 21
4506.6311500343
 31
0.0
  0
LINE
  5
3F7
330
1F
100
AcDbEntity
  8
0
  6
Continuous
 62
     7
100
AcDbLine
 10
5359.834561457
 20
4506.6311500343
 30
0.0
 11
5358.4303058284
 21
4505.7653329643
 31
0.0
  0
LINE
  5
3F8
330
1F
100
AcDbEntity
  8
0
  6
Continuous
 62
     7
100
AcDbLine
 10
5358.4303058284
 20
4505.7653329643
 30
0.0
 11
5357.3294378417
 21
4504.8266790184
 31
0.0
  0
LINE
  5
3F9
330
1F
100
AcDbEntity
  8
0
  6
Continuous
 62
     7
100
AcDbLine
 10
5357.3294378417
 20
4504.8266790184
 30
0.0
 11
5356.5534449714
 21
4503.8334272178
 31
0.0
  0
LINE
  5
3FA
330
1F
100
AcDbEntity
  8
0
  6
Continuous
 62
     7
100
AcDbLine
 10
5356.5534449714
 20
4503.8334272178
 30
0.0
 11
5356.1173475879
 21
4502.8050086769
 31
0.0
  0
LINE
  5
3FB
330
1F
100
AcDbEntity
  8
0
  6
Continuous
 62
     7
100
AcDbLine
 10
5356.1173475879
 20
4502.8050086769
 30
0.0
 11
5356.0191787379
 21
4501.9714973243
 31
0.0
  0
LINE
  5
3FC
330
1F
100
AcDbEntity
  8
0
  6
Continuous
 62
     7
100
AcDbLine
 10
5385.9811223643
 20
4502.166523722
 30
0.0
 11
5385.1940430301
 21
4502.9872796806
 31
0.0
  0
LINE
  5
3FD
330
1F
100
AcDbEntity
  8
0
  6
Continuous
 62
     7
100
AcDbLine
 10
5385.1940430301
 20
4502.9872796806
 30
0.0
 11
5384.0840853351
 21
4503.7408015998
 31
0.0
  0
LINE
  5
3FE
330
1F
100
AcDbEntity
  8
0
  6
Continuous
 62
     7
100
AcDbLine
 10
5384.0840853351
 20
4503.7408015998
 30
0.0
 11
5382.6832569735
 21
4504.4052741798
 31
0.0
  0
LINE
  5
3FF
330
1F
100
AcDbEntity
  8
0
  6
Continuous
 62
     7
100
AcDbLine
 10
5382.6832569735
 20
4504.4052741798
 30
0.0
 11
5381.0320593017
 21
4504.9613855155
 31
0.0
  0
LINE
  5
400
330
1F
100
AcDbEntity
  8
0
  6
Continuous
 62
     7
100
AcDbLine
 10
5381.0320593017
 20
4504.9613855155
 30
0.0
 11
5379.1782356398
 21
4505.3932807716
 31
0.0
  0
LINE
  5
401
330
1F
100
AcDbEntity
  8
0
  6
Continuous
 62
     7
100
AcDbLine
 10
5379.1782356398
 20
4505.3932807716
 30
0.0
 11
5377.1753109591
 21
4505.6882045539
 31
0.0
  0
LINE
  5
402
330
1F
100
AcDbEntity
  8
0
  6
Continuous
 62
     7
100
AcDbLine
 10
5377.1753109591
 20
4505.6882045539
 30
0.0
 11
5375.0811613696
 21
4505.8379314216
 31
0.0
  0
LINE
  5
403
330
1F
100
AcDbEntity
  8
0
  6
Continuous
 62
     7
100
AcDbLine
 10
5375.0811613696
 20
4505.8379314216
 30
0.0
 11
5372.9563451903
 21
4505.8379314216
 31
0.0
  0
LINE
  5
404
330
1F
100
AcDbEntity
  8
0
  6
Continuous
 62
     7
100
AcDbLine
 10
5372.9563451903
 20
4505.8379314216
 30
0.0
 11
5370.8621956008
 21
4505.6882045539
 31
0.0
  0
LINE
  5
405
330
1F
100
AcDbEntity
  8
0
  6
Continuous
 62
     7
100
AcDbLine
 10
5370.8621956008
 20
4505.6882045539
 30
0.0
 11
5368.8592709201
 21
4505.3932807716
 31
0.0
  0
LINE
  5
406
330
1F
100
AcDbEntity
  8
0
  6
Continuous
 62
     7
100
AcDbLine
 10
5368.8592709201
 20
4505.3932807716
 30
0.0
 11
5367.0054472583
 21
4504.9613855155
 31
0.0
  0
LINE
  5
407
330
1F
100
AcDbEntity
  8
0
  6
Continuous
 62
     7
100
AcDbLine
 10
5367.0054472583
 20
4504.9613855155
 30
0.0
 11
5365.3542495864
 21
4504.4052741798
 31
0.0
  0
LINE
  5
408
330
1F
100
AcDbEntity
  8
0
  6
Continuous
 62
     7
100
AcDbLine
 10
5365.3542495864
 20
4504.4052741798
 30
0.0
 11
5363.9534212249
 21
4503.7408015998
 31
0.0
  0
LINE
  5
409
330
1F
100
AcDbEntity
  8
0
  6
Continuous
 62
     7
100
AcDbLine
 10
5363.9534212249
 20
4503.7408015998
 30
0.0
 11
5362.8434635299
 21
4502.9872796806
 31
0.0
  0
LINE
  5
40A
330
1F
100
AcDbEntity
  8
0
  6
Continuous
 62
     7
100
AcDbLine
 10
5362.8434635299
 20
4502.9872796806
 30
0.0
 11
5362.0563841956
 21
4502.166523722
 31
0.0
  0
LINE
  5
40B
330
1F
100
AcDbEntity
  8
0
  6
Continuous
 62
     7
100
AcDbLine
 10
5362.0563841956
 20
4502.166523722
 30
0.0
 11
5362.0349265235
 21
4502.1034620079
 31
0.0
  0
LINE
  5
40C
330
1F
100
AcDbEntity
  8
0
  6
Continuous
 62
     7
100
AcDbLine
 10
5362.0349265235
 20
4502.1034620079
 30
0.0
 11
5362.0603479045
 21
4502.0406387123
 31
0.0
  0
LINE
  5
40D
330
1F
100
AcDbEntity
  8
0
  6
Continuous
 62
     7
100
AcDbLine
 10
5362.0603479045
 20
4502.0406387123
 30
0.0
 11
5362.1302939551
 21
4501.9840142997
 31
0.0
  0
LINE
  5
40E
330
1F
100
AcDbEntity
  8
0
  6
Continuous
 62
     7
100
AcDbLine
 10
5362.1302939551
 20
4501.9840142997
 30
0.0
 11
5362.2381783622
 21
4501.938833979
 31
0.0
  0
LINE
  5
40F
330
1F
100
AcDbEntity
  8
0
  6
Continuous
 62
     7
100
AcDbLine
 10
5362.2381783622
 20
4501.938833979
 30
0.0
 11
5362.3738981383
 21
4501.9093892845
 31
0.0
  0
LINE
  5
410
330
1F
100
AcDbEntity
  8
0
  6
Continuous
 62
     7
100
AcDbLine
 10
5362.3738981383
 20
4501.9093892845
 30
0.0
 11
5362.5247276919
 21
4501.8983028205
 31
0.0
  0
LINE
  5
411
330
1F
100
AcDbEntity
  8
0
  6
Continuous
 62
     7
100
AcDbLine
 10
5362.5247276919
 20
4501.8983028205
 30
0.0
 11
5362.6764811175
 21
4501.9067666801
 31
0.0
  0
LINE
  5
412
330
1F
100
AcDbEntity
  8
0
  6
Continuous
 62
     7
100
AcDbLine
 10
5362.6764811175
 20
4501.9067666801
 30
0.0
 11
5362.8149725097
 21
4501.9339463981
 31
0.0
  0
LINE
  5
413
330
1F
100
AcDbEntity
  8
0
  6
Continuous
 62
     7
100
AcDbLine
 10
5385.2225340503
 20
4501.9339463981
 30
0.0
 11
5385.3610254424
 21
4501.9067666801
 31
0.0
  0
LINE
  5
414
330
1F
100
AcDbEntity
  8
0
  6
Continuous
 62
     7
100
AcDbLine
 10
5385.3610254424
 20
4501.9067666801
 30
0.0
 11
5385.512778868
 21
4501.8983028205
 31
0.0
  0
LINE
  5
415
330
1F
100
AcDbEntity
  8
0
  6
Continuous
 62
     7
100
AcDbLine
 10
5385.512778868
 20
4501.8983028205
 30
0.0
 11
5385.6636084216
 21
4501.9093892845
 31
0.0
  0
LINE
  5
416
330
1F
100
AcDbEntity
  8
0
  6
Continuous
 62
     7
100
AcDbLine
 10
5385.6636084216
 20
4501.9093892845
 30
0.0
 11
5385.7993281978
 21
4501.938833979
 31
0.0
  0
LINE
  5
417
330
1F
100
AcDbEntity
  8
0
  6
Continuous
 62
     7
100
AcDbLine
 10
5385.7993281978
 20
4501.938833979
 30
0.0
 11
5385.9072126048
 21
4501.9840142997
 31
0.0
  0
LINE
  5
418
330
1F
100
AcDbEntity
  8
0
  6
Continuous
 62
     7
100
AcDbLine
 10
5385.9072126048
 20
4501.9840142997
 30
0.0
 11
5385.9771586554
 21
4502.0406387123
 31
0.0
  0
LINE
  5
419
330
1F
100
AcDbEntity
  8
0
  6
Continuous
 62
     7
100
AcDbLine
 10
5385.9771586554
 20
4502.0406387123
 30
0.0
 11
5386.0025800364
 21
4502.1034620079
 31
0.0
  0
LINE
  5
41A
330
1F
100
AcDbEntity
  8
0
  6
Continuous
 62
     7
100
AcDbLine
 10
5386.0025800364
 20
4502.1034620079
 30
0.0
 11
5385.9811223643
 21
4502.166523722
 31
0.0
  0
LINE
  5
41B
330
1F
100
AcDbEntity
  8
0
  6
Continuous
 62
     7
100
AcDbLine
 10
5362.8149725097
 20
4499.3827483924
 30
0.0
 11
5362.6764811175
 21
4499.4099281105
 31
0.0
  0
LINE
  5
41C
330
1F
100
AcDbEntity
  8
0
  6
Continuous
 62
     7
100
AcDbLine
 10
5362.6764811175
 20
4499.4099281105
 30
0.0
 11
5362.5247276919
 21
4499.41839197
 31
0.0
  0
LINE
  5
41D
330
1F
100
AcDbEntity
  8
0
  6
Continuous
 62
     7
100
AcDbLine
 10
5362.5247276919
 20
4499.41839197
 30
0.0
 11
5362.3738981383
 21
4499.4074247154
 31
0.0
  0
LINE
  5
41E
330
1F
100
AcDbEntity
  8
0
  6
Continuous
 62
     7
100
AcDbLine
 10
5362.3738981383
 20
4499.4074247154
 30
0.0
 11
5362.2381783622
 21
4499.3778608116
 31
0.0
  0
LINE
  5
41F
330
1F
100
AcDbEntity
  8
0
  6
Continuous
 62
     7
100
AcDbLine
 10
5362.2381783622
 20
4499.3778608116
 30
0.0
 11
5362.1302939551
 21
4499.3326804908
 31
0.0
  0
LINE
  5
420
330
1F
100
AcDbEntity
  8
0
  6
Continuous
 62
     7
100
AcDbLine
 10
5362.1302939551
 20
4499.3326804908
 30
0.0
 11
5362.0603479045
 21
4499.2760560783
 31
0.0
  0
LINE
  5
421
330
1F
100
AcDbEntity
  8
0
  6
Continuous
 62
     7
100
AcDbLine
 10
5362.0603479045
 20
4499.2760560783
 30
0.0
 11
5362.0349265235
 21
4499.2132327827
 31
0.0
  0
LINE
  5
422
330
1F
100
AcDbEntity
  8
0
  6
Continuous
 62
     7
100
AcDbLine
 10
5362.0349265235
 20
4499.2132327827
 30
0.0
 11
5362.0563841956
 21
4499.1501710685
 31
0.0
  0
LINE
  5
423
330
1F
100
AcDbEntity
  8
0
  6
Continuous
 62
     7
100
AcDbLine
 10
5362.0563841956
 20
4499.1501710685
 30
0.0
 11
5362.8434635299
 21
4498.32941511
 31
0.0
  0
LINE
  5
424
330
1F
100
AcDbEntity
  8
0
  6
Continuous
 62
     7
100
AcDbLine
 10
5362.8434635299
 20
4498.32941511
 30
0.0
 11
5363.9534212249
 21
4497.5758931907
 31
0.0
  0
LINE
  5
425
330
1F
100
AcDbEntity
  8
0
  6
Continuous
 62
     7
100
AcDbLine
 10
5363.9534212249
 20
4497.5758931907
 30
0.0
 11
5365.3542495864
 21
4496.9114206108
 31
0.0
  0
LINE
  5
426
330
1F
100
AcDbEntity
  8
0
  6
Continuous
 62
     7
100
AcDbLine
 10
5365.3542495864
 20
4496.9114206108
 30
0.0
 11
5367.0054472583
 21
4496.355309275
 31
0.0
  0
LINE
  5
427
330
1F
100
AcDbEntity
  8
0
  6
Continuous
 62
     7
100
AcDbLine
 10
5367.0054472583
 20
4496.355309275
 30
0.0
 11
5368.8592709201
 21
4495.9235332283
 31
0.0
  0
LINE
  5
428
330
1F
100
AcDbEntity
  8
0
  6
Continuous
 62
     7
100
AcDbLine
 10
5368.8592709201
 20
4495.9235332283
 30
0.0
 11
5370.8621956008
 21
4495.6284902366
 31
0.0
  0
LINE
  5
429
330
1F
100
AcDbEntity
  8
0
  6
Continuous
 62
     7
100
AcDbLine
 10
5370.8621956008
 20
4495.6284902366
 30
0.0
 11
5372.9563451903
 21
4495.4787633689
 31
0.0
  0
LINE
  5
42A
330
1F
100
AcDbEntity
  8
0
  6
Continuous
 62
     7
100
AcDbLine
 10
5372.9563451903
 20
4495.4787633689
 30
0.0
 11
5375.0811613696
 21
4495.4787633689
 31
0.0
  0
LINE
  5
42B
330
1F
100
AcDbEntity
  8
0
  6
Continuous
 62
     7
100
AcDbLine
 10
5375.0811613696
 20
4495.4787633689
 30
0.0
 11
5377.1753109591
 21
4495.6284902366
 31
0.0
  0
LINE
  5
42C
330
1F
100
AcDbEntity
  8
0
  6
Continuous
 62
     7
100
AcDbLine
 10
5377.1753109591
 20
4495.6284902366
 30
0.0
 11
5379.1782356398
 21
4495.9235332283
 31
0.0
  0
LINE
  5
42D
330
1F
100
AcDbEntity
  8
0
  6
Continuous
 62
     7
100
AcDbLine
 10
5379.1782356398
 20
4495.9235332283
 30
0.0
 11
5381.0320593017
 21
4496.355309275
 31
0.0
  0
LINE
  5
42E
330
1F
100
AcDbEntity
  8
0
  6
Continuous
 62
     7
100
AcDbLine
 10
5381.0320593017
 20
4496.355309275
 30
0.0
 11
5382.6832569735
 21
4496.9114206108
 31
0.0
  0
LINE
  5
42F
330
1F
100
AcDbEntity
  8
0
  6
Continuous
 62
     7
100
AcDbLine
 10
5382.6832569735
 20
4496.9114206108
 30
0.0
 11
5384.0840853351
 21
4497.5758931907
 31
0.0
  0
LINE
  5
430
330
1F
100
AcDbEntity
  8
0
  6
Continuous
 62
     7
100
AcDbLine
 10
5384.0840853351
 20
4497.5758931907
 30
0.0
 11
5385.1940430301
 21
4498.32941511
 31
0.0
  0
LINE
  5
431
330
1F
100
AcDbEntity
  8
0
  6
Continuous
 62
     7
100
AcDbLine
 10
5385.1940430301
 20
4498.32941511
 30
0.0
 11
5385.9811223643
 21
4499.1501710685
 31
0.0
  0
LINE
  5
432
330
1F
100
AcDbEntity
  8
0
  6
Continuous
 62
     7
100
AcDbLine
 10
5385.9811223643
 20
4499.1501710685
 30
0.0
 11
5386.0025800364
 21
4499.2132327827
 31
0.0
  0
LINE
  5
433
330
1F
100
AcDbEntity
  8
0
  6
Continuous
 62
     7
100
AcDbLine
 10
5386.0025800364
 20
4499.2132327827
 30
0.0
 11
5385.9771586554
 21
4499.2760560783
 31
0.0
  0
LINE
  5
434
330
1F
100
AcDbEntity
  8
0
  6
Continuous
 62
     7
100
AcDbLine
 10
5385.9771586554
 20
4499.2760560783
 30
0.0
 11
5385.9072126048
 21
4499.3326804908
 31
0.0
  0
LINE
  5
435
330
1F
100
AcDbEntity
  8
0
  6
Continuous
 62
     7
100
AcDbLine
 10
5385.9072126048
 20
4499.3326804908
 30
0.0
 11
5385.7993281978
 21
4499.3778608116
 31
0.0
  0
LINE
  5
436
330
1F
100
AcDbEntity
  8
0
  6
Continuous
 62
     7
100
AcDbLine
 10
5385.7993281978
 20
4499.3778608116
 30
0.0
 11
5385.6636084216
 21
4499.4074247154
 31
0.0
  0
LINE
  5
437
330
1F
100
AcDbEntity
  8
0
  6
Continuous
 62
     7
100
AcDbLine
 10
5385.6636084216
 20
4499.4074247154
 30
0.0
 11
5385.512778868
 21
4499.41839197
 31
0.0
  0
LINE
  5
438
330
1F
100
AcDbEntity
  8
0
  6
Continuous
 62
     7
100
AcDbLine
 10
5385.512778868
 20
4499.41839197
 30
0.0
 11
5385.3610254424
 21
4499.4099281105
 31
0.0
  0
LINE
  5
439
330
1F
100
AcDbEntity
  8
0
  6
Continuous
 62
     7
100
AcDbLine
 10
5385.3610254424
 20
4499.4099281105
 30
0.0
 11
5385.2225340503
 21
4499.3827483924
 31
0.0
  0
LINE
  5
43A
330
1F
100
AcDbEntity
  8
0
  6
Continuous
 62
     7
100
AcDbLine
 10
5974.0187622207
 20
4493.7964818748
 30
0.0
 11
5976.4211721318
 21
4493.8696763786
 31
0.0
  0
LINE
  5
43B
330
1F
100
AcDbEntity
  8
0
  6
Continuous
 62
     7
100
AcDbLine
 10
5976.4211721318
 20
4493.8696763786
 30
0.0
 11
5978.7723965543
 21
4494.0874717506
 31
0.0
  0
LINE
  5
43C
330
1F
100
AcDbEntity
  8
0
  6
Continuous
 62
     7
100
AcDbLine
 10
5978.7723965543
 20
4494.0874717506
 30
0.0
 11
5981.0222930806
 21
4494.4453380378
 31
0.0
  0
LINE
  5
43D
330
1F
100
AcDbEntity
  8
0
  6
Continuous
 62
     7
100
AcDbLine
 10
5981.0222930806
 20
4494.4453380378
 30
0.0
 11
5983.1229246753
 21
4494.9356458457
 31
0.0
  0
LINE
  5
43E
330
1F
100
AcDbEntity
  8
0
  6
Continuous
 62
     7
100
AcDbLine
 10
5983.1229246753
 20
4494.9356458457
 30
0.0
 11
5985.0295133489
 21
4495.5479047569
 31
0.0
  0
LINE
  5
43F
330
1F
100
AcDbEntity
  8
0
  6
Continuous
 62
     7
100
AcDbLine
 10
5985.0295133489
 20
4495.5479047569
 30
0.0
 11
5986.701438536
 21
4496.2690017494
 31
0.0
  0
LINE
  5
440
330
1F
100
AcDbEntity
  8
0
  6
Continuous
 62
     7
100
AcDbLine
 10
5986.701438536
 20
4496.2690017494
 30
0.0
 11
5988.1030417579
 21
4497.0837972434
 31
0.0
  0
LINE
  5
441
330
1F
100
AcDbEntity
  8
0
  6
Continuous
 62
     7
100
AcDbLine
 10
5988.1030417579
 20
4497.0837972434
 30
0.0
 11
5989.2044610875
 21
4497.9746482643
 31
0.0
  0
LINE
  5
442
330
1F
100
AcDbEntity
  8
0
  6
Continuous
 62
     7
100
AcDbLine
 10
5989.2044610875
 20
4497.9746482643
 30
0.0
 11
5989.9822420972
 21
4498.9228389533
 31
0.0
  0
LINE
  5
443
330
1F
100
AcDbEntity
  8
0
  6
Continuous
 62
     7
100
AcDbLine
 10
5989.9822420972
 20
4498.9228389533
 30
0.0
 11
5990.4197699922
 21
4499.9078653129
 31
0.0
  0
LINE
  5
444
330
1F
100
AcDbEntity
  8
0
  6
Continuous
 62
     7
100
AcDbLine
 10
5990.4197699922
 20
4499.9078653129
 30
0.0
 11
5990.5077464478
 21
4500.9089849266
 31
0.0
  0
LINE
  5
445
330
1F
100
AcDbEntity
  8
0
  6
Continuous
 62
     7
100
AcDbLine
 10
5990.5077464478
 20
4500.9089849266
 30
0.0
 11
5990.2442939179
 21
4501.9047401222
 31
0.0
  0
LINE
  5
446
330
1F
100
AcDbEntity
  8
0
  6
Continuous
 62
     7
100
AcDbLine
 10
5990.2442939179
 20
4501.9047401222
 30
0.0
 11
5989.635015239
 21
4502.8739116462
 31
0.0
  0
LINE
  5
447
330
1F
100
AcDbEntity
  8
0
  6
Continuous
 62
     7
100
AcDbLine
 10
5989.635015239
 20
4502.8739116462
 30
0.0
 11
5988.6929042237
 21
4503.7958762916
 31
0.0
  0
LINE
  5
448
330
1F
100
AcDbEntity
  8
0
  6
Continuous
 62
     7
100
AcDbLine
 10
5988.6929042237
 20
4503.7958762916
 30
0.0
 11
5987.4380327361
 21
4504.6509645256
 31
0.0
  0
LINE
  5
449
330
1F
100
AcDbEntity
  8
0
  6
Continuous
 62
     7
100
AcDbLine
 10
5987.4380327361
 20
4504.6509645256
 30
0.0
 11
5985.8971632617
 21
4505.4210565361
 31
0.0
  0
LINE
  5
44A
330
1F
100
AcDbEntity
  8
0
  6
Continuous
 62
     7
100
AcDbLine
 10
5985.8971632617
 20
4505.4210565361
 30
0.0
 11
5984.1031230586
 21
4506.0894630226
 31
0.0
  0
LINE
  5
44B
330
1F
100
AcDbEntity
  8
0
  6
Continuous
 62
     7
100
AcDbLine
 10
5984.1031230586
 20
4506.0894630226
 30
0.0
 11
5982.0941485064
 21
4506.6422364982
 31
0.0
  0
LINE
  5
44C
330
1F
100
AcDbEntity
  8
0
  6
Continuous
 62
     7
100
AcDbLine
 10
5982.0941485064
 20
4506.6422364982
 30
0.0
 11
5979.9130655425
 21
4507.067456034
 31
0.0
  0
LINE
  5
44D
330
1F
100
AcDbEntity
  8
0
  6
Continuous
 62
     7
100
AcDbLine
 10
5979.9130655425
 20
4507.067456034
 30
0.0
 11
5977.6063508885
 21
4507.356061724
 31
0.0
  0
LINE
  5
44E
330
1F
100
AcDbEntity
  8
0
  6
Continuous
 62
     7
100
AcDbLine
 10
5977.6063508885
 20
4507.356061724
 30
0.0
 11
5975.2231783765
 21
4507.5018546852
 31
0.0
  0
LINE
  5
44F
330
1F
100
AcDbEntity
  8
0
  6
Continuous
 62
     7
100
AcDbLine
 10
5975.2231783765
 20
4507.5018546852
 30
0.0
 11
5972.8143311637
 21
4507.5018546852
 31
0.0
  0
LINE
  5
450
330
1F
100
AcDbEntity
  8
0
  6
Continuous
 62
     7
100
AcDbLine
 10
5972.8143311637
 20
4507.5018546852
 30
0.0
 11
5970.4311586516
 21
4507.356061724
 31
0.0
  0
LINE
  5
451
330
1F
100
AcDbEntity
  8
0
  6
Continuous
 62
     7
100
AcDbLine
 10
5970.4311586516
 20
4507.356061724
 30
0.0
 11
5968.1244439977
 21
4507.067456034
 31
0.0
  0
LINE
  5
452
330
1F
100
AcDbEntity
  8
0
  6
Continuous
 62
     7
100
AcDbLine
 10
5968.1244439977
 20
4507.067456034
 30
0.0
 11
5965.9433610337
 21
4506.6422364982
 31
0.0
  0
LINE
  5
453
330
1F
100
AcDbEntity
  8
0
  6
Continuous
 62
     7
100
AcDbLine
 10
5965.9433610337
 20
4506.6422364982
 30
0.0
 11
5963.9343864816
 21
4506.0894630226
 31
0.0
  0
LINE
  5
454
330
1F
100
AcDbEntity
  8
0
  6
Continuous
 62
     7
100
AcDbLine
 10
5963.9343864816
 20
4506.0894630226
 30
0.0
 11
5962.1403462785
 21
4505.4210565361
 31
0.0
  0
LINE
  5
455
330
1F
100
AcDbEntity
  8
0
  6
Continuous
 62
     7
100
AcDbLine
 10
5962.1403462785
 20
4505.4210565361
 30
0.0
 11
5960.5994768041
 21
4504.6509645256
 31
0.0
  0
LINE
  5
456
330
1F
100
AcDbEntity
  8
0
  6
Continuous
 62
     7
100
AcDbLine
 10
5960.5994768041
 20
4504.6509645256
 30
0.0
 11
5959.3446053164
 21
4503.7958762916
 31
0.0
  0
LINE
  5
457
330
1F
100
AcDbEntity
  8
0
  6
Continuous
 62
     7
100
AcDbLine
 10
5959.3446053164
 20
4503.7958762916
 30
0.0
 11
5958.4024943011
 21
4502.8739116462
 31
0.0
  0
LINE
  5
458
330
1F
100
AcDbEntity
  8
0
  6
Continuous
 62
     7
100
AcDbLine
 10
5958.4024943011
 20
4502.8739116462
 30
0.0
 11
5957.7932156222
 21
4501.9047401222
 31
0.0
  0
LINE
  5
459
330
1F
100
AcDbEntity
  8
0
  6
Continuous
 62
     7
100
AcDbLine
 10
5957.7932156222
 20
4501.9047401222
 30
0.0
 11
5957.5297630923
 21
4500.9089849266
 31
0.0
  0
LINE
  5
45A
330
1F
100
AcDbEntity
  8
0
  6
Continuous
 62
     7
100
AcDbLine
 10
5957.5297630923
 20
4500.9089849266
 30
0.0
 11
5957.617739548
 21
4499.9078653129
 31
0.0
  0
LINE
  5
45B
330
1F
100
AcDbEntity
  8
0
  6
Continuous
 62
     7
100
AcDbLine
 10
5957.617739548
 20
4499.9078653129
 30
0.0
 11
5958.055267443
 21
4498.9228389533
 31
0.0
  0
LINE
  5
45C
330
1F
100
AcDbEntity
  8
0
  6
Continuous
 62
     7
100
AcDbLine
 10
5958.055267443
 20
4498.9228389533
 30
0.0
 11
5958.8330484527
 21
4497.9746482643
 31
0.0
  0
LINE
  5
45D
330
1F
100
AcDbEntity
  8
0
  6
Continuous
 62
     7
100
AcDbLine
 10
5958.8330484527
 20
4497.9746482643
 30
0.0
 11
5959.9344677823
 21
4497.0837972434
 31
0.0
  0
LINE
  5
45E
330
1F
100
AcDbEntity
  8
0
  6
Continuous
 62
     7
100
AcDbLine
 10
5959.9344677823
 20
4497.0837972434
 30
0.0
 11
5961.3360710042
 21
4496.2690017494
 31
0.0
  0
LINE
  5
45F
330
1F
100
AcDbEntity
  8
0
  6
Continuous
 62
     7
100
AcDbLine
 10
5961.3360710042
 20
4496.2690017494
 30
0.0
 11
5963.0079961913
 21
4495.5479047569
 31
0.0
  0
LINE
  5
460
330
1F
100
AcDbEntity
  8
0
  6
Continuous
 62
     7
100
AcDbLine
 10
5963.0079961913
 20
4495.5479047569
 30
0.0
 11
5964.9145848649
 21
4494.9356458457
 31
0.0
  0
LINE
  5
461
330
1F
100
AcDbEntity
  8
0
  6
Continuous
 62
     7
100
AcDbLine
 10
5964.9145848649
 20
4494.9356458457
 30
0.0
 11
5967.0152164596
 21
4494.4453380378
 31
0.0
  0
LINE
  5
462
330
1F
100
AcDbEntity
  8
0
  6
Continuous
 62
     7
100
AcDbLine
 10
5967.0152164596
 20
4494.4453380378
 30
0.0
 11
5969.2651129859
 21
4494.0874717506
 31
0.0
  0
LINE
  5
463
330
1F
100
AcDbEntity
  8
0
  6
Continuous
 62
     7
100
AcDbLine
 10
5969.2651129859
 20
4494.0874717506
 30
0.0
 11
5971.6163374083
 21
4493.8696763786
 31
0.0
  0
LINE
  5
464
330
1F
100
AcDbEntity
  8
0
  6
Continuous
 62
     7
100
AcDbLine
 10
5971.6163374083
 20
4493.8696763786
 30
0.0
 11
5974.0187622207
 21
4493.7964818748
 31
0.0
  0
LINE
  5
465
330
1F
100
AcDbEntity
  8
0
  6
Continuous
 62
     7
100
AcDbLine
 10
5992.0176960128
 20
4502.1034620079
 30
0.0
 11
5991.9201530116
 21
4502.8050086769
 31
0.0
  0
LINE
  5
466
330
1F
100
AcDbEntity
  8
0
  6
Continuous
 62
     7
100
AcDbLine
 10
5991.9201530116
 20
4502.8050086769
 30
0.0
 11
5991.4840854304
 21
4503.8334272178
 31
0.0
  0
LINE
  5
467
330
1F
100
AcDbEntity
  8
0
  6
Continuous
 62
     7
100
AcDbLine
 10
5991.4840854304
 20
4503.8334272178
 30
0.0
 11
5990.7080627578
 21
4504.8266790184
 31
0.0
  0
LINE
  5
468
330
1F
100
AcDbEntity
  8
0
  6
Continuous
 62
     7
100
AcDbLine
 10
5990.7080627578
 20
4504.8266790184
 30
0.0
 11
5989.6072096723
 21
4505.7653329643
 31
0.0
  0
LINE
  5
469
330
1F
100
AcDbEntity
  8
0
  6
Continuous
 62
     7
100
AcDbLine
 10
5989.6072096723
 20
4505.7653329643
 30
0.0
 11
5988.2029540437
 21
4506.6311500343
 31
0.0
  0
LINE
  5
46A
330
1F
100
AcDbEntity
  8
0
  6
Continuous
 62
     7
100
AcDbLine
 10
5988.2029540437
 20
4506.6311500343
 30
0.0
 11
5986.5226097005
 21
4507.4072025093
 31
0.0
  0
LINE
  5
46B
330
1F
100
AcDbEntity
  8
0
  6
Continuous
 62
     7
100
AcDbLine
 10
5986.5226097005
 20
4507.4072025093
 30
0.0
 11
5984.5988846915
 21
4508.0784700187
 31
0.0
  0
LINE
  5
46C
330
1F
100
AcDbEntity
  8
0
  6
Continuous
 62
     7
100
AcDbLine
 10
5984.5988846915
 20
4508.0784700187
 30
0.0
 11
5982.469240536
 21
4508.6319587501
 31
0.0
  0
LINE
  5
46D
330
1F
100
AcDbEntity
  8
0
  6
Continuous
 62
     7
100
AcDbLine
 10
5982.469240536
 20
4508.6319587501
 30
0.0
 11
5980.1751173633
 21
4509.0567014488
 31
0.0
  0
LINE
  5
46E
330
1F
100
AcDbEntity
  8
0
  6
Continuous
 62
     7
100
AcDbLine
 10
5980.1751173633
 20
4509.0567014488
 30
0.0
 11
5977.7611590522
 21
4509.344591883
 31
0.0
  0
LINE
  5
46F
330
1F
100
AcDbEntity
  8
0
  6
Continuous
 62
     7
100
AcDbLine
 10
5977.7611590522
 20
4509.344591883
 30
0.0
 11
5975.2743787663
 21
4509.489908007
 31
0.0
  0
LINE
  5
470
330
1F
100
AcDbEntity
  8
0
  6
Continuous
 62
     7
100
AcDbLine
 10
5975.2743787663
 20
4509.489908007
 30
0.0
 11
5972.763145675
 21
4509.489908007
 31
0.0
  0
LINE
  5
471
330
1F
100
AcDbEntity
  8
0
  6
Continuous
 62
     7
100
AcDbLine
 10
5972.763145675
 20
4509.489908007
 30
0.0
 11
5970.276350488
 21
4509.344591883
 31
0.0
  0
LINE
  5
472
330
1F
100
AcDbEntity
  8
0
  6
Continuous
 62
     7
100
AcDbLine
 10
5970.276350488
 20
4509.344591883
 30
0.0
 11
5967.8623921769
 21
4509.0567014488
 31
0.0
  0
LINE
  5
473
330
1F
100
AcDbEntity
  8
0
  6
Continuous
 62
     7
100
AcDbLine
 10
5967.8623921769
 20
4509.0567014488
 30
0.0
 11
5965.5682690041
 21
4508.6319587501
 31
0.0
  0
LINE
  5
474
330
1F
100
AcDbEntity
  8
0
  6
Continuous
 62
     7
100
AcDbLine
 10
5965.5682690041
 20
4508.6319587501
 30
0.0
 11
5963.4386248486
 21
4508.0784700187
 31
0.0
  0
LINE
  5
475
330
1F
100
AcDbEntity
  8
0
  6
Continuous
 62
     7
100
AcDbLine
 10
5963.4386248486
 20
4508.0784700187
 30
0.0
 11
5961.5148998397
 21
4507.4072025093
 31
0.0
  0
LINE
  5
476
330
1F
100
AcDbEntity
  8
0
  6
Continuous
 62
     7
100
AcDbLine
 10
5961.5148998397
 20
4507.4072025093
 30
0.0
 11
5959.8345554965
 21
4506.6311500343
 31
0.0
  0
LINE
  5
477
330
1F
100
AcDbEntity
  8
0
  6
Continuous
 62
     7
100
AcDbLine
 10
5959.8345554965
 20
4506.6311500343
 30
0.0
 11
5958.4302998679
 21
4505.7653329643
 31
0.0
  0
LINE
  5
478
330
1F
100
AcDbEntity
  8
0
  6
Continuous
 62
     7
100
AcDbLine
 10
5958.4302998679
 20
4505.7653329643
 30
0.0
 11
5957.3294467824
 21
4504.8266790184
 31
0.0
  0
LINE
  5
479
330
1F
100
AcDbEntity
  8
0
  6
Continuous
 62
     7
100
AcDbLine
 10
5957.3294467824
 20
4504.8266790184
 30
0.0
 11
5956.5534390109
 21
4503.8334272178
 31
0.0
  0
LINE
  5
47A
330
1F
100
AcDbEntity
  8
0
  6
Continuous
 62
     7
100
AcDbLine
 10
5956.5534390109
 20
4503.8334272178
 30
0.0
 11
5956.1173565286
 21
4502.8050086769
 31
0.0
  0
LINE
  5
47B
330
1F
100
AcDbEntity
  8
0
  6
Continuous
 62
     7
100
AcDbLine
 10
5956.1173565286
 20
4502.8050086769
 30
0.0
 11
5956.0191727775
 21
4501.9714973243
 31
0.0
  0
LINE
  5
47C
330
1F
100
AcDbEntity
  8
0
  6
Continuous
 62
     7
100
AcDbLine
 10
5985.9811164039
 20
4502.166523722
 30
0.0
 11
5985.1940519708
 21
4502.9872796806
 31
0.0
  0
LINE
  5
47D
330
1F
100
AcDbEntity
  8
0
  6
Continuous
 62
     7
100
AcDbLine
 10
5985.1940519708
 20
4502.9872796806
 30
0.0
 11
5984.0840793746
 21
4503.7408015998
 31
0.0
  0
LINE
  5
47E
330
1F
100
AcDbEntity
  8
0
  6
Continuous
 62
     7
100
AcDbLine
 10
5984.0840793746
 20
4503.7408015998
 30
0.0
 11
5982.6832510131
 21
4504.4052741798
 31
0.0
  0
LINE
  5
47F
330
1F
100
AcDbEntity
  8
0
  6
Continuous
 62
     7
100
AcDbLine
 10
5982.6832510131
 20
4504.4052741798
 30
0.0
 11
5981.0320682424
 21
4504.9613855155
 31
0.0
  0
LINE
  5
480
330
1F
100
AcDbEntity
  8
0
  6
Continuous
 62
     7
100
AcDbLine
 10
5981.0320682424
 20
4504.9613855155
 30
0.0
 11
5979.1782296794
 21
4505.3932807716
 31
0.0
  0
LINE
  5
481
330
1F
100
AcDbEntity
  8
0
  6
Continuous
 62
     7
100
AcDbLine
 10
5979.1782296794
 20
4505.3932807716
 30
0.0
 11
5977.1753049987
 21
4505.6882045539
 31
0.0
  0
LINE
  5
482
330
1F
100
AcDbEntity
  8
0
  6
Continuous
 62
     7
100
AcDbLine
 10
5977.1753049987
 20
4505.6882045539
 30
0.0
 11
5975.0811703103
 21
4505.8379314216
 31
0.0
  0
LINE
  5
483
330
1F
100
AcDbEntity
  8
0
  6
Continuous
 62
     7
100
AcDbLine
 10
5975.0811703103
 20
4505.8379314216
 30
0.0
 11
5972.9563392299
 21
4505.8379314216
 31
0.0
  0
LINE
  5
484
330
1F
100
AcDbEntity
  8
0
  6
Continuous
 62
     7
100
AcDbLine
 10
5972.9563392299
 20
4505.8379314216
 30
0.0
 11
5970.8622045415
 21
4505.6882045539
 31
0.0
  0
LINE
  5
485
330
1F
100
AcDbEntity
  8
0
  6
Continuous
 62
     7
100
AcDbLine
 10
5970.8622045415
 20
4505.6882045539
 30
0.0
 11
5968.8592798608
 21
4505.3932807716
 31
0.0
  0
LINE
  5
486
330
1F
100
AcDbEntity
  8
0
  6
Continuous
 62
     7
100
AcDbLine
 10
5968.8592798608
 20
4505.3932807716
 30
0.0
 11
5967.0054412978
 21
4504.9613855155
 31
0.0
  0
LINE
  5
487
330
1F
100
AcDbEntity
  8
0
  6
Continuous
 62
     7
100
AcDbLine
 10
5967.0054412978
 20
4504.9613855155
 30
0.0
 11
5965.3542585271
 21
4504.4052741798
 31
0.0
  0
LINE
  5
488
330
1F
100
AcDbEntity
  8
0
  6
Continuous
 62
     7
100
AcDbLine
 10
5965.3542585271
 20
4504.4052741798
 30
0.0
 11
5963.9534301656
 21
4503.7408015998
 31
0.0
  0
LINE
  5
489
330
1F
100
AcDbEntity
  8
0
  6
Continuous
 62
     7
100
AcDbLine
 10
5963.9534301656
 20
4503.7408015998
 30
0.0
 11
5962.8434575694
 21
4502.9872796806
 31
0.0
  0
LINE
  5
48A
330
1F
100
AcDbEntity
  8
0
  6
Continuous
 62
     7
100
AcDbLine
 10
5962.8434575694
 20
4502.9872796806
 30
0.0
 11
5962.0563931363
 21
4502.166523722
 31
0.0
  0
LINE
  5
48B
330
1F
100
AcDbEntity
  8
0
  6
Continuous
 62
     7
100
AcDbLine
 10
5962.0563931363
 20
4502.166523722
 30
0.0
 11
5962.034920563
 21
4502.1034620079
 31
0.0
  0
LINE
  5
48C
330
1F
100
AcDbEntity
  8
0
  6
Continuous
 62
     7
100
AcDbLine
 10
5962.034920563
 20
4502.1034620079
 30
0.0
 11
5962.0603568452
 21
4502.0406387123
 31
0.0
  0
LINE
  5
48D
330
1F
100
AcDbEntity
  8
0
  6
Continuous
 62
     7
100
AcDbLine
 10
5962.0603568452
 20
4502.0406387123
 30
0.0
 11
5962.1303028958
 21
4501.9840142997
 31
0.0
  0
LINE
  5
48E
330
1F
100
AcDbEntity
  8
0
  6
Continuous
 62
     7
100
AcDbLine
 10
5962.1303028958
 20
4501.9840142997
 30
0.0
 11
5962.2381873029
 21
4501.938833979
 31
0.0
  0
LINE
  5
48F
330
1F
100
AcDbEntity
  8
0
  6
Continuous
 62
     7
100
AcDbLine
 10
5962.2381873029
 20
4501.938833979
 30
0.0
 11
5962.373907079
 21
4501.9093892845
 31
0.0
  0
LINE
  5
490
330
1F
100
AcDbEntity
  8
0
  6
Continuous
 62
     7
100
AcDbLine
 10
5962.373907079
 20
4501.9093892845
 30
0.0
 11
5962.5247217315
 21
4501.8983028205
 31
0.0
  0
LINE
  5
491
330
1F
100
AcDbEntity
  8
0
  6
Continuous
 62
     7
100
AcDbLine
 10
5962.5247217315
 20
4501.8983028205
 30
0.0
 11
5962.6764900582
 21
4501.9067666801
 31
0.0
  0
LINE
  5
492
330
1F
100
AcDbEntity
  8
0
  6
Continuous
 62
     7
100
AcDbLine
 10
5962.6764900582
 20
4501.9067666801
 30
0.0
 11
5962.8149814504
 21
4501.9339463981
 31
0.0
  0
LINE
  5
493
330
1F
100
AcDbEntity
  8
0
  6
Continuous
 62
     7
100
AcDbLine
 10
5985.2225280898
 20
4501.9339463981
 30
0.0
 11
5985.3610194819
 21
4501.9067666801
 31
0.0
  0
LINE
  5
494
330
1F
100
AcDbEntity
  8
0
  6
Continuous
 62
     7
100
AcDbLine
 10
5985.3610194819
 20
4501.9067666801
 30
0.0
 11
5985.5127878087
 21
4501.8983028205
 31
0.0
  0
LINE
  5
495
330
1F
100
AcDbEntity
  8
0
  6
Continuous
 62
     7
100
AcDbLine
 10
5985.5127878087
 20
4501.8983028205
 30
0.0
 11
5985.6636024611
 21
4501.9093892845
 31
0.0
  0
LINE
  5
496
330
1F
100
AcDbEntity
  8
0
  6
Continuous
 62
     7
100
AcDbLine
 10
5985.6636024611
 20
4501.9093892845
 30
0.0
 11
5985.7993222373
 21
4501.938833979
 31
0.0
  0
LINE
  5
497
330
1F
100
AcDbEntity
  8
0
  6
Continuous
 62
     7
100
AcDbLine
 10
5985.7993222373
 20
4501.938833979
 30
0.0
 11
5985.9072066443
 21
4501.9840142997
 31
0.0
  0
LINE
  5
498
330
1F
100
AcDbEntity
  8
0
  6
Continuous
 62
     7
100
AcDbLine
 10
5985.9072066443
 20
4501.9840142997
 30
0.0
 11
5985.977152695
 21
4502.0406387123
 31
0.0
  0
LINE
  5
499
330
1F
100
AcDbEntity
  8
0
  6
Continuous
 62
     7
100
AcDbLine
 10
5985.977152695
 20
4502.0406387123
 30
0.0
 11
5986.0025889771
 21
4502.1034620079
 31
0.0
  0
LINE
  5
49A
330
1F
100
AcDbEntity
  8
0
  6
Continuous
 62
     7
100
AcDbLine
 10
5986.0025889771
 20
4502.1034620079
 30
0.0
 11
5985.9811164039
 21
4502.166523722
 31
0.0
  0
LINE
  5
49B
330
1F
100
AcDbEntity
  8
0
  6
Continuous
 62
     7
100
AcDbLine
 10
5962.8149814504
 20
4499.3827483924
 30
0.0
 11
5962.6764900582
 21
4499.4099281105
 31
0.0
  0
LINE
  5
49C
330
1F
100
AcDbEntity
  8
0
  6
Continuous
 62
     7
100
AcDbLine
 10
5962.6764900582
 20
4499.4099281105
 30
0.0
 11
5962.5247217315
 21
4499.41839197
 31
0.0
  0
LINE
  5
49D
330
1F
100
AcDbEntity
  8
0
  6
Continuous
 62
     7
100
AcDbLine
 10
5962.5247217315
 20
4499.41839197
 30
0.0
 11
5962.373907079
 21
4499.4074247154
 31
0.0
  0
LINE
  5
49E
330
1F
100
AcDbEntity
  8
0
  6
Continuous
 62
     7
100
AcDbLine
 10
5962.373907079
 20
4499.4074247154
 30
0.0
 11
5962.2381873029
 21
4499.3778608116
 31
0.0
  0
LINE
  5
49F
330
1F
100
AcDbEntity
  8
0
  6
Continuous
 62
     7
100
AcDbLine
 10
5962.2381873029
 20
4499.3778608116
 30
0.0
 11
5962.1303028958
 21
4499.3326804908
 31
0.0
  0
LINE
  5
4A0
330
1F
100
AcDbEntity
  8
0
  6
Continuous
 62
     7
100
AcDbLine
 10
5962.1303028958
 20
4499.3326804908
 30
0.0
 11
5962.0603568452
 21
4499.2760560783
 31
0.0
  0
LINE
  5
4A1
330
1F
100
AcDbEntity
  8
0
  6
Continuous
 62
     7
100
AcDbLine
 10
5962.0603568452
 20
4499.2760560783
 30
0.0
 11
5962.034920563
 21
4499.2132327827
 31
0.0
  0
LINE
  5
4A2
330
1F
100
AcDbEntity
  8
0
  6
Continuous
 62
     7
100
AcDbLine
 10
5962.034920563
 20
4499.2132327827
 30
0.0
 11
5962.0563931363
 21
4499.1501710685
 31
0.0
  0
LINE
  5
4A3
330
1F
100
AcDbEntity
  8
0
  6
Continuous
 62
     7
100
AcDbLine
 10
5962.0563931363
 20
4499.1501710685
 30
0.0
 11
5962.8434575694
 21
4498.32941511
 31
0.0
  0
LINE
  5
4A4
330
1F
100
AcDbEntity
  8
0
  6
Continuous
 62
     7
100
AcDbLine
 10
5962.8434575694
 20
4498.32941511
 30
0.0
 11
5963.9534301656
 21
4497.5758931907
 31
0.0
  0
LINE
  5
4A5
330
1F
100
AcDbEntity
  8
0
  6
Continuous
 62
     7
100
AcDbLine
 10
5963.9534301656
 20
4497.5758931907
 30
0.0
 11
5965.3542585271
 21
4496.9114206108
 31
0.0
  0
LINE
  5
4A6
330
1F
100
AcDbEntity
  8
0
  6
Continuous
 62
     7
100
AcDbLine
 10
5965.3542585271
 20
4496.9114206108
 30
0.0
 11
5967.0054412978
 21
4496.355309275
 31
0.0
  0
LINE
  5
4A7
330
1F
100
AcDbEntity
  8
0
  6
Continuous
 62
     7
100
AcDbLine
 10
5967.0054412978
 20
4496.355309275
 30
0.0
 11
5968.8592798608
 21
4495.9235332283
 31
0.0
  0
LINE
  5
4A8
330
1F
100
AcDbEntity
  8
0
  6
Continuous
 62
     7
100
AcDbLine
 10
5968.8592798608
 20
4495.9235332283
 30
0.0
 11
5970.8622045415
 21
4495.6284902366
 31
0.0
  0
LINE
  5
4A9
330
1F
100
AcDbEntity
  8
0
  6
Continuous
 62
     7
100
AcDbLine
 10
5970.8622045415
 20
4495.6284902366
 30
0.0
 11
5972.9563392299
 21
4495.4787633689
 31
0.0
  0
LINE
  5
4AA
330
1F
100
AcDbEntity
  8
0
  6
Continuous
 62
     7
100
AcDbLine
 10
5972.9563392299
 20
4495.4787633689
 30
0.0
 11
5975.0811703103
 21
4495.4787633689
 31
0.0
  0
LINE
  5
4AB
330
1F
100
AcDbEntity
  8
0
  6
Continuous
 62
     7
100
AcDbLine
 10
5975.0811703103
 20
4495.4787633689
 30
0.0
 11
5977.1753049987
 21
4495.6284902366
 31
0.0
  0
LINE
  5
4AC
330
1F
100
AcDbEntity
  8
0
  6
Continuous
 62
     7
100
AcDbLine
 10
5977.1753049987
 20
4495.6284902366
 30
0.0
 11
5979.1782296794
 21
4495.9235332283
 31
0.0
  0
LINE
  5
4AD
330
1F
100
AcDbEntity
  8
0
  6
Continuous
 62
     7
100
AcDbLine
 10
5979.1782296794
 20
4495.9235332283
 30
0.0
 11
5981.0320682424
 21
4496.355309275
 31
0.0
  0
LINE
  5
4AE
330
1F
100
AcDbEntity
  8
0
  6
Continuous
 62
     7
100
AcDbLine
 10
5981.0320682424
 20
4496.355309275
 30
0.0
 11
5982.6832510131
 21
4496.9114206108
 31
0.0
  0
LINE
  5
4AF
330
1F
100
AcDbEntity
  8
0
  6
Continuous
 62
     7
100
AcDbLine
 10
5982.6832510131
 20
4496.9114206108
 30
0.0
 11
5984.0840793746
 21
4497.5758931907
 31
0.0
  0
LINE
  5
4B0
330
1F
100
AcDbEntity
  8
0
  6
Continuous
 62
     7
100
AcDbLine
 10
5984.0840793746
 20
4497.5758931907
 30
0.0
 11
5985.1940519708
 21
4498.32941511
 31
0.0
  0
LINE
  5
4B1
330
1F
100
AcDbEntity
  8
0
  6
Continuous
 62
     7
100
AcDbLine
 10
5985.1940519708
 20
4498.32941511
 30
0.0
 11
5985.9811164039
 21
4499.1501710685
 31
0.0
  0
LINE
  5
4B2
330
1F
100
AcDbEntity
  8
0
  6
Continuous
 62
     7
100
AcDbLine
 10
5985.9811164039
 20
4499.1501710685
 30
0.0
 11
5986.0025889771
 21
4499.2132327827
 31
0.0
  0
LINE
  5
4B3
330
1F
100
AcDbEntity
  8
0
  6
Continuous
 62
     7
100
AcDbLine
 10
5986.0025889771
 20
4499.2132327827
 30
0.0
 11
5985.977152695
 21
4499.2760560783
 31
0.0
  0
LINE
  5
4B4
330
1F
100
AcDbEntity
  8
0
  6
Continuous
 62
     7
100
AcDbLine
 10
5985.977152695
 20
4499.2760560783
 30
0.0
 11
5985.9072066443
 21
4499.3326804908
 31
0.0
  0
LINE
  5
4B5
330
1F
100
AcDbEntity
  8
0
  6
Continuous
 62
     7
100
AcDbLine
 10
5985.9072066443
 20
4499.3326804908
 30
0.0
 11
5985.7993222373
 21
4499.3778608116
 31
0.0
  0
LINE
  5
4B6
330
1F
100
AcDbEntity
  8
0
  6
Continuous
 62
     7
100
AcDbLine
 10
5985.7993222373
 20
4499.3778608116
 30
0.0
 11
5985.6636024611
 21
4499.4074247154
 31
0.0
  0
LINE
  5
4B7
330
1F
100
AcDbEntity
  8
0
  6
Continuous
 62
     7
100
AcDbLine
 10
5985.6636024611
 20
4499.4074247154
 30
0.0
 11
5985.5127878087
 21
4499.41839197
 31
0.0
  0
LINE
  5
4B8
330
1F
100
AcDbEntity
  8
0
  6
Continuous
 62
     7
100
AcDbLine
 10
5985.5127878087
 20
4499.41839197
 30
0.0
 11
5985.3610194819
 21
4499.4099281105
 31
0.0
  0
LINE
  5
4B9
330
1F
100
AcDbEntity
  8
0
  6
Continuous
 62
     7
100
AcDbLine
 10
5985.3610194819
 20
4499.4099281105
 30
0.0
 11
5985.2225280898
 21
4499.3827483924
 31
0.0
  0
LINE
  5
4BA
330
1F
100
AcDbEntity
  8
0
  6
Continuous
 62
     7
100
AcDbLine
 10
5974.7687553361
 20
4341.8787470394
 30
0.0
 11
5974.7687553361
 21
4352.2710518848
 31
0.0
  0
LINE
  5
4BB
330
1F
100
AcDbEntity
  8
0
  6
Continuous
 62
     7
100
AcDbLine
 10
5973.2687553361
 20
4352.2710518848
 30
0.0
 11
5973.2687553361
 21
4341.8787470394
 31
0.0
  0
LINE
  5
4BC
330
1F
100
AcDbEntity
  8
0
  6
Continuous
 62
     7
100
AcDbLine
 10
5978.2649375098
 20
4498.7436673912
 30
0.0
 11
5978.8759149211
 21
4499.1989276679
 31
0.0
  0
LINE
  5
4BD
330
1F
100
AcDbEntity
  8
0
  6
Continuous
 62
     7
100
AcDbLine
 10
5978.8759149211
 20
4499.1989276679
 30
0.0
 11
5979.2246169942
 21
4499.7451446327
 31
0.0
  0
LINE
  5
4BE
330
1F
100
AcDbEntity
  8
0
  6
Continuous
 62
     7
100
AcDbLine
 10
5979.2246169942
 20
4499.7451446327
 30
0.0
 11
5979.2246169942
 21
4500.3101966651
 31
0.0
  0
LINE
  5
4BF
330
1F
100
AcDbEntity
  8
0
  6
Continuous
 62
     7
100
AcDbLine
 10
5979.2246169942
 20
4500.3101966651
 30
0.0
 11
5978.8759149211
 21
4500.8562944206
 31
0.0
  0
LINE
  5
4C0
330
1F
100
AcDbEntity
  8
0
  6
Continuous
 62
     7
100
AcDbLine
 10
5978.8759149211
 20
4500.8562944206
 30
0.0
 11
5978.2018757956
 21
4501.3469598564
 31
0.0
  0
LINE
  5
4C1
330
1F
100
AcDbEntity
  8
0
  6
Continuous
 62
     7
100
AcDbLine
 10
5978.2018757956
 20
4501.3469598564
 30
0.0
 11
5977.2476501363
 21
4501.7491719993
 31
0.0
  0
LINE
  5
4C2
330
1F
100
AcDbEntity
  8
0
  6
Continuous
 62
     7
100
AcDbLine
 10
5977.2476501363
 20
4501.7491719993
 30
0.0
 11
5976.0771341222
 21
4502.0361087593
 31
0.0
  0
LINE
  5
4C3
330
1F
100
AcDbEntity
  8
0
  6
Continuous
 62
     7
100
AcDbLine
 10
5976.0771341222
 20
4502.0361087593
 30
0.0
 11
5974.7687525647
 21
4502.1885774406
 31
0.0
  0
LINE
  5
4C4
330
1F
100
AcDbEntity
  8
0
  6
Continuous
 62
     7
100
AcDbLine
 10
5974.7687525647
 20
4497.6481340202
 30
0.0
 11
5974.7687525647
 21
4502.1885774406
 31
0.0
  0
LINE
  5
4C5
330
1F
100
AcDbEntity
  8
0
  6
Continuous
 62
     7
100
AcDbLine
 10
5973.2687569755
 20
4502.1885774406
 30
0.0
 11
5971.960375418
 21
4502.0361087593
 31
0.0
  0
LINE
  5
4C6
330
1F
100
AcDbEntity
  8
0
  6
Continuous
 62
     7
100
AcDbLine
 10
5971.960375418
 20
4502.0361087593
 30
0.0
 11
5970.7898594039
 21
4501.7491719993
 31
0.0
  0
LINE
  5
4C7
330
1F
100
AcDbEntity
  8
0
  6
Continuous
 62
     7
100
AcDbLine
 10
5970.7898594039
 20
4501.7491719993
 30
0.0
 11
5969.8356337445
 21
4501.3469598564
 31
0.0
  0
LINE
  5
4C8
330
1F
100
AcDbEntity
  8
0
  6
Continuous
 62
     7
100
AcDbLine
 10
5969.8356337445
 20
4501.3469598564
 30
0.0
 11
5969.1615946191
 21
4500.8562944206
 31
0.0
  0
LINE
  5
4C9
330
1F
100
AcDbEntity
  8
0
  6
Continuous
 62
     7
100
AcDbLine
 10
5969.1615946191
 20
4500.8562944206
 30
0.0
 11
5968.812892546
 21
4500.3101966651
 31
0.0
  0
LINE
  5
4CA
330
1F
100
AcDbEntity
  8
0
  6
Continuous
 62
     7
100
AcDbLine
 10
5968.812892546
 20
4500.3101966651
 30
0.0
 11
5968.812892546
 21
4499.7451446327
 31
0.0
  0
LINE
  5
4CB
330
1F
100
AcDbEntity
  8
0
  6
Continuous
 62
     7
100
AcDbLine
 10
5968.812892546
 20
4499.7451446327
 30
0.0
 11
5969.1615946191
 21
4499.1989276679
 31
0.0
  0
LINE
  5
4CC
330
1F
100
AcDbEntity
  8
0
  6
Continuous
 62
     7
100
AcDbLine
 10
5969.1615946191
 20
4499.1989276679
 30
0.0
 11
5969.7725720303
 21
4498.7436673912
 31
0.0
  0
LINE
  5
4CD
330
1F
100
AcDbEntity
  8
0
  6
Continuous
 62
     7
100
AcDbLine
 10
5973.2687569755
 20
4502.1885774406
 30
0.0
 11
5973.2687569755
 21
4497.6481340202
 31
0.0
  0
LINE
  5
4CE
330
1F
100
AcDbEntity
  8
0
  6
Continuous
 62
     7
100
AcDbLine
 10
5979.2687542336
 20
4500.6642482551
 30
0.0
 11
5979.0898657935
 21
4501.2293002876
 31
0.0
  0
LINE
  5
4CF
330
1F
100
AcDbEntity
  8
0
  6
Continuous
 62
     7
100
AcDbLine
 10
5979.0898657935
 20
4501.2293002876
 30
0.0
 11
5978.565389623
 21
4501.7558477195
 31
0.0
  0
LINE
  5
4D0
330
1F
100
AcDbEntity
  8
0
  6
Continuous
 62
     7
100
AcDbLine
 10
5978.565389623
 20
4501.7558477195
 30
0.0
 11
5977.7310587066
 21
4502.2080085548
 31
0.0
  0
LINE
  5
4D1
330
1F
100
AcDbEntity
  8
0
  6
Continuous
 62
     7
100
AcDbLine
 10
5977.7310587066
 20
4502.2080085548
 30
0.0
 11
5976.6437507766
 21
4502.5550267967
 31
0.0
  0
LINE
  5
4D2
330
1F
100
AcDbEntity
  8
0
  6
Continuous
 62
     7
100
AcDbLine
 10
5976.6437507766
 20
4502.5550267967
 30
0.0
 11
5975.3775544064
 21
4502.7731797965
 31
0.0
  0
LINE
  5
4D3
330
1F
100
AcDbEntity
  8
0
  6
Continuous
 62
     7
100
AcDbLine
 10
5975.3775544064
 20
4502.7731797965
 30
0.0
 11
5974.0187622207
 21
4502.8475663932
 31
0.0
  0
LINE
  5
4D4
330
1F
100
AcDbEntity
  8
0
  6
Continuous
 62
     7
100
AcDbLine
 10
5974.0187622207
 20
4502.8475663932
 30
0.0
 11
5972.6599551337
 21
4502.7731797965
 31
0.0
  0
LINE
  5
4D5
330
1F
100
AcDbEntity
  8
0
  6
Continuous
 62
     7
100
AcDbLine
 10
5972.6599551337
 20
4502.7731797965
 30
0.0
 11
5971.3937587636
 21
4502.5550267967
 31
0.0
  0
LINE
  5
4D6
330
1F
100
AcDbEntity
  8
0
  6
Continuous
 62
     7
100
AcDbLine
 10
5971.3937587636
 20
4502.5550267967
 30
0.0
 11
5970.3064508336
 21
4502.2080085548
 31
0.0
  0
LINE
  5
4D7
330
1F
100
AcDbEntity
  8
0
  6
Continuous
 62
     7
100
AcDbLine
 10
5970.3064508336
 20
4502.2080085548
 30
0.0
 11
5969.4721199172
 21
4501.7558477195
 31
0.0
  0
LINE
  5
4D8
330
1F
100
AcDbEntity
  8
0
  6
Continuous
 62
     7
100
AcDbLine
 10
5969.4721199172
 20
4501.7558477195
 30
0.0
 11
5968.9476437467
 21
4501.2293002876
 31
0.0
  0
LINE
  5
4D9
330
1F
100
AcDbEntity
  8
0
  6
Continuous
 62
     7
100
AcDbLine
 10
5968.9476437467
 20
4501.2293002876
 30
0.0
 11
5968.7687553065
 21
4500.6642482551
 31
0.0
  0
LINE
  5
4DA
330
1F
100
AcDbEntity
  8
0
  6
Continuous
 62
     7
100
AcDbLine
 10
5378.2649434703
 20
4498.7436673912
 30
0.0
 11
5378.8759208815
 21
4499.1989276679
 31
0.0
  0
LINE
  5
4DB
330
1F
100
AcDbEntity
  8
0
  6
Continuous
 62
     7
100
AcDbLine
 10
5378.8759208815
 20
4499.1989276679
 30
0.0
 11
5379.2246080535
 21
4499.7451446327
 31
0.0
  0
LINE
  5
4DC
330
1F
100
AcDbEntity
  8
0
  6
Continuous
 62
     7
100
AcDbLine
 10
5379.2246080535
 20
4499.7451446327
 30
0.0
 11
5379.2246080535
 21
4500.3101966651
 31
0.0
  0
LINE
  5
4DD
330
1F
100
AcDbEntity
  8
0
  6
Continuous
 62
     7
100
AcDbLine
 10
5379.2246080535
 20
4500.3101966651
 30
0.0
 11
5378.8759208815
 21
4500.8562944206
 31
0.0
  0
LINE
  5
4DE
330
1F
100
AcDbEntity
  8
0
  6
Continuous
 62
     7
100
AcDbLine
 10
5378.8759208815
 20
4500.8562944206
 30
0.0
 11
5378.2018817561
 21
4501.3469598564
 31
0.0
  0
LINE
  5
4DF
330
1F
100
AcDbEntity
  8
0
  6
Continuous
 62
     7
100
AcDbLine
 10
5378.2018817561
 20
4501.3469598564
 30
0.0
 11
5377.2476411956
 21
4501.7491719993
 31
0.0
  0
LINE
  5
4E0
330
1F
100
AcDbEntity
  8
0
  6
Continuous
 62
     7
100
AcDbLine
 10
5377.2476411956
 20
4501.7491719993
 30
0.0
 11
5376.0771251815
 21
4502.0361087593
 31
0.0
  0
LINE
  5
4E1
330
1F
100
AcDbEntity
  8
0
  6
Continuous
 62
     7
100
AcDbLine
 10
5376.0771251815
 20
4502.0361087593
 30
0.0
 11
5374.768743624
 21
4502.1885774406
 31
0.0
  0
LINE
  5
4E2
330
1F
100
AcDbEntity
  8
0
  6
Continuous
 62
     7
100
AcDbLine
 10
5374.768743624
 20
4497.6481340202
 30
0.0
 11
5374.768743624
 21
4502.1885774406
 31
0.0
  0
LINE
  5
4E3
330
1F
100
AcDbEntity
  8
0
  6
Continuous
 62
     7
100
AcDbLine
 10
5373.2687629359
 20
4502.1885774406
 30
0.0
 11
5371.9603813785
 21
4502.0361087593
 31
0.0
  0
LINE
  5
4E4
330
1F
100
AcDbEntity
  8
0
  6
Continuous
 62
     7
100
AcDbLine
 10
5371.9603813785
 20
4502.0361087593
 30
0.0
 11
5370.7898653644
 21
4501.7491719993
 31
0.0
  0
LINE
  5
4E5
330
1F
100
AcDbEntity
  8
0
  6
Continuous
 62
     7
100
AcDbLine
 10
5370.7898653644
 20
4501.7491719993
 30
0.0
 11
5369.8356248038
 21
4501.3469598564
 31
0.0
  0
LINE
  5
4E6
330
1F
100
AcDbEntity
  8
0
  6
Continuous
 62
     7
100
AcDbLine
 10
5369.8356248038
 20
4501.3469598564
 30
0.0
 11
5369.1615856784
 21
4500.8562944206
 31
0.0
  0
LINE
  5
4E7
330
1F
100
AcDbEntity
  8
0
  6
Continuous
 62
     7
100
AcDbLine
 10
5369.1615856784
 20
4500.8562944206
 30
0.0
 11
5368.8128985064
 21
4500.3101966651
 31
0.0
  0
LINE
  5
4E8
330
1F
100
AcDbEntity
  8
0
  6
Continuous
 62
     7
100
AcDbLine
 10
5368.8128985064
 20
4500.3101966651
 30
0.0
 11
5368.8128985064
 21
4499.7451446327
 31
0.0
  0
LINE
  5
4E9
330
1F
100
AcDbEntity
  8
0
  6
Continuous
 62
     7
100
AcDbLine
 10
5368.8128985064
 20
4499.7451446327
 30
0.0
 11
5369.1615856784
 21
4499.1989276679
 31
0.0
  0
LINE
  5
4EA
330
1F
100
AcDbEntity
  8
0
  6
Continuous
 62
     7
100
AcDbLine
 10
5369.1615856784
 20
4499.1989276679
 30
0.0
 11
5369.7725630896
 21
4498.7436673912
 31
0.0
  0
LINE
  5
4EB
330
1F
100
AcDbEntity
  8
0
  6
Continuous
 62
     7
100
AcDbLine
 10
5373.2687629359
 20
4502.1885774406
 30
0.0
 11
5373.2687629359
 21
4497.6481340202
 31
0.0
  0
LINE
  5
4EC
330
1F
100
AcDbEntity
  8
0
  6
Continuous
 62
     7
100
AcDbLine
 10
5379.2687452929
 20
4500.6642482551
 30
0.0
 11
5379.089871754
 21
4501.2293002876
 31
0.0
  0
LINE
  5
4ED
330
1F
100
AcDbEntity
  8
0
  6
Continuous
 62
     7
100
AcDbLine
 10
5379.089871754
 20
4501.2293002876
 30
0.0
 11
5378.5653806823
 21
4501.7558477195
 31
0.0
  0
LINE
  5
4EE
330
1F
100
AcDbEntity
  8
0
  6
Continuous
 62
     7
100
AcDbLine
 10
5378.5653806823
 20
4501.7558477195
 30
0.0
 11
5377.731064667
 21
4502.2080085548
 31
0.0
  0
LINE
  5
4EF
330
1F
100
AcDbEntity
  8
0
  6
Continuous
 62
     7
100
AcDbLine
 10
5377.731064667
 20
4502.2080085548
 30
0.0
 11
5376.643756737
 21
4502.5550267967
 31
0.0
  0
LINE
  5
4F0
330
1F
100
AcDbEntity
  8
0
  6
Continuous
 62
     7
100
AcDbLine
 10
5376.643756737
 20
4502.5550267967
 30
0.0
 11
5375.3775454657
 21
4502.7731797965
 31
0.0
  0
LINE
  5
4F1
330
1F
100
AcDbEntity
  8
0
  6
Continuous
 62
     7
100
AcDbLine
 10
5375.3775454657
 20
4502.7731797965
 30
0.0
 11
5374.0187681811
 21
4502.8475663932
 31
0.0
  0
LINE
  5
4F2
330
1F
100
AcDbEntity
  8
0
  6
Continuous
 62
     7
100
AcDbLine
 10
5374.0187681811
 20
4502.8475663932
 30
0.0
 11
5372.6599610942
 21
4502.7731797965
 31
0.0
  0
LINE
  5
4F3
330
1F
100
AcDbEntity
  8
0
  6
Continuous
 62
     7
100
AcDbLine
 10
5372.6599610942
 20
4502.7731797965
 30
0.0
 11
5371.3937498229
 21
4502.5550267967
 31
0.0
  0
LINE
  5
4F4
330
1F
100
AcDbEntity
  8
0
  6
Continuous
 62
     7
100
AcDbLine
 10
5371.3937498229
 20
4502.5550267967
 30
0.0
 11
5370.3064418929
 21
4502.2080085548
 31
0.0
  0
LINE
  5
4F5
330
1F
100
AcDbEntity
  8
0
  6
Continuous
 62
     7
100
AcDbLine
 10
5370.3064418929
 20
4502.2080085548
 30
0.0
 11
5369.4721258777
 21
4501.7558477195
 31
0.0
  0
LINE
  5
4F6
330
1F
100
AcDbEntity
  8
0
  6
Continuous
 62
     7
100
AcDbLine
 10
5369.4721258777
 20
4501.7558477195
 30
0.0
 11
5368.947634806
 21
4501.2293002876
 31
0.0
  0
LINE
  5
4F7
330
1F
100
AcDbEntity
  8
0
  6
Continuous
 62
     7
100
AcDbLine
 10
5368.947634806
 20
4501.2293002876
 30
0.0
 11
5368.768761267
 21
4500.6642482551
 31
0.0
  0
LINE
  5
4F8
330
1F
100
AcDbEntity
  8
0
  6
Continuous
 62
     7
100
AcDbLine
 10
7174.7687553361
 20
4341.8787470394
 30
0.0
 11
7174.7687553361
 21
4352.2710518848
 31
0.0
  0
LINE
  5
4F9
330
1F
100
AcDbEntity
  8
0
  6
Continuous
 62
     7
100
AcDbLine
 10
7173.2687553361
 20
4352.2710518848
 30
0.0
 11
7173.2687553361
 21
4341.8787470394
 31
0.0
  0
LINE
  5
4FA
330
1F
100
AcDbEntity
  8
0
  6
Continuous
 62
     7
100
AcDbLine
 10
6573.268751015
 20
4502.1885774406
 30
0.0
 11
6571.9603694575
 21
4502.0361087593
 31
0.0
  0
LINE
  5
4FB
330
1F
100
AcDbEntity
  8
0
  6
Continuous
 62
     7
100
AcDbLine
 10
6571.9603694575
 20
4502.0361087593
 30
0.0
 11
6570.7898534434
 21
4501.7491719993
 31
0.0
  0
LINE
  5
4FC
330
1F
100
AcDbEntity
  8
0
  6
Continuous
 62
     7
100
AcDbLine
 10
6570.7898534434
 20
4501.7491719993
 30
0.0
 11
6569.8356426852
 21
4501.3469598564
 31
0.0
  0
LINE
  5
4FD
330
1F
100
AcDbEntity
  8
0
  6
Continuous
 62
     7
100
AcDbLine
 10
6569.8356426852
 20
4501.3469598564
 30
0.0
 11
6569.1615737574
 21
4500.8562944206
 31
0.0
  0
LINE
  5
4FE
330
1F
100
AcDbEntity
  8
0
  6
Continuous
 62
     7
100
AcDbLine
 10
6569.1615737574
 20
4500.8562944206
 30
0.0
 11
6568.8128865855
 21
4500.3101966651
 31
0.0
  0
LINE
  5
4FF
330
1F
100
AcDbEntity
  8
0
  6
Continuous
 62
     7
100
AcDbLine
 10
6568.8128865855
 20
4500.3101966651
 30
0.0
 11
6568.8128865855
 21
4499.7451446327
 31
0.0
  0
LINE
  5
500
330
1F
100
AcDbEntity
  8
0
  6
Continuous
 62
     7
100
AcDbLine
 10
6568.8128865855
 20
4499.7451446327
 30
0.0
 11
6569.1615737574
 21
4499.1989276679
 31
0.0
  0
LINE
  5
501
330
1F
100
AcDbEntity
  8
0
  6
Continuous
 62
     7
100
AcDbLine
 10
6569.1615737574
 20
4499.1989276679
 30
0.0
 11
6569.772580971
 21
4498.7436673912
 31
0.0
  0
LINE
  5
502
330
1F
100
AcDbEntity
  8
0
  6
Continuous
 62
     7
100
AcDbLine
 10
6573.268751015
 20
4502.1885774406
 30
0.0
 11
6573.268751015
 21
4497.6481340202
 31
0.0
  0
LINE
  5
503
330
1F
100
AcDbEntity
  8
0
  6
Continuous
 62
     7
100
AcDbLine
 10
6578.2649315493
 20
4498.7436673912
 30
0.0
 11
6578.8759387629
 21
4499.1989276679
 31
0.0
  0
LINE
  5
504
330
1F
100
AcDbEntity
  8
0
  6
Continuous
 62
     7
100
AcDbLine
 10
6578.8759387629
 20
4499.1989276679
 30
0.0
 11
6579.2246259349
 21
4499.7451446327
 31
0.0
  0
LINE
  5
505
330
1F
100
AcDbEntity
  8
0
  6
Continuous
 62
     7
100
AcDbLine
 10
6579.2246259349
 20
4499.7451446327
 30
0.0
 11
6579.2246259349
 21
4500.3101966651
 31
0.0
  0
LINE
  5
506
330
1F
100
AcDbEntity
  8
0
  6
Continuous
 62
     7
100
AcDbLine
 10
6579.2246259349
 20
4500.3101966651
 30
0.0
 11
6578.8759387629
 21
4500.8562944206
 31
0.0
  0
LINE
  5
507
330
1F
100
AcDbEntity
  8
0
  6
Continuous
 62
     7
100
AcDbLine
 10
6578.8759387629
 20
4500.8562944206
 30
0.0
 11
6578.2018698352
 21
4501.3469598564
 31
0.0
  0
LINE
  5
508
330
1F
100
AcDbEntity
  8
0
  6
Continuous
 62
     7
100
AcDbLine
 10
6578.2018698352
 20
4501.3469598564
 30
0.0
 11
6577.247659077
 21
4501.7491719993
 31
0.0
  0
LINE
  5
509
330
1F
100
AcDbEntity
  8
0
  6
Continuous
 62
     7
100
AcDbLine
 10
6577.247659077
 20
4501.7491719993
 30
0.0
 11
6576.0771430629
 21
4502.0361087593
 31
0.0
  0
LINE
  5
50A
330
1F
100
AcDbEntity
  8
0
  6
Continuous
 62
     7
100
AcDbLine
 10
6576.0771430629
 20
4502.0361087593
 30
0.0
 11
6574.7687615054
 21
4502.1885774406
 31
0.0
  0
LINE
  5
50B
330
1F
100
AcDbEntity
  8
0
  6
Continuous
 62
     7
100
AcDbLine
 10
6574.7687615054
 20
4497.6481340202
 30
0.0
 11
6574.7687615054
 21
4502.1885774406
 31
0.0
  0
LINE
  5
50C
330
1F
100
AcDbEntity
  8
0
  6
Continuous
 62
     7
100
AcDbLine
 10
6579.268733372
 20
4500.6642482551
 30
0.0
 11
6579.089859833
 21
4501.2293002876
 31
0.0
  0
LINE
  5
50D
330
1F
100
AcDbEntity
  8
0
  6
Continuous
 62
     7
100
AcDbLine
 10
6579.089859833
 20
4501.2293002876
 30
0.0
 11
6578.5653985637
 21
4501.7558477195
 31
0.0
  0
LINE
  5
50E
330
1F
100
AcDbEntity
  8
0
  6
Continuous
 62
     7
100
AcDbLine
 10
6578.5653985637
 20
4501.7558477195
 30
0.0
 11
6577.7310527461
 21
4502.2080085548
 31
0.0
  0
LINE
  5
50F
330
1F
100
AcDbEntity
  8
0
  6
Continuous
 62
     7
100
AcDbLine
 10
6577.7310527461
 20
4502.2080085548
 30
0.0
 11
6576.6437448161
 21
4502.5550267967
 31
0.0
  0
LINE
  5
510
330
1F
100
AcDbEntity
  8
0
  6
Continuous
 62
     7
100
AcDbLine
 10
6576.6437448161
 20
4502.5550267967
 30
0.0
 11
6575.3775633471
 21
4502.7731797965
 31
0.0
  0
LINE
  5
511
330
1F
100
AcDbEntity
  8
0
  6
Continuous
 62
     7
100
AcDbLine
 10
6575.3775633471
 20
4502.7731797965
 30
0.0
 11
6574.0187562602
 21
4502.8475663932
 31
0.0
  0
LINE
  5
512
330
1F
100
AcDbEntity
  8
0
  6
Continuous
 62
     7
100
AcDbLine
 10
6574.0187562602
 20
4502.8475663932
 30
0.0
 11
6572.6599491733
 21
4502.7731797965
 31
0.0
  0
LINE
  5
513
330
1F
100
AcDbEntity
  8
0
  6
Continuous
 62
     7
100
AcDbLine
 10
6572.6599491733
 20
4502.7731797965
 30
0.0
 11
6571.3937677043
 21
4502.5550267967
 31
0.0
  0
LINE
  5
514
330
1F
100
AcDbEntity
  8
0
  6
Continuous
 62
     7
100
AcDbLine
 10
6571.3937677043
 20
4502.5550267967
 30
0.0
 11
6570.3064597743
 21
4502.2080085548
 31
0.0
  0
LINE
  5
515
330
1F
100
AcDbEntity
  8
0
  6
Continuous
 62
     7
100
AcDbLine
 10
6570.3064597743
 20
4502.2080085548
 30
0.0
 11
6569.4721139567
 21
4501.7558477195
 31
0.0
  0
LINE
  5
516
330
1F
100
AcDbEntity
  8
0
  6
Continuous
 62
     7
100
AcDbLine
 10
6569.4721139567
 20
4501.7558477195
 30
0.0
 11
6568.9476526874
 21
4501.2293002876
 31
0.0
  0
LINE
  5
517
330
1F
100
AcDbEntity
  8
0
  6
Continuous
 62
     7
100
AcDbLine
 10
6568.9476526874
 20
4501.2293002876
 30
0.0
 11
6568.7687791484
 21
4500.6642482551
 31
0.0
  0
LINE
  5
518
330
1F
100
AcDbEntity
  8
0
  6
Continuous
 62
     7
100
AcDbLine
 10
7173.2687748568
 20
4502.1885774406
 30
0.0
 11
7171.9603336947
 21
4502.0361087593
 31
0.0
  0
LINE
  5
519
330
1F
100
AcDbEntity
  8
0
  6
Continuous
 62
     7
100
AcDbLine
 10
7171.9603336947
 20
4502.0361087593
 30
0.0
 11
7170.7898176806
 21
4501.7491719993
 31
0.0
  0
LINE
  5
51A
330
1F
100
AcDbEntity
  8
0
  6
Continuous
 62
     7
100
AcDbLine
 10
7170.7898176806
 20
4501.7491719993
 30
0.0
 11
7169.8356665271
 21
4501.3469598564
 31
0.0
  0
LINE
  5
51B
330
1F
100
AcDbEntity
  8
0
  6
Continuous
 62
     7
100
AcDbLine
 10
7169.8356665271
 20
4501.3469598564
 30
0.0
 11
7169.1615379947
 21
4500.8562944206
 31
0.0
  0
LINE
  5
51C
330
1F
100
AcDbEntity
  8
0
  6
Continuous
 62
     7
100
AcDbLine
 10
7169.1615379947
 20
4500.8562944206
 30
0.0
 11
7168.8128508227
 21
4500.3101966651
 31
0.0
  0
LINE
  5
51D
330
1F
100
AcDbEntity
  8
0
  6
Continuous
 62
     7
100
AcDbLine
 10
7168.8128508227
 20
4500.3101966651
 30
0.0
 11
7168.8128508227
 21
4499.7451446327
 31
0.0
  0
LINE
  5
51E
330
1F
100
AcDbEntity
  8
0
  6
Continuous
 62
     7
100
AcDbLine
 10
7168.8128508227
 20
4499.7451446327
 30
0.0
 11
7169.1615379947
 21
4499.1989276679
 31
0.0
  0
LINE
  5
51F
330
1F
100
AcDbEntity
  8
0
  6
Continuous
 62
     7
100
AcDbLine
 10
7169.1615379947
 20
4499.1989276679
 30
0.0
 11
7169.7726048129
 21
4498.7436673912
 31
0.0
  0
LINE
  5
520
330
1F
100
AcDbEntity
  8
0
  6
Continuous
 62
     7
100
AcDbLine
 10
7173.2687748568
 20
4502.1885774406
 30
0.0
 11
7173.2687748568
 21
4497.6481340202
 31
0.0
  0
LINE
  5
521
330
1F
100
AcDbEntity
  8
0
  6
Continuous
 62
     7
100
AcDbLine
 10
7178.2649553912
 20
4498.7436673912
 30
0.0
 11
7178.8759030002
 21
4499.1989276679
 31
0.0
  0
LINE
  5
522
330
1F
100
AcDbEntity
  8
0
  6
Continuous
 62
     7
100
AcDbLine
 10
7178.8759030002
 20
4499.1989276679
 30
0.0
 11
7179.2245901721
 21
4499.7451446327
 31
0.0
  0
LINE
  5
523
330
1F
100
AcDbEntity
  8
0
  6
Continuous
 62
     7
100
AcDbLine
 10
7179.2245901721
 20
4499.7451446327
 30
0.0
 11
7179.2245901721
 21
4500.3101966651
 31
0.0
  0
LINE
  5
524
330
1F
100
AcDbEntity
  8
0
  6
Continuous
 62
     7
100
AcDbLine
 10
7179.2245901721
 20
4500.3101966651
 30
0.0
 11
7178.8759030002
 21
4500.8562944206
 31
0.0
  0
LINE
  5
525
330
1F
100
AcDbEntity
  8
0
  6
Continuous
 62
     7
100
AcDbLine
 10
7178.8759030002
 20
4500.8562944206
 30
0.0
 11
7178.201893677
 21
4501.3469598564
 31
0.0
  0
LINE
  5
526
330
1F
100
AcDbEntity
  8
0
  6
Continuous
 62
     7
100
AcDbLine
 10
7178.201893677
 20
4501.3469598564
 30
0.0
 11
7177.2476233142
 21
4501.7491719993
 31
0.0
  0
LINE
  5
527
330
1F
100
AcDbEntity
  8
0
  6
Continuous
 62
     7
100
AcDbLine
 10
7177.2476233142
 20
4501.7491719993
 30
0.0
 11
7176.0771073001
 21
4502.0361087593
 31
0.0
  0
LINE
  5
528
330
1F
100
AcDbEntity
  8
0
  6
Continuous
 62
     7
100
AcDbLine
 10
7176.0771073001
 20
4502.0361087593
 30
0.0
 11
7174.7687853473
 21
4502.1885774406
 31
0.0
  0
LINE
  5
529
330
1F
100
AcDbEntity
  8
0
  6
Continuous
 62
     7
100
AcDbLine
 10
7174.7687853473
 20
4497.6481340202
 30
0.0
 11
7174.7687853473
 21
4502.1885774406
 31
0.0
  0
LINE
  5
52A
330
1F
100
AcDbEntity
  8
0
  6
Continuous
 62
     7
100
AcDbLine
 10
7179.2686976092
 20
4500.6642482551
 30
0.0
 11
7179.0898836749
 21
4501.2293002876
 31
0.0
  0
LINE
  5
52B
330
1F
100
AcDbEntity
  8
0
  6
Continuous
 62
     7
100
AcDbLine
 10
7179.0898836749
 20
4501.2293002876
 30
0.0
 11
7178.5653628009
 21
4501.7558477195
 31
0.0
  0
LINE
  5
52C
330
1F
100
AcDbEntity
  8
0
  6
Continuous
 62
     7
100
AcDbLine
 10
7178.5653628009
 20
4501.7558477195
 30
0.0
 11
7177.7310169833
 21
4502.2080085548
 31
0.0
  0
LINE
  5
52D
330
1F
100
AcDbEntity
  8
0
  6
Continuous
 62
     7
100
AcDbLine
 10
7177.7310169833
 20
4502.2080085548
 30
0.0
 11
7176.6437090533
 21
4502.5550267967
 31
0.0
  0
LINE
  5
52E
330
1F
100
AcDbEntity
  8
0
  6
Continuous
 62
     7
100
AcDbLine
 10
7176.6437090533
 20
4502.5550267967
 30
0.0
 11
7175.377587189
 21
4502.7731797965
 31
0.0
  0
LINE
  5
52F
330
1F
100
AcDbEntity
  8
0
  6
Continuous
 62
     7
100
AcDbLine
 10
7175.377587189
 20
4502.7731797965
 30
0.0
 11
7174.0187204974
 21
4502.8475663932
 31
0.0
  0
LINE
  5
530
330
1F
100
AcDbEntity
  8
0
  6
Continuous
 62
     7
100
AcDbLine
 10
7174.0187204974
 20
4502.8475663932
 30
0.0
 11
7172.6599730151
 21
4502.7731797965
 31
0.0
  0
LINE
  5
531
330
1F
100
AcDbEntity
  8
0
  6
Continuous
 62
     7
100
AcDbLine
 10
7172.6599730151
 20
4502.7731797965
 30
0.0
 11
7171.3937319415
 21
4502.5550267967
 31
0.0
  0
LINE
  5
532
330
1F
100
AcDbEntity
  8
0
  6
Continuous
 62
     7
100
AcDbLine
 10
7171.3937319415
 20
4502.5550267967
 30
0.0
 11
7170.3064240115
 21
4502.2080085548
 31
0.0
  0
LINE
  5
533
330
1F
100
AcDbEntity
  8
0
  6
Continuous
 62
     7
100
AcDbLine
 10
7170.3064240115
 20
4502.2080085548
 30
0.0
 11
7169.4720781939
 21
4501.7558477195
 31
0.0
  0
LINE
  5
534
330
1F
100
AcDbEntity
  8
0
  6
Continuous
 62
     7
100
AcDbLine
 10
7169.4720781939
 20
4501.7558477195
 30
0.0
 11
7168.9476765292
 21
4501.2293002876
 31
0.0
  0
LINE
  5
535
330
1F
100
AcDbEntity
  8
0
  6
Continuous
 62
     7
100
AcDbLine
 10
7168.9476765292
 20
4501.2293002876
 30
0.0
 11
7168.7687433856
 21
4500.6642482551
 31
0.0
  0
LINE
  5
536
330
1F
100
AcDbEntity
  8
0
  6
Continuous
 62
     7
100
AcDbLine
 10
5373.2687553361
 20
4352.2710518848
 30
0.0
 11
5373.2687553361
 21
4341.8787470394
 31
0.0
  0
LINE
  5
537
330
1F
100
AcDbEntity
  8
0
  6
Continuous
 62
     7
100
AcDbLine
 10
5374.7687553361
 20
4341.8787470394
 30
0.0
 11
5374.7687553361
 21
4352.2710518848
 31
0.0
  0
LINE
  5
538
330
1F
100
AcDbEntity
  8
0
  6
Continuous
 62
     7
100
AcDbLine
 10
6573.2687553361
 20
4352.2710518848
 30
0.0
 11
6573.2687553361
 21
4341.8787470394
 31
0.0
  0
LINE
  5
539
330
1F
100
AcDbEntity
  8
0
  6
Continuous
 62
     7
100
AcDbLine
 10
6574.7687553361
 20
4341.8787470394
 30
0.0
 11
6574.7687553361
 21
4352.2710518848
 31
0.0
  0
LINE
  5
53A
330
1F
100
AcDbEntity
  8
0
  6
Continuous
 62
     7
100
AcDbLine
 10
6014.018753876
 20
4627.1694443496
 30
0.0
 11
5934.0187556641
 21
4627.1694443496
 31
0.0
  0
LINE
  5
53B
330
1F
100
AcDbEntity
  8
0
  6
Continuous
 62
     7
100
AcDbLine
 10
5994.0187580483
 20
4637.1694944175
 30
0.0
 11
5954.0187514918
 21
4637.1694944175
 31
0.0
  0
LINE
  5
53C
330
1F
100
AcDbEntity
  8
0
  6
Continuous
 62
     7
100
AcDbLine
 10
5414.0187598365
 20
4627.1694443496
 30
0.0
 11
5334.0187467235
 21
4627.1694443496
 31
0.0
  0
LINE
  5
53D
330
1F
100
AcDbEntity
  8
0
  6
Continuous
 62
     7
100
AcDbLine
 10
5394.0187491076
 20
4637.1694944175
 30
0.0
 11
5354.0187574523
 21
4637.1694944175
 31
0.0
  0
LINE
  5
53E
330
1F
100
AcDbEntity
  8
0
  6
Continuous
 62
     7
100
AcDbLine
 10
6614.0187777179
 20
4627.1694443496
 30
0.0
 11
6534.0187348025
 21
4627.1694443496
 31
0.0
  0
LINE
  5
53F
330
1F
100
AcDbEntity
  8
0
  6
Continuous
 62
     7
100
AcDbLine
 10
6594.0187371867
 20
4637.1694944175
 30
0.0
 11
6554.0187753337
 21
4637.1694944175
 31
0.0
  0
LINE
  5
540
330
1F
100
AcDbEntity
  8
0
  6
Continuous
 62
     7
100
AcDbLine
 10
7214.0188015597
 20
4627.1694443496
 30
0.0
 11
7134.0187586444
 21
4627.1694443496
 31
0.0
  0
LINE
  5
541
330
1F
100
AcDbEntity
  8
0
  6
Continuous
 62
     7
100
AcDbLine
 10
7194.0187014239
 20
4637.1694944175
 30
0.0
 11
7154.0187395709
 21
4637.1694944175
 31
0.0
  0
LINE
  5
542
330
1F
100
AcDbEntity
  8
0
  6
Continuous
 62
     7
100
AcDbLine
 10
6562.8149903911
 20
4502.963557032
 30
0.0
 11
6562.8149903911
 21
4501.9339463981
 31
0.0
  0
LINE
  5
543
330
1F
100
AcDbEntity
  8
0
  6
Continuous
 62
     7
100
AcDbLine
 10
6585.2225221293
 20
4502.963557032
 30
0.0
 11
6585.2225221293
 21
4501.9339463981
 31
0.0
  0
LINE
  5
544
330
1F
100
AcDbEntity
  8
0
  6
Continuous
 62
     7
100
AcDbLine
 10
6562.056402077
 20
4499.2708108695
 30
0.0
 11
6562.056402077
 21
4499.1501710685
 31
0.0
  0
LINE
  5
545
330
1F
100
AcDbEntity
  8
0
  6
Continuous
 62
     7
100
AcDbLine
 10
6585.9811104434
 20
4499.2708108695
 30
0.0
 11
6585.9811104434
 21
4499.1501710685
 31
0.0
  0
LINE
  5
546
330
1F
100
AcDbEntity
  8
0
  6
Continuous
 62
     7
100
AcDbLine
 10
7162.8149546283
 20
4502.963557032
 30
0.0
 11
7162.8149546283
 21
4501.9339463981
 31
0.0
  0
LINE
  5
547
330
1F
100
AcDbEntity
  8
0
  6
Continuous
 62
     7
100
AcDbLine
 10
7185.2224863665
 20
4502.963557032
 30
0.0
 11
7185.2224863665
 21
4501.9339463981
 31
0.0
  0
LINE
  5
548
330
1F
100
AcDbEntity
  8
0
  6
Continuous
 62
     7
100
AcDbLine
 10
7162.0564259189
 20
4499.2708108695
 30
0.0
 11
7162.0564259189
 21
4499.1501710685
 31
0.0
  0
LINE
  5
549
330
1F
100
AcDbEntity
  8
0
  6
Continuous
 62
     7
100
AcDbLine
 10
7185.9811342853
 20
4499.2708108695
 30
0.0
 11
7185.9811342853
 21
4499.1501710685
 31
0.0
  0
LINE
  5
54A
330
1F
100
AcDbEntity
  8
0
  6
Continuous
 62
     7
100
AcDbLine
 10
5362.8149725097
 20
4502.963557032
 30
0.0
 11
5362.8149725097
 21
4501.9339463981
 31
0.0
  0
LINE
  5
54B
330
1F
100
AcDbEntity
  8
0
  6
Continuous
 62
     7
100
AcDbLine
 10
5385.2225340503
 20
4502.963557032
 30
0.0
 11
5385.2225340503
 21
4501.9339463981
 31
0.0
  0
LINE
  5
54C
330
1F
100
AcDbEntity
  8
0
  6
Continuous
 62
     7
100
AcDbLine
 10
5362.0563841956
 20
4499.2708108695
 30
0.0
 11
5362.0563841956
 21
4499.1501710685
 31
0.0
  0
LINE
  5
54D
330
1F
100
AcDbEntity
  8
0
  6
Continuous
 62
     7
100
AcDbLine
 10
5385.9811223643
 20
4499.2708108695
 30
0.0
 11
5385.9811223643
 21
4499.1501710685
 31
0.0
  0
LINE
  5
54E
330
1F
100
AcDbEntity
  8
0
  6
Continuous
 62
     7
100
AcDbLine
 10
5962.8149814504
 20
4502.963557032
 30
0.0
 11
5962.8149814504
 21
4501.9339463981
 31
0.0
  0
LINE
  5
54F
330
1F
100
AcDbEntity
  8
0
  6
Continuous
 62
     7
100
AcDbLine
 10
5985.2225280898
 20
4502.963557032
 30
0.0
 11
5985.2225280898
 21
4501.9339463981
 31
0.0
  0
LINE
  5
550
330
1F
100
AcDbEntity
  8
0
  6
Continuous
 62
     7
100
AcDbLine
 10
5962.0563931363
 20
4499.2708108695
 30
0.0
 11
5962.0563931363
 21
4499.1501710685
 31
0.0
  0
LINE
  5
551
330
1F
100
AcDbEntity
  8
0
  6
Continuous
 62
     7
100
AcDbLine
 10
5985.9811164039
 20
4499.2708108695
 30
0.0
 11
5985.9811164039
 21
4499.1501710685
 31
0.0
  0
LWPOLYLINE
  5
552
330
1F
100
AcDbEntity
  8
0
  6
Continuous
 62
     7
100
AcDbPolyline
 90
       12
 70
   128
 43
0.0
 10
8119.7280883789
 20
5142.0033460195
 10
8123.3719364933
 20
5116.783644174
 10
8113.8499706736
 20
5101.9567995172
 10
8112.8626215148
 20
5100.7119813192
 10
8112.8238616559
 20
5100.6635780863
 10
8112.8213002623
 20
5100.6603863256
 10
8112.8211504709
 20
5100.6602010267
 10
8112.8211451619
 20
5100.6601949776
 10
8112.8212411143
 20
5100.6603163282
 10
8112.8214986567
 20
5100.6606394255
 10
8112.8265055709
 20
5100.6668991035
 10
8112.8457548501
 20
5100.6909429739
  0
LWPOLYLINE
  5
553
330
1F
100
AcDbEntity
  8
0
  6
Continuous
 62
     7
100
AcDbPolyline
 90
        3
 70
   128
 43
0.0
 10
8117.9504394531
 20
5144.6557033519
 10
8118.5440803252
 20
5143.7965449277
 10
8119.7290184381
 20
5142.0033460195
  0
LINE
  5
554
330
1F
100
AcDbEntity
  8
0
  6
Continuous
 62
     7
100
AcDbLine
 10
8117.9504394531
 20
5144.6557033519
 30
0.0
 11
8122.4810840967
 21
5144.6557033519
 31
0.0
  0
LWPOLYLINE
  5
555
330
1F
100
AcDbEntity
  8
0
  6
Continuous
 62
     7
100
AcDbPolyline
 90
        3
 70
   128
 43
0.0
 10
8117.4621582031
 20
5224.8467735658
 10
8117.9352624383
 20
5224.5227930886
 10
8118.9075472238
 20
5223.8557047854
  0
LWPOLYLINE
  5
556
330
1F
100
AcDbEntity
  8
0
  6
Continuous
 62
     7
100
AcDbPolyline
 90
       10
 70
   128
 43
0.0
 10
8120.9487915039
 20
5206.8784765611
 10
8118.683971264
 20
5200.3577059818
 10
8118.4678315253
 20
5199.8918158943
 10
8118.4656990301
 20
5199.8872742777
 10
8118.4654448112
 20
5199.8867275921
 10
8118.4654338765
 20
5199.8867031691
 10
8118.4654315575
 20
5199.8866976371
 10
8118.4654312984
 20
5199.8866964753
 10
8118.4654634967
 20
5199.8867615205
 10
8118.468737829
 20
5199.8936690102
  0
LWPOLYLINE
  5
557
330
1F
100
AcDbEntity
  8
0
  6
Continuous
 62
     7
100
AcDbPolyline
 90
        3
 70
   128
 43
0.0
 10
8118.9041137695
 20
5223.8557047854
 10
8120.0264187569
 20
5221.042988692
 10
8120.9507944467
 20
5217.8329311023
  0
LWPOLYLINE
  5
558
330
1F
100
AcDbEntity
  8
0
  6
Continuous
 62
     7
100
AcDbPolyline
 90
        3
 70
   128
 43
0.0
 10
7161.6744995117
 20
4507.4584625038
 10
7162.6864571521
 20
4507.8678395174
 10
7163.6060274737
 20
4508.170380381
  0
LWPOLYLINE
  5
559
330
1F
100
AcDbEntity
  8
0
  6
Continuous
 62
     7
100
AcDbPolyline
 90
        3
 70
   128
 43
0.0
 10
5361.6752624512
 20
4507.4584625038
 10
5362.6400864009
 20
4507.850588254
 10
5363.5187543528
 20
4508.1402204307
  0
LWPOLYLINE
  5
55A
330
1F
100
AcDbEntity
  8
0
  6
Continuous
 62
     7
100
AcDbPolyline
 90
        3
 70
   128
 43
0.0
 10
5961.6737365723
 20
4507.4584625038
 10
5962.6400711407
 20
4507.8505907695
 10
5963.5187483924
 20
4508.1402204307
  0
LWPOLYLINE
  5
55B
330
1F
100
AcDbEntity
  8
0
  6
Continuous
 62
     7
100
AcDbPolyline
 90
        3
 70
   128
 43
0.0
 10
6561.6760253906
 20
4507.4584625038
 10
6562.6864562564
 20
4507.8678429549
 10
6563.6060632365
 20
4508.170380381
  0
LWPOLYLINE
  5
55C
330
1F
100
AcDbEntity
  8
0
  6
Continuous
 62
     7
100
AcDbPolyline
 90
        4
 70
   128
 43
0.0
 10
6556.0493469238
 20
4501.9514701637
 10
6557.6537064466
 20
4498.3965289647
 10
6561.6511792878
 20
4495.8376872565
 10
6574.0187562602
 20
4493.660702494
  0
LWPOLYLINE
  5
55D
330
1F
100
AcDbEntity
  8
0
  6
Continuous
 62
     7
100
AcDbPolyline
 90
        4
 70
   128
 43
0.0
 10
6574.0165710449
 20
4493.660702494
 10
6586.5030462899
 20
4495.8876586231
 10
6590.4876235524
 20
4498.5055023736
 10
6591.9766224521
 20
4502.1343372138
  0
LWPOLYLINE
  5
55E
330
1F
100
AcDbEntity
  8
0
  6
Continuous
 62
     7
100
AcDbPolyline
 90
        4
 70
   128
 43
0.0
 10
7156.0516357422
 20
4501.9514701637
 10
7157.6536932
 20
4498.3965389086
 10
7161.6511723915
 20
4495.8377004914
 10
7174.0187204974
 20
4493.660702494
  0
LWPOLYLINE
  5
55F
330
1F
100
AcDbEntity
  8
0
  6
Continuous
 62
     7
100
AcDbPolyline
 90
        4
 70
   128
 43
0.0
 10
7174.015045166
 20
4493.660702494
 10
7186.5030413613
 20
4495.8876435735
 10
7190.4876314059
 20
4498.5054886521
 10
7191.9766462939
 20
4502.1343372138
  0
LWPOLYLINE
  5
560
330
1F
100
AcDbEntity
  8
0
  6
Continuous
 62
     7
100
AcDbPolyline
 90
        4
 70
   128
 43
0.0
 10
5356.0485839844
 20
4501.9514701637
 10
5357.6537031695
 20
4498.3965280861
 10
5361.6511743465
 20
4495.8376843627
 10
5374.0187681811
 20
4493.660702494
  0
LWPOLYLINE
  5
561
330
1F
100
AcDbEntity
  8
0
  6
Continuous
 62
     7
100
AcDbPolyline
 90
        4
 70
   128
 43
0.0
 10
5374.0158081055
 20
4493.660702494
 10
5386.5030531777
 20
4495.8876555058
 10
5390.4876076451
 20
4498.505504233
 10
5391.976634373
 20
4502.1343372138
  0
LWPOLYLINE
  5
562
330
1F
100
AcDbEntity
  8
0
  6
Continuous
 62
     7
100
AcDbPolyline
 90
        4
 70
   128
 43
0.0
 10
5956.0508728027
 20
4501.9514701637
 10
5957.6537061998
 20
4498.3965293568
 10
5961.6511731097
 20
4495.8376842228
 10
5974.0187622207
 20
4493.660702494
  0
LWPOLYLINE
  5
563
330
1F
100
AcDbEntity
  8
0
  6
Continuous
 62
     7
100
AcDbPolyline
 90
        4
 70
   128
 43
0.0
 10
5974.0180969238
 20
4493.660702494
 10
5986.5030475913
 20
4495.8876553405
 10
5990.4876129275
 20
4498.5055013587
 10
5991.9766433137
 20
4502.1343372138
  0
LWPOLYLINE
  5
564
330
1F
100
AcDbEntity
  8
0
  6
Continuous
 62
     7
100
AcDbPolyline
 90
        8
 70
   128
 43
0.0
 10
6591.7625427246
 20
4500.5790136131
 10
6592.1763567172
 20
4502.2286456856
 10
6591.6013976961
 20
4503.8904125793
 10
6584.9169778742
 20
4508.0412513485
 10
6573.6290484959
 20
4509.5810455955
 10
6562.5027256871
 20
4507.8369928582
 10
6556.254185559
 20
4503.5714895896
 10
6556.4099944728
 20
4500.2606056007
  0
LWPOLYLINE
  5
565
330
1F
100
AcDbEntity
  8
0
  6
Continuous
 62
     7
100
AcDbPolyline
 90
        8
 70
   128
 43
0.0
 10
5391.7617797852
 20
4500.5790136131
 10
5392.1763690613
 20
4502.2286454431
 10
5391.6013884718
 20
4503.890411933
 10
5384.9169793704
 20
4508.0412520801
 10
5373.6290472898
 20
4509.5810457453
 10
5362.502724179
 20
4507.8369918195
 10
5356.2541938248
 20
4503.5714889968
 10
5356.4099765914
 20
4500.2606056007
  0
LWPOLYLINE
  5
566
330
1F
100
AcDbEntity
  8
0
  6
Continuous
 62
     7
100
AcDbPolyline
 90
        8
 70
   128
 43
0.0
 10
7191.7610168457
 20
4500.5790136131
 10
7192.1763217894
 20
4502.228646654
 10
7191.6013847782
 20
4503.8904160514
 10
7184.9169490171
 20
4508.0412477611
 10
7173.6290315446
 20
4509.5810453573
 10
7162.5027118404
 20
4507.836995798
 10
7156.2542028075
 20
4503.5714847036
 10
7156.40995871
 20
4500.2606056007
  0
LWPOLYLINE
  5
567
330
1F
100
AcDbEntity
  8
0
  6
Continuous
 62
     7
100
AcDbPolyline
 90
        8
 70
   128
 43
0.0
 10
5991.7602539062
 20
4500.5790136131
 10
5992.1763622783
 20
4502.2286479599
 10
5991.601395969
 20
4503.8904152461
 10
5984.9169769085
 20
4508.0412524746
 10
5973.6290450298
 20
4509.5810454627
 10
5962.5027243568
 20
4507.8369917055
 10
5956.2541865122
 20
4503.5714892735
 10
5956.4099706309
 20
4500.2606056007
  0
ENDSEC
  0
SECTION
  2
OBJECTS
  0
DICTIONARY
  5
C
330
0
100
AcDbDictionary
281
     1
  3
ACAD_GROUP
350
D
  3
ACAD_LAYOUT
350
1A
  3
ACAD_MLINESTYLE
350
17
  3
ACAD_PLOTSETTINGS
350
19
  3
ACAD_PLOTSTYLENAME
350
E
  3
ACAD_SCALELIST
350
47
  3
DWGPROPS
350
568
  0
DICTIONARY
  5
D
102
{ACAD_REACTORS
330
C
102
}
330
C
100
AcDbDictionary
281
     1
  0
DICTIONARY
  5
1A
102
{ACAD_REACTORS
330
C
102
}
330
C
100
AcDbDictionary
281
     1
  3
Layout1
350
1E
  3
Layout2
350
26
  3
Model
350
22
  0
DICTIONARY
  5
17
102
{ACAD_REACTORS
330
C
102
}
330
C
100
AcDbDictionary
281
     1
  3
Standard
350
18
  0
DICTIONARY
  5
19
102
{ACAD_REACTORS
330
C
102
}
330
C
100
AcDbDictionary
281
     1
  0
ACDBDICTIONARYWDFLT
  5
E
102
{ACAD_REACTORS
330
C
102
}
330
C
100
AcDbDictionary
281
     1
  3
Normal
350
F
100
AcDbDictionaryWithDefault
340
F
  0
DICTIONARY
  5
47
102
{ACAD_REACTORS
330
C
102
}
330
C
100
AcDbDictionary
281
     1
  3
A0
350
48
  3
A1
350
49
  3
A2
350
4A
  3
A3
350
4B
  3
A4
350
4C
  3
A5
350
4D
  3
A6
350
4E
  3
A7
350
4F
  3
A8
350
50
  3
A9
350
51
  3
B0
350
52
  3
B1
350
53
  3
B2
350
54
  3
B3
350
55
  3
B4
350
56
  3
B5
350
57
  3
B6
350
58
  3
B7
350
59
  3
B8
350
5A
  3
B9
350
5B
  3
C0
350
5C
  3
C1
350
5D
  3
C2
350
5E
  3
C3
350
5F
  3
C4
350
60
  3
C5
350
61
  3
C6
350
62
  3
C7
350
63
  3
C8
350
64
  3
C9
350
65
  3
D0
350
66
  3
D1
350
67
  3
D2
350
68
  0
XRECORD
  5
568
102
{ACAD_REACTORS
330
C
102
}
330
C
100
AcDbXrecord
280
     1
  1
DWGPROPS COOKIE
  2

  3

  4

  6

  7

  8
radek.stransky
  9

300
=
301
=
302
=
303
=
304
=
305
=
306
=
307
=
308
=
309
=
 40
0.0
 41
2459096.33083684
 42
2459096.33086706
  1

 90
        0
  0
LAYOUT
  5
1E
102
{ACAD_REACTORS
330
1A
102
}
330
1A
100
AcDbPlotSettings
  1

  2
none_device
  4

  6

 40
0.0
 41
0.0
 42
0.0
 43
0.0
 44
0.0
 45
0.0
 46
0.0
 47
0.0
 48
0.0
 49
0.0
140
0.0
141
0.0
142
1.0
143
1.0
 70
   688
 72
     1
 73
     0
 74
     5
  7

 75
    16
147
1.0
148
0.0
149
0.0
100
AcDbLayout
  1
Layout1
 70
     1
 71
     1
 10
0.0
 20
0.0
 11
420.0
 21
297.0
 12
0.0
 22
0.0
 32
0.0
 14
1.0000000000E+20
 24
1.0000000000E+20
 34
1.0000000000E+20
 15
-1.0000000000E+20
 25
-1.0000000000E+20
 35
-1.0000000000E+20
146
0.0
 13
0.0
 23
0.0
 33
0.0
 16
1.0
 26
0.0
 36
0.0
 17
0.0
 27
1.0
 37
0.0
 76
     0
330
1B
  0
LAYOUT
  5
26
102
{ACAD_REACTORS
330
1A
102
}
330
1A
100
AcDbPlotSettings
  1

  2
none_device
  4

  6

 40
0.0
 41
0.0
 42
0.0
 43
0.0
 44
0.0
 45
0.0
 46
0.0
 47
0.0
 48
0.0
 49
0.0
140
0.0
141
0.0
142
1.0
143
1.0
 70
   688
 72
     1
 73
     0
 74
     5
  7

 75
    16
147
1.0
148
0.0
149
0.0
100
AcDbLayout
  1
Layout2
 70
     1
 71
     2
 10
0.0
 20
0.0
 11
0.0
 21
0.0
 12
0.0
 22
0.0
 32
0.0
 14
0.0
 24
0.0
 34
0.0
 15
0.0
 25
0.0
 35
0.0
146
0.0
 13
0.0
 23
0.0
 33
0.0
 16
1.0
 26
0.0
 36
0.0
 17
0.0
 27
1.0
 37
0.0
 76
     0
330
23
  0
LAYOUT
  5
22
102
{ACAD_REACTORS
330
1A
102
}
330
1A
100
AcDbPlotSettings
  1

  2
none_device
  4
ANSI_A_(11.00_x_8.50_Inches)
  6

 40
6.35
 41
19.05
 42
6.35000508
 43
19.05000254
 44
279.4
 45
215.9
 46
-431.4291443182
 47
-312.0154285399
 48
0.0
 49
0.0
140
0.0
141
0.0
142
0.0033090929
143
1.0
 70
  1696
 72
     0
 73
     0
 74
     0
  7

 75
     0
147
0.0179189148
148
-1300.4909072572
149
0.0
100
AcDbLayout
  1
Model
 70
     1
 71
     0
 10
0.0
 20
0.0
 11
420.0
 21
297.0
 12
0.0
 22
0.0
 32
0.0
 14
5074.0187553361
 24
4127.0748517784
 34
0.0
 15
8364.9508716943
 25
5412.7431966076
 35
0.0
146
0.0
 13
0.0
 23
0.0
 33
0.0
 16
1.0
 26
0.0
 36
0.0
 17
0.0
 27
1.0
 37
0.0
 76
     0
330
1F
331
29
  0
MLINESTYLE
  5
18
102
{ACAD_REACTORS
330
17
102
}
330
17
100
AcDbMlineStyle
  2
Standard
 70
     0
  3

 62
   256
 51
90.0
 52
90.0
 71
     2
 49
0.5
 62
   256
  6
BYLAYER
 49
-0.5
 62
   256
  6
BYLAYER
  0
ACDBPLACEHOLDER
  5
F
102
{ACAD_REACTORS
330
E
102
}
330
E
  0
SCALE
  5
48
102
{ACAD_REACTORS
330
47
102
}
330
47
100
AcDbScale
 70
     0
300
1:1
140
1.0
141
1.0
290
     1
  0
SCALE
  5
49
102
{ACAD_REACTORS
330
47
102
}
330
47
100
AcDbScale
 70
     0
300
1:2
140
1.0
141
2.0
290
     0
  0
SCALE
  5
4A
102
{ACAD_REACTORS
330
47
102
}
330
47
100
AcDbScale
 70
     0
300
1:4
140
1.0
141
4.0
290
     0
  0
SCALE
  5
4B
102
{ACAD_REACTORS
330
47
102
}
330
47
100
AcDbScale
 70
     0
300
1:5
140
1.0
141
5.0
290
     0
  0
SCALE
  5
4C
102
{ACAD_REACTORS
330
47
102
}
330
47
100
AcDbScale
 70
     0
300
1:8
140
1.0
141
8.0
290
     0
  0
SCALE
  5
4D
102
{ACAD_REACTORS
330
47
102
}
330
47
100
AcDbScale
 70
     0
300
1:10
140
1.0
141
10.0
290
     0
  0
SCALE
  5
4E
102
{ACAD_REACTORS
330
47
102
}
330
47
100
AcDbScale
 70
     0
300
1:16
140
1.0
141
16.0
290
     0
  0
SCALE
  5
4F
102
{ACAD_REACTORS
330
47
102
}
330
47
100
AcDbScale
 70
     0
300
1:20
140
1.0
141
20.0
290
     0
  0
SCALE
  5
50
102
{ACAD_REACTORS
330
47
102
}
330
47
100
AcDbScale
 70
     0
300
1:30
140
1.0
141
30.0
290
     0
  0
SCALE
  5
51
102
{ACAD_REACTORS
330
47
102
}
330
47
100
AcDbScale
 70
     0
300
1:40
140
1.0
141
40.0
290
     0
  0
SCALE
  5
52
102
{ACAD_REACTORS
330
47
102
}
330
47
100
AcDbScale
 70
     0
300
1:50
140
1.0
141
50.0
290
     0
  0
SCALE
  5
53
102
{ACAD_REACTORS
330
47
102
}
330
47
100
AcDbScale
 70
     0
300
1:100
140
1.0
141
100.0
290
     0
  0
SCALE
  5
54
102
{ACAD_REACTORS
330
47
102
}
330
47
100
AcDbScale
 70
     0
300
2:1
140
2.0
141
1.0
290
     0
  0
SCALE
  5
55
102
{ACAD_REACTORS
330
47
102
}
330
47
100
AcDbScale
 70
     0
300
4:1
140
4.0
141
1.0
290
     0
  0
SCALE
  5
56
102
{ACAD_REACTORS
330
47
102
}
330
47
100
AcDbScale
 70
     0
300
8:1
140
8.0
141
1.0
290
     0
  0
SCALE
  5
57
102
{ACAD_REACTORS
330
47
102
}
330
47
100
AcDbScale
 70
     0
300
10:1
140
10.0
141
1.0
290
     0
  0
SCALE
  5
58
102
{ACAD_REACTORS
330
47
102
}
330
47
100
AcDbScale
 70
     0
300
100:1
140
100.0
141
1.0
290
     0
  0
SCALE
  5
59
102
{ACAD_REACTORS
330
47
102
}
330
47
100
AcDbScale
 70
     0
300
1/128" = 1'-0"
140
0.0078125
141
12.0
290
     0
  0
SCALE
  5
5A
102
{ACAD_REACTORS
330
47
102
}
330
47
100
AcDbScale
 70
     0
300
1/64" = 1'-0"
140
0.015625
141
12.0
290
     0
  0
SCALE
  5
5B
102
{ACAD_REACTORS
330
47
102
}
330
47
100
AcDbScale
 70
     0
300
1/32" = 1'-0"
140
0.03125
141
12.0
290
     0
  0
SCALE
  5
5C
102
{ACAD_REACTORS
330
47
102
}
330
47
100
AcDbScale
 70
     0
300
1/16" = 1'-0"
140
0.0625
141
12.0
290
     0
  0
SCALE
  5
5D
102
{ACAD_REACTORS
330
47
102
}
330
47
100
AcDbScale
 70
     0
300
3/32" = 1'-0"
140
0.09375
141
12.0
290
     0
  0
SCALE
  5
5E
102
{ACAD_REACTORS
330
47
102
}
330
47
100
AcDbScale
 70
     0
300
1/8" = 1'-0"
140
0.125
141
12.0
290
     0
  0
SCALE
  5
5F
102
{ACAD_REACTORS
330
47
102
}
330
47
100
AcDbScale
 70
     0
300
3/16" = 1'-0"
140
0.1875
141
12.0
290
     0
  0
SCALE
  5
60
102
{ACAD_REACTORS
330
47
102
}
330
47
100
AcDbScale
 70
     0
300
1/4" = 1'-0"
140
0.25
141
12.0
290
     0
  0
SCALE
  5
61
102
{ACAD_REACTORS
330
47
102
}
330
47
100
AcDbScale
 70
     0
300
3/8" = 1'-0"
140
0.375
141
12.0
290
     0
  0
SCALE
  5
62
102
{ACAD_REACTORS
330
47
102
}
330
47
100
AcDbScale
 70
     0
300
1/2" = 1'-0"
140
0.5
141
12.0
290
     0
  0
SCALE
  5
63
102
{ACAD_REACTORS
330
47
102
}
330
47
100
AcDbScale
 70
     0
300
3/4" = 1'-0"
140
0.75
141
12.0
290
     0
  0
SCALE
  5
64
102
{ACAD_REACTORS
330
47
102
}
330
47
100
AcDbScale
 70
     0
300
1" = 1'-0"
140
1.0
141
12.0
290
     0
  0
SCALE
  5
65
102
{ACAD_REACTORS
330
47
102
}
330
47
100
AcDbScale
 70
     0
300
1-1/2" = 1'-0"
140
1.5
141
12.0
290
     0
  0
SCALE
  5
66
102
{ACAD_REACTORS
330
47
102
}
330
47
100
AcDbScale
 70
     0
300
3" = 1'-0"
140
3.0
141
12.0
290
     0
  0
SCALE
  5
67
102
{ACAD_REACTORS
330
47
102
}
330
47
100
AcDbScale
 70
     0
300
6" = 1'-0"
140
6.0
141
12.0
290
     0
  0
SCALE
  5
68
102
{ACAD_REACTORS
330
47
102
}
330
47
100
AcDbScale
 70
     0
300
1'-0" = 1'-0"
140
12.0
141
12.0
290
     0
  0
ENDSEC
  0
EOF
