  0
SECTION
  2
HEADER
  9
$ACADVER
  1
AC1015
  9
$ACADMAINTVER
 70
     6
  9
$DWGCODEPAGE
  3
ANSI_1250
  9
$INSBASE
 10
0.0
 20
0.0
 30
0.0
  9
$EXTMIN
 10
0.0
 20
0.0
 30
0.0
  9
$EXTMAX
 10
20000.0
 20
10000.0
 30
0.0
  9
$LIMMIN
 10
0.0
 20
0.0
  9
$LIMMAX
 10
20000.0
 20
10000.0
  9
$ORTHOMODE
 70
     0
  9
$REGENMODE
 70
     1
  9
$FILLMODE
 70
     1
  9
$QTEXTMODE
 70
     0
  9
$MIRRTEXT
 70
     1
  9
$LTSCALE
 40
1.0
  9
$ATTMODE
 70
     1
  9
$TEXTSIZE
 40
2.0
  9
$TRACEWID
 40
1.0
  9
$TEXTSTYLE
  7
Standard
  9
$CLAYER
  8
0
  9
$CELTYPE
  6
ByLayer
  9
$CECOLOR
 62
   256
  9
$CELTSCALE
 40
1.0
  9
$DISPSILH
 70
     0
  9
$DIMSCALE
 40
1.0
  9
$DIMASZ
 40
2.0
  9
$DIMEXO
 40
1.0
  9
$DIMDLI
 40
3.75
  9
$DIMRND
 40
0.0
  9
$DIMDLE
 40
0.0
  9
$DIMEXE
 40
1.0
  9
$DIMTP
 40
0.0
  9
$DIMTM
 40
0.0
  9
$DIMTXT
 40
2.0
  9
$DIMCEN
 40
2.5
  9
$DIMTSZ
 40
0.0
  9
$DIMTOL
 70
     0
  9
$DIMLIM
 70
     0
  9
$DIMTIH
 70
     1
  9
$DIMTOH
 70
     1
  9
$DIMSE1
 70
     0
  9
$DIMSE2
 70
     0
  9
$DIMTAD
 70
     1
  9
$DIMZIN
 70
     0
  9
$DIMBLK
  1

  9
$DIMASO
 70
     1
  9
$DIMSHO
 70
     1
  9
$DIMPOST
  1

  9
$DIMAPOST
  1

  9
$DIMALT
 70
     0
  9
$DIMALTD
 70
     3
  9
$DIMALTF
 40
0.0393700787
  9
$DIMLFAC
 40
1.0
  9
$DIMTOFL
 70
     1
  9
$DIMTVP
 40
0.0
  9
$DIMTIX
 70
     0
  9
$DIMSOXD
 70
     0
  9
$DIMSAH
 70
     0
  9
$DIMBLK1
  1

  9
$DIMBLK2
  1

  9
$DIMSTYLE
  2
ISO-25
  9
$DIMCLRD
 70
     0
  9
$DIMCLRE
 70
     0
  9
$DIMCLRT
 70
     0
  9
$DIMTFAC
 40
1.0
  9
$DIMGAP
 40
1.524
  9
$DIMJUST
 70
     0
  9
$DIMSD1
 70
     0
  9
$DIMSD2
 70
     0
  9
$DIMTOLJ
 70
     0
  9
$DIMTZIN
 70
     0
  9
$DIMALTZ
 70
     0
  9
$DIMALTTZ
 70
     0
  9
$DIMUPT
 70
     0
  9
$DIMDEC
 70
     2
  9
$DIMTDEC
 70
     0
  9
$DIMALTU
 70
     2
  9
$DIMALTTD
 70
     3
  9
$DIMTXSTY
  7
Standard
  9
$DIMAUNIT
 70
     0
  9
$DIMADEC
 70
     2
  9
$DIMALTRND
 40
0.0
  9
$DIMAZIN
 70
     0
  9
$DIMDSEP
 70
    44
  9
$DIMATFIT
 70
     3
  9
$DIMFRAC
 70
     0
  9
$DIMLDRBLK
  1

  9
$DIMLUNIT
 70
     2
  9
$DIMLWD
 70
    -2
  9
$DIMLWE
 70
    -2
  9
$DIMTMOVE
 70
     0
  9
$LUNITS
 70
     2
  9
$LUPREC
 70
     3
  9
$SKETCHINC
 40
1.0
  9
$FILLETRAD
 40
10.0
  9
$AUNITS
 70
     0
  9
$AUPREC
 70
     2
  9
$MENU
  1
.
  9
$ELEVATION
 40
0.0
  9
$PELEVATION
 40
0.0
  9
$THICKNESS
 40
0.0
  9
$LIMCHECK
 70
     0
  9
$CHAMFERA
 40
0.0
  9
$CHAMFERB
 40
0.0
  9
$CHAMFERC
 40
0.0
  9
$CHAMFERD
 40
0.0
  9
$SKPOLY
 70
     0
  9
$TDCREATE
 40
2459097.438579768
  9
$TDUCREATE
 40
2459097.355246435
  9
$TDUPDATE
 40
2459097.438580231
  9
$TDUUPDATE
 40
2459097.355246898
  9
$TDINDWG
 40
0.0000000116
  9
$TDUSRTIMER
 40
0.0000000116
  9
$USRTIMER
 70
     1
  9
$ANGBASE
 50
0.0
  9
$ANGDIR
 70
     0
  9
$PDMODE
 70
     0
  9
$PDSIZE
 40
-1.0
  9
$PLINEWID
 40
0.0
  9
$SPLFRAME
 70
     0
  9
$SPLINETYPE
 70
     6
  9
$SPLINESEGS
 70
     8
  9
$HANDSEED
  5
1FD
  9
$SURFTAB1
 70
     6
  9
$SURFTAB2
 70
     6
  9
$SURFTYPE
 70
     6
  9
$SURFU
 70
     6
  9
$SURFV
 70
     6
  9
$UCSBASE
  2

  9
$UCSNAME
  2

  9
$UCSORG
 10
0.0
 20
0.0
 30
0.0
  9
$UCSXDIR
 10
1.0
 20
0.0
 30
0.0
  9
$UCSYDIR
 10
0.0
 20
1.0
 30
0.0
  9
$UCSORTHOREF
  2

  9
$UCSORTHOVIEW
 70
     0
  9
$UCSORGTOP
 10
0.0
 20
0.0
 30
0.0
  9
$UCSORGBOTTOM
 10
0.0
 20
0.0
 30
0.0
  9
$UCSORGLEFT
 10
0.0
 20
0.0
 30
0.0
  9
$UCSORGRIGHT
 10
0.0
 20
0.0
 30
0.0
  9
$UCSORGFRONT
 10
0.0
 20
0.0
 30
0.0
  9
$UCSORGBACK
 10
0.0
 20
0.0
 30
0.0
  9
$PUCSBASE
  2

  9
$PUCSNAME
  2

  9
$PUCSORG
 10
0.0
 20
0.0
 30
0.0
  9
$PUCSXDIR
 10
1.0
 20
0.0
 30
0.0
  9
$PUCSYDIR
 10
0.0
 20
1.0
 30
0.0
  9
$PUCSORTHOREF
  2

  9
$PUCSORTHOVIEW
 70
     0
  9
$PUCSORGTOP
 10
0.0
 20
0.0
 30
0.0
  9
$PUCSORGBOTTOM
 10
0.0
 20
0.0
 30
0.0
  9
$PUCSORGLEFT
 10
0.0
 20
0.0
 30
0.0
  9
$PUCSORGRIGHT
 10
0.0
 20
0.0
 30
0.0
  9
$PUCSORGFRONT
 10
0.0
 20
0.0
 30
0.0
  9
$PUCSORGBACK
 10
0.0
 20
0.0
 30
0.0
  9
$USERI1
 70
     0
  9
$USERI2
 70
     0
  9
$USERI3
 70
     0
  9
$USERI4
 70
     0
  9
$USERI5
 70
     0
  9
$USERR1
 40
0.0
  9
$USERR2
 40
0.0
  9
$USERR3
 40
0.0
  9
$USERR4
 40
0.0
  9
$USERR5
 40
0.0
  9
$WORLDVIEW
 70
     1
  9
$SHADEDGE
 70
     3
  9
$SHADEDIF
 70
    70
  9
$TILEMODE
 70
     1
  9
$MAXACTVP
 70
    64
  9
$PINSBASE
 10
0.0
 20
0.0
 30
0.0
  9
$PLIMCHECK
 70
     0
  9
$PEXTMIN
 10
1.0000000000E+20
 20
1.0000000000E+20
 30
1.0000000000E+20
  9
$PEXTMAX
 10
-1.0000000000E+20
 20
-1.0000000000E+20
 30
-1.0000000000E+20
  9
$PLIMMIN
 10
0.0
 20
0.0
  9
$PLIMMAX
 10
420.0
 20
297.0
  9
$UNITMODE
 70
     0
  9
$VISRETAIN
 70
     1
  9
$PLINEGEN
 70
     0
  9
$PSLTSCALE
 70
     1
  9
$TREEDEPTH
 70
  3020
  9
$CMLSTYLE
  2
Standard
  9
$CMLJUST
 70
     0
  9
$CMLSCALE
 40
20.0
  9
$PROXYGRAPHICS
 70
     1
  9
$MEASUREMENT
 70
     1
  9
$CELWEIGHT
370
    -1
  9
$ENDCAPS
280
     0
  9
$JOINSTYLE
280
     0
  9
$LWDISPLAY
290
     1
  9
$INSUNITS
 70
     4
  9
$HYPERLINKBASE
  1

  9
$STYLESHEET
  1

  9
$XEDIT
290
     1
  9
$CEPSNTYPE
380
     0
  9
$PSTYLEMODE
290
     1
  9
$FINGERPRINTGUID
  2
{a79fe13f-8ea3-492d-ad98-8f66fff4b255}
  9
$VERSIONGUID
  2
{FAEB1C32-E019-11D5-929B-00C0DF256EC4}
  9
$EXTNAMES
290
     1
  9
$PSVPSCALE
 40
0.0
  9
$OLESTARTUP
290
     0
  0
ENDSEC
  0
SECTION
  2
CLASSES
  0
CLASS
  1
ACDBDICTIONARYWDFLT
  2
AcDbDictionaryWithDefault
  3
ObjectDBX Classes
 90
        0
280
     0
281
     0
  0
CLASS
  1
VISUALSTYLE
  2
AcDbVisualStyle
  3
ObjectDBX Classes
 90
     4095
280
     0
281
     0
  0
CLASS
  1
MATERIAL
  2
AcDbMaterial
  3
ObjectDBX Classes
 90
     1153
280
     0
281
     0
  0
CLASS
  1
SCALE
  2
AcDbScale
  3
ObjectDBX Classes
 90
     1153
280
     0
281
     0
  0
CLASS
  1
TABLESTYLE
  2
AcDbTableStyle
  3
ObjectDBX Classes
 90
     4095
280
     0
281
     0
  0
CLASS
  1
MLEADERSTYLE
  2
AcDbMLeaderStyle
  3
ACDB_MLEADERSTYLE_CLASS
 90
     4095
280
     0
281
     0
  0
CLASS
  1
SUN
  2
AcDbSun
  3
SCENEOE
 90
     1153
280
     0
281
     0
  0
CLASS
  1
ACDBPLACEHOLDER
  2
AcDbPlaceHolder
  3
ObjectDBX Classes
 90
        0
280
     0
281
     0
  0
CLASS
  1
LAYOUT
  2
AcDbLayout
  3
ObjectDBX Classes
 90
        0
280
     0
281
     0
  0
ENDSEC
  0
SECTION
  2
TABLES
  0
TABLE
  2
VPORT
  5
8
330
0
100
AcDbSymbolTable
 70
     1
  0
VPORT
  5
29
330
8
100
AcDbSymbolTableRecord
100
AcDbViewportTableRecord
  2
*Active
 70
     0
 10
0.0
 20
0.0
 11
1.0
 21
1.0
 12
10000.0
 22
5000.0
 13
0.0
 23
0.0
 14
10.0
 24
10.0
 15
10.0
 25
10.0
 16
0.0
 26
0.0
 36
1.0
 17
0.0
 27
0.0
 37
0.0
 40
10000.0
 41
2.0
 42
50.0
 43
0.0
 44
0.0
 50
0.0
 51
0.0
 71
     0
 72
  2000
 73
     1
 74
     3
 75
     0
 76
     0
 77
     0
 78
     0
281
     0
 65
     1
110
0.0
120
0.0
130
0.0
111
1.0
121
0.0
131
0.0
112
0.0
122
1.0
132
0.0
 79
     0
146
0.0
  0
ENDTAB
  0
TABLE
  2
LTYPE
  5
5
330
0
100
AcDbSymbolTable
 70
     6
  0
LTYPE
  5
14
330
5
100
AcDbSymbolTableRecord
100
AcDbLinetypeTableRecord
  2
ByBlock
 70
     0
  3

 72
    65
 73
     0
 40
0.0
  0
LTYPE
  5
15
330
5
100
AcDbSymbolTableRecord
100
AcDbLinetypeTableRecord
  2
ByLayer
 70
     0
  3

 72
    65
 73
     0
 40
0.0
  0
LTYPE
  5
16
330
5
100
AcDbSymbolTableRecord
100
AcDbLinetypeTableRecord
  2
Continuous
 70
     0
  3
Solid line
 72
    65
 73
     0
 40
0.0
  0
LTYPE
  5
6E
330
5
100
AcDbSymbolTableRecord
100
AcDbLinetypeTableRecord
  2
HIDDEN
 70
     0
  3
Hidden __ __ __ __ __ __ __ __ __ __ __ __ __ __
 72
    65
 73
     2
 40
1.905
 49
1.27
 74
     0
 49
-0.635
 74
     0
  0
LTYPE
  5
6F
330
5
100
AcDbSymbolTableRecord
100
AcDbLinetypeTableRecord
  2
PHANTOM
 70
     0
  3
Phantom ______  __  __  ______  __  __  ______
 72
    65
 73
     6
 40
12.7
 49
6.35
 74
     0
 49
-1.27
 74
     0
 49
1.27
 74
     0
 49
-1.27
 74
     0
 49
1.27
 74
     0
 49
-1.27
 74
     0
  0
LTYPE
  5
70
330
5
100
AcDbSymbolTableRecord
100
AcDbLinetypeTableRecord
  2
CENTER
 70
     0
  3
Center ____ _ ____ _ ____ _ ____ _ ____ _ ____
 72
    65
 73
     4
 40
10.16
 49
6.35
 74
     0
 49
-1.27
 74
     0
 49
1.27
 74
     0
 49
-1.27
 74
     0
  0
LTYPE
  5
71
330
5
100
AcDbSymbolTableRecord
100
AcDbLinetypeTableRecord
  2
CENTERX2
 70
     0
  3
Center (2x) ________  __  ________  __  _____
 72
    65
 73
     4
 40
20.32
 49
12.7
 74
     0
 49
-2.54
 74
     0
 49
2.54
 74
     0
 49
-2.54
 74
     0
  0
LTYPE
  5
72
330
5
100
AcDbSymbolTableRecord
100
AcDbLinetypeTableRecord
  2
DOT2
 70
     0
  3
Dot (.5x) ........................................
 72
    65
 73
     2
 40
0.635
 49
0.0
 74
     0
 49
-0.635
 74
     0
  0
ENDTAB
  0
TABLE
  2
LAYER
  5
2
330
0
100
AcDbSymbolTable
 70
    13
  0
LAYER
  5
10
330
2
100
AcDbSymbolTableRecord
100
AcDbLayerTableRecord
  2
0
 70
     0
 62
     7
  6
Continuous
370
    -3
390
F
  0
LAYER
  5
73
330
2
100
AcDbSymbolTableRecord
100
AcDbLayerTableRecord
  2
FORMAT
 70
     0
 62
     7
  6
Continuous
370
    -3
390
F
  0
LAYER
  5
74
330
2
100
AcDbSymbolTableRecord
100
AcDbLayerTableRecord
  2
OSA
 70
     0
 62
     7
  6
CENTER
370
    -3
390
F
  0
LAYER
  5
75
330
2
100
AcDbSymbolTableRecord
100
AcDbLayerTableRecord
  2
0_35
 70
     0
 62
     7
  6
Continuous
370
    35
390
F
  0
LAYER
  5
76
330
2
100
AcDbSymbolTableRecord
100
AcDbLayerTableRecord
  2
0_5
 70
     0
 62
     7
  6
Continuous
370
    50
390
F
  0
LAYER
  5
77
330
2
100
AcDbSymbolTableRecord
100
AcDbLayerTableRecord
  2
0_25
 70
     0
 62
     7
  6
Continuous
370
    25
390
F
  0
LAYER
  5
78
330
2
100
AcDbSymbolTableRecord
100
AcDbLayerTableRecord
  2
0_18
 70
     0
 62
     7
  6
Continuous
370
    -3
390
F
  0
LAYER
  5
79
330
2
100
AcDbSymbolTableRecord
100
AcDbLayerTableRecord
  2
SLD-0
 70
     0
 62
   179
  6
Continuous
370
    -3
390
F
  0
LAYER
  5
7A
330
2
100
AcDbSymbolTableRecord
100
AcDbLayerTableRecord
  2
KOTY
 70
     0
 62
     7
  6
Continuous
370
    -3
390
F
  0
LAYER
  5
7B
330
2
100
AcDbSymbolTableRecord
100
AcDbLayerTableRecord
  2
SILNA
 70
     0
 62
   179
  6
Continuous
370
    -3
390
F
  0
LAYER
  5
7C
330
2
100
AcDbSymbolTableRecord
100
AcDbLayerTableRecord
  2
0_18_1
 70
     0
 62
   179
  6
Continuous
370
    -3
390
F
  0
LAYER
  5
7D
330
2
100
AcDbSymbolTableRecord
100
AcDbLayerTableRecord
  2
0_35_1
 70
     0
 62
   179
  6
Continuous
370
    35
390
F
  0
LAYER
  5
7E
330
2
100
AcDbSymbolTableRecord
100
AcDbLayerTableRecord
  2
0_5_1
 70
     0
 62
   179
  6
Continuous
370
    50
390
F
  0
ENDTAB
  0
TABLE
  2
STYLE
  5
3
330
0
100
AcDbSymbolTable
 70
     1
  0
STYLE
  5
11
330
3
100
AcDbSymbolTableRecord
100
AcDbTextStyleTableRecord
  2
Standard
 70
     0
 40
0.0
 41
1.0
 50
0.0
 71
     0
 42
2.0
  3
txt
  4

  0
ENDTAB
  0
TABLE
  2
VIEW
  5
6
330
0
100
AcDbSymbolTable
 70
     0
  0
ENDTAB
  0
TABLE
  2
UCS
  5
7
330
0
100
AcDbSymbolTable
 70
     0
  0
ENDTAB
  0
TABLE
  2
APPID
  5
9
330
0
100
AcDbSymbolTable
 70
     1
  0
APPID
  5
12
330
9
100
AcDbSymbolTableRecord
100
AcDbRegAppTableRecord
  2
ACAD
 70
     0
  0
ENDTAB
  0
TABLE
  2
DIMSTYLE
  5
A
330
0
100
AcDbSymbolTable
 70
     1
100
AcDbDimStyleTable
  0
DIMSTYLE
105
27
330
A
100
AcDbSymbolTableRecord
100
AcDbDimStyleTableRecord
  2
ISO-25
 70
     0
 41
2.5
 42
0.625
 43
3.75
 44
1.25
 73
     0
 74
     0
 77
     1
 78
     8
140
2.5
141
2.5
143
0.0393700787
147
0.625
171
     3
172
     1
178
     0
271
     2
272
     2
274
     3
278
    44
283
     0
284
     8
340
11
  0
ENDTAB
  0
TABLE
  2
BLOCK_RECORD
  5
1
330
0
100
AcDbSymbolTable
 70
     1
  0
BLOCK_RECORD
  5
1F
330
1
100
AcDbSymbolTableRecord
100
AcDbBlockTableRecord
  2
*Model_Space
340
22
  0
BLOCK_RECORD
  5
1B
330
1
100
AcDbSymbolTableRecord
100
AcDbBlockTableRecord
  2
*Paper_Space
340
1E
  0
BLOCK_RECORD
  5
23
330
1
100
AcDbSymbolTableRecord
100
AcDbBlockTableRecord
  2
*Paper_Space0
340
26
  0
ENDTAB
  0
ENDSEC
  0
SECTION
  2
BLOCKS
  0
BLOCK
  5
20
330
1F
100
AcDbEntity
  8
0
100
AcDbBlockBegin
  2
*Model_Space
 70
     0
 10
0.0
 20
0.0
 30
0.0
  3
*Model_Space
  1

  0
ENDBLK
  5
21
330
1F
100
AcDbEntity
  8
0
100
AcDbBlockEnd
  0
BLOCK
  5
1C
330
1B
100
AcDbEntity
 67
     1
  8
0
100
AcDbBlockBegin
  2
*Paper_Space
 70
     0
 10
0.0
 20
0.0
 30
0.0
  3
*Paper_Space
  1

  0
ENDBLK
  5
1D
330
1B
100
AcDbEntity
 67
     1
  8
0
100
AcDbBlockEnd
  0
BLOCK
  5
24
330
23
100
AcDbEntity
  8
0
100
AcDbBlockBegin
  2
*Paper_Space0
 70
     0
 10
0.0
 20
0.0
 30
0.0
  3
*Paper_Space0
  1

  0
ENDBLK
  5
25
330
23
100
AcDbEntity
  8
0
100
AcDbBlockEnd
  0
ENDSEC
  0
SECTION
  2
ENTITIES
  0
LINE
  5
7F
330
1F
100
AcDbEntity
  8
0
  6
Continuous
 62
     7
370
    25
100
AcDbLine
 10
1268.3055199164
 20
8231.9800383382
 30
0.0
 11
1268.3055199164
 21
8120.9800383382
 31
0.0
  0
LINE
  5
80
330
1F
100
AcDbEntity
  8
0
  6
Continuous
 62
     7
370
    25
100
AcDbLine
 10
1364.3055199164
 20
8120.9800383382
 30
0.0
 11
1364.3055199164
 21
8231.9800383382
 31
0.0
  0
ARC
  5
81
330
1F
100
AcDbEntity
  8
0
  6
Continuous
 62
     7
370
    25
100
AcDbCircle
 10
1316.3055199164
 20
8120.9800383382
 30
0.0
 40
48.0
100
AcDbArc
 50
299.0634263346
 51
0.0
  0
ARC
  5
82
330
1F
100
AcDbEntity
  8
0
  6
Continuous
 62
     7
370
    25
100
AcDbCircle
 10
1316.3055199164
 20
8120.9800383382
 30
0.0
 40
48.0
100
AcDbArc
 50
180.0
 51
240.9099404566
  0
LINE
  5
83
330
1F
100
AcDbEntity
  8
0
  6
Continuous
 62
     7
370
    25
100
AcDbLine
 10
1251.3055199164
 20
8069.9800383382
 30
0.0
 11
1251.3055199164
 21
8040.7949799922
 31
0.0
  0
LINE
  5
84
330
1F
100
AcDbEntity
  8
0
  6
Continuous
 62
     7
370
    25
100
AcDbLine
 10
1381.3055199164
 20
8040.7949799922
 30
0.0
 11
1381.3055199164
 21
8069.9800383382
 31
0.0
  0
ARC
  5
85
330
1F
100
AcDbEntity
  8
0
  6
Continuous
 62
     7
370
    25
100
AcDbCircle
 10
1316.3055199164
 20
8175.9800383382
 30
0.0
 40
150.0000000000012
100
AcDbArc
 50
244.3207113805
 51
295.6792886195
  0
LINE
  5
86
330
1F
100
AcDbEntity
  8
0
  6
Continuous
 62
     7
370
    25
100
AcDbLine
 10
1371.3055199164
 20
8069.9800383382
 30
0.0
 11
1371.3055199164
 21
8231.9800383382
 31
0.0
  0
LINE
  5
87
330
1F
100
AcDbEntity
  8
0
  6
Continuous
 62
     7
370
    25
100
AcDbLine
 10
1261.3055199164
 20
8231.9800383382
 30
0.0
 11
1261.3055199164
 21
8069.9800383382
 31
0.0
  0
LINE
  5
88
330
1F
100
AcDbEntity
  8
0
  6
Continuous
 62
     7
370
    25
100
AcDbLine
 10
613.3055199164
 20
7971.9800383382
 30
0.0
 11
613.3055199164
 21
7931.9800383382
 31
0.0
  0
LINE
  5
89
330
1F
100
AcDbEntity
  8
0
  6
Continuous
 62
     7
370
    25
100
AcDbLine
 10
673.3055199164
 20
7931.9800383382
 30
0.0
 11
673.3055199164
 21
7971.9800383382
 31
0.0
  0
LINE
  5
8A
330
1F
100
AcDbEntity
  8
0
  6
Continuous
 62
     7
370
    25
100
AcDbLine
 10
1533.3055199164
 20
7971.9800383382
 30
0.0
 11
1533.3055199164
 21
7931.9800383382
 31
0.0
  0
LINE
  5
8B
330
1F
100
AcDbEntity
  8
0
  6
Continuous
 62
     7
370
    25
100
AcDbLine
 10
1593.3055199164
 20
7931.9800383382
 30
0.0
 11
1593.3055199164
 21
7971.9800383382
 31
0.0
  0
SPLINE
  5
8C
330
1F
100
AcDbEntity
  8
0
  6
Continuous
 62
     7
370
    25
100
AcDbSpline
210
0.0
220
0.0
230
1.0
 70
     8
 71
     3
 72
    15
 73
    11
 74
     0
 42
0.00000001
 43
0.00000001
 40
0.0
 40
0.0
 40
0.0
 40
0.0
 40
0.0388878050897547
 40
0.1655060107451531
 40
0.2953459186967823
 40
0.4246482245834379
 40
0.5578610206920503
 40
0.7008879735743612
 40
0.8491267389638221
 40
1.0
 40
1.0
 40
1.0
 40
1.0
 10
1293.021761237123
 20
8079.119022003376
 30
0.0
 10
1293.525258427226
 20
8078.805510699282
 30
0.0
 10
1295.668136153624
 20
8077.471210520999
 30
0.0
 10
1300.076804029253
 20
8075.794608561564
 30
0.0
 10
1306.100303888164
 20
8074.131805776348
 30
0.0
 10
1312.565862396301
 20
8073.276049364114
 30
0.0
 10
1319.358203958019
 20
8073.210174069293
 30
0.0
 10
1326.358674330412
 20
8074.089736647762
 30
0.0
 10
1333.346020453995
 20
8075.921311877342
 30
0.0
 10
1337.510214317961
 20
8078.00020790706
 30
0.0
 10
1339.610649781392
 20
8079.048811091316
 30
0.0
  0
LINE
  5
8D
330
1F
100
AcDbEntity
  8
0
  6
Continuous
 62
     7
370
    25
100
AcDbLine
 10
1251.3055199164
 20
8040.7949799922
 30
0.0
 11
1381.3055199164
 21
8040.7949799922
 31
0.0
  0
LINE
  5
8E
330
1F
100
AcDbEntity
  8
0
  6
Continuous
 62
     7
370
    25
100
AcDbLine
 10
1251.3055199164
 20
8069.9800383382
 30
0.0
 11
1381.3055199164
 21
8069.9800383382
 31
0.0
  0
ARC
  5
8F
330
1F
100
AcDbEntity
  8
0
  6
Continuous
 62
     7
370
    25
100
AcDbCircle
 10
607.3055199164
 20
8927.9800383382
 30
0.0
 40
4.0
100
AcDbArc
 50
90.0
 51
180.0
  0
LINE
  5
90
330
1F
100
AcDbEntity
  8
0
  6
Continuous
 62
     7
370
    25
100
AcDbLine
 10
607.3055199164
 20
8927.9800383382
 30
0.0
 11
607.3055199164
 21
8931.9800383382
 31
0.0
  0
LINE
  5
91
330
1F
100
AcDbEntity
  8
0
  6
Continuous
 62
     7
370
    25
100
AcDbLine
 10
603.3055199164
 20
8927.9800383382
 30
0.0
 11
607.3055199164
 21
8927.9800383382
 31
0.0
  0
ARC
  5
92
330
1F
100
AcDbEntity
  8
0
  6
Continuous
 62
     7
370
    25
100
AcDbCircle
 10
607.3055199164
 20
8855.9800383382
 30
0.0
 40
4.0
100
AcDbArc
 50
180.0
 51
270.0
  0
LINE
  5
93
330
1F
100
AcDbEntity
  8
0
  6
Continuous
 62
     7
370
    25
100
AcDbLine
 10
607.3055199164
 20
8855.9800383382
 30
0.0
 11
603.3055199164
 21
8855.9800383382
 31
0.0
  0
LINE
  5
94
330
1F
100
AcDbEntity
  8
0
  6
Continuous
 62
     7
370
    25
100
AcDbLine
 10
607.3055199164
 20
8851.9800383382
 30
0.0
 11
607.3055199164
 21
8855.9800383382
 31
0.0
  0
LINE
  5
95
330
1F
100
AcDbEntity
  8
0
  6
Continuous
 62
     7
370
    25
100
AcDbLine
 10
1599.3055199164
 20
8927.9800383382
 30
0.0
 11
607.3055199164
 21
8927.9800383382
 31
0.0
  0
LINE
  5
96
330
1F
100
AcDbEntity
  8
0
  6
Continuous
 62
     7
370
    25
100
AcDbLine
 10
607.3055199164
 20
8931.9800383382
 30
0.0
 11
1599.3055199164
 21
8931.9800383382
 31
0.0
  0
LINE
  5
97
330
1F
100
AcDbEntity
  8
0
  6
Continuous
 62
     7
370
    25
100
AcDbLine
 10
1599.3055199164
 20
8927.9800383382
 30
0.0
 11
1599.3055199164
 21
8931.9800383382
 31
0.0
  0
LINE
  5
98
330
1F
100
AcDbEntity
  8
0
  6
Continuous
 62
     7
370
    25
100
AcDbLine
 10
603.3055199164
 20
8855.9800383382
 30
0.0
 11
603.3055199164
 21
8927.9800383382
 31
0.0
  0
LINE
  5
99
330
1F
100
AcDbEntity
  8
0
  6
Continuous
 62
     7
370
    25
100
AcDbLine
 10
607.3055199164
 20
8927.9800383382
 30
0.0
 11
607.3055199164
 21
8855.9800383382
 31
0.0
  0
LINE
  5
9A
330
1F
100
AcDbEntity
  8
0
  6
Continuous
 62
     7
370
    25
100
AcDbLine
 10
1599.3055199164
 20
8855.9800383382
 30
0.0
 11
1599.3055199164
 21
8927.9800383382
 31
0.0
  0
LINE
  5
9B
330
1F
100
AcDbEntity
  8
0
  6
Continuous
 62
     7
370
    25
100
AcDbLine
 10
607.3055199164
 20
8855.9800383382
 30
0.0
 11
1599.3055199164
 21
8855.9800383382
 31
0.0
  0
LINE
  5
9C
330
1F
100
AcDbEntity
  8
0
  6
Continuous
 62
     7
370
    25
100
AcDbLine
 10
1599.3055199164
 20
8851.9800383382
 30
0.0
 11
607.3055199164
 21
8851.9800383382
 31
0.0
  0
LINE
  5
9D
330
1F
100
AcDbEntity
  8
0
  6
Continuous
 62
     7
370
    25
100
AcDbLine
 10
1599.3055199164
 20
8851.9800383382
 30
0.0
 11
1599.3055199164
 21
8855.9800383382
 31
0.0
  0
ARC
  5
9E
330
1F
100
AcDbEntity
  8
0
  6
Continuous
 62
     7
370
    25
100
AcDbCircle
 10
1599.3055199164
 20
8927.9800383382
 30
0.0
 40
4.000000000001819
100
AcDbArc
 50
0.0
 51
90.0
  0
LINE
  5
9F
330
1F
100
AcDbEntity
  8
0
  6
Continuous
 62
     7
370
    25
100
AcDbLine
 10
1599.3055199164
 20
8927.9800383382
 30
0.0
 11
1603.3055199164
 21
8927.9800383382
 31
0.0
  0
LINE
  5
A0
330
1F
100
AcDbEntity
  8
0
  6
Continuous
 62
     7
370
    25
100
AcDbLine
 10
1603.3055199164
 20
8855.9800383382
 30
0.0
 11
1599.3055199164
 21
8855.9800383382
 31
0.0
  0
ARC
  5
A1
330
1F
100
AcDbEntity
  8
0
  6
Continuous
 62
     7
370
    25
100
AcDbCircle
 10
1599.3055199164
 20
8855.9800383382
 30
0.0
 40
4.0
100
AcDbArc
 50
270.0
 51
0.0
  0
LINE
  5
A2
330
1F
100
AcDbEntity
  8
0
  6
Continuous
 62
     7
370
    25
100
AcDbLine
 10
1603.3055199164
 20
8927.9800383382
 30
0.0
 11
1603.3055199164
 21
8855.9800383382
 31
0.0
  0
LINE
  5
A3
330
1F
100
AcDbEntity
  8
0
  6
Continuous
 62
     7
370
    25
100
AcDbLine
 10
1529.3055199164
 20
7981.9800383382
 30
0.0
 11
1529.3055199164
 21
7971.9800383382
 31
0.0
  0
LINE
  5
A4
330
1F
100
AcDbEntity
  8
0
  6
Continuous
 62
     7
370
    25
100
AcDbLine
 10
1597.3055199164
 20
7981.9800383382
 30
0.0
 11
1529.3055199164
 21
7981.9800383382
 31
0.0
  0
LINE
  5
A5
330
1F
100
AcDbEntity
  8
0
  6
Continuous
 62
     7
370
    25
100
AcDbLine
 10
1597.3055199164
 20
7981.9800383382
 30
0.0
 11
1597.3055199164
 21
7971.9800383382
 31
0.0
  0
LINE
  5
A6
330
1F
100
AcDbEntity
  8
0
  6
Continuous
 62
     7
370
    25
100
AcDbLine
 10
1597.3055199164
 20
7971.9800383382
 30
0.0
 11
1529.3055199164
 21
7971.9800383382
 31
0.0
  0
LINE
  5
A7
330
1F
100
AcDbEntity
  8
0
  6
Continuous
 62
     7
370
    25
100
AcDbLine
 10
1604.3055199164
 20
7981.9800383382
 30
0.0
 11
1597.3055199164
 21
7981.9800383382
 31
0.0
  0
LINE
  5
A8
330
1F
100
AcDbEntity
  8
0
  6
Continuous
 62
     7
370
    25
100
AcDbLine
 10
1604.3055199164
 20
7981.9800383382
 30
0.0
 11
1604.3055199164
 21
7971.9800383382
 31
0.0
  0
LINE
  5
A9
330
1F
100
AcDbEntity
  8
0
  6
Continuous
 62
     7
370
    25
100
AcDbLine
 10
1604.3055199164
 20
7971.9800383382
 30
0.0
 11
1597.3055199164
 21
7971.9800383382
 31
0.0
  0
LINE
  5
AA
330
1F
100
AcDbEntity
  8
0
  6
Continuous
 62
     7
370
    25
100
AcDbLine
 10
602.3055199164
 20
7981.9800383382
 30
0.0
 11
602.3055199164
 21
7971.9800383382
 31
0.0
  0
LINE
  5
AB
330
1F
100
AcDbEntity
  8
0
  6
Continuous
 62
     7
370
    25
100
AcDbLine
 10
609.3055199164
 20
7981.9800383382
 30
0.0
 11
602.3055199164
 21
7981.9800383382
 31
0.0
  0
LINE
  5
AC
330
1F
100
AcDbEntity
  8
0
  6
Continuous
 62
     7
370
    25
100
AcDbLine
 10
609.3055199164
 20
7981.9800383382
 30
0.0
 11
609.3055199164
 21
7971.9800383382
 31
0.0
  0
LINE
  5
AD
330
1F
100
AcDbEntity
  8
0
  6
Continuous
 62
     7
370
    25
100
AcDbLine
 10
609.3055199164
 20
7971.9800383382
 30
0.0
 11
602.3055199164
 21
7971.9800383382
 31
0.0
  0
LINE
  5
AE
330
1F
100
AcDbEntity
  8
0
  6
Continuous
 62
     7
370
    25
100
AcDbLine
 10
677.3055199164
 20
7981.9800383382
 30
0.0
 11
677.3055199164
 21
7971.9800383382
 31
0.0
  0
LINE
  5
AF
330
1F
100
AcDbEntity
  8
0
  6
Continuous
 62
     7
370
    25
100
AcDbLine
 10
684.3055199164
 20
7981.9800383382
 30
0.0
 11
677.3055199164
 21
7981.9800383382
 31
0.0
  0
LINE
  5
B0
330
1F
100
AcDbEntity
  8
0
  6
Continuous
 62
     7
370
    25
100
AcDbLine
 10
684.3055199164
 20
7981.9800383382
 30
0.0
 11
684.3055199164
 21
7971.9800383382
 31
0.0
  0
LINE
  5
B1
330
1F
100
AcDbEntity
  8
0
  6
Continuous
 62
     7
370
    25
100
AcDbLine
 10
684.3055199164
 20
7971.9800383382
 30
0.0
 11
677.3055199164
 21
7971.9800383382
 31
0.0
  0
LINE
  5
B2
330
1F
100
AcDbEntity
  8
0
  6
Continuous
 62
     7
370
    25
100
AcDbLine
 10
1522.3055199164
 20
7981.9800383382
 30
0.0
 11
1522.3055199164
 21
7971.9800383382
 31
0.0
  0
LINE
  5
B3
330
1F
100
AcDbEntity
  8
0
  6
Continuous
 62
     7
370
    25
100
AcDbLine
 10
1529.3055199164
 20
7971.9800383382
 30
0.0
 11
1522.3055199164
 21
7971.9800383382
 31
0.0
  0
LINE
  5
B4
330
1F
100
AcDbEntity
  8
0
  6
Continuous
 62
     7
370
    25
100
AcDbLine
 10
1529.3055199164
 20
7981.9800383382
 30
0.0
 11
1522.3055199164
 21
7981.9800383382
 31
0.0
  0
LINE
  5
B5
330
1F
100
AcDbEntity
  8
0
  6
Continuous
 62
     7
370
    25
100
AcDbLine
 10
677.3055199164
 20
7981.9800383382
 30
0.0
 11
609.3055199164
 21
7981.9800383382
 31
0.0
  0
LINE
  5
B6
330
1F
100
AcDbEntity
  8
0
  6
Continuous
 62
     7
370
    25
100
AcDbLine
 10
677.3055199164
 20
7971.9800383382
 30
0.0
 11
609.3055199164
 21
7971.9800383382
 31
0.0
  0
LINE
  5
B7
330
1F
100
AcDbEntity
  8
0
  6
Continuous
 62
     7
370
    25
100
AcDbLine
 10
607.3055199164
 20
8851.9800383382
 30
0.0
 11
603.3055199164
 21
8851.9800383382
 31
0.0
  0
LINE
  5
B8
330
1F
100
AcDbEntity
  8
0
  6
Continuous
 62
     7
370
    25
100
AcDbLine
 10
609.3055199164
 20
8851.9800383382
 30
0.0
 11
609.3055199164
 21
7981.9800383382
 31
0.0
  0
LINE
  5
B9
330
1F
100
AcDbEntity
  8
0
  6
Continuous
 62
     7
370
    25
100
AcDbLine
 10
603.3055199164
 20
8851.9800383382
 30
0.0
 11
603.3055199164
 21
7981.9800383382
 31
0.0
  0
LINE
  5
BA
330
1F
100
AcDbEntity
  8
0
  6
Continuous
 62
     7
370
    25
100
AcDbLine
 10
677.3055199164
 20
8851.9800383382
 30
0.0
 11
677.3055199164
 21
7981.9800383382
 31
0.0
  0
LINE
  5
BB
330
1F
100
AcDbEntity
  8
0
  6
Continuous
 62
     7
370
    25
100
AcDbLine
 10
682.9623741659
 20
8851.9800383382
 30
0.0
 11
682.9623741659
 21
8235.9800383382
 31
0.0
  0
SPLINE
  5
BC
330
1F
100
AcDbEntity
  8
0
  6
Continuous
 62
     7
370
    25
100
AcDbSpline
210
0.0
220
0.0
230
1.0
 70
     8
 71
     3
 72
    14
 73
    10
 74
     0
 42
0.00000001
 43
0.00000001
 40
0.0
 40
0.0
 40
0.0
 40
0.0
 40
0.2500000000000001
 40
0.2500000000000001
 40
0.5000000000000001
 40
0.5000000000000001
 40
0.75
 40
0.75
 40
1.0
 40
1.0
 40
1.0
 40
1.0
 10
683.3055199164286
 20
8232.515936723039
 30
0.0
 10
683.3055199164285
 20
8232.690975387468
 30
0.0
 10
683.2820914328148
 20
8232.907769813179
 30
0.0
 10
683.2133170186625
 20
8233.400463966282
 30
0.0
 10
683.1675104558583
 20
8233.681441783081
 30
0.0
 10
683.0804079832787
 20
8234.281203114575
 30
0.0
 10
683.0381962967901
 20
8234.608319069357
 30
0.0
 10
682.9793096675725
 20
8235.280689840041
 30
0.0
 10
682.962374165921
 20
8235.626971945883
 30
0.0
 10
682.9623741659211
 20
8235.980038338177
 30
0.0
  0
LINE
  5
BD
330
1F
100
AcDbEntity
  8
0
  6
Continuous
 62
     7
370
    25
100
AcDbLine
 10
683.3055199164
 20
8232.515936723
 30
0.0
 11
683.3055199164
 21
7981.9800383382
 31
0.0
  0
SPLINE
  5
BE
330
1F
100
AcDbEntity
  8
0
  6
Continuous
 62
     7
370
    25
100
AcDbSpline
210
0.0
220
0.0
230
1.0
 70
     8
 71
     3
 72
    14
 73
    10
 74
     0
 42
0.00000001
 43
0.00000001
 40
0.0
 40
0.0
 40
0.0
 40
0.0
 40
0.25
 40
0.25
 40
0.5
 40
0.5
 40
0.75
 40
0.75
 40
1.0
 40
1.0
 40
1.0
 40
1.0
 10
1523.648665666936
 20
8235.980038338177
 30
0.0
 10
1523.648665666936
 20
8235.62608949045
 30
0.0
 10
1523.631761600322
 20
8235.280737877336
 30
0.0
 10
1523.572627366383
 20
8234.606162694954
 30
0.0
 10
1523.530478082739
 20
8234.280044329862
 30
0.0
 10
1523.443291492791
 20
8233.679904227369
 30
0.0
 10
1523.397431479115
 20
8233.39851897991
 30
0.0
 10
1523.328927956761
 20
8232.907480597762
 30
0.0
 10
1523.305519916429
 20
8232.691388664423
 30
0.0
 10
1523.305519916429
 20
8232.515936723039
 30
0.0
  0
LINE
  5
BF
330
1F
100
AcDbEntity
  8
0
  6
Continuous
 62
     7
370
    25
100
AcDbLine
 10
1523.6486656669
 20
8235.9800383382
 30
0.0
 11
1523.6486656669
 21
8851.9800383382
 31
0.0
  0
LINE
  5
C0
330
1F
100
AcDbEntity
  8
0
  6
Continuous
 62
     7
370
    25
100
AcDbLine
 10
1529.3055199164
 20
8851.9800383382
 30
0.0
 11
1529.3055199164
 21
7981.9800383382
 31
0.0
  0
LINE
  5
C1
330
1F
100
AcDbEntity
  8
0
  6
Continuous
 62
     7
370
    25
100
AcDbLine
 10
1523.3055199164
 20
8232.515936723
 30
0.0
 11
1523.3055199164
 21
7981.9800383382
 31
0.0
  0
LINE
  5
C2
330
1F
100
AcDbEntity
  8
0
  6
Continuous
 62
     7
370
    25
100
AcDbLine
 10
1603.3055199164
 20
8851.9800383382
 30
0.0
 11
1599.3055199164
 21
8851.9800383382
 31
0.0
  0
LINE
  5
C3
330
1F
100
AcDbEntity
  8
0
  6
Continuous
 62
     7
370
    25
100
AcDbLine
 10
1603.3055199164
 20
8851.9800383382
 30
0.0
 11
1603.3055199164
 21
7981.9800383382
 31
0.0
  0
LINE
  5
C4
330
1F
100
AcDbEntity
  8
0
  6
Continuous
 62
     7
370
    25
100
AcDbLine
 10
1597.3055199164
 20
8851.9800383382
 30
0.0
 11
1597.3055199164
 21
7981.9800383382
 31
0.0
  0
LINE
  5
C5
330
1F
100
AcDbEntity
  8
0
  6
Continuous
 62
     7
370
    25
100
AcDbLine
 10
682.9623741659
 20
8235.9800383382
 30
0.0
 11
1523.6486656669
 21
8235.9800383382
 31
0.0
  0
LINE
  5
C6
330
1F
100
AcDbEntity
  8
0
  6
Continuous
 62
     7
370
    25
100
AcDbLine
 10
1523.3055199164
 20
8231.9800383382
 30
0.0
 11
683.3055199164
 21
8231.9800383382
 31
0.0
  0
LINE
  5
C7
330
1F
100
AcDbEntity
  8
0
  6
Continuous
 62
     7
370
    25
100
AcDbLine
 10
613.3055199164
 20
7931.9800383382
 30
0.0
 11
673.3055199164
 21
7931.9800383382
 31
0.0
  0
LINE
  5
C8
330
1F
100
AcDbEntity
  8
0
  6
Continuous
 62
     7
370
    25
100
AcDbLine
 10
1533.3055199164
 20
7931.9800383382
 30
0.0
 11
1593.3055199164
 21
7931.9800383382
 31
0.0
  0
LINE
  5
C9
330
1F
100
AcDbEntity
  8
0
  6
Continuous
 62
     7
370
    25
100
AcDbLine
 10
823.3055199164
 20
8932.0362538267
 30
0.0
 11
1383.3055199164
 21
8932.0362538267
 31
0.0
  0
LINE
  5
CA
330
1F
100
AcDbEntity
  8
0
  6
Continuous
 62
     7
370
    25
100
AcDbLine
 10
607.3055199164
 20
8931.9800383382
 30
0.0
 11
607.3055199164
 21
8935.9800383382
 31
0.0
  0
LINE
  5
CB
330
1F
100
AcDbEntity
  8
0
  6
Continuous
 62
     7
370
    25
100
AcDbLine
 10
607.3055199164
 20
8935.9800383382
 30
0.0
 11
1599.3055199164
 21
8935.9800383382
 31
0.0
  0
LINE
  5
CC
330
1F
100
AcDbEntity
  8
0
  6
Continuous
 62
     7
370
    25
100
AcDbLine
 10
1599.3055199164
 20
8935.9800383382
 30
0.0
 11
1599.3055199164
 21
8931.9800383382
 31
0.0
  0
LINE
  5
CD
330
1F
100
AcDbEntity
  8
0
  6
Continuous
 62
     7
370
    25
100
AcDbLine
 10
607.3055199164
 20
9011.9800383382
 30
0.0
 11
1599.3055199164
 21
9011.9800383382
 31
0.0
  0
LINE
  5
CE
330
1F
100
AcDbEntity
  8
0
  6
Continuous
 62
     7
370
    25
100
AcDbLine
 10
607.3055199164
 20
9011.9800383382
 30
0.0
 11
607.3055199164
 21
8935.9800383382
 31
0.0
  0
LINE
  5
CF
330
1F
100
AcDbEntity
  8
0
  6
Continuous
 62
     7
370
    25
100
AcDbLine
 10
1599.3055199164
 20
9011.9800383382
 30
0.0
 11
1599.3055199164
 21
8935.9800383382
 31
0.0
  0
LINE
  5
D0
330
1F
100
AcDbEntity
  8
0
  6
Continuous
 62
     8
370
    25
100
AcDbLine
 10
1268.3055199164
 20
8120.9800383382
 30
0.0
 11
1364.3055199164
 21
8120.9800383382
 31
0.0
  0
SPLINE
  5
D1
330
1F
100
AcDbEntity
  8
0
  6
Continuous
 62
     8
370
    25
100
AcDbSpline
210
0.0
220
0.0
230
1.0
 70
     8
 71
     3
 72
    14
 73
    10
 74
     0
 42
0.00000001
 43
0.00000001
 40
0.0
 40
0.0
 40
0.0
 40
0.0
 40
0.0125635031848075
 40
0.1978874597976949
 40
0.3862730157105018
 40
0.5795347109101395
 40
0.7682784175541068
 40
0.9639285400575383
 40
1.0
 40
1.0
 40
1.0
 40
1.0
 10
1358.151455049471
 20
8098.176393573146
 30
0.0
 10
1358.107980522044
 20
8098.008112134572
 30
0.0
 10
1357.423214205529
 20
8095.357514930854
 30
0.0
 10
1355.294148341326
 20
8090.650174777174
 30
0.0
 10
1351.54977758335
 20
8084.218955637009
 30
0.0
 10
1346.63935125332
 20
8078.617434710781
 30
0.0
 10
1340.616998605319
 20
8073.905611053084
 30
0.0
 10
1335.495948219315
 20
8071.268083954068
 30
0.0
 10
1332.471199281466
 20
8070.153536818285
 30
0.0
 10
1332.000344952767
 20
8069.980038338176
 30
0.0
  0
SPLINE
  5
D2
330
1F
100
AcDbEntity
  8
0
  6
Continuous
 62
     8
370
    25
100
AcDbSpline
210
0.0
220
0.0
230
1.0
 70
     8
 71
     3
 72
    13
 73
     9
 74
     0
 42
0.00000001
 43
0.00000001
 40
0.0
 40
0.0
 40
0.0
 40
0.0
 40
0.1726549948542453
 40
0.3364199669639525
 40
0.5042844591473311
 40
0.6901248903523448
 40
0.8804609677986821
 40
1.0
 40
1.0
 40
1.0
 40
1.0
 10
1300.610694880091
 20
8069.980038338178
 30
0.0
 10
1298.435838504638
 20
8070.871627570716
 30
0.0
 10
1294.198109323394
 20
8072.608898018114
 30
0.0
 10
1288.711796842244
 20
8076.339902408582
 30
0.0
 10
1283.819381166286
 20
8080.869138880394
 30
0.0
 10
1279.633092722799
 20
8086.444911305693
 30
0.0
 10
1276.531699659337
 20
8092.075293872288
 30
0.0
 10
1275.268145193828
 20
8096.03681289869
 30
0.0
 10
1274.78070985863
 20
8097.565029059716
 30
0.0
  0
LINE
  5
D3
330
1F
100
AcDbEntity
  8
0
  6
Continuous
 62
     8
370
    25
100
AcDbLine
 10
823.3055199164
 20
8932.0362538267
 30
0.0
 11
823.3055199164
 21
8931.9800383382
 31
0.0
  0
LINE
  5
D4
330
1F
100
AcDbEntity
  8
0
  6
Continuous
 62
     8
370
    25
100
AcDbLine
 10
1383.3055199164
 20
8931.9800383382
 30
0.0
 11
1383.3055199164
 21
8932.0362538267
 31
0.0
  0
LINE
  5
D5
330
1F
100
AcDbEntity
  8
0
  6
Continuous
 62
     7
370
    25
100
AcDbLine
 10
2183.8562369936
 20
8259.9800383382
 30
0.0
 11
2463.9961474672
 21
8259.9800383382
 31
0.0
  0
LINE
  5
D6
330
1F
100
AcDbEntity
  8
0
  6
Continuous
 62
     7
370
    25
100
AcDbLine
 10
2463.9961474672
 20
8351.9800383382
 30
0.0
 11
2183.8562369936
 21
8351.9800383382
 31
0.0
  0
LINE
  5
D7
330
1F
100
AcDbEntity
  8
0
  6
Continuous
 62
     7
370
    25
100
AcDbLine
 10
2590.9961474672
 20
8069.9800383382
 30
0.0
 11
2590.9961474672
 21
8040.7949799922
 31
0.0
  0
LINE
  5
D8
330
1F
100
AcDbEntity
  8
0
  6
Continuous
 62
     7
370
    25
100
AcDbLine
 10
2720.9961474672
 20
8040.7949799922
 30
0.0
 11
2720.9961474672
 21
8069.9800383382
 31
0.0
  0
ARC
  5
D9
330
1F
100
AcDbEntity
  8
0
  6
Continuous
 62
     7
370
    25
100
AcDbCircle
 10
2655.9961474672
 20
8175.9800383382
 30
0.0
 40
150.0000000000014
100
AcDbArc
 50
244.3207113805
 51
295.6792886195
  0
LINE
  5
DA
330
1F
100
AcDbEntity
  8
0
  6
Continuous
 62
     7
370
    25
100
AcDbLine
 10
2600.9961474672
 20
8231.9800383382
 30
0.0
 11
2600.9961474672
 21
8069.9800383382
 31
0.0
  0
SPLINE
  5
DB
330
1F
100
AcDbEntity
  8
0
  6
Continuous
 62
     7
370
    25
100
AcDbSpline
210
0.0
220
0.0
230
1.0
 70
     8
 71
     3
 72
    12
 73
     8
 74
     0
 42
0.00000001
 43
0.00000001
 40
0.0
 40
0.0
 40
0.0
 40
0.0
 40
0.0689200325879715
 40
0.3804044491365006
 40
0.7018196514839251
 40
0.9695948565202057
 40
1.0
 40
1.0
 40
1.0
 40
1.0
 10
2711.644488751364
 20
8069.93218394576
 30
0.0
 10
2711.691729089684
 20
8070.059861213629
 30
0.0
 10
2711.952472362737
 20
8070.764576503611
 30
0.0
 10
2712.922307931004
 20
8071.829966561911
 30
0.0
 10
2714.402679729553
 20
8072.799695846817
 30
0.0
 10
2715.587699940199
 20
8073.229379010282
 30
0.0
 10
2716.175627018068
 20
8073.247846109918
 30
0.0
 10
2716.235577337554
 20
8073.249729181075
 30
0.0
  0
LINE
  5
DC
330
1F
100
AcDbEntity
  8
0
  6
Continuous
 62
     7
370
    25
100
AcDbLine
 10
2758.9961474672
 20
8120.9800383382
 30
0.0
 11
2758.9961474672
 21
8231.9800383382
 31
0.0
  0
ARC
  5
DD
330
1F
100
AcDbEntity
  8
0
  6
Continuous
 62
     7
370
    25
100
AcDbCircle
 10
2710.9961474672
 20
8120.9800383382
 30
0.0
 40
48.0
100
AcDbArc
 50
276.262473852
 51
0.0
  0
LINE
  5
DE
330
1F
100
AcDbEntity
  8
0
  6
Continuous
 62
     7
370
    25
100
AcDbLine
 10
2473.9961474672
 20
7971.9800383382
 30
0.0
 11
2473.9961474672
 21
7931.9800383382
 31
0.0
  0
LINE
  5
DF
330
1F
100
AcDbEntity
  8
0
  6
Continuous
 62
     7
370
    25
100
AcDbLine
 10
2533.9961474672
 20
7931.9800383382
 30
0.0
 11
2533.9961474672
 21
7971.9800383382
 31
0.0
  0
LINE
  5
E0
330
1F
100
AcDbEntity
  8
0
  6
Continuous
 62
     7
370
    25
100
AcDbLine
 10
3297.9961474672
 20
7971.9800383382
 30
0.0
 11
3297.9961474672
 21
7931.9800383382
 31
0.0
  0
LINE
  5
E1
330
1F
100
AcDbEntity
  8
0
  6
Continuous
 62
     7
370
    25
100
AcDbLine
 10
3357.9961474672
 20
7931.9800383382
 30
0.0
 11
3357.9961474672
 21
7971.9800383382
 31
0.0
  0
LINE
  5
E2
330
1F
100
AcDbEntity
  8
0
  6
Continuous
 62
     7
370
    25
100
AcDbLine
 10
2183.8562369936
 20
8351.9800383382
 30
0.0
 11
2183.8562369936
 21
8259.9800383382
 31
0.0
  0
LINE
  5
E3
330
1F
100
AcDbEntity
  8
0
  6
Continuous
 62
     7
370
    25
100
AcDbLine
 10
2590.9961474672
 20
8040.7949799922
 30
0.0
 11
2720.9961474672
 21
8040.7949799922
 31
0.0
  0
LINE
  5
E4
330
1F
100
AcDbEntity
  8
0
  6
Continuous
 62
     7
370
    25
100
AcDbLine
 10
2590.9961474672
 20
8069.9800383382
 30
0.0
 11
2720.9961474672
 21
8069.9800383382
 31
0.0
  0
SPLINE
  5
E5
330
1F
100
AcDbEntity
  8
0
  6
Continuous
 62
     7
370
    25
100
AcDbSpline
210
0.0
220
0.0
230
1.0
 70
     8
 71
     3
 72
    15
 73
    11
 74
     0
 42
0.00000001
 43
0.00000001
 40
0.0
 40
0.0
 40
0.0
 40
0.0
 40
0.1099140207874716
 40
0.2154363777479101
 40
0.3210244412829581
 40
0.4407375287553991
 40
0.5604941913131521
 40
0.6935937789540821
 40
0.8266591051056286
 40
1.0
 40
1.0
 40
1.0
 40
1.0
 10
2708.709262221297
 20
8069.980038338178
 30
0.0
 10
2707.972593870439
 20
8070.871395848045
 30
0.0
 10
2706.528691081938
 20
8072.618496280077
 30
0.0
 10
2703.666243253251
 20
8076.359375931983
 30
0.0
 10
2700.479979604052
 20
8080.910557407833
 30
0.0
 10
2697.060653424207
 20
8086.457776799128
 30
0.0
 10
2693.574401428132
 20
8093.181767303397
 30
0.0
 10
2690.550101835599
 20
8100.86244076909
 30
0.0
 10
2687.97947653188
 20
8110.231387754423
 30
0.0
 10
2687.602726220203
 20
8117.096365775721
 30
0.0
 10
2687.38959009015
 20
8120.980038338176
 30
0.0
  0
LINE
  5
E6
330
1F
100
AcDbEntity
  8
0
  6
Continuous
 62
     7
370
    25
100
AcDbLine
 10
2687.3895900901
 20
8120.9800383382
 30
0.0
 11
2693.0567535278
 21
8120.9800383382
 31
0.0
  0
LINE
  5
E7
330
1F
100
AcDbEntity
  8
0
  6
Continuous
 62
     7
370
    25
100
AcDbLine
 10
2469.9961474672
 20
7971.9800383382
 30
0.0
 11
2469.9961474672
 21
7981.9800383382
 31
0.0
  0
LINE
  5
E8
330
1F
100
AcDbEntity
  8
0
  6
Continuous
 62
     7
370
    25
100
AcDbLine
 10
2537.9961474672
 20
7971.9800383382
 30
0.0
 11
2537.9961474672
 21
7981.9800383382
 31
0.0
  0
LINE
  5
E9
330
1F
100
AcDbEntity
  8
0
  6
Continuous
 62
     7
370
    25
100
AcDbLine
 10
2537.9961474672
 20
7981.9800383382
 30
0.0
 11
2469.9961474672
 21
7981.9800383382
 31
0.0
  0
LINE
  5
EA
330
1F
100
AcDbEntity
  8
0
  6
Continuous
 62
     7
370
    25
100
AcDbLine
 10
2537.9961474672
 20
7971.9800383382
 30
0.0
 11
2469.9961474672
 21
7971.9800383382
 31
0.0
  0
LINE
  5
EB
330
1F
100
AcDbEntity
  8
0
  6
Continuous
 62
     7
370
    25
100
AcDbLine
 10
2462.9961474672
 20
7971.9800383382
 30
0.0
 11
2462.9961474672
 21
7981.9800383382
 31
0.0
  0
LINE
  5
EC
330
1F
100
AcDbEntity
  8
0
  6
Continuous
 62
     7
370
    25
100
AcDbLine
 10
2469.9961474672
 20
7981.9800383382
 30
0.0
 11
2462.9961474672
 21
7981.9800383382
 31
0.0
  0
LINE
  5
ED
330
1F
100
AcDbEntity
  8
0
  6
Continuous
 62
     7
370
    25
100
AcDbLine
 10
2469.9961474672
 20
7971.9800383382
 30
0.0
 11
2462.9961474672
 21
7971.9800383382
 31
0.0
  0
LINE
  5
EE
330
1F
100
AcDbEntity
  8
0
  6
Continuous
 62
     7
370
    25
100
AcDbLine
 10
2544.9961474672
 20
7971.9800383382
 30
0.0
 11
2544.9961474672
 21
7981.9800383382
 31
0.0
  0
LINE
  5
EF
330
1F
100
AcDbEntity
  8
0
  6
Continuous
 62
     7
370
    25
100
AcDbLine
 10
2544.9961474672
 20
7981.9800383382
 30
0.0
 11
2537.9961474672
 21
7981.9800383382
 31
0.0
  0
LINE
  5
F0
330
1F
100
AcDbEntity
  8
0
  6
Continuous
 62
     7
370
    25
100
AcDbLine
 10
2544.9961474672
 20
7971.9800383382
 30
0.0
 11
2537.9961474672
 21
7971.9800383382
 31
0.0
  0
LINE
  5
F1
330
1F
100
AcDbEntity
  8
0
  6
Continuous
 62
     7
370
    25
100
AcDbLine
 10
3293.9961474672
 20
7981.9800383382
 30
0.0
 11
3293.9961474672
 21
7971.9800383382
 31
0.0
  0
LINE
  5
F2
330
1F
100
AcDbEntity
  8
0
  6
Continuous
 62
     7
370
    25
100
AcDbLine
 10
3361.9961474672
 20
7981.9800383382
 30
0.0
 11
3293.9961474672
 21
7981.9800383382
 31
0.0
  0
LINE
  5
F3
330
1F
100
AcDbEntity
  8
0
  6
Continuous
 62
     7
370
    25
100
AcDbLine
 10
3361.9961474672
 20
7981.9800383382
 30
0.0
 11
3361.9961474672
 21
7971.9800383382
 31
0.0
  0
LINE
  5
F4
330
1F
100
AcDbEntity
  8
0
  6
Continuous
 62
     7
370
    25
100
AcDbLine
 10
3361.9961474672
 20
7971.9800383382
 30
0.0
 11
3293.9961474672
 21
7971.9800383382
 31
0.0
  0
LINE
  5
F5
330
1F
100
AcDbEntity
  8
0
  6
Continuous
 62
     7
370
    25
100
AcDbLine
 10
3286.9961474672
 20
7981.9800383382
 30
0.0
 11
3286.9961474672
 21
7971.9800383382
 31
0.0
  0
LINE
  5
F6
330
1F
100
AcDbEntity
  8
0
  6
Continuous
 62
     7
370
    25
100
AcDbLine
 10
3293.9961474672
 20
7971.9800383382
 30
0.0
 11
3286.9961474672
 21
7971.9800383382
 31
0.0
  0
LINE
  5
F7
330
1F
100
AcDbEntity
  8
0
  6
Continuous
 62
     7
370
    25
100
AcDbLine
 10
3293.9961474672
 20
7981.9800383382
 30
0.0
 11
3286.9961474672
 21
7981.9800383382
 31
0.0
  0
LINE
  5
F8
330
1F
100
AcDbEntity
  8
0
  6
Continuous
 62
     7
370
    25
100
AcDbLine
 10
3368.9961474672
 20
7981.9800383382
 30
0.0
 11
3368.9961474672
 21
7971.9800383382
 31
0.0
  0
LINE
  5
F9
330
1F
100
AcDbEntity
  8
0
  6
Continuous
 62
     7
370
    25
100
AcDbLine
 10
3368.9961474672
 20
7971.9800383382
 30
0.0
 11
3361.9961474672
 21
7971.9800383382
 31
0.0
  0
LINE
  5
FA
330
1F
100
AcDbEntity
  8
0
  6
Continuous
 62
     7
370
    25
100
AcDbLine
 10
3368.9961474672
 20
7981.9800383382
 30
0.0
 11
3361.9961474672
 21
7981.9800383382
 31
0.0
  0
LINE
  5
FB
330
1F
100
AcDbEntity
  8
0
  6
Continuous
 62
     7
370
    25
100
AcDbLine
 10
2469.9961474672
 20
7981.9800383382
 30
0.0
 11
2469.9961474672
 21
8851.9800383382
 31
0.0
  0
LINE
  5
FC
330
1F
100
AcDbEntity
  8
0
  6
Continuous
 62
     7
370
    25
100
AcDbLine
 10
2537.9961474672
 20
8851.9800383382
 30
0.0
 11
2469.9961474672
 21
8851.9800383382
 31
0.0
  0
LINE
  5
FD
330
1F
100
AcDbEntity
  8
0
  6
Continuous
 62
     7
370
    25
100
AcDbLine
 10
2537.9961474672
 20
7981.9800383382
 30
0.0
 11
2537.9961474672
 21
8851.9800383382
 31
0.0
  0
LINE
  5
FE
330
1F
100
AcDbEntity
  8
0
  6
Continuous
 62
     7
370
    25
100
AcDbLine
 10
2463.9961474672
 20
7981.9800383382
 30
0.0
 11
2463.9961474672
 21
8851.9800383382
 31
0.0
  0
LINE
  5
FF
330
1F
100
AcDbEntity
  8
0
  6
Continuous
 62
     7
370
    25
100
AcDbLine
 10
2469.9961474672
 20
8851.9800383382
 30
0.0
 11
2464.3392932177
 21
8851.9800383382
 31
0.0
  0
LINE
  5
100
330
1F
100
AcDbEntity
  8
0
  6
Continuous
 62
     7
370
    25
100
AcDbLine
 10
3379.9961474672
 20
8851.9800383382
 30
0.0
 11
3367.6530017167
 21
8851.9800383382
 31
0.0
  0
LINE
  5
101
330
1F
100
AcDbEntity
  8
0
  6
Continuous
 62
     7
370
    25
100
AcDbLine
 10
3288.3392932177
 20
8851.9800383382
 30
0.0
 11
2543.6530017167
 21
8851.9800383382
 31
0.0
  0
LINE
  5
102
330
1F
100
AcDbEntity
  8
0
  6
Continuous
 62
     7
370
    25
100
AcDbLine
 10
2464.3392932177
 20
8851.9800383382
 30
0.0
 11
2463.9961474672
 21
8851.9800383382
 31
0.0
  0
LINE
  5
103
330
1F
100
AcDbEntity
  8
0
  6
Continuous
 62
     7
370
    25
100
AcDbLine
 10
2463.9961474672
 20
8851.9800383382
 30
0.0
 11
2467.9961474672
 21
8855.9800383382
 31
0.0
  0
LINE
  5
104
330
1F
100
AcDbEntity
  8
0
  6
Continuous
 62
     7
370
    25
100
AcDbLine
 10
2467.9961474672
 20
8855.9800383382
 30
0.0
 11
3379.9961474672
 21
8855.9800383382
 31
0.0
  0
LINE
  5
105
330
1F
100
AcDbEntity
  8
0
  6
Continuous
 62
     7
370
    25
100
AcDbLine
 10
3379.9961474672
 20
8851.9800383382
 30
0.0
 11
3379.9961474672
 21
8855.9800383382
 31
0.0
  0
LINE
  5
106
330
1F
100
AcDbEntity
  8
0
  6
Continuous
 62
     7
370
    25
100
AcDbLine
 10
2467.9961474672
 20
8927.9800383382
 30
0.0
 11
2467.9961474672
 21
8855.9800383382
 31
0.0
  0
LINE
  5
107
330
1F
100
AcDbEntity
  8
0
  6
Continuous
 62
     7
370
    25
100
AcDbLine
 10
2463.9961474672
 20
8931.9800383382
 30
0.0
 11
2463.9961474672
 21
8851.9800383382
 31
0.0
  0
LINE
  5
108
330
1F
100
AcDbEntity
  8
0
  6
Continuous
 62
     7
370
    25
100
AcDbLine
 10
2467.9961474672
 20
8927.9800383382
 30
0.0
 11
2463.9961474672
 21
8931.9800383382
 31
0.0
  0
LINE
  5
109
330
1F
100
AcDbEntity
  8
0
  6
Continuous
 62
     7
370
    25
100
AcDbLine
 10
3379.9961474672
 20
8927.9800383382
 30
0.0
 11
2467.9961474672
 21
8927.9800383382
 31
0.0
  0
LINE
  5
10A
330
1F
100
AcDbEntity
  8
0
  6
Continuous
 62
     7
370
    25
100
AcDbLine
 10
2463.9961474672
 20
8931.9800383382
 30
0.0
 11
2471.9961474672
 21
8931.9800383382
 31
0.0
  0
LINE
  5
10B
330
1F
100
AcDbEntity
  8
0
  6
Continuous
 62
     7
370
    25
100
AcDbLine
 10
2471.9961474672
 20
8931.9800383382
 30
0.0
 11
3379.9961474672
 21
8931.9800383382
 31
0.0
  0
LINE
  5
10C
330
1F
100
AcDbEntity
  8
0
  6
Continuous
 62
     7
370
    25
100
AcDbLine
 10
3379.9961474672
 20
8927.9800383382
 30
0.0
 11
3379.9961474672
 21
8931.9800383382
 31
0.0
  0
LINE
  5
10D
330
1F
100
AcDbEntity
  8
0
  6
Continuous
 62
     7
370
    25
100
AcDbLine
 10
2543.9961474672
 20
7981.9800383382
 30
0.0
 11
2543.9961474672
 21
8232.515936723
 31
0.0
  0
LINE
  5
10E
330
1F
100
AcDbEntity
  8
0
  6
Continuous
 62
     7
370
    25
100
AcDbLine
 10
2543.6530017167
 20
8235.9800383382
 30
0.0
 11
2543.6530017167
 21
8851.9800383382
 31
0.0
  0
SPLINE
  5
10F
330
1F
100
AcDbEntity
  8
0
  6
Continuous
 62
     7
370
    25
100
AcDbSpline
210
0.0
220
0.0
230
1.0
 70
     8
 71
     3
 72
    14
 73
    10
 74
     0
 42
0.00000001
 43
0.00000001
 40
0.0
 40
0.0
 40
0.0
 40
0.0
 40
0.25
 40
0.25
 40
0.5
 40
0.5
 40
0.75
 40
0.75
 40
1.0
 40
1.0
 40
1.0
 40
1.0
 10
2543.653001716692
 20
8235.980038338177
 30
0.0
 10
2543.653001716692
 20
8235.626797948791
 30
0.0
 10
2543.669846994537
 20
8235.281443190745
 30
0.0
 10
2543.72907824043
 20
8234.605691995957
 30
0.0
 10
2543.771114467775
 20
8234.28057300941
 30
0.0
 10
2543.858397672104
 20
8233.679740733105
 30
0.0
 10
2543.904210449131
 20
8233.398665502742
 30
0.0
 10
2543.972686382973
 20
8232.907896722438
 30
0.0
 10
2543.996147467199
 20
8232.690843485163
 30
0.0
 10
2543.996147467199
 20
8232.515936723039
 30
0.0
  0
LINE
  5
110
330
1F
100
AcDbEntity
  8
0
  6
Continuous
 62
     7
370
    25
100
AcDbLine
 10
2543.6530017167
 20
8851.9800383382
 30
0.0
 11
2537.9961474672
 21
8851.9800383382
 31
0.0
  0
LINE
  5
111
330
1F
100
AcDbEntity
  8
0
  6
Continuous
 62
     7
370
    25
100
AcDbLine
 10
3379.9961474672
 20
8855.9800383382
 30
0.0
 11
3379.9961474672
 21
8927.9800383382
 31
0.0
  0
LINE
  5
112
330
1F
100
AcDbEntity
  8
0
  6
Continuous
 62
     7
370
    25
100
AcDbLine
 10
3361.9961474672
 20
8851.9800383382
 30
0.0
 11
3361.9961474672
 21
7981.9800383382
 31
0.0
  0
LINE
  5
113
330
1F
100
AcDbEntity
  8
0
  6
Continuous
 62
     7
370
    25
100
AcDbLine
 10
3293.9961474672
 20
8851.9800383382
 30
0.0
 11
3293.9961474672
 21
7981.9800383382
 31
0.0
  0
LINE
  5
114
330
1F
100
AcDbEntity
  8
0
  6
Continuous
 62
     7
370
    25
100
AcDbLine
 10
3361.9961474672
 20
8851.9800383382
 30
0.0
 11
3293.9961474672
 21
8851.9800383382
 31
0.0
  0
SPLINE
  5
115
330
1F
100
AcDbEntity
  8
0
  6
Continuous
 62
     7
370
    25
100
AcDbSpline
210
0.0
220
0.0
230
1.0
 70
     8
 71
     3
 72
    14
 73
    10
 74
     0
 42
0.00000001
 43
0.00000001
 40
0.0
 40
0.0
 40
0.0
 40
0.0
 40
0.25
 40
0.25
 40
0.5
 40
0.5
 40
0.75
 40
0.75
 40
1.0
 40
1.0
 40
1.0
 40
1.0
 10
3288.339293217706
 20
8235.980038338177
 30
0.0
 10
3288.339293217706
 20
8235.62608949045
 30
0.0
 10
3288.322389151092
 20
8235.280737877334
 30
0.0
 10
3288.263254917153
 20
8234.606162694954
 30
0.0
 10
3288.221105633509
 20
8234.28004432986
 30
0.0
 10
3288.133919043561
 20
8233.679904227369
 30
0.0
 10
3288.088059029885
 20
8233.39851897991
 30
0.0
 10
3288.019555507531
 20
8232.907480597762
 30
0.0
 10
3287.996147467199
 20
8232.691388664423
 30
0.0
 10
3287.996147467199
 20
8232.515936723039
 30
0.0
  0
LINE
  5
116
330
1F
100
AcDbEntity
  8
0
  6
Continuous
 62
     7
370
    25
100
AcDbLine
 10
3288.3392932177
 20
8235.9800383382
 30
0.0
 11
3288.3392932177
 21
8851.9800383382
 31
0.0
  0
LINE
  5
117
330
1F
100
AcDbEntity
  8
0
  6
Continuous
 62
     7
370
    25
100
AcDbLine
 10
3287.9961474672
 20
8232.515936723
 30
0.0
 11
3287.9961474672
 21
7981.9800383382
 31
0.0
  0
LINE
  5
118
330
1F
100
AcDbEntity
  8
0
  6
Continuous
 62
     7
370
    25
100
AcDbLine
 10
3293.9961474672
 20
8851.9800383382
 30
0.0
 11
3288.3392932177
 21
8851.9800383382
 31
0.0
  0
LINE
  5
119
330
1F
100
AcDbEntity
  8
0
  6
Continuous
 62
     7
370
    25
100
AcDbLine
 10
3367.9961474672
 20
8851.9800383382
 30
0.0
 11
3367.9961474672
 21
7981.9800383382
 31
0.0
  0
LINE
  5
11A
330
1F
100
AcDbEntity
  8
0
  6
Continuous
 62
     7
370
    25
100
AcDbLine
 10
3367.6530017167
 20
8851.9800383382
 30
0.0
 11
3361.9961474672
 21
8851.9800383382
 31
0.0
  0
LINE
  5
11B
330
1F
100
AcDbEntity
  8
0
  6
Continuous
 62
     7
370
    25
100
AcDbLine
 10
3383.9961474672
 20
8855.9800383382
 30
0.0
 11
3379.9961474672
 21
8855.9800383382
 31
0.0
  0
ARC
  5
11C
330
1F
100
AcDbEntity
  8
0
  6
Continuous
 62
     7
370
    25
100
AcDbCircle
 10
3379.9961474672
 20
8855.9800383382
 30
0.0
 40
4.0
100
AcDbArc
 50
270.0
 51
0.0
  0
ARC
  5
11D
330
1F
100
AcDbEntity
  8
0
  6
Continuous
 62
     7
370
    25
100
AcDbCircle
 10
3379.9961474672
 20
8927.9800383382
 30
0.0
 40
4.0
100
AcDbArc
 50
0.0
 51
90.0
  0
LINE
  5
11E
330
1F
100
AcDbEntity
  8
0
  6
Continuous
 62
     7
370
    25
100
AcDbLine
 10
3379.9961474672
 20
8927.9800383382
 30
0.0
 11
3383.9961474672
 21
8927.9800383382
 31
0.0
  0
LINE
  5
11F
330
1F
100
AcDbEntity
  8
0
  6
Continuous
 62
     7
370
    25
100
AcDbLine
 10
3383.9961474672
 20
8927.9800383382
 30
0.0
 11
3383.9961474672
 21
8855.9800383382
 31
0.0
  0
LINE
  5
120
330
1F
100
AcDbEntity
  8
0
  6
Continuous
 62
     7
370
    25
100
AcDbLine
 10
2463.9961474672
 20
9011.9800383382
 30
0.0
 11
2463.9961474672
 21
8931.9800383382
 31
0.0
  0
LINE
  5
121
330
1F
100
AcDbEntity
  8
0
  6
Continuous
 62
     7
370
    25
100
AcDbLine
 10
2463.9961474672
 20
9011.9800383382
 30
0.0
 11
2467.9961474672
 21
9011.9800383382
 31
0.0
  0
LINE
  5
122
330
1F
100
AcDbEntity
  8
0
  6
Continuous
 62
     7
370
    25
100
AcDbLine
 10
2467.9961474672
 20
9011.9800383382
 30
0.0
 11
2467.9961474672
 21
8935.9800383382
 31
0.0
  0
ARC
  5
123
330
1F
100
AcDbEntity
  8
0
  6
Continuous
 62
     7
370
    25
100
AcDbCircle
 10
2471.9961474672
 20
8935.9800383382
 30
0.0
 40
4.0
100
AcDbArc
 50
180.0
 51
270.0
  0
LINE
  5
124
330
1F
100
AcDbEntity
  8
0
  6
Continuous
 62
     7
370
    25
100
AcDbLine
 10
2543.6530017167
 20
8235.9800383382
 30
0.0
 11
3288.3392932177
 21
8235.9800383382
 31
0.0
  0
LINE
  5
125
330
1F
100
AcDbEntity
  8
0
  6
Continuous
 62
     7
370
    25
100
AcDbLine
 10
3287.9961474672
 20
8231.9800383382
 30
0.0
 11
2543.9961474672
 21
8231.9800383382
 31
0.0
  0
LINE
  5
126
330
1F
100
AcDbEntity
  8
0
  6
Continuous
 62
     7
370
    25
100
AcDbLine
 10
2503.9961474672
 20
7931.9800383382
 30
0.0
 11
2533.9961474672
 21
7931.9800383382
 31
0.0
  0
LINE
  5
127
330
1F
100
AcDbEntity
  8
0
  6
Continuous
 62
     7
370
    25
100
AcDbLine
 10
2473.9961474672
 20
7931.9800383382
 30
0.0
 11
2503.9961474672
 21
7931.9800383382
 31
0.0
  0
LINE
  5
128
330
1F
100
AcDbEntity
  8
0
  6
Continuous
 62
     7
370
    25
100
AcDbLine
 10
3327.9961474672
 20
7931.9800383382
 30
0.0
 11
3357.9961474672
 21
7931.9800383382
 31
0.0
  0
LINE
  5
129
330
1F
100
AcDbEntity
  8
0
  6
Continuous
 62
     7
370
    25
100
AcDbLine
 10
3297.9961474672
 20
7931.9800383382
 30
0.0
 11
3327.9961474672
 21
7931.9800383382
 31
0.0
  0
LINE
  5
12A
330
1F
100
AcDbEntity
  8
0
  6
Continuous
 62
     8
370
    25
100
AcDbLine
 10
2687.3895900901
 20
8120.9800383382
 30
0.0
 11
2687.3895900901
 21
8231.9800383382
 31
0.0
  0
SPLINE
  5
12B
330
1F
100
AcDbEntity
  8
0
  6
Continuous
 62
     8
370
    25
100
AcDbSpline
210
0.0
220
0.0
230
1.0
 70
     8
 71
     3
 72
    18
 73
    14
 74
     0
 42
0.00000001
 43
0.00000001
 40
0.0
 40
0.0
 40
0.0
 40
0.0
 40
0.132518766497825
 40
0.2358661293842439
 40
0.3392858991960241
 40
0.4349899014273631
 40
0.5306861181998114
 40
0.6173454228850622
 40
0.7039703524606348
 40
0.7860813057009653
 40
0.8681632372479217
 40
0.9522014746738312
 40
1.0
 40
1.0
 40
1.0
 40
1.0
 10
2693.056753527805
 20
8120.980038338176
 30
0.0
 10
2693.268936142873
 20
8117.521005984383
 30
0.0
 10
2693.646593537831
 20
8111.364379309794
 30
0.0
 10
2696.196716896846
 20
8103.034412318538
 30
0.0
 10
2699.192686203969
 20
8096.194594259729
 30
0.0
 10
2702.623962110927
 20
8090.240205755609
 30
0.0
 10
2705.996235733026
 20
8085.31666947113
 30
0.0
 10
2709.133831090253
 20
8081.278817780398
 30
0.0
 10
2711.810857894548
 20
8078.129169979933
 30
0.0
 10
2713.963828828933
 20
8075.751016362226
 30
0.0
 10
2715.481717903648
 20
8074.149753730603
 30
0.0
 10
2716.278393975971
 20
8073.327027175825
 30
0.0
 10
2716.242972592274
 20
8073.364781769415
 30
0.0
 10
2716.230130272193
 20
8073.378470014335
 30
0.0
  0
LINE
  5
12C
330
1F
100
AcDbEntity
  8
0
  6
Continuous
 62
     8
370
    25
100
AcDbLine
 10
2693.0567535278
 20
8120.9800383382
 30
0.0
 11
2758.9961474672
 21
8120.9800383382
 31
0.0
  0
LINE
  5
12D
330
1F
100
AcDbEntity
  8
0
  6
Continuous
 62
     8
370
    25
100
AcDbLine
 10
2693.0567535278
 20
8231.9800383382
 30
0.0
 11
2693.0567535278
 21
8120.9800383382
 31
0.0
  0
LINE
  5
12E
330
1F
100
AcDbEntity
  8
0
  6
Continuous
 62
     7
370
    25
100
AcDbLine
 10
1270.3055199164
 20
7396.9691445424
 30
0.0
 11
1270.3055199164
 21
7116.8292340688
 31
0.0
  0
LINE
  5
12F
330
1F
100
AcDbEntity
  8
0
  6
Continuous
 62
     7
370
    25
100
AcDbLine
 10
1362.3055199164
 20
7116.8292340688
 30
0.0
 11
1362.3055199164
 21
7396.9691445424
 31
0.0
  0
LINE
  5
130
330
1F
100
AcDbEntity
  8
0
  6
Continuous
 62
     7
370
    25
100
AcDbLine
 10
1362.3055199164
 20
7396.9691445424
 30
0.0
 11
1270.3055199164
 21
7396.9691445424
 31
0.0
  0
ARC
  5
131
330
1F
100
AcDbEntity
  8
0
  6
Continuous
 62
     7
370
    25
100
AcDbCircle
 10
1316.3055199164
 20
6869.8292340688
 30
0.0
 40
65.00000000000014
100
AcDbArc
 50
171.8697481033
 51
207.5794191631
  0
ARC
  5
132
330
1F
100
AcDbEntity
  8
0
  6
Continuous
 62
     7
370
    25
100
AcDbCircle
 10
1316.3055199164
 20
6869.8292340688
 30
0.0
 40
35.00000000000141
100
AcDbArc
 50
275.5682024144
 51
4.7173267008
  0
LINE
  5
133
330
1F
100
AcDbEntity
  8
0
  6
Continuous
 62
     7
370
    25
100
AcDbLine
 10
706.3055199164
 20
6376.8292340688
 30
0.0
 11
706.3055199164
 21
6936.8292340688
 31
0.0
  0
LINE
  5
134
330
1F
100
AcDbEntity
  8
0
  6
Continuous
 62
     7
370
    25
100
AcDbLine
 10
683.3055199164
 20
6376.8292340688
 30
0.0
 11
706.3055199164
 21
6376.8292340688
 31
0.0
  0
LINE
  5
135
330
1F
100
AcDbEntity
  8
0
  6
Continuous
 62
     7
370
    25
100
AcDbLine
 10
683.3055199164
 20
6376.8292340688
 30
0.0
 11
683.3055199164
 21
6936.8292340688
 31
0.0
  0
LINE
  5
136
330
1F
100
AcDbEntity
  8
0
  6
Continuous
 62
     7
370
    25
100
AcDbLine
 10
683.3055199164
 20
6936.8292340688
 30
0.0
 11
706.3055199164
 21
6936.8292340688
 31
0.0
  0
LINE
  5
137
330
1F
100
AcDbEntity
  8
0
  6
Continuous
 62
     7
370
    25
100
AcDbLine
 10
1500.3055199164
 20
6376.8292340688
 30
0.0
 11
1523.3055199164
 21
6376.8292340688
 31
0.0
  0
LINE
  5
138
330
1F
100
AcDbEntity
  8
0
  6
Continuous
 62
     7
370
    25
100
AcDbLine
 10
1500.3055199164
 20
6376.8292340688
 30
0.0
 11
1500.3055199164
 21
6936.8292340688
 31
0.0
  0
LINE
  5
139
330
1F
100
AcDbEntity
  8
0
  6
Continuous
 62
     7
370
    25
100
AcDbLine
 10
1500.3055199164
 20
6936.8292340688
 30
0.0
 11
1523.3055199164
 21
6936.8292340688
 31
0.0
  0
LINE
  5
13A
330
1F
100
AcDbEntity
  8
0
  6
Continuous
 62
     7
370
    25
100
AcDbLine
 10
1523.3055199164
 20
6376.8292340688
 30
0.0
 11
1523.3055199164
 21
6936.8292340688
 31
0.0
  0
LINE
  5
13B
330
1F
100
AcDbEntity
  8
0
  6
Continuous
 62
     7
370
    25
100
AcDbLine
 10
713.3055199164
 20
6376.8292340688
 30
0.0
 11
713.3055199164
 21
6936.8292340688
 31
0.0
  0
LINE
  5
13C
330
1F
100
AcDbEntity
  8
0
  6
Continuous
 62
     7
370
    25
100
AcDbLine
 10
706.3055199164
 20
6376.8292340688
 30
0.0
 11
713.3055199164
 21
6376.8292340688
 31
0.0
  0
LINE
  5
13D
330
1F
100
AcDbEntity
  8
0
  6
Continuous
 62
     7
370
    25
100
AcDbLine
 10
706.3055199164
 20
6936.8292340688
 30
0.0
 11
713.3055199164
 21
6936.8292340688
 31
0.0
  0
LINE
  5
13E
330
1F
100
AcDbEntity
  8
0
  6
Continuous
 62
     7
370
    25
100
AcDbLine
 10
1493.3055199164
 20
6376.8292340688
 30
0.0
 11
1500.3055199164
 21
6376.8292340688
 31
0.0
  0
LINE
  5
13F
330
1F
100
AcDbEntity
  8
0
  6
Continuous
 62
     7
370
    25
100
AcDbLine
 10
1493.3055199164
 20
6376.8292340688
 30
0.0
 11
1493.3055199164
 21
6936.8292340688
 31
0.0
  0
LINE
  5
140
330
1F
100
AcDbEntity
  8
0
  6
Continuous
 62
     7
370
    25
100
AcDbLine
 10
1493.3055199164
 20
6936.8292340688
 30
0.0
 11
1500.3055199164
 21
6936.8292340688
 31
0.0
  0
LINE
  5
141
330
1F
100
AcDbEntity
  8
0
  6
Continuous
 62
     7
370
    25
100
AcDbLine
 10
1489.3055199164
 20
6376.8292340688
 30
0.0
 11
1493.3055199164
 21
6376.8292340688
 31
0.0
  0
LINE
  5
142
330
1F
100
AcDbEntity
  8
0
  6
Continuous
 62
     7
370
    25
100
AcDbLine
 10
1489.3055199164
 20
6376.8292340688
 30
0.0
 11
1489.3055199164
 21
6936.8292340688
 31
0.0
  0
LINE
  5
143
330
1F
100
AcDbEntity
  8
0
  6
Continuous
 62
     7
370
    25
100
AcDbLine
 10
1489.3055199164
 20
6936.8292340688
 30
0.0
 11
1493.3055199164
 21
6936.8292340688
 31
0.0
  0
LINE
  5
144
330
1F
100
AcDbEntity
  8
0
  6
Continuous
 62
     7
370
    25
100
AcDbLine
 10
717.3055199164
 20
6376.8292340688
 30
0.0
 11
717.3055199164
 21
6936.8292340688
 31
0.0
  0
LINE
  5
145
330
1F
100
AcDbEntity
  8
0
  6
Continuous
 62
     7
370
    25
100
AcDbLine
 10
713.3055199164
 20
6376.8292340688
 30
0.0
 11
717.3055199164
 21
6376.8292340688
 31
0.0
  0
LINE
  5
146
330
1F
100
AcDbEntity
  8
0
  6
Continuous
 62
     7
370
    25
100
AcDbLine
 10
713.3055199164
 20
6936.8292340688
 30
0.0
 11
717.3055199164
 21
6936.8292340688
 31
0.0
  0
LINE
  5
147
330
1F
100
AcDbEntity
  8
0
  6
Continuous
 62
     7
370
    25
100
AcDbLine
 10
717.3055199164
 20
6376.8292340688
 30
0.0
 11
1489.3055199164
 21
6376.8292340688
 31
0.0
  0
LINE
  5
148
330
1F
100
AcDbEntity
  8
0
  6
Continuous
 62
     7
370
    25
100
AcDbLine
 10
717.3055199164
 20
6936.8292340688
 30
0.0
 11
1489.3055199164
 21
6936.8292340688
 31
0.0
  0
CIRCLE
  5
149
330
1F
100
AcDbEntity
  8
0
  6
Continuous
 62
     7
370
    25
100
AcDbCircle
 10
783.3055199164
 20
6456.8292340688
 30
0.0
 40
25.0
  0
CIRCLE
  5
14A
330
1F
100
AcDbEntity
  8
0
  6
Continuous
 62
     7
370
    25
100
AcDbCircle
 10
874.734091345
 20
6456.8292340688
 30
0.0
 40
25.0
  0
CIRCLE
  5
14B
330
1F
100
AcDbEntity
  8
0
  6
Continuous
 62
     7
370
    25
100
AcDbCircle
 10
966.1626627736
 20
6456.8292340688
 30
0.0
 40
25.0
  0
CIRCLE
  5
14C
330
1F
100
AcDbEntity
  8
0
  6
Continuous
 62
     7
370
    25
100
AcDbCircle
 10
1057.5912342021
 20
6456.8292340688
 30
0.0
 40
24.99999999999977
  0
CIRCLE
  5
14D
330
1F
100
AcDbEntity
  8
0
  6
Continuous
 62
     7
370
    25
100
AcDbCircle
 10
1149.0198056307
 20
6456.8292340688
 30
0.0
 40
24.99999999999977
  0
CIRCLE
  5
14E
330
1F
100
AcDbEntity
  8
0
  6
Continuous
 62
     7
370
    25
100
AcDbCircle
 10
1240.4483770593
 20
6456.8292340688
 30
0.0
 40
25.0
  0
CIRCLE
  5
14F
330
1F
100
AcDbEntity
  8
0
  6
Continuous
 62
     7
370
    25
100
AcDbCircle
 10
1331.8769484879
 20
6456.8292340688
 30
0.0
 40
25.0
  0
CIRCLE
  5
150
330
1F
100
AcDbEntity
  8
0
  6
Continuous
 62
     7
370
    25
100
AcDbCircle
 10
1423.3055199164
 20
6456.8292340688
 30
0.0
 40
25.00000000000023
  0
CIRCLE
  5
151
330
1F
100
AcDbEntity
  8
0
  6
Continuous
 62
     7
370
    25
100
AcDbCircle
 10
874.734091345
 20
6556.8292340688
 30
0.0
 40
25.00000000000011
  0
CIRCLE
  5
152
330
1F
100
AcDbEntity
  8
0
  6
Continuous
 62
     7
370
    25
100
AcDbCircle
 10
966.1626627736
 20
6556.8292340688
 30
0.0
 40
25.00000000000011
  0
CIRCLE
  5
153
330
1F
100
AcDbEntity
  8
0
  6
Continuous
 62
     7
370
    25
100
AcDbCircle
 10
1057.5912342021
 20
6556.8292340688
 30
0.0
 40
24.99999999999977
  0
CIRCLE
  5
154
330
1F
100
AcDbEntity
  8
0
  6
Continuous
 62
     7
370
    25
100
AcDbCircle
 10
1149.0198056307
 20
6556.8292340688
 30
0.0
 40
25.0
  0
CIRCLE
  5
155
330
1F
100
AcDbEntity
  8
0
  6
Continuous
 62
     7
370
    25
100
AcDbCircle
 10
1240.4483770593
 20
6556.8292340688
 30
0.0
 40
25.0
  0
CIRCLE
  5
156
330
1F
100
AcDbEntity
  8
0
  6
Continuous
 62
     7
370
    25
100
AcDbCircle
 10
1331.8769484879
 20
6556.8292340688
 30
0.0
 40
24.99999999999977
  0
CIRCLE
  5
157
330
1F
100
AcDbEntity
  8
0
  6
Continuous
 62
     7
370
    25
100
AcDbCircle
 10
1423.3055199164
 20
6556.8292340688
 30
0.0
 40
25.0
  0
CIRCLE
  5
158
330
1F
100
AcDbEntity
  8
0
  6
Continuous
 62
     7
370
    25
100
AcDbCircle
 10
874.734091345
 20
6656.8292340688
 30
0.0
 40
24.99999999999989
  0
CIRCLE
  5
159
330
1F
100
AcDbEntity
  8
0
  6
Continuous
 62
     7
370
    25
100
AcDbCircle
 10
966.1626627736
 20
6656.8292340688
 30
0.0
 40
24.99999999999989
  0
CIRCLE
  5
15A
330
1F
100
AcDbEntity
  8
0
  6
Continuous
 62
     7
370
    25
100
AcDbCircle
 10
1057.5912342021
 20
6656.8292340688
 30
0.0
 40
25.0
  0
CIRCLE
  5
15B
330
1F
100
AcDbEntity
  8
0
  6
Continuous
 62
     7
370
    25
100
AcDbCircle
 10
1149.0198056307
 20
6656.8292340688
 30
0.0
 40
25.00000000000023
  0
CIRCLE
  5
15C
330
1F
100
AcDbEntity
  8
0
  6
Continuous
 62
     7
370
    25
100
AcDbCircle
 10
1240.4483770593
 20
6656.8292340688
 30
0.0
 40
25.00000000000023
  0
CIRCLE
  5
15D
330
1F
100
AcDbEntity
  8
0
  6
Continuous
 62
     7
370
    25
100
AcDbCircle
 10
1331.8769484879
 20
6656.8292340688
 30
0.0
 40
24.99999999999977
  0
CIRCLE
  5
15E
330
1F
100
AcDbEntity
  8
0
  6
Continuous
 62
     7
370
    25
100
AcDbCircle
 10
1423.3055199164
 20
6656.8292340688
 30
0.0
 40
25.0
  0
CIRCLE
  5
15F
330
1F
100
AcDbEntity
  8
0
  6
Continuous
 62
     7
370
    25
100
AcDbCircle
 10
874.734091345
 20
6756.8292340688
 30
0.0
 40
25.00000000000011
  0
CIRCLE
  5
160
330
1F
100
AcDbEntity
  8
0
  6
Continuous
 62
     7
370
    25
100
AcDbCircle
 10
966.1626627736
 20
6756.8292340688
 30
0.0
 40
25.0
  0
CIRCLE
  5
161
330
1F
100
AcDbEntity
  8
0
  6
Continuous
 62
     7
370
    25
100
AcDbCircle
 10
1057.5912342021
 20
6756.8292340688
 30
0.0
 40
24.99999999999977
  0
CIRCLE
  5
162
330
1F
100
AcDbEntity
  8
0
  6
Continuous
 62
     7
370
    25
100
AcDbCircle
 10
1149.0198056307
 20
6756.8292340688
 30
0.0
 40
25.0
  0
CIRCLE
  5
163
330
1F
100
AcDbEntity
  8
0
  6
Continuous
 62
     7
370
    25
100
AcDbCircle
 10
1240.4483770593
 20
6756.8292340688
 30
0.0
 40
25.0
  0
CIRCLE
  5
164
330
1F
100
AcDbEntity
  8
0
  6
Continuous
 62
     7
370
    25
100
AcDbCircle
 10
1331.8769484879
 20
6756.8292340688
 30
0.0
 40
25.0
  0
CIRCLE
  5
165
330
1F
100
AcDbEntity
  8
0
  6
Continuous
 62
     7
370
    25
100
AcDbCircle
 10
1423.3055199164
 20
6756.8292340688
 30
0.0
 40
25.00000000000023
  0
CIRCLE
  5
166
330
1F
100
AcDbEntity
  8
0
  6
Continuous
 62
     7
370
    25
100
AcDbCircle
 10
874.734091345
 20
6856.8292340688
 30
0.0
 40
25.0
  0
CIRCLE
  5
167
330
1F
100
AcDbEntity
  8
0
  6
Continuous
 62
     7
370
    25
100
AcDbCircle
 10
966.1626627736
 20
6856.8292340688
 30
0.0
 40
25.0
  0
CIRCLE
  5
168
330
1F
100
AcDbEntity
  8
0
  6
Continuous
 62
     7
370
    25
100
AcDbCircle
 10
1057.5912342021
 20
6856.8292340688
 30
0.0
 40
25.0
  0
CIRCLE
  5
169
330
1F
100
AcDbEntity
  8
0
  6
Continuous
 62
     7
370
    25
100
AcDbCircle
 10
1149.0198056307
 20
6856.8292340688
 30
0.0
 40
25.00000000000023
  0
CIRCLE
  5
16A
330
1F
100
AcDbEntity
  8
0
  6
Continuous
 62
     7
370
    25
100
AcDbCircle
 10
1240.4483770593
 20
6856.8292340688
 30
0.0
 40
25.00000000000023
  0
CIRCLE
  5
16B
330
1F
100
AcDbEntity
  8
0
  6
Continuous
 62
     7
370
    25
100
AcDbCircle
 10
1331.8769484879
 20
6856.8292340688
 30
0.0
 40
25.0
  0
CIRCLE
  5
16C
330
1F
100
AcDbEntity
  8
0
  6
Continuous
 62
     7
370
    25
100
AcDbCircle
 10
1423.3055199164
 20
6856.8292340688
 30
0.0
 40
25.00000000000023
  0
CIRCLE
  5
16D
330
1F
100
AcDbEntity
  8
0
  6
Continuous
 62
     7
370
    25
100
AcDbCircle
 10
783.3055199164
 20
6556.8292340688
 30
0.0
 40
25.0
  0
CIRCLE
  5
16E
330
1F
100
AcDbEntity
  8
0
  6
Continuous
 62
     7
370
    25
100
AcDbCircle
 10
783.3055199164
 20
6656.8292340688
 30
0.0
 40
24.99999999999989
  0
CIRCLE
  5
16F
330
1F
100
AcDbEntity
  8
0
  6
Continuous
 62
     7
370
    25
100
AcDbCircle
 10
783.3055199164
 20
6756.8292340688
 30
0.0
 40
25.00000000000011
  0
CIRCLE
  5
170
330
1F
100
AcDbEntity
  8
0
  6
Continuous
 62
     7
370
    25
100
AcDbCircle
 10
783.3055199164
 20
6856.8292340688
 30
0.0
 40
25.0
  0
ARC
  5
171
330
1F
100
AcDbEntity
  8
0
  6
Continuous
 62
     7
370
    25
100
AcDbCircle
 10
1316.3055199164
 20
6869.8292340688
 30
0.0
 40
70.00000000000043
100
AcDbArc
 50
73.1650193268
 51
106.8349806732
  0
ARC
  5
172
330
1F
100
AcDbEntity
  8
0
  6
Continuous
 62
     7
370
    25
100
AcDbCircle
 10
1316.3055199164
 20
6869.8292340688
 30
0.0
 40
70.00000000000014
100
AcDbArc
 50
170.8970203061
 51
208.5521469604
  0
ARC
  5
173
330
1F
100
AcDbEntity
  8
0
  6
Continuous
 62
     7
370
    25
100
AcDbCircle
 10
1340.5542312224
 20
6883.8292340688
 30
0.0
 40
10.00000000000029
100
AcDbArc
 50
270.0
 51
312.6845630389
  0
ARC
  5
174
330
1F
100
AcDbEntity
  8
0
  6
Continuous
 62
     7
370
    25
100
AcDbCircle
 10
1340.5542312224
 20
6883.8292340688
 30
0.0
 40
10.0
100
AcDbArc
 50
191.682616426
 51
270.0
  0
LINE
  5
175
330
1F
100
AcDbEntity
  8
0
  6
Continuous
 62
     7
370
    25
100
AcDbLine
 10
1340.5542312224
 20
6845.8292340688
 30
0.0
 11
1341.8615820442
 21
6845.9150606878
 31
0.0
  0
ARC
  5
176
330
1F
100
AcDbEntity
  8
0
  6
Continuous
 62
     7
370
    25
100
AcDbCircle
 10
1340.5542312224
 20
6855.8292340688
 30
0.0
 40
10.00000000000006
100
AcDbArc
 50
22.4879280432
 51
270.0
  0
ARC
  5
177
330
1F
100
AcDbEntity
  8
0
  6
Continuous
 62
     7
370
    25
100
AcDbCircle
 10
1316.3055199164
 20
6841.8292340688
 30
0.0
 40
10.00000000000103
100
AcDbArc
 50
322.4879280394
 51
141.5746535985
  0
ARC
  5
178
330
1F
100
AcDbEntity
  8
0
  6
Continuous
 62
     7
370
    25
100
AcDbCircle
 10
1316.3055199164
 20
6869.8292340688
 30
0.0
 40
6.400000000000002
100
AcDbArc
 50
270.0
 51
91.7976689528
  0
ARC
  5
179
330
1F
100
AcDbEntity
  8
0
  6
Continuous
 62
     7
370
    25
100
AcDbCircle
 10
1316.3055199164
 20
6869.8292340688
 30
0.0
 40
6.39999999999978
100
AcDbArc
 50
188.4878601634
 51
270.0
  0
LINE
  5
17A
330
1F
100
AcDbEntity
  8
0
  6
Continuous
 62
     7
370
    25
100
AcDbLine
 10
607.3055199164
 20
7112.8292340688
 30
0.0
 11
1599.3055199164
 21
7112.8292340688
 31
0.0
  0
LINE
  5
17B
330
1F
100
AcDbEntity
  8
0
  6
Continuous
 62
     7
370
    25
100
AcDbLine
 10
607.3055199164
 20
7116.8292340688
 30
0.0
 11
607.3055199164
 21
7112.8292340688
 31
0.0
  0
LINE
  5
17C
330
1F
100
AcDbEntity
  8
0
  6
Continuous
 62
     7
370
    25
100
AcDbLine
 10
1599.3055199164
 20
7116.8292340688
 30
0.0
 11
607.3055199164
 21
7116.8292340688
 31
0.0
  0
LINE
  5
17D
330
1F
100
AcDbEntity
  8
0
  6
Continuous
 62
     7
370
    25
100
AcDbLine
 10
1599.3055199164
 20
7112.8292340688
 30
0.0
 11
1599.3055199164
 21
7116.8292340688
 31
0.0
  0
LINE
  5
17E
330
1F
100
AcDbEntity
  8
0
  6
Continuous
 62
     7
370
    25
100
AcDbLine
 10
1599.3055199164
 20
7108.8292340688
 30
0.0
 11
1410.5357127103
 21
7108.8292340688
 31
0.0
  0
SPLINE
  5
17F
330
1F
100
AcDbEntity
  8
0
  6
Continuous
 62
     7
370
    25
100
AcDbSpline
210
0.0
220
0.0
230
1.0
 70
     8
 71
     3
 72
    10
 73
     6
 74
     0
 42
0.00000001
 43
0.00000001
 40
0.0
 40
0.0
 40
0.0
 40
0.0
 40
0.5
 40
0.5
 40
1.0
 40
1.0
 40
1.0
 40
1.0
 10
1383.305519916429
 20
7109.497488306889
 30
0.0
 10
1387.845981239129
 20
7109.497488306889
 30
0.0
 10
1392.386341567843
 20
7109.435097962874
 30
0.0
 10
1401.46324447704
 20
7109.203054952591
 30
0.0
 10
1406.00003450648
 20
7109.034395849396
 30
0.0
 10
1410.535712710343
 20
7108.829234068762
 30
0.0
  0
LINE
  5
180
330
1F
100
AcDbEntity
  8
0
  6
Continuous
 62
     7
370
    25
100
AcDbLine
 10
823.3055199164
 20
7109.4974883069
 30
0.0
 11
1383.3055199164
 21
7109.4974883069
 31
0.0
  0
SPLINE
  5
181
330
1F
100
AcDbEntity
  8
0
  6
Continuous
 62
     7
370
    25
100
AcDbSpline
210
0.0
220
0.0
230
1.0
 70
     8
 71
     3
 72
    10
 73
     6
 74
     0
 42
0.00000001
 43
0.00000001
 40
0.0
 40
0.0
 40
0.0
 40
0.0
 40
0.5
 40
0.5
 40
1.0
 40
1.0
 40
1.0
 40
1.0
 10
796.0753271225141
 20
7108.829234068762
 30
0.0
 10
800.6110958655386
 20
7109.034399944743
 30
0.0
 10
805.1486520016726
 20
7109.203083308385
 30
0.0
 10
814.2255148869233
 20
7109.435112381504
 30
0.0
 10
818.7649717021197
 20
7109.497488306889
 30
0.0
 10
823.3055199164287
 20
7109.497488306889
 30
0.0
  0
LINE
  5
182
330
1F
100
AcDbEntity
  8
0
  6
Continuous
 62
     7
370
    25
100
AcDbLine
 10
796.0753271225
 20
7108.8292340688
 30
0.0
 11
607.3055199164
 21
7108.8292340688
 31
0.0
  0
LINE
  5
183
330
1F
100
AcDbEntity
  8
0
  6
Continuous
 62
     7
370
    25
100
AcDbLine
 10
607.3055199164
 20
7108.8292340688
 30
0.0
 11
607.3055199164
 21
7112.8292340688
 31
0.0
  0
LINE
  5
184
330
1F
100
AcDbEntity
  8
0
  6
Continuous
 62
     7
370
    25
100
AcDbLine
 10
1599.3055199164
 20
7112.8292340688
 30
0.0
 11
1599.3055199164
 21
7108.8292340688
 31
0.0
  0
LINE
  5
185
330
1F
100
AcDbEntity
  8
0
  6
Continuous
 62
     7
370
    25
100
AcDbLine
 10
823.3055199164
 20
7109.4974883069
 30
0.0
 11
823.3055199164
 21
7104.0970560903
 31
0.0
  0
SPLINE
  5
186
330
1F
100
AcDbEntity
  8
0
  6
Continuous
 62
     7
370
    25
100
AcDbSpline
210
0.0
220
0.0
230
1.0
 70
     8
 71
     3
 72
    10
 73
     6
 74
     0
 42
0.00000001
 43
0.00000001
 40
0.0
 40
0.0
 40
0.0
 40
0.0
 40
0.5
 40
0.5
 40
1.0
 40
1.0
 40
1.0
 40
1.0
 10
823.3055199164288
 20
7104.097056090342
 30
0.0
 10
818.9188364332304
 20
7104.097056090342
 30
0.0
 10
814.5509041490244
 20
7103.883168737143
 30
0.0
 10
805.8459701963405
 20
7103.09803088821
 30
0.0
 10
801.5086392793697
 20
7102.530276438775
 30
0.0
 10
797.1810132282131
 20
7101.845147998583
 30
0.0
  0
LINE
  5
187
330
1F
100
AcDbEntity
  8
0
  6
Continuous
 62
     7
370
    25
100
AcDbLine
 10
796.0753271225
 20
7108.8292340688
 30
0.0
 11
797.1810132282
 21
7101.8451479986
 31
0.0
  0
SPLINE
  5
188
330
1F
100
AcDbEntity
  8
0
  6
Continuous
 62
     7
370
    25
100
AcDbSpline
210
0.0
220
0.0
230
1.0
 70
     8
 71
     3
 72
    10
 73
     6
 74
     0
 42
0.00000001
 43
0.00000001
 40
0.0
 40
0.0
 40
0.0
 40
0.0
 40
0.5
 40
0.5
 40
1.0
 40
1.0
 40
1.0
 40
1.0
 10
1409.430026604644
 20
7101.845147998583
 30
0.0
 10
1405.102400553488
 20
7102.530276438775
 30
0.0
 10
1400.765069636517
 20
7103.09803088821
 30
0.0
 10
1392.060135683833
 20
7103.883168737143
 30
0.0
 10
1387.692203399627
 20
7104.097056090342
 30
0.0
 10
1383.305519916429
 20
7104.097056090342
 30
0.0
  0
LINE
  5
189
330
1F
100
AcDbEntity
  8
0
  6
Continuous
 62
     7
370
    25
100
AcDbLine
 10
1383.3055199164
 20
7104.0970560903
 30
0.0
 11
1383.3055199164
 21
7109.4974883069
 31
0.0
  0
LINE
  5
18A
330
1F
100
AcDbEntity
  8
0
  6
Continuous
 62
     7
370
    25
100
AcDbLine
 10
1409.4300266046
 20
7101.8451479986
 30
0.0
 11
1410.5357127103
 21
7108.8292340688
 31
0.0
  0
LINE
  5
18B
330
1F
100
AcDbEntity
  8
0
  6
Continuous
 62
     7
370
    25
100
AcDbLine
 10
1383.3055199164
 20
7104.0970560903
 30
0.0
 11
823.3055199164
 21
7104.0970560903
 31
0.0
  0
LINE
  5
18C
330
1F
100
AcDbEntity
  8
0
  6
Continuous
 62
     7
370
    25
100
AcDbLine
 10
1603.3055199164
 20
7112.8292340688
 30
0.0
 11
1603.3055199164
 21
6200.8292340688
 31
0.0
  0
LINE
  5
18D
330
1F
100
AcDbEntity
  8
0
  6
Continuous
 62
     7
370
    25
100
AcDbLine
 10
1603.3055199164
 20
6200.8292340688
 30
0.0
 11
1599.3055199164
 21
6200.8292340688
 31
0.0
  0
LINE
  5
18E
330
1F
100
AcDbEntity
  8
0
  6
Continuous
 62
     7
370
    25
100
AcDbLine
 10
1599.3055199164
 20
6200.8292340688
 30
0.0
 11
1599.3055199164
 21
7108.8292340688
 31
0.0
  0
ARC
  5
18F
330
1F
100
AcDbEntity
  8
0
  6
Continuous
 62
     7
370
    25
100
AcDbCircle
 10
1599.3055199164
 20
7112.8292340688
 30
0.0
 40
4.000000000000909
100
AcDbArc
 50
0.0
 51
90.0
  0
ARC
  5
190
330
1F
100
AcDbEntity
  8
0
  6
Continuous
 62
     7
370
    25
100
AcDbCircle
 10
1383.3055199164
 20
6936.8292340688
 30
0.0
 40
167.0710678118658
100
AcDbArc
 50
0.0
 51
81.0038771573
  0
ARC
  5
191
330
1F
100
AcDbEntity
  8
0
  6
Continuous
 62
     7
370
    25
100
AcDbCircle
 10
1383.3055199164
 20
6936.8292340688
 30
0.0
 40
174.1421356237314
100
AcDbArc
 50
0.0
 51
81.0038771573
  0
LINE
  5
192
330
1F
100
AcDbEntity
  8
0
  6
Continuous
 62
     7
370
    25
100
AcDbLine
 10
1550.3765877283
 20
6936.8292340688
 30
0.0
 11
1557.4476555402
 21
6936.8292340688
 31
0.0
  0
ARC
  5
193
330
1F
100
AcDbEntity
  8
0
  6
Continuous
 62
     7
370
    25
100
AcDbCircle
 10
823.3055199164
 20
6376.8292340688
 30
0.0
 40
174.1421356237307
100
AcDbArc
 50
180.0
 51
270.0
  0
LINE
  5
194
330
1F
100
AcDbEntity
  8
0
  6
Continuous
 62
     7
370
    25
100
AcDbLine
 10
1383.3055199164
 20
6202.687098445
 30
0.0
 11
823.3055199164
 21
6202.687098445
 31
0.0
  0
ARC
  5
195
330
1F
100
AcDbEntity
  8
0
  6
Continuous
 62
     7
370
    25
100
AcDbCircle
 10
1383.3055199164
 20
6376.8292340688
 30
0.0
 40
174.1421356237306
100
AcDbArc
 50
270.0
 51
0.0
  0
LINE
  5
196
330
1F
100
AcDbEntity
  8
0
  6
Continuous
 62
     7
370
    25
100
AcDbLine
 10
1557.4476555402
 20
6936.8292340688
 30
0.0
 11
1557.4476555402
 21
6376.8292340688
 31
0.0
  0
LINE
  5
197
330
1F
100
AcDbEntity
  8
0
  6
Continuous
 62
     7
370
    25
100
AcDbLine
 10
607.3055199164
 20
6200.8292340688
 30
0.0
 11
1599.3055199164
 21
6200.8292340688
 31
0.0
  0
LINE
  5
198
330
1F
100
AcDbEntity
  8
0
  6
Continuous
 62
     7
370
    25
100
AcDbLine
 10
607.3055199164
 20
7108.8292340688
 30
0.0
 11
607.3055199164
 21
6200.8292340688
 31
0.0
  0
ARC
  5
199
330
1F
100
AcDbEntity
  8
0
  6
Continuous
 62
     7
370
    25
100
AcDbCircle
 10
823.3055199164
 20
6936.8292340688
 30
0.0
 40
174.1421356237314
100
AcDbArc
 50
98.9961228427
 51
180.0
  0
LINE
  5
19A
330
1F
100
AcDbEntity
  8
0
  6
Continuous
 62
     7
370
    25
100
AcDbLine
 10
649.1633842927
 20
6376.8292340688
 30
0.0
 11
649.1633842927
 21
6936.8292340688
 31
0.0
  0
LINE
  5
19B
330
1F
100
AcDbEntity
  8
0
  6
Continuous
 62
     7
370
    25
100
AcDbLine
 10
603.3055199164
 20
6200.8292340688
 30
0.0
 11
603.3055199164
 21
7112.8292340688
 31
0.0
  0
ARC
  5
19C
330
1F
100
AcDbEntity
  8
0
  6
Continuous
 62
     7
370
    25
100
AcDbCircle
 10
607.3055199164
 20
7112.8292340688
 30
0.0
 40
4.000000000000909
100
AcDbArc
 50
90.0
 51
180.0
  0
LINE
  5
19D
330
1F
100
AcDbEntity
  8
0
  6
Continuous
 62
     7
370
    25
100
AcDbLine
 10
603.3055199164
 20
6200.8292340688
 30
0.0
 11
607.3055199164
 21
6200.8292340688
 31
0.0
  0
ARC
  5
19E
330
1F
100
AcDbEntity
  8
0
  6
Continuous
 62
     7
370
    25
100
AcDbCircle
 10
823.3055199164
 20
6936.8292340688
 30
0.0
 40
167.0710678118658
100
AcDbArc
 50
98.9961228427
 51
180.0
  0
LINE
  5
19F
330
1F
100
AcDbEntity
  8
0
  6
Continuous
 62
     7
370
    25
100
AcDbLine
 10
649.1633842927
 20
6936.8292340688
 30
0.0
 11
656.2344521046
 21
6936.8292340688
 31
0.0
  0
LINE
  5
1A0
330
1F
100
AcDbEntity
  8
0
  6
Continuous
 62
     7
370
    25
100
AcDbLine
 10
1550.3765877283
 20
6376.8292340688
 30
0.0
 11
1550.3765877283
 21
6936.8292340688
 31
0.0
  0
LINE
  5
1A1
330
1F
100
AcDbEntity
  8
0
  6
Continuous
 62
     7
370
    25
100
AcDbLine
 10
1550.3765877283
 20
6376.8292340688
 30
0.0
 11
1557.4476555402
 21
6376.8292340688
 31
0.0
  0
LINE
  5
1A2
330
1F
100
AcDbEntity
  8
0
  6
Continuous
 62
     7
370
    25
100
AcDbLine
 10
656.2344521046
 20
6936.8292340688
 30
0.0
 11
656.2344521046
 21
6376.8292340688
 31
0.0
  0
LINE
  5
1A3
330
1F
100
AcDbEntity
  8
0
  6
Continuous
 62
     7
370
    25
100
AcDbLine
 10
649.1633842927
 20
6376.8292340688
 30
0.0
 11
656.2344521046
 21
6376.8292340688
 31
0.0
  0
ARC
  5
1A4
330
1F
100
AcDbEntity
  8
0
  6
Continuous
 62
     7
370
    25
100
AcDbCircle
 10
1383.3055199164
 20
6376.8292340688
 30
0.0
 40
167.0710678118653
100
AcDbArc
 50
270.0
 51
0.0
  0
LINE
  5
1A5
330
1F
100
AcDbEntity
  8
0
  6
Continuous
 62
     7
370
    25
100
AcDbLine
 10
1383.3055199164
 20
6209.7581662569
 30
0.0
 11
1383.3055199164
 21
6202.687098445
 31
0.0
  0
ARC
  5
1A6
330
1F
100
AcDbEntity
  8
0
  6
Continuous
 62
     7
370
    25
100
AcDbCircle
 10
823.3055199164
 20
6376.8292340688
 30
0.0
 40
167.0710678118653
100
AcDbArc
 50
180.0
 51
270.0
  0
LINE
  5
1A7
330
1F
100
AcDbEntity
  8
0
  6
Continuous
 62
     7
370
    25
100
AcDbLine
 10
823.3055199164
 20
6202.687098445
 30
0.0
 11
823.3055199164
 21
6209.7581662569
 31
0.0
  0
LINE
  5
1A8
330
1F
100
AcDbEntity
  8
0
  6
Continuous
 62
     7
370
    25
100
AcDbLine
 10
823.3055199164
 20
6209.7581662569
 30
0.0
 11
1383.3055199164
 21
6209.7581662569
 31
0.0
  0
LINE
  5
1A9
330
1F
100
AcDbEntity
  8
0
  6
Continuous
 62
     7
370
    25
100
AcDbLine
 10
1599.3055199164
 20
6196.8292340688
 30
0.0
 11
607.3055199164
 21
6196.8292340688
 31
0.0
  0
LINE
  5
1AA
330
1F
100
AcDbEntity
  8
0
  6
Continuous
 62
     7
370
    25
100
AcDbLine
 10
607.3055199164
 20
6196.8292340688
 30
0.0
 11
607.3055199164
 21
6200.8292340688
 31
0.0
  0
LINE
  5
1AB
330
1F
100
AcDbEntity
  8
0
  6
Continuous
 62
     7
370
    25
100
AcDbLine
 10
1599.3055199164
 20
6196.8292340688
 30
0.0
 11
1599.3055199164
 21
6200.8292340688
 31
0.0
  0
ARC
  5
1AC
330
1F
100
AcDbEntity
  8
0
  6
Continuous
 62
     7
370
    25
100
AcDbCircle
 10
1599.3055199164
 20
6200.8292340688
 30
0.0
 40
4.0
100
AcDbArc
 50
270.0
 51
0.0
  0
ARC
  5
1AD
330
1F
100
AcDbEntity
  8
0
  6
Continuous
 62
     7
370
    25
100
AcDbCircle
 10
607.3055199164
 20
6200.8292340688
 30
0.0
 40
4.0
100
AcDbArc
 50
180.0
 51
270.0
  0
ARC
  5
1AE
330
1F
100
AcDbEntity
  8
0
  6
Continuous
 62
     7
370
    25
100
AcDbCircle
 10
1383.3055199164
 20
6936.8292340688
 30
0.0
 40
162.3431457505076
100
AcDbArc
 50
0.0
 51
90.0
  0
LINE
  5
1AF
330
1F
100
AcDbEntity
  8
0
  6
Continuous
 62
     7
370
    25
100
AcDbLine
 10
1383.3055199164
 20
7104.0970560903
 30
0.0
 11
1383.3055199164
 21
7099.1723798193
 31
0.0
  0
LINE
  5
1B0
330
1F
100
AcDbEntity
  8
0
  6
Continuous
 62
     7
370
    25
100
AcDbLine
 10
1550.3765877283
 20
6936.8292340688
 30
0.0
 11
1545.6486656669
 21
6936.8292340688
 31
0.0
  0
ARC
  5
1B1
330
1F
100
AcDbEntity
  8
0
  6
Continuous
 62
     7
370
    25
100
AcDbCircle
 10
823.3055199164
 20
6936.8292340688
 30
0.0
 40
162.3431457505076
100
AcDbArc
 50
90.0
 51
180.0
  0
LINE
  5
1B2
330
1F
100
AcDbEntity
  8
0
  6
Continuous
 62
     7
370
    25
100
AcDbLine
 10
660.9623741659
 20
6936.8292340688
 30
0.0
 11
656.2344521046
 21
6936.8292340688
 31
0.0
  0
LINE
  5
1B3
330
1F
100
AcDbEntity
  8
0
  6
Continuous
 62
     7
370
    25
100
AcDbLine
 10
823.3055199164
 20
7099.1723798193
 30
0.0
 11
823.3055199164
 21
7104.0970560903
 31
0.0
  0
LINE
  5
1B4
330
1F
100
AcDbEntity
  8
0
  6
Continuous
 62
     7
370
    25
100
AcDbLine
 10
823.3055199164
 20
7099.1723798193
 30
0.0
 11
1383.3055199164
 21
7099.1723798193
 31
0.0
  0
LINE
  5
1B5
330
1F
100
AcDbEntity
  8
0
  6
Continuous
 62
     7
370
    25
100
AcDbLine
 10
1545.6486656669
 20
6936.8292340688
 30
0.0
 11
1545.6486656669
 21
6376.8292340688
 31
0.0
  0
LINE
  5
1B6
330
1F
100
AcDbEntity
  8
0
  6
Continuous
 62
     7
370
    25
100
AcDbLine
 10
1550.3765877283
 20
6376.8292340688
 30
0.0
 11
1545.6486656669
 21
6376.8292340688
 31
0.0
  0
LINE
  5
1B7
330
1F
100
AcDbEntity
  8
0
  6
Continuous
 62
     7
370
    25
100
AcDbLine
 10
660.9623741659
 20
6376.8292340688
 30
0.0
 11
660.9623741659
 21
6936.8292340688
 31
0.0
  0
LINE
  5
1B8
330
1F
100
AcDbEntity
  8
0
  6
Continuous
 62
     7
370
    25
100
AcDbLine
 10
660.9623741659
 20
6376.8292340688
 30
0.0
 11
656.2344521046
 21
6376.8292340688
 31
0.0
  0
ARC
  5
1B9
330
1F
100
AcDbEntity
  8
0
  6
Continuous
 62
     7
370
    25
100
AcDbCircle
 10
1383.3055199164
 20
6376.8292340688
 30
0.0
 40
162.3431457505076
100
AcDbArc
 50
270.0
 51
0.0
  0
LINE
  5
1BA
330
1F
100
AcDbEntity
  8
0
  6
Continuous
 62
     7
370
    25
100
AcDbLine
 10
1383.3055199164
 20
6209.7581662569
 30
0.0
 11
1383.3055199164
 21
6214.4860883183
 31
0.0
  0
ARC
  5
1BB
330
1F
100
AcDbEntity
  8
0
  6
Continuous
 62
     7
370
    25
100
AcDbCircle
 10
823.3055199164
 20
6376.8292340688
 30
0.0
 40
162.3431457505076
100
AcDbArc
 50
180.0
 51
270.0
  0
LINE
  5
1BC
330
1F
100
AcDbEntity
  8
0
  6
Continuous
 62
     7
370
    25
100
AcDbLine
 10
823.3055199164
 20
6214.4860883183
 30
0.0
 11
823.3055199164
 21
6209.7581662569
 31
0.0
  0
LINE
  5
1BD
330
1F
100
AcDbEntity
  8
0
  6
Continuous
 62
     7
370
    25
100
AcDbLine
 10
1383.3055199164
 20
6214.4860883183
 30
0.0
 11
823.3055199164
 21
6214.4860883183
 31
0.0
  0
LINE
  5
1BE
330
1F
100
AcDbEntity
  8
0
  6
Continuous
 62
     7
370
    25
100
AcDbLine
 10
1383.3055199164
 20
7099.1723798193
 30
0.0
 11
1383.3055199164
 21
7093.5155255698
 31
0.0
  0
LINE
  5
1BF
330
1F
100
AcDbEntity
  8
0
  6
Continuous
 62
     7
370
    25
100
AcDbLine
 10
1383.3055199164
 20
7093.5155255698
 30
0.0
 11
823.3055199164
 21
7093.5155255698
 31
0.0
  0
LINE
  5
1C0
330
1F
100
AcDbEntity
  8
0
  6
Continuous
 62
     7
370
    25
100
AcDbLine
 10
823.3055199164
 20
7099.1723798193
 30
0.0
 11
823.3055199164
 21
7093.5155255698
 31
0.0
  0
ARC
  5
1C1
330
1F
100
AcDbEntity
  8
0
  6
Continuous
 62
     7
370
    25
100
AcDbCircle
 10
1383.3055199164
 20
6936.8292340688
 30
0.0
 40
156.6862915010151
100
AcDbArc
 50
0.0
 51
90.0
  0
LINE
  5
1C2
330
1F
100
AcDbEntity
  8
0
  6
Continuous
 62
     7
370
    25
100
AcDbLine
 10
1539.9918114174
 20
6936.8292340688
 30
0.0
 11
1545.6486656669
 21
6936.8292340688
 31
0.0
  0
ARC
  5
1C3
330
1F
100
AcDbEntity
  8
0
  6
Continuous
 62
     7
370
    25
100
AcDbCircle
 10
823.3055199164
 20
6936.8292340688
 30
0.0
 40
156.6862915010151
100
AcDbArc
 50
90.0
 51
180.0
  0
LINE
  5
1C4
330
1F
100
AcDbEntity
  8
0
  6
Continuous
 62
     7
370
    25
100
AcDbLine
 10
660.9623741659
 20
6936.8292340688
 30
0.0
 11
666.6192284154
 21
6936.8292340688
 31
0.0
  0
LINE
  5
1C5
330
1F
100
AcDbEntity
  8
0
  6
Continuous
 62
     7
370
    25
100
AcDbLine
 10
1539.9918114174
 20
6376.8292340688
 30
0.0
 11
1539.9918114174
 21
6936.8292340688
 31
0.0
  0
LINE
  5
1C6
330
1F
100
AcDbEntity
  8
0
  6
Continuous
 62
     7
370
    25
100
AcDbLine
 10
1539.9918114174
 20
6376.8292340688
 30
0.0
 11
1545.6486656669
 21
6376.8292340688
 31
0.0
  0
LINE
  5
1C7
330
1F
100
AcDbEntity
  8
0
  6
Continuous
 62
     7
370
    25
100
AcDbLine
 10
666.6192284154
 20
6936.8292340688
 30
0.0
 11
666.6192284154
 21
6376.8292340688
 31
0.0
  0
LINE
  5
1C8
330
1F
100
AcDbEntity
  8
0
  6
Continuous
 62
     7
370
    25
100
AcDbLine
 10
660.9623741659
 20
6376.8292340688
 30
0.0
 11
666.6192284154
 21
6376.8292340688
 31
0.0
  0
ARC
  5
1C9
330
1F
100
AcDbEntity
  8
0
  6
Continuous
 62
     7
370
    25
100
AcDbCircle
 10
1383.3055199164
 20
6376.8292340688
 30
0.0
 40
156.6862915010149
100
AcDbArc
 50
270.0
 51
0.0
  0
LINE
  5
1CA
330
1F
100
AcDbEntity
  8
0
  6
Continuous
 62
     7
370
    25
100
AcDbLine
 10
1383.3055199164
 20
6220.1429425677
 30
0.0
 11
1383.3055199164
 21
6214.4860883183
 31
0.0
  0
ARC
  5
1CB
330
1F
100
AcDbEntity
  8
0
  6
Continuous
 62
     7
370
    25
100
AcDbCircle
 10
823.3055199164
 20
6376.8292340688
 30
0.0
 40
156.6862915010148
100
AcDbArc
 50
180.0
 51
270.0
  0
LINE
  5
1CC
330
1F
100
AcDbEntity
  8
0
  6
Continuous
 62
     7
370
    25
100
AcDbLine
 10
823.3055199164
 20
6220.1429425677
 30
0.0
 11
823.3055199164
 21
6214.4860883183
 31
0.0
  0
LINE
  5
1CD
330
1F
100
AcDbEntity
  8
0
  6
Continuous
 62
     7
370
    25
100
AcDbLine
 10
823.3055199164
 20
6220.1429425677
 30
0.0
 11
1383.3055199164
 21
6220.1429425677
 31
0.0
  0
ARC
  5
1CE
330
1F
100
AcDbEntity
  8
0
  6
Continuous
 62
     7
370
    25
100
AcDbCircle
 10
823.3055199164
 20
6376.8292340688
 30
0.0
 40
130.0000000000009
100
AcDbArc
 50
180.0
 51
270.0
  0
LINE
  5
1CF
330
1F
100
AcDbEntity
  8
0
  6
Continuous
 62
     7
370
    25
100
AcDbLine
 10
1383.3055199164
 20
6246.8292340688
 30
0.0
 11
823.3055199164
 21
6246.8292340688
 31
0.0
  0
ARC
  5
1D0
330
1F
100
AcDbEntity
  8
0
  6
Continuous
 62
     7
370
    25
100
AcDbCircle
 10
1383.3055199164
 20
6376.8292340688
 30
0.0
 40
130.0000000000009
100
AcDbArc
 50
270.0
 51
0.0
  0
ARC
  5
1D1
330
1F
100
AcDbEntity
  8
0
  6
Continuous
 62
     7
370
    25
100
AcDbCircle
 10
1383.3055199164
 20
6936.8292340688
 30
0.0
 40
130.0
100
AcDbArc
 50
0.0
 51
90.0
  0
LINE
  5
1D2
330
1F
100
AcDbEntity
  8
0
  6
Continuous
 62
     7
370
    25
100
AcDbLine
 10
823.3055199164
 20
7066.8292340688
 30
0.0
 11
1383.3055199164
 21
7066.8292340688
 31
0.0
  0
ARC
  5
1D3
330
1F
100
AcDbEntity
  8
0
  6
Continuous
 62
     7
370
    25
100
AcDbCircle
 10
823.3055199164
 20
6936.8292340688
 30
0.0
 40
130.0
100
AcDbArc
 50
90.0
 51
180.0
  0
ARC
  5
1D4
330
1F
100
AcDbEntity
  8
0
  6
Continuous
 62
     7
370
    25
100
AcDbCircle
 10
1383.3055199164
 20
6936.8292340688
 30
0.0
 40
120.0
100
AcDbArc
 50
0.0
 51
90.0
  0
LINE
  5
1D5
330
1F
100
AcDbEntity
  8
0
  6
Continuous
 62
     7
370
    25
100
AcDbLine
 10
1383.3055199164
 20
7056.8292340688
 30
0.0
 11
1383.3055199164
 21
7066.8292340688
 31
0.0
  0
LINE
  5
1D6
330
1F
100
AcDbEntity
  8
0
  6
Continuous
 62
     7
370
    25
100
AcDbLine
 10
1383.3055199164
 20
7056.8292340688
 30
0.0
 11
823.3055199164
 21
7056.8292340688
 31
0.0
  0
LINE
  5
1D7
330
1F
100
AcDbEntity
  8
0
  6
Continuous
 62
     7
370
    25
100
AcDbLine
 10
823.3055199164
 20
7066.8292340688
 30
0.0
 11
823.3055199164
 21
7056.8292340688
 31
0.0
  0
ARC
  5
1D8
330
1F
100
AcDbEntity
  8
0
  6
Continuous
 62
     7
370
    25
100
AcDbCircle
 10
823.3055199164
 20
6936.8292340688
 30
0.0
 40
120.0
100
AcDbArc
 50
90.0
 51
180.0
  0
ARC
  5
1D9
330
1F
100
AcDbEntity
  8
0
  6
Continuous
 62
     7
370
    25
100
AcDbCircle
 10
1383.3055199164
 20
6376.8292340688
 30
0.0
 40
120.0
100
AcDbArc
 50
270.0
 51
0.0
  0
LINE
  5
1DA
330
1F
100
AcDbEntity
  8
0
  6
Continuous
 62
     7
370
    25
100
AcDbLine
 10
1383.3055199164
 20
6256.8292340688
 30
0.0
 11
1383.3055199164
 21
6246.8292340688
 31
0.0
  0
ARC
  5
1DB
330
1F
100
AcDbEntity
  8
0
  6
Continuous
 62
     7
370
    25
100
AcDbCircle
 10
823.3055199164
 20
6376.8292340688
 30
0.0
 40
120.0
100
AcDbArc
 50
180.0
 51
270.0
  0
LINE
  5
1DC
330
1F
100
AcDbEntity
  8
0
  6
Continuous
 62
     7
370
    25
100
AcDbLine
 10
823.3055199164
 20
6246.8292340688
 30
0.0
 11
823.3055199164
 21
6256.8292340688
 31
0.0
  0
LINE
  5
1DD
330
1F
100
AcDbEntity
  8
0
  6
Continuous
 62
     7
370
    25
100
AcDbLine
 10
823.3055199164
 20
6256.8292340688
 30
0.0
 11
1383.3055199164
 21
6256.8292340688
 31
0.0
  0
LINE
  5
1DE
330
1F
100
AcDbEntity
  8
0
  6
Continuous
 62
     7
370
    25
100
AcDbLine
 10
1383.3055199164
 20
6936.8292340688
 30
0.0
 11
1383.3055199164
 21
7056.8292340688
 31
0.0
  0
LINE
  5
1DF
330
1F
100
AcDbEntity
  8
0
  6
Continuous
 62
     7
370
    25
100
AcDbLine
 10
823.3055199164
 20
7056.8292340688
 30
0.0
 11
823.3055199164
 21
6936.8292340688
 31
0.0
  0
SPLINE
  5
1E0
330
1F
100
AcDbEntity
  8
0
  6
Continuous
 62
     7
370
    25
100
AcDbSpline
210
0.0
220
0.0
230
1.0
 70
     8
 71
     3
 72
     8
 73
     4
 74
     0
 42
0.00000001
 43
0.00000001
 40
0.0
 40
0.0
 40
0.0
 40
0.0
 40
1.0
 40
1.0
 40
1.0
 40
1.0
 10
1340.3322803979
 20
6938.358121549196
 30
0.0
 10
1341.706432349052
 20
6937.88584497088
 30
0.0
 10
1343.066460709647
 20
6937.375814079015
 30
0.0
 10
1344.412787116069
 20
6936.829234068761
 30
0.0
  0
SPLINE
  5
1E1
330
1F
100
AcDbEntity
  8
0
  6
Continuous
 62
     7
370
    25
100
AcDbSpline
210
0.0
220
0.0
230
1.0
 70
     8
 71
     3
 72
    14
 73
    10
 74
     0
 42
0.00000001
 43
0.00000001
 40
0.0
 40
0.0
 40
0.0
 40
0.0
 40
0.25
 40
0.25
 40
0.5
 40
0.5
 40
0.75
 40
0.75
 40
1.0
 40
1.0
 40
1.0
 40
1.0
 10
1292.278782657409
 20
6938.358053970571
 30
0.0
 10
1296.163143362961
 20
6939.663013100791
 30
0.0
 10
1300.127301820368
 20
6940.641972797357
 30
0.0
 10
1308.213756140726
 20
6941.955039983119
 30
0.0
 10
1312.289375882746
 20
6942.281015523202
 30
0.0
 10
1320.483166798467
 20
6942.272310917193
 30
0.0
 10
1324.526214734948
 20
6941.938274437455
 30
0.0
 10
1332.508427902671
 20
6940.633712559931
 30
0.0
 10
1336.447581194748
 20
6939.663119007954
 30
0.0
 10
1340.332257169051
 20
6938.358053972721
 30
0.0
  0
SPLINE
  5
1E2
330
1F
100
AcDbEntity
  8
0
  6
Continuous
 62
     7
370
    25
100
AcDbSpline
210
0.0
220
0.0
230
1.0
 70
     8
 71
     3
 72
     8
 73
     4
 74
     0
 42
0.00000001
 43
0.00000001
 40
0.0
 40
0.0
 40
0.0
 40
0.0
 40
1.0
 40
1.0
 40
1.0
 40
1.0
 10
1288.198252716788
 20
6936.829234068761
 30
0.0
 10
1289.544583873726
 20
6937.375816007623
 30
0.0
 10
1290.90460248698
 20
6937.88584325341
 30
0.0
 10
1292.278759428575
 20
6938.358121547002
 30
0.0
  0
LINE
  5
1E3
330
1F
100
AcDbEntity
  8
0
  6
Continuous
 62
     7
370
    25
100
AcDbLine
 10
1383.3055199164
 20
6376.8292340688
 30
0.0
 11
1383.3055199164
 21
6256.8292340688
 31
0.0
  0
LINE
  5
1E4
330
1F
100
AcDbEntity
  8
0
  6
Continuous
 62
     7
370
    25
100
AcDbLine
 10
823.3055199164
 20
6256.8292340688
 30
0.0
 11
823.3055199164
 21
6376.8292340688
 31
0.0
  0
ARC
  5
1E5
330
1F
100
AcDbEntity
  8
0
  6
Continuous
 62
     7
370
    25
100
AcDbCircle
 10
1597.3055199164
 20
7110.8292340688
 30
0.0
 40
7.000000000000227
100
AcDbArc
 50
0.0
 51
90.0
  0
LINE
  5
1E6
330
1F
100
AcDbEntity
  8
0
  6
Continuous
 62
     7
370
    25
100
AcDbLine
 10
1604.3055199164
 20
7110.8292340688
 30
0.0
 11
1604.3055199164
 21
7042.8292340688
 31
0.0
  0
ARC
  5
1E7
330
1F
100
AcDbEntity
  8
0
  6
Continuous
 62
     7
370
    25
100
AcDbCircle
 10
1597.3055199164
 20
7042.8292340688
 30
0.0
 40
7.000000000000455
100
AcDbArc
 50
328.9972808661
 51
0.0
  0
ARC
  5
1E8
330
1F
100
AcDbEntity
  8
0
  6
Continuous
 62
     7
370
    25
100
AcDbCircle
 10
1529.3055199164
 20
7110.8292340688
 30
0.0
 40
7.000000000000826
100
AcDbArc
 50
90.0
 51
121.0027191339
  0
LINE
  5
1E9
330
1F
100
AcDbEntity
  8
0
  6
Continuous
 62
     7
370
    25
100
AcDbLine
 10
1529.3055199164
 20
7117.8292340688
 30
0.0
 11
1597.3055199164
 21
7117.8292340688
 31
0.0
  0
LINE
  5
1EA
330
1F
100
AcDbEntity
  8
0
  6
Continuous
 62
     7
370
    25
100
AcDbLine
 10
609.3055199164
 20
7117.8292340688
 30
0.0
 11
677.3055199164
 21
7117.8292340688
 31
0.0
  0
ARC
  5
1EB
330
1F
100
AcDbEntity
  8
0
  6
Continuous
 62
     7
370
    25
100
AcDbCircle
 10
677.3055199164
 20
7110.8292340688
 30
0.0
 40
7.000000000000709
100
AcDbArc
 50
58.9972808661
 51
90.0
  0
ARC
  5
1EC
330
1F
100
AcDbEntity
  8
0
  6
Continuous
 62
     7
370
    25
100
AcDbCircle
 10
609.3055199164
 20
7042.8292340688
 30
0.0
 40
7.000000000000341
100
AcDbArc
 50
180.0
 51
211.0027191339
  0
LINE
  5
1ED
330
1F
100
AcDbEntity
  8
0
  6
Continuous
 62
     7
370
    25
100
AcDbLine
 10
602.3055199164
 20
7042.8292340688
 30
0.0
 11
602.3055199164
 21
7110.8292340688
 31
0.0
  0
ARC
  5
1EE
330
1F
100
AcDbEntity
  8
0
  6
Continuous
 62
     7
370
    25
100
AcDbCircle
 10
609.3055199164
 20
7110.8292340688
 30
0.0
 40
7.000000000000227
100
AcDbArc
 50
90.0
 51
180.0
  0
LINE
  5
1EF
330
1F
100
AcDbEntity
  8
0
  6
Continuous
 62
     7
370
    25
100
AcDbLine
 10
1604.3055199164
 20
6286.8292340688
 30
0.0
 11
1604.3055199164
 21
6218.8292340688
 31
0.0
  0
ARC
  5
1F0
330
1F
100
AcDbEntity
  8
0
  6
Continuous
 62
     7
370
    25
100
AcDbCircle
 10
1597.3055199164
 20
6218.8292340688
 30
0.0
 40
7.0
100
AcDbArc
 50
328.9972808661
 51
0.0
  0
ARC
  5
1F1
330
1F
100
AcDbEntity
  8
0
  6
Continuous
 62
     7
370
    25
100
AcDbCircle
 10
1597.3055199164
 20
6286.8292340688
 30
0.0
 40
7.0
100
AcDbArc
 50
0.0
 51
31.0027191339
  0
ARC
  5
1F2
330
1F
100
AcDbEntity
  8
0
  6
Continuous
 62
     7
370
    25
100
AcDbCircle
 10
609.3055199164
 20
6218.8292340688
 30
0.0
 40
7.0
100
AcDbArc
 50
180.0
 51
211.0027191339
  0
LINE
  5
1F3
330
1F
100
AcDbEntity
  8
0
  6
Continuous
 62
     7
370
    25
100
AcDbLine
 10
602.3055199164
 20
6218.8292340688
 30
0.0
 11
602.3055199164
 21
6286.8292340688
 31
0.0
  0
ARC
  5
1F4
330
1F
100
AcDbEntity
  8
0
  6
Continuous
 62
     7
370
    25
100
AcDbCircle
 10
609.3055199164
 20
6286.8292340688
 30
0.0
 40
6.999999999999886
100
AcDbArc
 50
148.9972808661
 51
180.0
  0
ARC
  5
1F5
330
1F
100
AcDbEntity
  8
0
  6
Continuous
 62
     8
370
    25
100
AcDbCircle
 10
1316.3055199164
 20
6869.8292340688
 30
0.0
 40
11.40000000000051
100
AcDbArc
 50
270.0
 51
60.5531017324
  0
ARC
  5
1F6
330
1F
100
AcDbEntity
  8
0
  6
Continuous
 62
     8
370
    25
100
AcDbCircle
 10
1316.3055199164
 20
6869.8292340688
 30
0.0
 40
11.39999999999971
100
AcDbArc
 50
219.7324273837
 51
270.0
  0
SPLINE
  5
1F7
330
1F
100
AcDbEntity
  8
0
  6
Continuous
 62
     8
370
    25
100
AcDbSpline
210
0.0
220
0.0
230
1.0
 70
     8
 71
     3
 72
    11
 73
     7
 74
     0
 42
0.00000001
 43
0.00000001
 40
0.0
 40
0.0
 40
0.0
 40
0.0
 40
0.1989779779468509
 40
0.5013579804905545
 40
0.80109035856052
 40
1.0
 40
1.0
 40
1.0
 40
1.0
 10
1335.147547390467
 20
6936.82923406876
 30
0.0
 10
1332.707341013565
 20
6937.505646575436
 30
0.0
 10
1326.558836773411
 20
6939.20997994853
 30
0.0
 10
1316.340536900593
 20
6939.802244275455
 30
0.0
 10
1306.117221404845
 20
6939.236095956992
 30
0.0
 10
1300.008236103684
 20
6937.515560346776
 30
0.0
 10
1297.571345452133
 20
6936.82923406876
 30
0.0
  0
SPLINE
  5
1F8
330
1F
100
AcDbEntity
  8
0
  6
Continuous
 62
     8
370
    25
100
AcDbSpline
210
0.0
220
0.0
230
1.0
 70
     8
 71
     3
 72
     9
 73
     5
 74
     0
 42
0.00000001
 43
0.00000001
 40
0.0
 40
0.0
 40
0.0
 40
0.0
 40
0.2405786212001656
 40
1.0
 40
1.0
 40
1.0
 40
1.0
 10
1292.811286894766
 20
6936.82923406876
 30
0.0
 10
1292.771766224639
 20
6936.942335673224
 30
0.0
 10
1292.607492816098
 20
6937.412458928151
 30
0.0
 10
1292.420651055799
 20
6937.949943938988
 30
0.0
 10
1292.278759428575
 20
6938.358121547002
 30
0.0
  0
SPLINE
  5
1F9
330
1F
100
AcDbEntity
  8
0
  6
Continuous
 62
     8
370
    25
100
AcDbSpline
210
0.0
220
0.0
230
1.0
 70
     8
 71
     3
 72
     9
 73
     5
 74
     0
 42
0.00000001
 43
0.00000001
 40
0.0
 40
0.0
 40
0.0
 40
0.0
 40
0.3784590032906317
 40
1.0
 40
1.0
 40
1.0
 40
1.0
 10
1339.799853273208
 20
6936.82923406876
 30
0.0
 10
1339.864074750647
 20
6937.013205881095
 30
0.0
 10
1340.033766783022
 20
6937.499313519531
 30
0.0
 10
1340.217845006536
 20
6938.02889646251
 30
0.0
 10
1340.332257169051
 20
6938.358053972728
 30
0.0
  0
ARC
  5
1FA
330
1F
100
AcDbEntity
  8
0
  6
Continuous
 62
     8
370
    25
100
AcDbCircle
 10
1316.3055199164
 20
6869.8292340688
 30
0.0
 40
72.65685424949262
100
AcDbArc
 50
170.7695040776
 51
208.6796631889
  0
ARC
  5
1FB
330
1F
100
AcDbEntity
  8
0
  6
Continuous
 62
     8
370
    25
100
AcDbCircle
 10
1316.3055199164
 20
6869.8292340688
 30
0.0
 40
69.82842712474654
100
AcDbArc
 50
170.9136393116
 51
208.5355279549
  0
ENDSEC
  0
SECTION
  2
OBJECTS
  0
DICTIONARY
  5
C
330
0
100
AcDbDictionary
281
     1
  3
ACAD_GROUP
350
D
  3
ACAD_LAYOUT
350
1A
  3
ACAD_MLINESTYLE
350
17
  3
ACAD_PLOTSETTINGS
350
19
  3
ACAD_PLOTSTYLENAME
350
E
  3
ACAD_SCALELIST
350
47
  3
DWGPROPS
350
1FC
  0
DICTIONARY
  5
D
102
{ACAD_REACTORS
330
C
102
}
330
C
100
AcDbDictionary
281
     1
  0
DICTIONARY
  5
1A
102
{ACAD_REACTORS
330
C
102
}
330
C
100
AcDbDictionary
281
     1
  3
Layout1
350
1E
  3
Layout2
350
26
  3
Model
350
22
  0
DICTIONARY
  5
17
102
{ACAD_REACTORS
330
C
102
}
330
C
100
AcDbDictionary
281
     1
  3
Standard
350
18
  0
DICTIONARY
  5
19
102
{ACAD_REACTORS
330
C
102
}
330
C
100
AcDbDictionary
281
     1
  0
ACDBDICTIONARYWDFLT
  5
E
102
{ACAD_REACTORS
330
C
102
}
330
C
100
AcDbDictionary
281
     1
  3
Normal
350
F
100
AcDbDictionaryWithDefault
340
F
  0
DICTIONARY
  5
47
102
{ACAD_REACTORS
330
C
102
}
330
C
100
AcDbDictionary
281
     1
  3
A0
350
48
  3
A1
350
49
  3
A2
350
4A
  3
A3
350
4B
  3
A4
350
4C
  3
A5
350
4D
  3
A6
350
4E
  3
A7
350
4F
  3
A8
350
50
  3
A9
350
51
  3
B0
350
52
  3
B1
350
53
  3
B2
350
54
  3
B3
350
55
  3
B4
350
56
  3
B5
350
57
  3
B6
350
58
  3
B7
350
59
  3
B8
350
5A
  3
B9
350
5B
  3
C0
350
5C
  3
C1
350
5D
  3
C2
350
5E
  3
C3
350
5F
  3
C4
350
60
  3
C5
350
61
  3
C6
350
62
  3
C7
350
63
  3
C8
350
64
  3
C9
350
65
  3
D0
350
66
  3
D1
350
67
  3
D2
350
68
  0
XRECORD
  5
1FC
102
{ACAD_REACTORS
330
C
102
}
330
C
100
AcDbXrecord
280
     1
  1
DWGPROPS COOKIE
  2

  3

  4

  6

  7

  8
radek.stransky
  9

300
=
301
=
302
=
303
=
304
=
305
=
306
=
307
=
308
=
309
=
 40
0.0
 41
2459097.355246435
 42
2459097.355246898
  1

 90
        0
  0
LAYOUT
  5
1E
102
{ACAD_REACTORS
330
1A
102
}
330
1A
100
AcDbPlotSettings
  1

  2
none_device
  4

  6

 40
0.0
 41
0.0
 42
0.0
 43
0.0
 44
0.0
 45
0.0
 46
0.0
 47
0.0
 48
0.0
 49
0.0
140
0.0
141
0.0
142
1.0
143
1.0
 70
   688
 72
     1
 73
     0
 74
     5
  7

 75
    16
147
1.0
148
0.0
149
0.0
100
AcDbLayout
  1
Layout1
 70
     1
 71
     1
 10
0.0
 20
0.0
 11
420.0
 21
297.0
 12
0.0
 22
0.0
 32
0.0
 14
1.0000000000E+20
 24
1.0000000000E+20
 34
1.0000000000E+20
 15
-1.0000000000E+20
 25
-1.0000000000E+20
 35
-1.0000000000E+20
146
0.0
 13
0.0
 23
0.0
 33
0.0
 16
1.0
 26
0.0
 36
0.0
 17
0.0
 27
1.0
 37
0.0
 76
     0
330
1B
  0
LAYOUT
  5
26
102
{ACAD_REACTORS
330
1A
102
}
330
1A
100
AcDbPlotSettings
  1

  2
none_device
  4

  6

 40
0.0
 41
0.0
 42
0.0
 43
0.0
 44
0.0
 45
0.0
 46
0.0
 47
0.0
 48
0.0
 49
0.0
140
0.0
141
0.0
142
1.0
143
1.0
 70
   688
 72
     1
 73
     0
 74
     5
  7

 75
    16
147
1.0
148
0.0
149
0.0
100
AcDbLayout
  1
Layout2
 70
     1
 71
     2
 10
0.0
 20
0.0
 11
0.0
 21
0.0
 12
0.0
 22
0.0
 32
0.0
 14
0.0
 24
0.0
 34
0.0
 15
0.0
 25
0.0
 35
0.0
146
0.0
 13
0.0
 23
0.0
 33
0.0
 16
1.0
 26
0.0
 36
0.0
 17
0.0
 27
1.0
 37
0.0
 76
     0
330
23
  0
LAYOUT
  5
22
102
{ACAD_REACTORS
330
1A
102
}
330
1A
100
AcDbPlotSettings
  1

  2
none_device
  4
Letter_(8.50_x_11.00_Inches)
  6

 40
6.35
 41
6.35
 42
6.35000508
 43
6.35000508
 44
215.9
 45
279.4
 46
0.0
 47
0.0
 48
0.0
 49
0.0
140
0.0
141
0.0
142
1.0
143
1.0
 70
  1712
 72
     1
 73
     0
 74
     0
  7

 75
     0
147
1.0
148
0.0
149
0.0
100
AcDbLayout
  1
Model
 70
     1
 71
     0
 10
0.0
 20
0.0
 11
20000.0
 21
10000.0
 12
0.0
 22
0.0
 32
0.0
 14
0.0
 24
0.0
 34
0.0
 15
20000.0
 25
10000.0
 35
0.0
146
0.0
 13
0.0
 23
0.0
 33
0.0
 16
1.0
 26
0.0
 36
0.0
 17
0.0
 27
1.0
 37
0.0
 76
     0
330
1F
331
29
  0
MLINESTYLE
  5
18
102
{ACAD_REACTORS
330
17
102
}
330
17
100
AcDbMlineStyle
  2
Standard
 70
     0
  3

 62
   256
 51
90.0
 52
90.0
 71
     2
 49
0.5
 62
   256
  6
BYLAYER
 49
-0.5
 62
   256
  6
BYLAYER
  0
ACDBPLACEHOLDER
  5
F
102
{ACAD_REACTORS
330
E
102
}
330
E
  0
SCALE
  5
48
102
{ACAD_REACTORS
330
47
102
}
330
47
100
AcDbScale
 70
     0
300
1:1
140
1.0
141
1.0
290
     1
  0
SCALE
  5
49
102
{ACAD_REACTORS
330
47
102
}
330
47
100
AcDbScale
 70
     0
300
1:2
140
1.0
141
2.0
290
     0
  0
SCALE
  5
4A
102
{ACAD_REACTORS
330
47
102
}
330
47
100
AcDbScale
 70
     0
300
1:4
140
1.0
141
4.0
290
     0
  0
SCALE
  5
4B
102
{ACAD_REACTORS
330
47
102
}
330
47
100
AcDbScale
 70
     0
300
1:5
140
1.0
141
5.0
290
     0
  0
SCALE
  5
4C
102
{ACAD_REACTORS
330
47
102
}
330
47
100
AcDbScale
 70
     0
300
1:8
140
1.0
141
8.0
290
     0
  0
SCALE
  5
4D
102
{ACAD_REACTORS
330
47
102
}
330
47
100
AcDbScale
 70
     0
300
1:10
140
1.0
141
10.0
290
     0
  0
SCALE
  5
4E
102
{ACAD_REACTORS
330
47
102
}
330
47
100
AcDbScale
 70
     0
300
1:16
140
1.0
141
16.0
290
     0
  0
SCALE
  5
4F
102
{ACAD_REACTORS
330
47
102
}
330
47
100
AcDbScale
 70
     0
300
1:20
140
1.0
141
20.0
290
     0
  0
SCALE
  5
50
102
{ACAD_REACTORS
330
47
102
}
330
47
100
AcDbScale
 70
     0
300
1:30
140
1.0
141
30.0
290
     0
  0
SCALE
  5
51
102
{ACAD_REACTORS
330
47
102
}
330
47
100
AcDbScale
 70
     0
300
1:40
140
1.0
141
40.0
290
     0
  0
SCALE
  5
52
102
{ACAD_REACTORS
330
47
102
}
330
47
100
AcDbScale
 70
     0
300
1:50
140
1.0
141
50.0
290
     0
  0
SCALE
  5
53
102
{ACAD_REACTORS
330
47
102
}
330
47
100
AcDbScale
 70
     0
300
1:100
140
1.0
141
100.0
290
     0
  0
SCALE
  5
54
102
{ACAD_REACTORS
330
47
102
}
330
47
100
AcDbScale
 70
     0
300
2:1
140
2.0
141
1.0
290
     0
  0
SCALE
  5
55
102
{ACAD_REACTORS
330
47
102
}
330
47
100
AcDbScale
 70
     0
300
4:1
140
4.0
141
1.0
290
     0
  0
SCALE
  5
56
102
{ACAD_REACTORS
330
47
102
}
330
47
100
AcDbScale
 70
     0
300
8:1
140
8.0
141
1.0
290
     0
  0
SCALE
  5
57
102
{ACAD_REACTORS
330
47
102
}
330
47
100
AcDbScale
 70
     0
300
10:1
140
10.0
141
1.0
290
     0
  0
SCALE
  5
58
102
{ACAD_REACTORS
330
47
102
}
330
47
100
AcDbScale
 70
     0
300
100:1
140
100.0
141
1.0
290
     0
  0
SCALE
  5
59
102
{ACAD_REACTORS
330
47
102
}
330
47
100
AcDbScale
 70
     0
300
1/128" = 1'-0"
140
0.0078125
141
12.0
290
     0
  0
SCALE
  5
5A
102
{ACAD_REACTORS
330
47
102
}
330
47
100
AcDbScale
 70
     0
300
1/64" = 1'-0"
140
0.015625
141
12.0
290
     0
  0
SCALE
  5
5B
102
{ACAD_REACTORS
330
47
102
}
330
47
100
AcDbScale
 70
     0
300
1/32" = 1'-0"
140
0.03125
141
12.0
290
     0
  0
SCALE
  5
5C
102
{ACAD_REACTORS
330
47
102
}
330
47
100
AcDbScale
 70
     0
300
1/16" = 1'-0"
140
0.0625
141
12.0
290
     0
  0
SCALE
  5
5D
102
{ACAD_REACTORS
330
47
102
}
330
47
100
AcDbScale
 70
     0
300
3/32" = 1'-0"
140
0.09375
141
12.0
290
     0
  0
SCALE
  5
5E
102
{ACAD_REACTORS
330
47
102
}
330
47
100
AcDbScale
 70
     0
300
1/8" = 1'-0"
140
0.125
141
12.0
290
     0
  0
SCALE
  5
5F
102
{ACAD_REACTORS
330
47
102
}
330
47
100
AcDbScale
 70
     0
300
3/16" = 1'-0"
140
0.1875
141
12.0
290
     0
  0
SCALE
  5
60
102
{ACAD_REACTORS
330
47
102
}
330
47
100
AcDbScale
 70
     0
300
1/4" = 1'-0"
140
0.25
141
12.0
290
     0
  0
SCALE
  5
61
102
{ACAD_REACTORS
330
47
102
}
330
47
100
AcDbScale
 70
     0
300
3/8" = 1'-0"
140
0.375
141
12.0
290
     0
  0
SCALE
  5
62
102
{ACAD_REACTORS
330
47
102
}
330
47
100
AcDbScale
 70
     0
300
1/2" = 1'-0"
140
0.5
141
12.0
290
     0
  0
SCALE
  5
63
102
{ACAD_REACTORS
330
47
102
}
330
47
100
AcDbScale
 70
     0
300
3/4" = 1'-0"
140
0.75
141
12.0
290
     0
  0
SCALE
  5
64
102
{ACAD_REACTORS
330
47
102
}
330
47
100
AcDbScale
 70
     0
300
1" = 1'-0"
140
1.0
141
12.0
290
     0
  0
SCALE
  5
65
102
{ACAD_REACTORS
330
47
102
}
330
47
100
AcDbScale
 70
     0
300
1-1/2" = 1'-0"
140
1.5
141
12.0
290
     0
  0
SCALE
  5
66
102
{ACAD_REACTORS
330
47
102
}
330
47
100
AcDbScale
 70
     0
300
3" = 1'-0"
140
3.0
141
12.0
290
     0
  0
SCALE
  5
67
102
{ACAD_REACTORS
330
47
102
}
330
47
100
AcDbScale
 70
     0
300
6" = 1'-0"
140
6.0
141
12.0
290
     0
  0
SCALE
  5
68
102
{ACAD_REACTORS
330
47
102
}
330
47
100
AcDbScale
 70
     0
300
1'-0" = 1'-0"
140
12.0
141
12.0
290
     0
  0
ENDSEC
  0
EOF
