  0
SECTION
  2
HEADER
  9
$ACADVER
  1
AC1015
  9
$ACADMAINTVER
 70
     6
  9
$DWGCODEPAGE
  3
ANSI_1250
  9
$INSBASE
 10
0.0
 20
0.0
 30
0.0
  9
$EXTMIN
 10
0.0
 20
0.0
 30
0.0
  9
$EXTMAX
 10
20000.0
 20
10000.0
 30
0.0
  9
$LIMMIN
 10
0.0
 20
0.0
  9
$LIMMAX
 10
20000.0
 20
10000.0
  9
$ORTHOMODE
 70
     0
  9
$REGENMODE
 70
     1
  9
$FILLMODE
 70
     1
  9
$QTEXTMODE
 70
     0
  9
$MIRRTEXT
 70
     1
  9
$LTSCALE
 40
1.0
  9
$ATTMODE
 70
     1
  9
$TEXTSIZE
 40
2.0
  9
$TRACEWID
 40
1.0
  9
$TEXTSTYLE
  7
Standard
  9
$CLAYER
  8
0
  9
$CELTYPE
  6
ByLayer
  9
$CECOLOR
 62
   256
  9
$CELTSCALE
 40
1.0
  9
$DISPSILH
 70
     0
  9
$DIMSCALE
 40
1.0
  9
$DIMASZ
 40
2.0
  9
$DIMEXO
 40
1.0
  9
$DIMDLI
 40
3.75
  9
$DIMRND
 40
0.0
  9
$DIMDLE
 40
0.0
  9
$DIMEXE
 40
1.0
  9
$DIMTP
 40
0.0
  9
$DIMTM
 40
0.0
  9
$DIMTXT
 40
2.0
  9
$DIMCEN
 40
2.5
  9
$DIMTSZ
 40
0.0
  9
$DIMTOL
 70
     0
  9
$DIMLIM
 70
     0
  9
$DIMTIH
 70
     1
  9
$DIMTOH
 70
     1
  9
$DIMSE1
 70
     0
  9
$DIMSE2
 70
     0
  9
$DIMTAD
 70
     1
  9
$DIMZIN
 70
     0
  9
$DIMBLK
  1

  9
$DIMASO
 70
     1
  9
$DIMSHO
 70
     1
  9
$DIMPOST
  1

  9
$DIMAPOST
  1

  9
$DIMALT
 70
     0
  9
$DIMALTD
 70
     3
  9
$DIMALTF
 40
0.0393700787
  9
$DIMLFAC
 40
1.0
  9
$DIMTOFL
 70
     1
  9
$DIMTVP
 40
0.0
  9
$DIMTIX
 70
     0
  9
$DIMSOXD
 70
     0
  9
$DIMSAH
 70
     0
  9
$DIMBLK1
  1

  9
$DIMBLK2
  1

  9
$DIMSTYLE
  2
ISO-25
  9
$DIMCLRD
 70
     0
  9
$DIMCLRE
 70
     0
  9
$DIMCLRT
 70
     0
  9
$DIMTFAC
 40
1.0
  9
$DIMGAP
 40
1.524
  9
$DIMJUST
 70
     0
  9
$DIMSD1
 70
     0
  9
$DIMSD2
 70
     0
  9
$DIMTOLJ
 70
     0
  9
$DIMTZIN
 70
     0
  9
$DIMALTZ
 70
     0
  9
$DIMALTTZ
 70
     0
  9
$DIMUPT
 70
     0
  9
$DIMDEC
 70
     2
  9
$DIMTDEC
 70
     0
  9
$DIMALTU
 70
     2
  9
$DIMALTTD
 70
     3
  9
$DIMTXSTY
  7
Standard
  9
$DIMAUNIT
 70
     0
  9
$DIMADEC
 70
     2
  9
$DIMALTRND
 40
0.0
  9
$DIMAZIN
 70
     0
  9
$DIMDSEP
 70
    44
  9
$DIMATFIT
 70
     3
  9
$DIMFRAC
 70
     0
  9
$DIMLDRBLK
  1

  9
$DIMLUNIT
 70
     2
  9
$DIMLWD
 70
    -2
  9
$DIMLWE
 70
    -2
  9
$DIMTMOVE
 70
     0
  9
$LUNITS
 70
     2
  9
$LUPREC
 70
     3
  9
$SKETCHINC
 40
1.0
  9
$FILLETRAD
 40
10.0
  9
$AUNITS
 70
     0
  9
$AUPREC
 70
     2
  9
$MENU
  1
.
  9
$ELEVATION
 40
0.0
  9
$PELEVATION
 40
0.0
  9
$THICKNESS
 40
0.0
  9
$LIMCHECK
 70
     0
  9
$CHAMFERA
 40
0.0
  9
$CHAMFERB
 40
0.0
  9
$CHAMFERC
 40
0.0
  9
$CHAMFERD
 40
0.0
  9
$SKPOLY
 70
     0
  9
$TDCREATE
 40
2459094.617654005
  9
$TDUCREATE
 40
2459094.534320671
  9
$TDUPDATE
 40
2459094.617654352
  9
$TDUUPDATE
 40
2459094.534321018
  9
$TDINDWG
 40
0.0000000116
  9
$TDUSRTIMER
 40
0.0000000116
  9
$USRTIMER
 70
     1
  9
$ANGBASE
 50
0.0
  9
$ANGDIR
 70
     0
  9
$PDMODE
 70
     0
  9
$PDSIZE
 40
-1.0
  9
$PLINEWID
 40
0.0
  9
$SPLFRAME
 70
     0
  9
$SPLINETYPE
 70
     6
  9
$SPLINESEGS
 70
     8
  9
$HANDSEED
  5
378
  9
$SURFTAB1
 70
     6
  9
$SURFTAB2
 70
     6
  9
$SURFTYPE
 70
     6
  9
$SURFU
 70
     6
  9
$SURFV
 70
     6
  9
$UCSBASE
  2

  9
$UCSNAME
  2

  9
$UCSORG
 10
0.0
 20
0.0
 30
0.0
  9
$UCSXDIR
 10
1.0
 20
0.0
 30
0.0
  9
$UCSYDIR
 10
0.0
 20
1.0
 30
0.0
  9
$UCSORTHOREF
  2

  9
$UCSORTHOVIEW
 70
     0
  9
$UCSORGTOP
 10
0.0
 20
0.0
 30
0.0
  9
$UCSORGBOTTOM
 10
0.0
 20
0.0
 30
0.0
  9
$UCSORGLEFT
 10
0.0
 20
0.0
 30
0.0
  9
$UCSORGRIGHT
 10
0.0
 20
0.0
 30
0.0
  9
$UCSORGFRONT
 10
0.0
 20
0.0
 30
0.0
  9
$UCSORGBACK
 10
0.0
 20
0.0
 30
0.0
  9
$PUCSBASE
  2

  9
$PUCSNAME
  2

  9
$PUCSORG
 10
0.0
 20
0.0
 30
0.0
  9
$PUCSXDIR
 10
1.0
 20
0.0
 30
0.0
  9
$PUCSYDIR
 10
0.0
 20
1.0
 30
0.0
  9
$PUCSORTHOREF
  2

  9
$PUCSORTHOVIEW
 70
     0
  9
$PUCSORGTOP
 10
0.0
 20
0.0
 30
0.0
  9
$PUCSORGBOTTOM
 10
0.0
 20
0.0
 30
0.0
  9
$PUCSORGLEFT
 10
0.0
 20
0.0
 30
0.0
  9
$PUCSORGRIGHT
 10
0.0
 20
0.0
 30
0.0
  9
$PUCSORGFRONT
 10
0.0
 20
0.0
 30
0.0
  9
$PUCSORGBACK
 10
0.0
 20
0.0
 30
0.0
  9
$USERI1
 70
     0
  9
$USERI2
 70
     0
  9
$USERI3
 70
     0
  9
$USERI4
 70
     0
  9
$USERI5
 70
     0
  9
$USERR1
 40
0.0
  9
$USERR2
 40
0.0
  9
$USERR3
 40
0.0
  9
$USERR4
 40
0.0
  9
$USERR5
 40
0.0
  9
$WORLDVIEW
 70
     1
  9
$SHADEDGE
 70
     3
  9
$SHADEDIF
 70
    70
  9
$TILEMODE
 70
     1
  9
$MAXACTVP
 70
    64
  9
$PINSBASE
 10
0.0
 20
0.0
 30
0.0
  9
$PLIMCHECK
 70
     0
  9
$PEXTMIN
 10
1.0000000000E+20
 20
1.0000000000E+20
 30
1.0000000000E+20
  9
$PEXTMAX
 10
-1.0000000000E+20
 20
-1.0000000000E+20
 30
-1.0000000000E+20
  9
$PLIMMIN
 10
0.0
 20
0.0
  9
$PLIMMAX
 10
420.0
 20
297.0
  9
$UNITMODE
 70
     0
  9
$VISRETAIN
 70
     1
  9
$PLINEGEN
 70
     0
  9
$PSLTSCALE
 70
     1
  9
$TREEDEPTH
 70
  3020
  9
$CMLSTYLE
  2
Standard
  9
$CMLJUST
 70
     0
  9
$CMLSCALE
 40
20.0
  9
$PROXYGRAPHICS
 70
     1
  9
$MEASUREMENT
 70
     1
  9
$CELWEIGHT
370
    -1
  9
$ENDCAPS
280
     0
  9
$JOINSTYLE
280
     0
  9
$LWDISPLAY
290
     1
  9
$INSUNITS
 70
     4
  9
$HYPERLINKBASE
  1

  9
$STYLESHEET
  1

  9
$XEDIT
290
     1
  9
$CEPSNTYPE
380
     0
  9
$PSTYLEMODE
290
     1
  9
$FINGERPRINTGUID
  2
{e11a72e1-c07d-4c65-86e5-fc9afae49fe5}
  9
$VERSIONGUID
  2
{FAEB1C32-E019-11D5-929B-00C0DF256EC4}
  9
$EXTNAMES
290
     1
  9
$PSVPSCALE
 40
0.0
  9
$OLESTARTUP
290
     0
  0
ENDSEC
  0
SECTION
  2
CLASSES
  0
CLASS
  1
ACDBDICTIONARYWDFLT
  2
AcDbDictionaryWithDefault
  3
ObjectDBX Classes
 90
        0
280
     0
281
     0
  0
CLASS
  1
VISUALSTYLE
  2
AcDbVisualStyle
  3
ObjectDBX Classes
 90
     4095
280
     0
281
     0
  0
CLASS
  1
MATERIAL
  2
AcDbMaterial
  3
ObjectDBX Classes
 90
     1153
280
     0
281
     0
  0
CLASS
  1
SCALE
  2
AcDbScale
  3
ObjectDBX Classes
 90
     1153
280
     0
281
     0
  0
CLASS
  1
TABLESTYLE
  2
AcDbTableStyle
  3
ObjectDBX Classes
 90
     4095
280
     0
281
     0
  0
CLASS
  1
MLEADERSTYLE
  2
AcDbMLeaderStyle
  3
ACDB_MLEADERSTYLE_CLASS
 90
     4095
280
     0
281
     0
  0
CLASS
  1
SUN
  2
AcDbSun
  3
SCENEOE
 90
     1153
280
     0
281
     0
  0
CLASS
  1
ACDBPLACEHOLDER
  2
AcDbPlaceHolder
  3
ObjectDBX Classes
 90
        0
280
     0
281
     0
  0
CLASS
  1
LAYOUT
  2
AcDbLayout
  3
ObjectDBX Classes
 90
        0
280
     0
281
     0
  0
ENDSEC
  0
SECTION
  2
TABLES
  0
TABLE
  2
VPORT
  5
8
330
0
100
AcDbSymbolTable
 70
     1
  0
VPORT
  5
29
330
8
100
AcDbSymbolTableRecord
100
AcDbViewportTableRecord
  2
*Active
 70
     0
 10
0.0
 20
0.0
 11
1.0
 21
1.0
 12
10000.0
 22
5000.0
 13
0.0
 23
0.0
 14
10.0
 24
10.0
 15
10.0
 25
10.0
 16
0.0
 26
0.0
 36
1.0
 17
0.0
 27
0.0
 37
0.0
 40
10000.0
 41
2.0
 42
50.0
 43
0.0
 44
0.0
 50
0.0
 51
0.0
 71
     0
 72
  2000
 73
     1
 74
     3
 75
     0
 76
     0
 77
     0
 78
     0
281
     0
 65
     1
110
0.0
120
0.0
130
0.0
111
1.0
121
0.0
131
0.0
112
0.0
122
1.0
132
0.0
 79
     0
146
0.0
  0
ENDTAB
  0
TABLE
  2
LTYPE
  5
5
330
0
100
AcDbSymbolTable
 70
     6
  0
LTYPE
  5
14
330
5
100
AcDbSymbolTableRecord
100
AcDbLinetypeTableRecord
  2
ByBlock
 70
     0
  3

 72
    65
 73
     0
 40
0.0
  0
LTYPE
  5
15
330
5
100
AcDbSymbolTableRecord
100
AcDbLinetypeTableRecord
  2
ByLayer
 70
     0
  3

 72
    65
 73
     0
 40
0.0
  0
LTYPE
  5
16
330
5
100
AcDbSymbolTableRecord
100
AcDbLinetypeTableRecord
  2
Continuous
 70
     0
  3
Solid line
 72
    65
 73
     0
 40
0.0
  0
LTYPE
  5
6E
330
5
100
AcDbSymbolTableRecord
100
AcDbLinetypeTableRecord
  2
HIDDEN
 70
     0
  3
Hidden __ __ __ __ __ __ __ __ __ __ __ __ __ __
 72
    65
 73
     2
 40
1.905
 49
1.27
 74
     0
 49
-0.635
 74
     0
  0
LTYPE
  5
6F
330
5
100
AcDbSymbolTableRecord
100
AcDbLinetypeTableRecord
  2
PHANTOM
 70
     0
  3
Phantom ______  __  __  ______  __  __  ______
 72
    65
 73
     6
 40
12.7
 49
6.35
 74
     0
 49
-1.27
 74
     0
 49
1.27
 74
     0
 49
-1.27
 74
     0
 49
1.27
 74
     0
 49
-1.27
 74
     0
  0
LTYPE
  5
70
330
5
100
AcDbSymbolTableRecord
100
AcDbLinetypeTableRecord
  2
CENTER
 70
     0
  3
Center ____ _ ____ _ ____ _ ____ _ ____ _ ____
 72
    65
 73
     4
 40
10.16
 49
6.35
 74
     0
 49
-1.27
 74
     0
 49
1.27
 74
     0
 49
-1.27
 74
     0
  0
LTYPE
  5
71
330
5
100
AcDbSymbolTableRecord
100
AcDbLinetypeTableRecord
  2
CENTERX2
 70
     0
  3
Center (2x) ________  __  ________  __  _____
 72
    65
 73
     4
 40
20.32
 49
12.7
 74
     0
 49
-2.54
 74
     0
 49
2.54
 74
     0
 49
-2.54
 74
     0
  0
LTYPE
  5
72
330
5
100
AcDbSymbolTableRecord
100
AcDbLinetypeTableRecord
  2
DOT2
 70
     0
  3
Dot (.5x) ........................................
 72
    65
 73
     2
 40
0.635
 49
0.0
 74
     0
 49
-0.635
 74
     0
  0
ENDTAB
  0
TABLE
  2
LAYER
  5
2
330
0
100
AcDbSymbolTable
 70
    13
  0
LAYER
  5
10
330
2
100
AcDbSymbolTableRecord
100
AcDbLayerTableRecord
  2
0
 70
     0
 62
     7
  6
Continuous
370
    -3
390
F
  0
LAYER
  5
73
330
2
100
AcDbSymbolTableRecord
100
AcDbLayerTableRecord
  2
FORMAT
 70
     0
 62
     7
  6
Continuous
370
    -3
390
F
  0
LAYER
  5
74
330
2
100
AcDbSymbolTableRecord
100
AcDbLayerTableRecord
  2
OSA
 70
     0
 62
     7
  6
CENTER
370
    -3
390
F
  0
LAYER
  5
75
330
2
100
AcDbSymbolTableRecord
100
AcDbLayerTableRecord
  2
0_35
 70
     0
 62
     7
  6
Continuous
370
    35
390
F
  0
LAYER
  5
76
330
2
100
AcDbSymbolTableRecord
100
AcDbLayerTableRecord
  2
0_5
 70
     0
 62
     7
  6
Continuous
370
    50
390
F
  0
LAYER
  5
77
330
2
100
AcDbSymbolTableRecord
100
AcDbLayerTableRecord
  2
0_25
 70
     0
 62
     7
  6
Continuous
370
    25
390
F
  0
LAYER
  5
78
330
2
100
AcDbSymbolTableRecord
100
AcDbLayerTableRecord
  2
0_18
 70
     0
 62
     7
  6
Continuous
370
    -3
390
F
  0
LAYER
  5
79
330
2
100
AcDbSymbolTableRecord
100
AcDbLayerTableRecord
  2
SLD-0
 70
     0
 62
   179
  6
Continuous
370
    -3
390
F
  0
LAYER
  5
7A
330
2
100
AcDbSymbolTableRecord
100
AcDbLayerTableRecord
  2
KOTY
 70
     0
 62
     7
  6
Continuous
370
    -3
390
F
  0
LAYER
  5
7B
330
2
100
AcDbSymbolTableRecord
100
AcDbLayerTableRecord
  2
SILNA
 70
     0
 62
   179
  6
Continuous
370
    -3
390
F
  0
LAYER
  5
7C
330
2
100
AcDbSymbolTableRecord
100
AcDbLayerTableRecord
  2
0_18_1
 70
     0
 62
   179
  6
Continuous
370
    -3
390
F
  0
LAYER
  5
7D
330
2
100
AcDbSymbolTableRecord
100
AcDbLayerTableRecord
  2
0_35_1
 70
     0
 62
   179
  6
Continuous
370
    35
390
F
  0
LAYER
  5
7E
330
2
100
AcDbSymbolTableRecord
100
AcDbLayerTableRecord
  2
0_5_1
 70
     0
 62
   179
  6
Continuous
370
    50
390
F
  0
ENDTAB
  0
TABLE
  2
STYLE
  5
3
330
0
100
AcDbSymbolTable
 70
     1
  0
STYLE
  5
11
330
3
100
AcDbSymbolTableRecord
100
AcDbTextStyleTableRecord
  2
Standard
 70
     0
 40
0.0
 41
1.0
 50
0.0
 71
     0
 42
2.0
  3
txt
  4

  0
ENDTAB
  0
TABLE
  2
VIEW
  5
6
330
0
100
AcDbSymbolTable
 70
     0
  0
ENDTAB
  0
TABLE
  2
UCS
  5
7
330
0
100
AcDbSymbolTable
 70
     0
  0
ENDTAB
  0
TABLE
  2
APPID
  5
9
330
0
100
AcDbSymbolTable
 70
     1
  0
APPID
  5
12
330
9
100
AcDbSymbolTableRecord
100
AcDbRegAppTableRecord
  2
ACAD
 70
     0
  0
ENDTAB
  0
TABLE
  2
DIMSTYLE
  5
A
330
0
100
AcDbSymbolTable
 70
     1
100
AcDbDimStyleTable
  0
DIMSTYLE
105
27
330
A
100
AcDbSymbolTableRecord
100
AcDbDimStyleTableRecord
  2
ISO-25
 70
     0
 41
2.5
 42
0.625
 43
3.75
 44
1.25
 73
     0
 74
     0
 77
     1
 78
     8
140
2.5
141
2.5
143
0.0393700787
147
0.625
171
     3
172
     1
178
     0
271
     2
272
     2
274
     3
278
    44
283
     0
284
     8
340
11
  0
ENDTAB
  0
TABLE
  2
BLOCK_RECORD
  5
1
330
0
100
AcDbSymbolTable
 70
     1
  0
BLOCK_RECORD
  5
1F
330
1
100
AcDbSymbolTableRecord
100
AcDbBlockTableRecord
  2
*Model_Space
340
22
  0
BLOCK_RECORD
  5
1B
330
1
100
AcDbSymbolTableRecord
100
AcDbBlockTableRecord
  2
*Paper_Space
340
1E
  0
BLOCK_RECORD
  5
23
330
1
100
AcDbSymbolTableRecord
100
AcDbBlockTableRecord
  2
*Paper_Space0
340
26
  0
ENDTAB
  0
ENDSEC
  0
SECTION
  2
BLOCKS
  0
BLOCK
  5
20
330
1F
100
AcDbEntity
  8
0
100
AcDbBlockBegin
  2
*Model_Space
 70
     0
 10
0.0
 20
0.0
 30
0.0
  3
*Model_Space
  1

  0
ENDBLK
  5
21
330
1F
100
AcDbEntity
  8
0
100
AcDbBlockEnd
  0
BLOCK
  5
1C
330
1B
100
AcDbEntity
 67
     1
  8
0
100
AcDbBlockBegin
  2
*Paper_Space
 70
     0
 10
0.0
 20
0.0
 30
0.0
  3
*Paper_Space
  1

  0
ENDBLK
  5
1D
330
1B
100
AcDbEntity
 67
     1
  8
0
100
AcDbBlockEnd
  0
BLOCK
  5
24
330
23
100
AcDbEntity
  8
0
100
AcDbBlockBegin
  2
*Paper_Space0
 70
     0
 10
0.0
 20
0.0
 30
0.0
  3
*Paper_Space0
  1

  0
ENDBLK
  5
25
330
23
100
AcDbEntity
  8
0
100
AcDbBlockEnd
  0
ENDSEC
  0
SECTION
  2
ENTITIES
  0
ARC
  5
7F
330
1F
100
AcDbEntity
  8
0
  6
Continuous
 62
     7
370
    25
100
AcDbCircle
 10
2888.7389610434
 20
6098.3453197169
 30
0.0
 40
124.8437500000003
100
AcDbArc
 50
184.5787221185
 51
355.4105290268
  0
ARC
  5
80
330
1F
100
AcDbEntity
  8
0
  6
Continuous
 62
     7
370
    25
100
AcDbCircle
 10
2888.7389610434
 20
6098.3453197169
 30
0.0
 40
124.84375
100
AcDbArc
 50
4.5882297786
 51
175.4051539956
  0
ARC
  5
81
330
1F
100
AcDbEntity
  8
0
  6
Continuous
 62
     7
370
    25
100
AcDbCircle
 10
2888.7389610434
 20
6098.3453197169
 30
0.0
 40
117.5000000000004
100
AcDbArc
 50
4.8804078444
 51
175.1275907075
  0
ARC
  5
82
330
1F
100
AcDbEntity
  8
0
  6
Continuous
 62
     7
370
    25
100
AcDbCircle
 10
2888.7389610434
 20
6098.3453197169
 30
0.0
 40
117.4999999999999
100
AcDbArc
 50
184.8770419663
 51
355.1289737622
  0
LINE
  5
83
330
1F
100
AcDbEntity
  8
0
  6
Continuous
 62
     7
370
    25
100
AcDbLine
 10
3073.7389610434
 20
6088.3453197169
 30
0.0
 11
3073.7389610434
 21
6080.8453197169
 31
0.0
  0
LINE
  5
84
330
1F
100
AcDbEntity
  8
0
  6
Continuous
 62
     7
370
    25
100
AcDbLine
 10
3123.7389610434
 20
6080.8453197169
 30
0.0
 11
3123.7389610434
 21
6088.3453197169
 31
0.0
  0
ARC
  5
85
330
1F
100
AcDbEntity
  8
0
  6
Continuous
 62
     7
370
    25
100
AcDbCircle
 10
3113.7389610434
 20
6080.8453197169
 30
0.0
 40
10.00000000000091
100
AcDbArc
 50
270.0
 51
0.0
  0
ARC
  5
86
330
1F
100
AcDbEntity
  8
0
  6
Continuous
 62
     7
370
    25
100
AcDbCircle
 10
3083.7389610434
 20
6080.8453197169
 30
0.0
 40
10.00000000000091
100
AcDbArc
 50
180.0
 51
270.0
  0
LINE
  5
87
330
1F
100
AcDbEntity
  8
0
  6
Continuous
 62
     7
370
    25
100
AcDbLine
 10
2653.7389610434
 20
6088.3453197169
 30
0.0
 11
2653.7389610434
 21
6080.8453197169
 31
0.0
  0
LINE
  5
88
330
1F
100
AcDbEntity
  8
0
  6
Continuous
 62
     7
370
    25
100
AcDbLine
 10
2703.7389610434
 20
6080.8453197169
 30
0.0
 11
2703.7389610434
 21
6088.3453197169
 31
0.0
  0
ARC
  5
89
330
1F
100
AcDbEntity
  8
0
  6
Continuous
 62
     7
370
    25
100
AcDbCircle
 10
2693.7389610434
 20
6080.8453197169
 30
0.0
 40
10.00000000000045
100
AcDbArc
 50
270.0
 51
0.0
  0
ARC
  5
8A
330
1F
100
AcDbEntity
  8
0
  6
Continuous
 62
     7
370
    25
100
AcDbCircle
 10
2663.7389610434
 20
6080.8453197169
 30
0.0
 40
10.00000000000045
100
AcDbArc
 50
180.0
 51
270.0
  0
LINE
  5
8B
330
1F
100
AcDbEntity
  8
0
  6
Continuous
 62
     7
370
    25
100
AcDbLine
 10
3111.2389610434
 20
6108.3453197169
 30
0.0
 11
3111.2389610434
 21
6163.3453197169
 31
0.0
  0
LINE
  5
8C
330
1F
100
AcDbEntity
  8
0
  6
Continuous
 62
     7
370
    25
100
AcDbLine
 10
3086.2389610434
 20
6163.3453197169
 30
0.0
 11
3086.2389610434
 21
6108.3453197169
 31
0.0
  0
LINE
  5
8D
330
1F
100
AcDbEntity
  8
0
  6
Continuous
 62
     7
370
    25
100
AcDbLine
 10
2691.2389610434
 20
6108.3453197169
 30
0.0
 11
2691.2389610434
 21
6163.3453197169
 31
0.0
  0
LINE
  5
8E
330
1F
100
AcDbEntity
  8
0
  6
Continuous
 62
     7
370
    25
100
AcDbLine
 10
2666.2389610434
 20
6163.3453197169
 30
0.0
 11
2666.2389610434
 21
6108.3453197169
 31
0.0
  0
LINE
  5
8F
330
1F
100
AcDbEntity
  8
0
  6
Continuous
 62
     7
370
    25
100
AcDbLine
 10
2908.7389610434
 20
6303.3453197169
 30
0.0
 11
2908.7389610434
 21
6960.8453197169
 31
0.0
  0
LINE
  5
90
330
1F
100
AcDbEntity
  8
0
  6
Continuous
 62
     7
370
    25
100
AcDbLine
 10
2908.7389610434
 20
7060.8453197169
 30
0.0
 11
2908.7389610434
 21
7243.3453197169
 31
0.0
  0
LINE
  5
91
330
1F
100
AcDbEntity
  8
0
  6
Continuous
 62
     7
370
    25
100
AcDbLine
 10
2868.7389610434
 20
7243.3453197169
 30
0.0
 11
2868.7389610434
 21
7060.8453197169
 31
0.0
  0
LINE
  5
92
330
1F
100
AcDbEntity
  8
0
  6
Continuous
 62
     7
370
    25
100
AcDbLine
 10
2868.7389610434
 20
6960.8453197169
 30
0.0
 11
2868.7389610434
 21
6303.3453197169
 31
0.0
  0
LINE
  5
93
330
1F
100
AcDbEntity
  8
0
  6
Continuous
 62
     7
370
    25
100
AcDbLine
 10
2907.4889610434
 20
6268.3453197169
 30
0.0
 11
2907.4889610434
 21
6303.3453197169
 31
0.0
  0
LINE
  5
94
330
1F
100
AcDbEntity
  8
0
  6
Continuous
 62
     7
370
    25
100
AcDbLine
 10
2869.9889610434
 20
6303.3453197169
 30
0.0
 11
2869.9889610434
 21
6268.3453197169
 31
0.0
  0
ARC
  5
95
330
1F
100
AcDbEntity
  8
0
  6
Continuous
 62
     7
370
    25
100
AcDbCircle
 10
2488.7389610434
 20
7214.5953197169
 30
0.0
 40
42.50000000000014
100
AcDbArc
 50
330.0
 51
30.0
  0
SPLINE
  5
96
330
1F
100
AcDbEntity
  8
0
  6
Continuous
 62
     7
370
    25
100
AcDbSpline
210
0.0
220
0.0
230
1.0
 70
    24
 71
     3
 72
    10
 73
     6
 74
     0
 42
0.00000001
 43
0.00000001
 40
0.0
 40
0.0
 40
0.0
 40
0.0
 40
0.3315739395275091
 40
0.6721625413041653
 40
1.0
 40
1.0
 40
1.0
 40
1.0
 10
2537.813733924494
 20
7214.595319716858
 30
0.0
 10
2536.485053302202
 20
7216.896662061701
 30
0.0
 10
2533.791568570157
 20
7221.561914467014
 30
0.0
 10
2529.65178868672
 20
7228.732223557276
 30
0.0
 10
2526.896435988881
 20
7233.504634422708
 30
0.0
 10
2525.545040704214
 20
7235.845319716858
 30
0.0
  0
SPLINE
  5
97
330
1F
100
AcDbEntity
  8
0
  6
Continuous
 62
     7
370
    25
100
AcDbSpline
210
0.0
220
0.0
230
1.0
 70
    24
 71
     3
 72
     9
 73
     5
 74
     0
 42
0.00000001
 43
0.00000001
 40
0.0
 40
0.0
 40
0.0
 40
0.0
 40
0.4962229202406811
 40
0.9999999999999999
 40
0.9999999999999999
 40
0.9999999999999999
 40
0.9999999999999999
 10
2525.545040704214
 20
7193.345319716858
 30
0.0
 10
2527.59743040176
 20
7196.90016294994
 30
0.0
 10
2531.733453978727
 20
7204.063965926549
 30
0.0
 10
2535.776792600925
 20
7211.0672338524
 30
0.0
 10
2537.813733924494
 20
7214.595319716858
 30
0.0
  0
ARC
  5
98
330
1F
100
AcDbEntity
  8
0
  6
Continuous
 62
     7
370
    25
100
AcDbCircle
 10
2488.7389610434
 20
7214.5953197169
 30
0.0
 40
42.50000000000014
100
AcDbArc
 50
210.0
 51
270.0
  0
SPLINE
  5
99
330
1F
100
AcDbEntity
  8
0
  6
Continuous
 62
     7
370
    25
100
AcDbSpline
210
0.0
220
0.0
230
1.0
 70
    24
 71
     3
 72
     9
 73
     5
 74
     0
 42
0.00000001
 43
0.00000001
 40
0.0
 40
0.0
 40
0.0
 40
0.0
 40
0.4054701119095369
 40
1.0
 40
1.0
 40
1.0
 40
1.0
 10
2464.201574602816
 20
7172.095319716859
 30
0.0
 10
2467.467742433583
 20
7172.095319716859
 30
0.0
 10
2475.523004054186
 20
7172.095319716858
 30
0.0
 10
2483.811313409752
 20
7172.095319716858
 30
0.0
 10
2488.738961043376
 20
7172.095319716859
 30
0.0
  0
SPLINE
  5
9A
330
1F
100
AcDbEntity
  8
0
  6
Continuous
 62
     7
370
    25
100
AcDbSpline
210
0.0
220
0.0
230
1.0
 70
    24
 71
     3
 72
     9
 73
     5
 74
     0
 42
0.00000001
 43
0.00000001
 40
0.0
 40
0.0
 40
0.0
 40
0.0
 40
0.4962229202406771
 40
1.0
 40
1.0
 40
1.0
 40
1.0
 10
2451.932881382537
 20
7193.345319716858
 30
0.0
 10
2453.985271080084
 20
7189.790476483778
 30
0.0
 10
2458.121294657049
 20
7182.626673507169
 30
0.0
 10
2462.164633279248
 20
7175.623405581317
 30
0.0
 10
2464.201574602816
 20
7172.095319716859
 30
0.0
  0
ARC
  5
9B
330
1F
100
AcDbEntity
  8
0
  6
Continuous
 62
     7
370
    25
100
AcDbCircle
 10
2488.7389610434
 20
7214.5953197169
 30
0.0
 40
42.50000000000014
100
AcDbArc
 50
150.0
 51
210.0
  0
SPLINE
  5
9C
330
1F
100
AcDbEntity
  8
0
  6
Continuous
 62
     7
370
    25
100
AcDbSpline
210
0.0
220
0.0
230
1.0
 70
    24
 71
     3
 72
     9
 73
     5
 74
     0
 42
0.00000001
 43
0.00000001
 40
0.0
 40
0.0
 40
0.0
 40
0.0
 40
0.4962229202406771
 40
1.0
 40
1.0
 40
1.0
 40
1.0
 10
2451.932881382537
 20
7235.845319716858
 30
0.0
 10
2449.88049168499
 20
7232.290476483777
 30
0.0
 10
2445.744468108024
 20
7225.126673507169
 30
0.0
 10
2441.701129485826
 20
7218.123405581317
 30
0.0
 10
2439.664188162257
 20
7214.595319716858
 30
0.0
  0
SPLINE
  5
9D
330
1F
100
AcDbEntity
  8
0
  6
Continuous
 62
     7
370
    25
100
AcDbSpline
210
0.0
220
0.0
230
1.0
 70
    24
 71
     3
 72
    10
 73
     6
 74
     0
 42
0.00000001
 43
0.00000001
 40
0.0
 40
0.0
 40
0.0
 40
0.0
 40
0.3315739395275104
 40
0.6721625413041669
 40
1.0
 40
1.0
 40
1.0
 40
1.0
 10
2439.664188162257
 20
7214.595319716858
 30
0.0
 10
2440.992868784549
 20
7212.293977372017
 30
0.0
 10
2443.686353516594
 20
7207.628724966704
 30
0.0
 10
2447.826133400031
 20
7200.45841587644
 30
0.0
 10
2450.58148609787
 20
7195.68600501101
 30
0.0
 10
2451.932881382537
 20
7193.345319716858
 30
0.0
  0
SPLINE
  5
9E
330
1F
100
AcDbEntity
  8
0
  6
Continuous
 62
     7
370
    25
100
AcDbSpline
210
0.0
220
0.0
230
1.0
 70
    24
 71
     3
 72
     9
 73
     5
 74
     0
 42
0.00000001
 43
0.00000001
 40
0.0
 40
0.0
 40
0.0
 40
0.0
 40
0.4962229202406764
 40
1.0
 40
1.0
 40
1.0
 40
1.0
 10
2525.545040704214
 20
7235.845319716858
 30
0.0
 10
2523.492651006668
 20
7239.400162949941
 30
0.0
 10
2519.356627429701
 20
7246.563965926549
 30
0.0
 10
2515.313288807504
 20
7253.567233852401
 30
0.0
 10
2513.276347483935
 20
7257.095319716859
 30
0.0
  0
ARC
  5
9F
330
1F
100
AcDbEntity
  8
0
  6
Continuous
 62
     7
370
    25
100
AcDbCircle
 10
2488.7389610434
 20
7214.5953197169
 30
0.0
 40
42.50000000000091
100
AcDbArc
 50
30.0
 51
90.0
  0
SPLINE
  5
A0
330
1F
100
AcDbEntity
  8
0
  6
Continuous
 62
     7
370
    25
100
AcDbSpline
210
0.0
220
0.0
230
1.0
 70
    24
 71
     3
 72
     9
 73
     5
 74
     0
 42
0.00000001
 43
0.00000001
 40
0.0
 40
0.0
 40
0.0
 40
0.0
 40
0.4054701119095638
 40
1.0
 40
1.0
 40
1.0
 40
1.0
 10
2513.276347483935
 20
7257.095319716859
 30
0.0
 10
2510.010179653168
 20
7257.095319716859
 30
0.0
 10
2501.954918032565
 20
7257.095319716859
 30
0.0
 10
2493.666608676999
 20
7257.095319716859
 30
0.0
 10
2488.738961043376
 20
7257.095319716859
 30
0.0
  0
SPLINE
  5
A1
330
1F
100
AcDbEntity
  8
0
  6
Continuous
 62
     7
370
    25
100
AcDbSpline
210
0.0
220
0.0
230
1.0
 70
    24
 71
     3
 72
     9
 73
     5
 74
     0
 42
0.00000001
 43
0.00000001
 40
0.0
 40
0.0
 40
0.0
 40
0.0
 40
0.7169484261070668
 40
1.0
 40
1.0
 40
1.0
 40
1.0
 10
2488.738961043376
 20
7257.095319716859
 30
0.0
 10
2482.779695107878
 20
7257.095319716859
 30
0.0
 10
2474.46770819432
 20
7257.095319716859
 30
0.0
 10
2466.466366860585
 20
7257.095319716859
 30
0.0
 10
2464.201574602816
 20
7257.095319716859
 30
0.0
  0
ARC
  5
A2
330
1F
100
AcDbEntity
  8
0
  6
Continuous
 62
     7
370
    25
100
AcDbCircle
 10
2488.7389610434
 20
7214.5953197169
 30
0.0
 40
42.50000000000091
100
AcDbArc
 50
90.0
 51
150.0
  0
SPLINE
  5
A3
330
1F
100
AcDbEntity
  8
0
  6
Continuous
 62
     7
370
    25
100
AcDbSpline
210
0.0
220
0.0
230
1.0
 70
    24
 71
     3
 72
    10
 73
     6
 74
     0
 42
0.00000001
 43
0.00000001
 40
0.0
 40
0.0
 40
0.0
 40
0.0
 40
0.3315739395276516
 40
0.6721625413044566
 40
1.0
 40
1.0
 40
1.0
 40
1.0
 10
2464.201574602816
 20
7257.095319716859
 30
0.0
 10
2462.872893980524
 20
7254.793977372015
 30
0.0
 10
2460.179409248478
 20
7250.128724966701
 30
0.0
 10
2456.039629365041
 20
7242.958415876437
 30
0.0
 10
2453.284276667202
 20
7238.186005011007
 30
0.0
 10
2451.932881382537
 20
7235.845319716858
 30
0.0
  0
ARC
  5
A4
330
1F
100
AcDbEntity
  8
0
  6
Continuous
 62
     7
370
    25
100
AcDbCircle
 10
2488.7389610434
 20
7214.5953197169
 30
0.0
 40
42.50000000000014
100
AcDbArc
 50
270.0
 51
330.0
  0
SPLINE
  5
A5
330
1F
100
AcDbEntity
  8
0
  6
Continuous
 62
     7
370
    25
100
AcDbSpline
210
0.0
220
0.0
230
1.0
 70
    24
 71
     3
 72
     9
 73
     5
 74
     0
 42
0.00000001
 43
0.00000001
 40
0.0
 40
0.0
 40
0.0
 40
0.0
 40
0.7169484261070647
 40
1.0
 40
1.0
 40
1.0
 40
1.0
 10
2488.738961043376
 20
7172.095319716859
 30
0.0
 10
2494.698226978873
 20
7172.095319716859
 30
0.0
 10
2503.010213892431
 20
7172.095319716859
 30
0.0
 10
2511.011555226166
 20
7172.095319716859
 30
0.0
 10
2513.276347483935
 20
7172.095319716859
 30
0.0
  0
SPLINE
  5
A6
330
1F
100
AcDbEntity
  8
0
  6
Continuous
 62
     7
370
    25
100
AcDbSpline
210
0.0
220
0.0
230
1.0
 70
    24
 71
     3
 72
    10
 73
     6
 74
     0
 42
0.00000001
 43
0.00000001
 40
0.0
 40
0.0
 40
0.0
 40
0.0
 40
0.3315739395276502
 40
0.6721625413044552
 40
1.0
 40
1.0
 40
1.0
 40
1.0
 10
2513.276347483935
 20
7172.095319716858
 30
0.0
 10
2514.605028106227
 20
7174.396662061701
 30
0.0
 10
2517.298512838273
 20
7179.061914467016
 30
0.0
 10
2521.438292721709
 20
7186.23222355728
 30
0.0
 10
2524.193645419549
 20
7191.004634422709
 30
0.0
 10
2525.545040704214
 20
7193.345319716858
 30
0.0
  0
ARC
  5
A7
330
1F
100
AcDbEntity
  8
0
  6
Continuous
 62
     7
370
    25
100
AcDbCircle
 10
3288.7389610434
 20
7214.5953197169
 30
0.0
 40
42.49999999999974
100
AcDbArc
 50
330.0
 51
30.0
  0
SPLINE
  5
A8
330
1F
100
AcDbEntity
  8
0
  6
Continuous
 62
     7
370
    25
100
AcDbSpline
210
0.0
220
0.0
230
1.0
 70
    24
 71
     3
 72
    10
 73
     6
 74
     0
 42
0.00000001
 43
0.00000001
 40
0.0
 40
0.0
 40
0.0
 40
0.0
 40
0.3315739395275091
 40
0.6721625413041653
 40
1.0
 40
1.0
 40
1.0
 40
1.0
 10
3337.813733924494
 20
7214.595319716856
 30
0.0
 10
3336.485053302203
 20
7216.896662061699
 30
0.0
 10
3333.791568570158
 20
7221.561914467012
 30
0.0
 10
3329.651788686721
 20
7228.732223557275
 30
0.0
 10
3326.896435988881
 20
7233.504634422707
 30
0.0
 10
3325.545040704215
 20
7235.845319716856
 30
0.0
  0
SPLINE
  5
A9
330
1F
100
AcDbEntity
  8
0
  6
Continuous
 62
     7
370
    25
100
AcDbSpline
210
0.0
220
0.0
230
1.0
 70
    24
 71
     3
 72
     9
 73
     5
 74
     0
 42
0.00000001
 43
0.00000001
 40
0.0
 40
0.0
 40
0.0
 40
0.0
 40
0.4962229202406811
 40
0.9999999999999999
 40
0.9999999999999999
 40
0.9999999999999999
 40
0.9999999999999999
 10
3325.545040704215
 20
7193.345319716857
 30
0.0
 10
3327.597430401762
 20
7196.900162949938
 30
0.0
 10
3331.733453978728
 20
7204.063965926547
 30
0.0
 10
3335.776792600926
 20
7211.067233852399
 30
0.0
 10
3337.813733924494
 20
7214.595319716856
 30
0.0
  0
ARC
  5
AA
330
1F
100
AcDbEntity
  8
0
  6
Continuous
 62
     7
370
    25
100
AcDbCircle
 10
3288.7389610434
 20
7214.5953197169
 30
0.0
 40
42.49999999999969
100
AcDbArc
 50
210.0
 51
270.0
  0
SPLINE
  5
AB
330
1F
100
AcDbEntity
  8
0
  6
Continuous
 62
     7
370
    25
100
AcDbSpline
210
0.0
220
0.0
230
1.0
 70
    24
 71
     3
 72
     9
 73
     5
 74
     0
 42
0.00000001
 43
0.00000001
 40
0.0
 40
0.0
 40
0.0
 40
0.0
 40
0.4054701119095369
 40
1.0
 40
1.0
 40
1.0
 40
1.0
 10
3264.201574602818
 20
7172.095319716857
 30
0.0
 10
3267.467742433584
 20
7172.095319716857
 30
0.0
 10
3275.523004054187
 20
7172.095319716857
 30
0.0
 10
3283.811313409753
 20
7172.095319716857
 30
0.0
 10
3288.738961043377
 20
7172.095319716857
 30
0.0
  0
SPLINE
  5
AC
330
1F
100
AcDbEntity
  8
0
  6
Continuous
 62
     7
370
    25
100
AcDbSpline
210
0.0
220
0.0
230
1.0
 70
    24
 71
     3
 72
     9
 73
     5
 74
     0
 42
0.00000001
 43
0.00000001
 40
0.0
 40
0.0
 40
0.0
 40
0.0
 40
0.4962229202406771
 40
1.0
 40
1.0
 40
1.0
 40
1.0
 10
3251.932881382538
 20
7193.345319716857
 30
0.0
 10
3253.985271080084
 20
7189.790476483776
 30
0.0
 10
3258.121294657051
 20
7182.626673507168
 30
0.0
 10
3262.164633279248
 20
7175.623405581315
 30
0.0
 10
3264.201574602818
 20
7172.095319716857
 30
0.0
  0
ARC
  5
AD
330
1F
100
AcDbEntity
  8
0
  6
Continuous
 62
     7
370
    25
100
AcDbCircle
 10
3288.7389610434
 20
7214.5953197169
 30
0.0
 40
42.49999999999974
100
AcDbArc
 50
150.0
 51
210.0
  0
SPLINE
  5
AE
330
1F
100
AcDbEntity
  8
0
  6
Continuous
 62
     7
370
    25
100
AcDbSpline
210
0.0
220
0.0
230
1.0
 70
    24
 71
     3
 72
     9
 73
     5
 74
     0
 42
0.00000001
 43
0.00000001
 40
0.0
 40
0.0
 40
0.0
 40
0.0
 40
0.4962229202406771
 40
1.0
 40
1.0
 40
1.0
 40
1.0
 10
3251.932881382538
 20
7235.845319716856
 30
0.0
 10
3249.880491684991
 20
7232.290476483776
 30
0.0
 10
3245.744468108025
 20
7225.126673507167
 30
0.0
 10
3241.701129485828
 20
7218.123405581315
 30
0.0
 10
3239.664188162259
 20
7214.595319716856
 30
0.0
  0
SPLINE
  5
AF
330
1F
100
AcDbEntity
  8
0
  6
Continuous
 62
     7
370
    25
100
AcDbSpline
210
0.0
220
0.0
230
1.0
 70
    24
 71
     3
 72
    10
 73
     6
 74
     0
 42
0.00000001
 43
0.00000001
 40
0.0
 40
0.0
 40
0.0
 40
0.0
 40
0.3315739395275104
 40
0.6721625413041669
 40
1.0
 40
1.0
 40
1.0
 40
1.0
 10
3239.664188162259
 20
7214.595319716856
 30
0.0
 10
3240.99286878455
 20
7212.293977372015
 30
0.0
 10
3243.686353516595
 20
7207.628724966702
 30
0.0
 10
3247.826133400032
 20
7200.458415876438
 30
0.0
 10
3250.581486097872
 20
7195.686005011008
 30
0.0
 10
3251.932881382538
 20
7193.345319716857
 30
0.0
  0
ARC
  5
B0
330
1F
100
AcDbEntity
  8
0
  6
Continuous
 62
     7
370
    25
100
AcDbCircle
 10
3288.7389610434
 20
7214.5953197169
 30
0.0
 40
42.50000000000091
100
AcDbArc
 50
30.0
 51
90.0
  0
SPLINE
  5
B1
330
1F
100
AcDbEntity
  8
0
  6
Continuous
 62
     7
370
    25
100
AcDbSpline
210
0.0
220
0.0
230
1.0
 70
    24
 71
     3
 72
     9
 73
     5
 74
     0
 42
0.00000001
 43
0.00000001
 40
0.0
 40
0.0
 40
0.0
 40
0.0
 40
0.4054701119095638
 40
1.0
 40
1.0
 40
1.0
 40
1.0
 10
3313.276347483936
 20
7257.095319716857
 30
0.0
 10
3310.010179653169
 20
7257.095319716857
 30
0.0
 10
3301.954918032566
 20
7257.095319716857
 30
0.0
 10
3293.666608677
 20
7257.095319716857
 30
0.0
 10
3288.738961043377
 20
7257.095319716857
 30
0.0
  0
SPLINE
  5
B2
330
1F
100
AcDbEntity
  8
0
  6
Continuous
 62
     7
370
    25
100
AcDbSpline
210
0.0
220
0.0
230
1.0
 70
    24
 71
     3
 72
     9
 73
     5
 74
     0
 42
0.00000001
 43
0.00000001
 40
0.0
 40
0.0
 40
0.0
 40
0.0
 40
0.4962229202406764
 40
1.0
 40
1.0
 40
1.0
 40
1.0
 10
3325.545040704215
 20
7235.845319716856
 30
0.0
 10
3323.492651006669
 20
7239.400162949939
 30
0.0
 10
3319.356627429702
 20
7246.563965926547
 30
0.0
 10
3315.313288807505
 20
7253.567233852399
 30
0.0
 10
3313.276347483936
 20
7257.095319716857
 30
0.0
  0
SPLINE
  5
B3
330
1F
100
AcDbEntity
  8
0
  6
Continuous
 62
     7
370
    25
100
AcDbSpline
210
0.0
220
0.0
230
1.0
 70
    24
 71
     3
 72
     9
 73
     5
 74
     0
 42
0.00000001
 43
0.00000001
 40
0.0
 40
0.0
 40
0.0
 40
0.0
 40
0.7169484261070668
 40
1.0
 40
1.0
 40
1.0
 40
1.0
 10
3288.738961043377
 20
7257.095319716857
 30
0.0
 10
3282.779695107879
 20
7257.095319716857
 30
0.0
 10
3274.467708194321
 20
7257.095319716857
 30
0.0
 10
3266.466366860586
 20
7257.095319716857
 30
0.0
 10
3264.201574602818
 20
7257.095319716857
 30
0.0
  0
ARC
  5
B4
330
1F
100
AcDbEntity
  8
0
  6
Continuous
 62
     7
370
    25
100
AcDbCircle
 10
3288.7389610434
 20
7214.5953197169
 30
0.0
 40
42.50000000000091
100
AcDbArc
 50
90.0
 51
150.0
  0
SPLINE
  5
B5
330
1F
100
AcDbEntity
  8
0
  6
Continuous
 62
     7
370
    25
100
AcDbSpline
210
0.0
220
0.0
230
1.0
 70
    24
 71
     3
 72
    10
 73
     6
 74
     0
 42
0.00000001
 43
0.00000001
 40
0.0
 40
0.0
 40
0.0
 40
0.0
 40
0.3315739395276516
 40
0.6721625413044566
 40
1.0
 40
1.0
 40
1.0
 40
1.0
 10
3264.201574602818
 20
7257.095319716857
 30
0.0
 10
3262.872893980525
 20
7254.793977372014
 30
0.0
 10
3260.179409248479
 20
7250.128724966699
 30
0.0
 10
3256.039629365043
 20
7242.958415876436
 30
0.0
 10
3253.284276667203
 20
7238.186005011005
 30
0.0
 10
3251.932881382538
 20
7235.845319716856
 30
0.0
  0
ARC
  5
B6
330
1F
100
AcDbEntity
  8
0
  6
Continuous
 62
     7
370
    25
100
AcDbCircle
 10
3288.7389610434
 20
7214.5953197169
 30
0.0
 40
42.49999999999929
100
AcDbArc
 50
270.0
 51
330.0
  0
SPLINE
  5
B7
330
1F
100
AcDbEntity
  8
0
  6
Continuous
 62
     7
370
    25
100
AcDbSpline
210
0.0
220
0.0
230
1.0
 70
    24
 71
     3
 72
     9
 73
     5
 74
     0
 42
0.00000001
 43
0.00000001
 40
0.0
 40
0.0
 40
0.0
 40
0.0
 40
0.7169484261070647
 40
1.0
 40
1.0
 40
1.0
 40
1.0
 10
3288.738961043377
 20
7172.095319716857
 30
0.0
 10
3294.698226978874
 20
7172.095319716857
 30
0.0
 10
3303.010213892431
 20
7172.095319716857
 30
0.0
 10
3311.011555226167
 20
7172.095319716857
 30
0.0
 10
3313.276347483936
 20
7172.095319716857
 30
0.0
  0
SPLINE
  5
B8
330
1F
100
AcDbEntity
  8
0
  6
Continuous
 62
     7
370
    25
100
AcDbSpline
210
0.0
220
0.0
230
1.0
 70
    24
 71
     3
 72
    10
 73
     6
 74
     0
 42
0.00000001
 43
0.00000001
 40
0.0
 40
0.0
 40
0.0
 40
0.0
 40
0.3315739395276502
 40
0.6721625413044552
 40
1.0
 40
1.0
 40
1.0
 40
1.0
 10
3313.276347483936
 20
7172.095319716857
 30
0.0
 10
3314.605028106228
 20
7174.396662061699
 30
0.0
 10
3317.298512838274
 20
7179.061914467015
 30
0.0
 10
3321.438292721711
 20
7186.232223557278
 30
0.0
 10
3324.19364541955
 20
7191.004634422708
 30
0.0
 10
3325.545040704215
 20
7193.345319716857
 30
0.0
  0
LINE
  5
B9
330
1F
100
AcDbEntity
  8
0
  6
Continuous
 62
     7
370
    25
100
AcDbLine
 10
2465.5116197402
 20
8400.8453197169
 30
0.0
 11
2565.5116197402
 21
8400.8453197169
 31
0.0
  0
LINE
  5
BA
330
1F
100
AcDbEntity
  8
0
  6
Continuous
 62
     7
370
    25
100
AcDbLine
 10
2465.5116197402
 20
8435.8453197169
 30
0.0
 11
2465.5116197402
 21
8400.8453197169
 31
0.0
  0
LINE
  5
BB
330
1F
100
AcDbEntity
  8
0
  6
Continuous
 62
     7
370
    25
100
AcDbLine
 10
2565.5116197402
 20
8435.8453197169
 30
0.0
 11
2565.5116197402
 21
8400.8453197169
 31
0.0
  0
LINE
  5
BC
330
1F
100
AcDbEntity
  8
0
  6
Continuous
 62
     7
370
    25
100
AcDbLine
 10
2465.5116197402
 20
8385.8453197169
 30
0.0
 11
2565.5116197402
 21
8385.8453197169
 31
0.0
  0
LINE
  5
BD
330
1F
100
AcDbEntity
  8
0
  6
Continuous
 62
     7
370
    25
100
AcDbLine
 10
2465.5116197402
 20
8400.8453197169
 30
0.0
 11
2465.5116197402
 21
8385.8453197169
 31
0.0
  0
LINE
  5
BE
330
1F
100
AcDbEntity
  8
0
  6
Continuous
 62
     7
370
    25
100
AcDbLine
 10
2565.5116197402
 20
8400.8453197169
 30
0.0
 11
2565.5116197402
 21
8385.8453197169
 31
0.0
  0
LINE
  5
BF
330
1F
100
AcDbEntity
  8
0
  6
Continuous
 62
     7
370
    25
100
AcDbLine
 10
2465.5116197402
 20
7093.3453197169
 30
0.0
 11
2465.5116197402
 21
7060.8453197169
 31
0.0
  0
LINE
  5
C0
330
1F
100
AcDbEntity
  8
0
  6
Continuous
 62
     7
370
    25
100
AcDbLine
 10
2465.5116197402
 20
7093.3453197169
 30
0.0
 11
2565.5116197402
 21
7093.3453197169
 31
0.0
  0
LINE
  5
C1
330
1F
100
AcDbEntity
  8
0
  6
Continuous
 62
     7
370
    25
100
AcDbLine
 10
2565.5116197402
 20
7093.3453197169
 30
0.0
 11
2565.5116197402
 21
7060.8453197169
 31
0.0
  0
LINE
  5
C2
330
1F
100
AcDbEntity
  8
0
  6
Continuous
 62
     7
370
    25
100
AcDbLine
 10
2465.5116197402
 20
7108.3453197169
 30
0.0
 11
2465.5116197402
 21
7093.3453197169
 31
0.0
  0
LINE
  5
C3
330
1F
100
AcDbEntity
  8
0
  6
Continuous
 62
     7
370
    25
100
AcDbLine
 10
2465.5116197402
 20
7108.3453197169
 30
0.0
 11
2565.5116197402
 21
7108.3453197169
 31
0.0
  0
LINE
  5
C4
330
1F
100
AcDbEntity
  8
0
  6
Continuous
 62
     7
370
    25
100
AcDbLine
 10
2565.5116197402
 20
7108.3453197169
 30
0.0
 11
2565.5116197402
 21
7093.3453197169
 31
0.0
  0
LINE
  5
C5
330
1F
100
AcDbEntity
  8
0
  6
Continuous
 62
     7
370
    25
100
AcDbLine
 10
2465.5116197402
 20
8380.8453197169
 30
0.0
 11
2565.5116197402
 21
8380.8453197169
 31
0.0
  0
LINE
  5
C6
330
1F
100
AcDbEntity
  8
0
  6
Continuous
 62
     7
370
    25
100
AcDbLine
 10
2465.5116197402
 20
8385.8453197169
 30
0.0
 11
2465.5116197402
 21
8380.8453197169
 31
0.0
  0
LINE
  5
C7
330
1F
100
AcDbEntity
  8
0
  6
Continuous
 62
     7
370
    25
100
AcDbLine
 10
2565.5116197402
 20
8385.8453197169
 30
0.0
 11
2565.5116197402
 21
8380.8453197169
 31
0.0
  0
LINE
  5
C8
330
1F
100
AcDbEntity
  8
0
  6
Continuous
 62
     7
370
    25
100
AcDbLine
 10
2465.5116197402
 20
7113.3453197169
 30
0.0
 11
2465.5116197402
 21
7108.3453197169
 31
0.0
  0
LINE
  5
C9
330
1F
100
AcDbEntity
  8
0
  6
Continuous
 62
     7
370
    25
100
AcDbLine
 10
2465.5116197402
 20
7113.3453197169
 30
0.0
 11
2565.5116197402
 21
7113.3453197169
 31
0.0
  0
LINE
  5
CA
330
1F
100
AcDbEntity
  8
0
  6
Continuous
 62
     7
370
    25
100
AcDbLine
 10
2565.5116197402
 20
7113.3453197169
 30
0.0
 11
2565.5116197402
 21
7108.3453197169
 31
0.0
  0
LINE
  5
CB
330
1F
100
AcDbEntity
  8
0
  6
Continuous
 62
     7
370
    25
100
AcDbLine
 10
2503.0116197402
 20
7947.0953197169
 30
0.0
 11
2503.0116197402
 21
8197.0953197169
 31
0.0
  0
ARC
  5
CC
330
1F
100
AcDbEntity
  8
0
  6
Continuous
 62
     7
370
    25
100
AcDbCircle
 10
2515.5116197402
 20
7947.0953197169
 30
0.0
 40
12.50000000000045
100
AcDbArc
 50
180.0
 51
0.0
  0
LINE
  5
CD
330
1F
100
AcDbEntity
  8
0
  6
Continuous
 62
     7
370
    25
100
AcDbLine
 10
2528.0116197402
 20
8197.0953197169
 30
0.0
 11
2528.0116197402
 21
7947.0953197169
 31
0.0
  0
ARC
  5
CE
330
1F
100
AcDbEntity
  8
0
  6
Continuous
 62
     7
370
    25
100
AcDbCircle
 10
2515.5116197402
 20
8197.0953197169
 30
0.0
 40
12.50000000000045
100
AcDbArc
 50
0.0
 51
180.0
  0
LINE
  5
CF
330
1F
100
AcDbEntity
  8
0
  6
Continuous
 62
     7
370
    25
100
AcDbLine
 10
2503.0116197402
 20
7622.0953197169
 30
0.0
 11
2503.0116197402
 21
7872.0953197169
 31
0.0
  0
ARC
  5
D0
330
1F
100
AcDbEntity
  8
0
  6
Continuous
 62
     7
370
    25
100
AcDbCircle
 10
2515.5116197402
 20
7622.0953197169
 30
0.0
 40
12.50000000000045
100
AcDbArc
 50
180.0
 51
0.0
  0
LINE
  5
D1
330
1F
100
AcDbEntity
  8
0
  6
Continuous
 62
     7
370
    25
100
AcDbLine
 10
2528.0116197402
 20
7872.0953197169
 30
0.0
 11
2528.0116197402
 21
7622.0953197169
 31
0.0
  0
ARC
  5
D2
330
1F
100
AcDbEntity
  8
0
  6
Continuous
 62
     7
370
    25
100
AcDbCircle
 10
2515.5116197402
 20
7872.0953197169
 30
0.0
 40
12.50000000000045
100
AcDbArc
 50
0.0
 51
180.0
  0
LINE
  5
D3
330
1F
100
AcDbEntity
  8
0
  6
Continuous
 62
     7
370
    25
100
AcDbLine
 10
2503.0116197402
 20
7297.0953197169
 30
0.0
 11
2503.0116197402
 21
7547.0953197169
 31
0.0
  0
LINE
  5
D4
330
1F
100
AcDbEntity
  8
0
  6
Continuous
 62
     7
370
    25
100
AcDbLine
 10
2528.0116197402
 20
7547.0953197169
 30
0.0
 11
2528.0116197402
 21
7297.0953197169
 31
0.0
  0
ARC
  5
D5
330
1F
100
AcDbEntity
  8
0
  6
Continuous
 62
     7
370
    25
100
AcDbCircle
 10
2515.5116197402
 20
7547.0953197169
 30
0.0
 40
12.5
100
AcDbArc
 50
0.0
 51
180.0
  0
LINE
  5
D6
330
1F
100
AcDbEntity
  8
0
  6
Continuous
 62
     7
370
    25
100
AcDbLine
 10
2465.5116197402
 20
8380.8453197169
 30
0.0
 11
2465.5116197402
 21
7297.0953197169
 31
0.0
  0
LINE
  5
D7
330
1F
100
AcDbEntity
  8
0
  6
Continuous
 62
     7
370
    25
100
AcDbLine
 10
2465.5116197402
 20
7122.0953197169
 30
0.0
 11
2465.5116197402
 21
7113.3453197169
 31
0.0
  0
LINE
  5
D8
330
1F
100
AcDbEntity
  8
0
  6
Continuous
 62
     7
370
    25
100
AcDbLine
 10
2565.5116197402
 20
8380.8453197169
 30
0.0
 11
2565.5116197402
 21
7297.0953197169
 31
0.0
  0
LINE
  5
D9
330
1F
100
AcDbEntity
  8
0
  6
Continuous
 62
     7
370
    25
100
AcDbLine
 10
2565.5116197402
 20
7122.0953197169
 30
0.0
 11
2565.5116197402
 21
7113.3453197169
 31
0.0
  0
LINE
  5
DA
330
1F
100
AcDbEntity
  8
0
  6
Continuous
 62
     7
370
    25
100
AcDbLine
 10
3188.7389610434
 20
8400.8453197169
 30
0.0
 11
3288.7389610434
 21
8400.8453197169
 31
0.0
  0
LINE
  5
DB
330
1F
100
AcDbEntity
  8
0
  6
Continuous
 62
     7
370
    25
100
AcDbLine
 10
3188.7389610434
 20
8435.8453197169
 30
0.0
 11
3188.7389610434
 21
8400.8453197169
 31
0.0
  0
LINE
  5
DC
330
1F
100
AcDbEntity
  8
0
  6
Continuous
 62
     7
370
    25
100
AcDbLine
 10
3288.7389610434
 20
8435.8453197169
 30
0.0
 11
3288.7389610434
 21
8400.8453197169
 31
0.0
  0
LINE
  5
DD
330
1F
100
AcDbEntity
  8
0
  6
Continuous
 62
     7
370
    25
100
AcDbLine
 10
3188.7389610434
 20
8385.8453197169
 30
0.0
 11
3288.7389610434
 21
8385.8453197169
 31
0.0
  0
LINE
  5
DE
330
1F
100
AcDbEntity
  8
0
  6
Continuous
 62
     7
370
    25
100
AcDbLine
 10
3188.7389610434
 20
8400.8453197169
 30
0.0
 11
3188.7389610434
 21
8385.8453197169
 31
0.0
  0
LINE
  5
DF
330
1F
100
AcDbEntity
  8
0
  6
Continuous
 62
     7
370
    25
100
AcDbLine
 10
3288.7389610434
 20
8400.8453197169
 30
0.0
 11
3288.7389610434
 21
8385.8453197169
 31
0.0
  0
LINE
  5
E0
330
1F
100
AcDbEntity
  8
0
  6
Continuous
 62
     7
370
    25
100
AcDbLine
 10
3188.7389610434
 20
7093.3453197169
 30
0.0
 11
3288.7389610434
 21
7093.3453197169
 31
0.0
  0
LINE
  5
E1
330
1F
100
AcDbEntity
  8
0
  6
Continuous
 62
     7
370
    25
100
AcDbLine
 10
3188.7389610434
 20
7108.3453197169
 30
0.0
 11
3188.7389610434
 21
7093.3453197169
 31
0.0
  0
LINE
  5
E2
330
1F
100
AcDbEntity
  8
0
  6
Continuous
 62
     7
370
    25
100
AcDbLine
 10
3188.7389610434
 20
7108.3453197169
 30
0.0
 11
3288.7389610434
 21
7108.3453197169
 31
0.0
  0
LINE
  5
E3
330
1F
100
AcDbEntity
  8
0
  6
Continuous
 62
     7
370
    25
100
AcDbLine
 10
3288.7389610434
 20
7108.3453197169
 30
0.0
 11
3288.7389610434
 21
7093.3453197169
 31
0.0
  0
LINE
  5
E4
330
1F
100
AcDbEntity
  8
0
  6
Continuous
 62
     7
370
    25
100
AcDbLine
 10
3188.7389610434
 20
7093.3453197169
 30
0.0
 11
3188.7389610434
 21
7060.8453197169
 31
0.0
  0
LINE
  5
E5
330
1F
100
AcDbEntity
  8
0
  6
Continuous
 62
     7
370
    25
100
AcDbLine
 10
3288.7389610434
 20
7093.3453197169
 30
0.0
 11
3288.7389610434
 21
7060.8453197169
 31
0.0
  0
LINE
  5
E6
330
1F
100
AcDbEntity
  8
0
  6
Continuous
 62
     7
370
    25
100
AcDbLine
 10
3188.7389610434
 20
8380.8453197169
 30
0.0
 11
3288.7389610434
 21
8380.8453197169
 31
0.0
  0
LINE
  5
E7
330
1F
100
AcDbEntity
  8
0
  6
Continuous
 62
     7
370
    25
100
AcDbLine
 10
3188.7389610434
 20
8385.8453197169
 30
0.0
 11
3188.7389610434
 21
8380.8453197169
 31
0.0
  0
LINE
  5
E8
330
1F
100
AcDbEntity
  8
0
  6
Continuous
 62
     7
370
    25
100
AcDbLine
 10
3288.7389610434
 20
8385.8453197169
 30
0.0
 11
3288.7389610434
 21
8380.8453197169
 31
0.0
  0
LINE
  5
E9
330
1F
100
AcDbEntity
  8
0
  6
Continuous
 62
     7
370
    25
100
AcDbLine
 10
3188.7389610434
 20
7113.3453197169
 30
0.0
 11
3188.7389610434
 21
7108.3453197169
 31
0.0
  0
LINE
  5
EA
330
1F
100
AcDbEntity
  8
0
  6
Continuous
 62
     7
370
    25
100
AcDbLine
 10
3188.7389610434
 20
7113.3453197169
 30
0.0
 11
3288.7389610434
 21
7113.3453197169
 31
0.0
  0
LINE
  5
EB
330
1F
100
AcDbEntity
  8
0
  6
Continuous
 62
     7
370
    25
100
AcDbLine
 10
3288.7389610434
 20
7113.3453197169
 30
0.0
 11
3288.7389610434
 21
7108.3453197169
 31
0.0
  0
LINE
  5
EC
330
1F
100
AcDbEntity
  8
0
  6
Continuous
 62
     7
370
    25
100
AcDbLine
 10
3188.7389610434
 20
8380.8453197169
 30
0.0
 11
3188.7389610434
 21
7297.0953197169
 31
0.0
  0
LINE
  5
ED
330
1F
100
AcDbEntity
  8
0
  6
Continuous
 62
     7
370
    25
100
AcDbLine
 10
3188.7389610434
 20
7122.0953197169
 30
0.0
 11
3188.7389610434
 21
7113.3453197169
 31
0.0
  0
LINE
  5
EE
330
1F
100
AcDbEntity
  8
0
  6
Continuous
 62
     7
370
    25
100
AcDbLine
 10
3226.2389610434
 20
7947.0953197169
 30
0.0
 11
3226.2389610434
 21
8197.0953197169
 31
0.0
  0
ARC
  5
EF
330
1F
100
AcDbEntity
  8
0
  6
Continuous
 62
     7
370
    25
100
AcDbCircle
 10
3238.7389610434
 20
7947.0953197169
 30
0.0
 40
12.50000000000045
100
AcDbArc
 50
180.0
 51
0.0
  0
LINE
  5
F0
330
1F
100
AcDbEntity
  8
0
  6
Continuous
 62
     7
370
    25
100
AcDbLine
 10
3251.2389610434
 20
8197.0953197169
 30
0.0
 11
3251.2389610434
 21
7947.0953197169
 31
0.0
  0
ARC
  5
F1
330
1F
100
AcDbEntity
  8
0
  6
Continuous
 62
     7
370
    25
100
AcDbCircle
 10
3238.7389610434
 20
8197.0953197169
 30
0.0
 40
12.50000000000045
100
AcDbArc
 50
0.0
 51
180.0
  0
LINE
  5
F2
330
1F
100
AcDbEntity
  8
0
  6
Continuous
 62
     7
370
    25
100
AcDbLine
 10
3226.2389610434
 20
7622.0953197169
 30
0.0
 11
3226.2389610434
 21
7872.0953197169
 31
0.0
  0
ARC
  5
F3
330
1F
100
AcDbEntity
  8
0
  6
Continuous
 62
     7
370
    25
100
AcDbCircle
 10
3238.7389610434
 20
7622.0953197169
 30
0.0
 40
12.50000000000045
100
AcDbArc
 50
180.0
 51
0.0
  0
LINE
  5
F4
330
1F
100
AcDbEntity
  8
0
  6
Continuous
 62
     7
370
    25
100
AcDbLine
 10
3251.2389610434
 20
7872.0953197169
 30
0.0
 11
3251.2389610434
 21
7622.0953197169
 31
0.0
  0
ARC
  5
F5
330
1F
100
AcDbEntity
  8
0
  6
Continuous
 62
     7
370
    25
100
AcDbCircle
 10
3238.7389610434
 20
7872.0953197169
 30
0.0
 40
12.50000000000045
100
AcDbArc
 50
0.0
 51
180.0
  0
LINE
  5
F6
330
1F
100
AcDbEntity
  8
0
  6
Continuous
 62
     7
370
    25
100
AcDbLine
 10
3226.2389610434
 20
7297.0953197169
 30
0.0
 11
3226.2389610434
 21
7547.0953197169
 31
0.0
  0
LINE
  5
F7
330
1F
100
AcDbEntity
  8
0
  6
Continuous
 62
     7
370
    25
100
AcDbLine
 10
3251.2389610434
 20
7547.0953197169
 30
0.0
 11
3251.2389610434
 21
7297.0953197169
 31
0.0
  0
ARC
  5
F8
330
1F
100
AcDbEntity
  8
0
  6
Continuous
 62
     7
370
    25
100
AcDbCircle
 10
3238.7389610434
 20
7547.0953197169
 30
0.0
 40
12.5
100
AcDbArc
 50
0.0
 51
180.0
  0
LINE
  5
F9
330
1F
100
AcDbEntity
  8
0
  6
Continuous
 62
     7
370
    25
100
AcDbLine
 10
3288.7389610434
 20
8380.8453197169
 30
0.0
 11
3288.7389610434
 21
7297.0953197169
 31
0.0
  0
LINE
  5
FA
330
1F
100
AcDbEntity
  8
0
  6
Continuous
 62
     7
370
    25
100
AcDbLine
 10
3288.7389610434
 20
7122.0953197169
 30
0.0
 11
3288.7389610434
 21
7113.3453197169
 31
0.0
  0
CIRCLE
  5
FB
330
1F
100
AcDbEntity
  8
0
  6
Continuous
 62
     7
370
    25
100
AcDbCircle
 10
3288.7389610434
 20
7214.5953197169
 30
0.0
 40
75.0
  0
CIRCLE
  5
FC
330
1F
100
AcDbEntity
  8
0
  6
Continuous
 62
     7
370
    25
100
AcDbCircle
 10
2488.7389610434
 20
7214.5953197169
 30
0.0
 40
75.0
  0
ARC
  5
FD
330
1F
100
AcDbEntity
  8
0
  6
Continuous
 62
     7
370
    25
100
AcDbCircle
 10
2888.7389610434
 20
6098.3453197169
 30
0.0
 40
142.5000000000014
100
AcDbArc
 50
184.0240638894
 51
355.9759361106
  0
SPLINE
  5
FE
330
1F
100
AcDbEntity
  8
0
  6
Continuous
 62
     7
370
    25
100
AcDbSpline
210
0.0
220
0.0
230
1.0
 70
    24
 71
     3
 72
    13
 73
     9
 74
     0
 42
0.00000001
 43
0.00000001
 40
0.0
 40
0.0
 40
0.0
 40
0.0
 40
0.143629492544455
 40
0.3589919333848285
 40
0.5742476886567401
 40
0.7890362718423136
 40
0.9231912204132972
 40
1.0
 40
1.0
 40
1.0
 40
1.0
 10
2746.590271285081
 20
6088.345319716856
 30
0.0
 10
2747.917041723689
 20
6088.345319716856
 30
0.0
 10
2751.23321221539
 20
6088.345319716856
 30
0.0
 10
2756.219619273816
 20
6088.345319716856
 30
0.0
 10
2760.755032991408
 20
6088.345319716856
 30
0.0
 10
2763.241091906999
 20
6088.345319716856
 30
0.0
 10
2764.268828958172
 20
6088.345319716856
 30
0.0
 10
2764.184759560008
 20
6088.345319716856
 30
0.0
 10
2764.154151133006
 20
6088.345319716856
 30
0.0
  0
SPLINE
  5
FF
330
1F
100
AcDbEntity
  8
0
  6
Continuous
 62
     7
370
    25
100
AcDbSpline
210
0.0
220
0.0
230
1.0
 70
    24
 71
     3
 72
    13
 73
     9
 74
     0
 42
0.00000001
 43
0.00000001
 40
0.0
 40
0.0
 40
0.0
 40
0.0
 40
0.1313083640452037
 40
0.3448867624506902
 40
0.55844797892916
 40
0.7724495343311998
 40
0.9870254306076457
 40
1.0
 40
1.0
 40
1.0
 40
1.0
 10
3013.186136390784
 20
6088.345319716856
 30
0.0
 10
3013.254208333462
 20
6088.345319716856
 30
0.0
 10
3013.433002061453
 20
6088.345319716857
 30
0.0
 10
3015.423392326037
 20
6088.345319716856
 30
0.0
 10
3019.332898435604
 20
6088.345319716856
 30
0.0
 10
3024.567592921053
 20
6088.345319716855
 30
0.0
 10
3028.664667487747
 20
6088.345319716862
 30
0.0
 10
3030.767737083514
 20
6088.345319716856
 30
0.0
 10
3030.887650801673
 20
6088.345319716856
 30
0.0
  0
SPLINE
  5
100
330
1F
100
AcDbEntity
  8
0
  6
Continuous
 62
     7
370
    25
100
AcDbSpline
210
0.0
220
0.0
230
1.0
 70
    24
 71
     3
 72
    13
 73
     9
 74
     0
 42
0.00000001
 43
0.00000001
 40
0.0
 40
0.0
 40
0.0
 40
0.0
 40
0.0774356510827923
 40
0.2913552831730937
 40
0.5052594952784853
 40
0.7195724882586478
 40
0.9344981429470965
 40
1.0
 40
1.0
 40
1.0
 40
1.0
 10
2764.201928091493
 20
6108.345319716856
 30
0.0
 10
2764.211813337789
 20
6108.345319716856
 30
0.0
 10
2764.249007042416
 20
6108.345319716857
 30
0.0
 10
2762.735984463089
 20
6108.345319716856
 30
0.0
 10
2759.24468961148
 20
6108.345319716856
 30
0.0
 10
2754.269071004499
 20
6108.345319716856
 30
0.0
 10
2749.78074485549
 20
6108.345319716856
 30
0.0
 10
2747.194388664499
 20
6108.345319716856
 30
0.0
 10
2746.590271285081
 20
6108.345319716856
 30
0.0
  0
ARC
  5
101
330
1F
100
AcDbEntity
  8
0
  6
Continuous
 62
     7
370
    25
100
AcDbCircle
 10
2888.7389610434
 20
6098.3453197169
 30
0.0
 40
142.5000000000013
100
AcDbArc
 50
4.0240638894
 51
175.9759361106
  0
SPLINE
  5
102
330
1F
100
AcDbEntity
  8
0
  6
Continuous
 62
     7
370
    25
100
AcDbSpline
210
0.0
220
0.0
230
1.0
 70
    24
 71
     3
 72
    13
 73
     9
 74
     0
 42
0.00000001
 43
0.00000001
 40
0.0
 40
0.0
 40
0.0
 40
0.0
 40
0.0913704615593776
 40
0.3066477062920606
 40
0.5219098636007222
 40
0.7367831426478701
 40
0.8711864102193243
 40
1.0
 40
1.0
 40
1.0
 40
1.0
 10
3030.887650801673
 20
6108.345319716856
 30
0.0
 10
3030.044561640564
 20
6108.345319716856
 30
0.0
 10
3027.215076563642
 20
6108.345319716856
 30
0.0
 10
3022.539600489049
 20
6108.345319716857
 30
0.0
 10
3017.689697602645
 20
6108.345319716856
 30
0.0
 10
3014.822190090431
 20
6108.345319716856
 30
0.0
 10
3013.33039149942
 20
6108.345319716856
 30
0.0
 10
3013.389928586409
 20
6108.345319716857
 30
0.0
 10
3013.419064964593
 20
6108.345319716857
 30
0.0
  0
ARC
  5
103
330
1F
100
AcDbEntity
  8
0
  6
Continuous
 62
     7
370
    25
100
AcDbCircle
 10
2888.7389610434
 20
6098.3453197169
 30
0.0
 40
152.5000000000015
100
AcDbArc
 50
183.7597980573
 51
356.2402019427
  0
LINE
  5
104
330
1F
100
AcDbEntity
  8
0
  6
Continuous
 62
     7
370
    25
100
AcDbLine
 10
3030.8876508017
 20
6088.3453197169
 30
0.0
 11
3040.9107389787
 21
6088.3453197169
 31
0.0
  0
LINE
  5
105
330
1F
100
AcDbEntity
  8
0
  6
Continuous
 62
     7
370
    25
100
AcDbLine
 10
2736.567183108
 20
6088.3453197169
 30
0.0
 11
2746.5902712851
 21
6088.3453197169
 31
0.0
  0
ARC
  5
106
330
1F
100
AcDbEntity
  8
0
  6
Continuous
 62
     7
370
    25
100
AcDbCircle
 10
2888.7389610434
 20
6098.3453197169
 30
0.0
 40
152.5000000000019
100
AcDbArc
 50
3.7597980573
 51
176.2402019427
  0
LINE
  5
107
330
1F
100
AcDbEntity
  8
0
  6
Continuous
 62
     7
370
    25
100
AcDbLine
 10
2746.5902712851
 20
6108.3453197169
 30
0.0
 11
2736.567183108
 21
6108.3453197169
 31
0.0
  0
LINE
  5
108
330
1F
100
AcDbEntity
  8
0
  6
Continuous
 62
     7
370
    25
100
AcDbLine
 10
3040.9107389787
 20
6108.3453197169
 30
0.0
 11
3030.8876508017
 21
6108.3453197169
 31
0.0
  0
LINE
  5
109
330
1F
100
AcDbEntity
  8
0
  6
Continuous
 62
     7
370
    25
100
AcDbLine
 10
3040.9107389787
 20
6088.3453197169
 30
0.0
 11
3138.7389610434
 21
6088.3453197169
 31
0.0
  0
LINE
  5
10A
330
1F
100
AcDbEntity
  8
0
  6
Continuous
 62
     7
370
    25
100
AcDbLine
 10
3018.3383189871
 20
6108.3453197169
 30
0.0
 11
3018.3383189871
 21
6088.3453197169
 31
0.0
  0
LINE
  5
10B
330
1F
100
AcDbEntity
  8
0
  6
Continuous
 62
     7
370
    25
100
AcDbLine
 10
3138.7389610434
 20
6108.3453197169
 30
0.0
 11
3040.9107389787
 21
6108.3453197169
 31
0.0
  0
LINE
  5
10C
330
1F
100
AcDbEntity
  8
0
  6
Continuous
 62
     7
370
    25
100
AcDbLine
 10
3138.7389610434
 20
6088.3453197169
 30
0.0
 11
3138.7389610434
 21
6108.3453197169
 31
0.0
  0
LINE
  5
10D
330
1F
100
AcDbEntity
  8
0
  6
Continuous
 62
     7
370
    25
100
AcDbLine
 10
2638.7389610434
 20
6088.3453197169
 30
0.0
 11
2736.567183108
 21
6088.3453197169
 31
0.0
  0
LINE
  5
10E
330
1F
100
AcDbEntity
  8
0
  6
Continuous
 62
     7
370
    25
100
AcDbLine
 10
2638.7389610434
 20
6108.3453197169
 30
0.0
 11
2638.7389610434
 21
6088.3453197169
 31
0.0
  0
LINE
  5
10F
330
1F
100
AcDbEntity
  8
0
  6
Continuous
 62
     7
370
    25
100
AcDbLine
 10
2736.567183108
 20
6108.3453197169
 30
0.0
 11
2638.7389610434
 21
6108.3453197169
 31
0.0
  0
LINE
  5
110
330
1F
100
AcDbEntity
  8
0
  6
Continuous
 62
     7
370
    25
100
AcDbLine
 10
2759.1396030996
 20
6088.3453197169
 30
0.0
 11
2759.1396030996
 21
6108.3453197169
 31
0.0
  0
SPLINE
  5
111
330
1F
100
AcDbEntity
  8
0
  6
Continuous
 62
     7
370
    25
100
AcDbSpline
210
0.0
220
0.0
230
1.0
 70
    24
 71
     3
 72
    12
 73
     8
 74
     0
 42
0.00000001
 43
0.00000001
 40
0.0
 40
0.0
 40
0.0
 40
0.0
 40
0.1901077015489686
 40
0.4024029504201528
 40
0.6151188750619145
 40
0.8285454721536442
 40
1.0
 40
1.0
 40
1.0
 40
1.0
 10
2771.625249556137
 20
6108.345319716856
 30
0.0
 10
2771.582566829589
 20
6108.345319716856
 30
0.0
 10
2771.492219858082
 20
6108.345319716856
 30
0.0
 10
2770.333896218935
 20
6108.345319716856
 30
0.0
 10
2768.516704674132
 20
6108.345319716856
 30
0.0
 10
2766.337048844505
 20
6108.345319716856
 30
0.0
 10
2764.816823804002
 20
6108.345319716856
 30
0.0
 10
2764.139603099605
 20
6108.345319716856
 30
0.0
  0
SPLINE
  5
112
330
1F
100
AcDbEntity
  8
0
  6
Continuous
 62
     7
370
    25
100
AcDbSpline
210
0.0
220
0.0
230
1.0
 70
    24
 71
     3
 72
    13
 73
     9
 74
     0
 42
0.00000001
 43
0.00000001
 40
0.0
 40
0.0
 40
0.0
 40
0.0
 40
0.1162146370570107
 40
0.3330544225099061
 40
0.5497369572315933
 40
0.7658458212356748
 40
0.9812111335298045
 40
1.0
 40
1.0
 40
1.0
 40
1.0
 10
3013.33831898715
 20
6108.345319716856
 30
0.0
 10
3012.885086824352
 20
6108.345319716857
 30
0.0
 10
3011.586188681518
 20
6108.345319716857
 30
0.0
 10
3009.536210202845
 20
6108.345319716856
 30
0.0
 10
3007.523011549638
 20
6108.345319716858
 30
0.0
 10
3006.258417709956
 20
6108.345319716855
 30
0.0
 10
3005.705954944324
 20
6108.345319716861
 30
0.0
 10
3005.836220763616
 20
6108.345319716857
 30
0.0
 10
3005.846673479417
 20
6108.345319716857
 30
0.0
  0
SPLINE
  5
113
330
1F
100
AcDbEntity
  8
0
  6
Continuous
 62
     7
370
    25
100
AcDbSpline
210
0.0
220
0.0
230
1.0
 70
    24
 71
     3
 72
    13
 73
     9
 74
     0
 42
0.00000001
 43
0.00000001
 40
0.0
 40
0.0
 40
0.0
 40
0.0
 40
0.1077211556547065
 40
0.3213180157208868
 40
0.5351659635205985
 40
0.7496609671927277
 40
0.9648740344404168
 40
1.0
 40
1.0
 40
1.0
 40
1.0
 10
3005.919005171947
 20
6088.345319716856
 30
0.0
 10
3005.898813570773
 20
6088.345319716856
 30
0.0
 10
3005.838584684592
 20
6088.345319716856
 30
0.0
 10
3006.656842463867
 20
6088.345319716856
 30
0.0
 10
3008.223975953272
 20
6088.345319716857
 30
0.0
 10
3010.408553414431
 20
6088.345319716857
 30
0.0
 10
3012.220617964872
 20
6088.345319716857
 30
0.0
 10
3013.20078784379
 20
6088.345319716856
 30
0.0
 10
3013.338318987149
 20
6088.345319716856
 30
0.0
  0
SPLINE
  5
114
330
1F
100
AcDbEntity
  8
0
  6
Continuous
 62
     7
370
    25
100
AcDbSpline
210
0.0
220
0.0
230
1.0
 70
    24
 71
     3
 72
    13
 73
     9
 74
     0
 42
0.00000001
 43
0.00000001
 40
0.0
 40
0.0
 40
0.0
 40
0.0
 40
0.0348448104212912
 40
0.250611740165009
 40
0.4663964296399229
 40
0.6817470943079904
 40
0.8963811306165805
 40
1.0
 40
1.0
 40
1.0
 40
1.0
 10
2764.139603099612
 20
6088.345319716856
 30
0.0
 10
2764.275967733477
 20
6088.345319716856
 30
0.0
 10
2765.256732954367
 20
6088.345319716856
 30
0.0
 10
2767.074135324523
 20
6088.345319716856
 30
0.0
 10
2769.268217712852
 20
6088.345319716856
 30
0.0
 10
2770.836529934125
 20
6088.345319716856
 30
0.0
 10
2771.645679746162
 20
6088.345319716856
 30
0.0
 10
2771.580306171352
 20
6088.345319716856
 30
0.0
 10
2771.55902141389
 20
6088.345319716856
 30
0.0
  0
LINE
  5
115
330
1F
100
AcDbEntity
  8
0
  6
Continuous
 62
     7
370
    25
100
AcDbLine
 10
2907.502844792
 20
6268.3453197169
 30
0.0
 11
2907.502844792
 21
6249.6865456491
 31
0.0
  0
LINE
  5
116
330
1F
100
AcDbEntity
  8
0
  6
Continuous
 62
     7
370
    25
100
AcDbLine
 10
2926.2667285407
 20
6268.3453197169
 30
0.0
 11
2926.2667285407
 21
6246.1557275597
 31
0.0
  0
LINE
  5
117
330
1F
100
AcDbEntity
  8
0
  6
Continuous
 62
     7
370
    25
100
AcDbLine
 10
2907.502844792
 20
6268.3453197169
 30
0.0
 11
2926.2667285407
 21
6268.3453197169
 31
0.0
  0
LINE
  5
118
330
1F
100
AcDbEntity
  8
0
  6
Continuous
 62
     7
370
    25
100
AcDbLine
 10
2869.9750772947
 20
6268.3453197169
 30
0.0
 11
2869.9750772947
 21
6249.6865456491
 31
0.0
  0
LINE
  5
119
330
1F
100
AcDbEntity
  8
0
  6
Continuous
 62
     7
370
    25
100
AcDbLine
 10
2869.9750772947
 20
6268.3453197169
 30
0.0
 11
2907.502844792
 21
6268.3453197169
 31
0.0
  0
LINE
  5
11A
330
1F
100
AcDbEntity
  8
0
  6
Continuous
 62
     7
370
    25
100
AcDbLine
 10
2851.2111935461
 20
6268.3453197169
 30
0.0
 11
2851.2111935461
 21
6246.1557275597
 31
0.0
  0
LINE
  5
11B
330
1F
100
AcDbEntity
  8
0
  6
Continuous
 62
     7
370
    25
100
AcDbLine
 10
2851.2111935461
 20
6268.3453197169
 30
0.0
 11
2869.9750772947
 21
6268.3453197169
 31
0.0
  0
LINE
  5
11C
330
1F
100
AcDbEntity
  8
0
  6
Continuous
 62
     7
370
    25
100
AcDbLine
 10
3098.7389610434
 20
6070.8453197169
 30
0.0
 11
3083.7389610434
 21
6070.8453197169
 31
0.0
  0
LINE
  5
11D
330
1F
100
AcDbEntity
  8
0
  6
Continuous
 62
     7
370
    25
100
AcDbLine
 10
3113.7389610434
 20
6070.8453197169
 30
0.0
 11
3098.7389610434
 21
6070.8453197169
 31
0.0
  0
LINE
  5
11E
330
1F
100
AcDbEntity
  8
0
  6
Continuous
 62
     7
370
    25
100
AcDbLine
 10
2678.7389610434
 20
6070.8453197169
 30
0.0
 11
2663.7389610434
 21
6070.8453197169
 31
0.0
  0
LINE
  5
11F
330
1F
100
AcDbEntity
  8
0
  6
Continuous
 62
     7
370
    25
100
AcDbLine
 10
2693.7389610434
 20
6070.8453197169
 30
0.0
 11
2678.7389610434
 21
6070.8453197169
 31
0.0
  0
LINE
  5
120
330
1F
100
AcDbEntity
  8
0
  6
Continuous
 62
     7
370
    25
100
AcDbLine
 10
3086.2389610434
 20
6163.3453197169
 30
0.0
 11
3111.2389610434
 21
6163.3453197169
 31
0.0
  0
LINE
  5
121
330
1F
100
AcDbEntity
  8
0
  6
Continuous
 62
     7
370
    25
100
AcDbLine
 10
2691.2389610434
 20
6163.3453197169
 30
0.0
 11
2666.2389610434
 21
6163.3453197169
 31
0.0
  0
LINE
  5
122
330
1F
100
AcDbEntity
  8
0
  6
Continuous
 62
     7
370
    25
100
AcDbLine
 10
2908.7389610434
 20
6303.3453197169
 30
0.0
 11
2868.7389610434
 21
6303.3453197169
 31
0.0
  0
LINE
  5
123
330
1F
100
AcDbEntity
  8
0
  6
Continuous
 62
     7
370
    25
100
AcDbLine
 10
2868.7389610434
 20
7243.3453197169
 30
0.0
 11
2908.7389610434
 21
7243.3453197169
 31
0.0
  0
LINE
  5
124
330
1F
100
AcDbEntity
  8
0
  6
Continuous
 62
     7
370
    25
100
AcDbLine
 10
3876.2389610434
 20
8520.8453197169
 30
0.0
 11
1901.2389610434
 21
8520.8453197169
 31
0.0
  0
LINE
  5
125
330
1F
100
AcDbEntity
  8
0
  6
Continuous
 62
     7
370
    25
100
AcDbLine
 10
3876.2389610434
 20
8520.8453197169
 30
0.0
 11
3876.2389610434
 21
8450.8453197169
 31
0.0
  0
LINE
  5
126
330
1F
100
AcDbEntity
  8
0
  6
Continuous
 62
     7
370
    25
100
AcDbLine
 10
3876.2389610434
 20
8450.8453197169
 30
0.0
 11
1901.2389610434
 21
8450.8453197169
 31
0.0
  0
LINE
  5
127
330
1F
100
AcDbEntity
  8
0
  6
Continuous
 62
     7
370
    25
100
AcDbLine
 10
1901.2389610434
 20
8520.8453197169
 30
0.0
 11
1901.2389610434
 21
8450.8453197169
 31
0.0
  0
LINE
  5
128
330
1F
100
AcDbEntity
  8
0
  6
Continuous
 62
     7
370
    25
100
AcDbLine
 10
3876.2389610434
 20
8450.8453197169
 30
0.0
 11
3876.2389610434
 21
8435.8453197169
 31
0.0
  0
LINE
  5
129
330
1F
100
AcDbEntity
  8
0
  6
Continuous
 62
     7
370
    25
100
AcDbLine
 10
3876.2389610434
 20
8435.8453197169
 30
0.0
 11
1901.2389610434
 21
8435.8453197169
 31
0.0
  0
LINE
  5
12A
330
1F
100
AcDbEntity
  8
0
  6
Continuous
 62
     7
370
    25
100
AcDbLine
 10
1901.2389610434
 20
8450.8453197169
 30
0.0
 11
1901.2389610434
 21
8435.8453197169
 31
0.0
  0
LINE
  5
12B
330
1F
100
AcDbEntity
  8
0
  6
Continuous
 62
     7
370
    25
100
AcDbLine
 10
3876.2389610434
 20
8535.8453197169
 30
0.0
 11
1901.2389610434
 21
8535.8453197169
 31
0.0
  0
LINE
  5
12C
330
1F
100
AcDbEntity
  8
0
  6
Continuous
 62
     7
370
    25
100
AcDbLine
 10
3876.2389610434
 20
8535.8453197169
 30
0.0
 11
3876.2389610434
 21
8520.8453197169
 31
0.0
  0
LINE
  5
12D
330
1F
100
AcDbEntity
  8
0
  6
Continuous
 62
     7
370
    25
100
AcDbLine
 10
1901.2389610434
 20
8535.8453197169
 30
0.0
 11
1901.2389610434
 21
8520.8453197169
 31
0.0
  0
LINE
  5
12E
330
1F
100
AcDbEntity
  8
0
  6
Continuous
 62
     7
370
    25
100
AcDbLine
 10
3876.2389610434
 20
7045.8453197169
 30
0.0
 11
1901.2389610434
 21
7045.8453197169
 31
0.0
  0
LINE
  5
12F
330
1F
100
AcDbEntity
  8
0
  6
Continuous
 62
     7
370
    25
100
AcDbLine
 10
3876.2389610434
 20
7045.8453197169
 30
0.0
 11
3876.2389610434
 21
6975.8453197169
 31
0.0
  0
LINE
  5
130
330
1F
100
AcDbEntity
  8
0
  6
Continuous
 62
     7
370
    25
100
AcDbLine
 10
3876.2389610434
 20
6975.8453197169
 30
0.0
 11
1901.2389610434
 21
6975.8453197169
 31
0.0
  0
LINE
  5
131
330
1F
100
AcDbEntity
  8
0
  6
Continuous
 62
     7
370
    25
100
AcDbLine
 10
1901.2389610434
 20
7045.8453197169
 30
0.0
 11
1901.2389610434
 21
6975.8453197169
 31
0.0
  0
LINE
  5
132
330
1F
100
AcDbEntity
  8
0
  6
Continuous
 62
     7
370
    25
100
AcDbLine
 10
3876.2389610434
 20
6975.8453197169
 30
0.0
 11
3876.2389610434
 21
6960.8453197169
 31
0.0
  0
LINE
  5
133
330
1F
100
AcDbEntity
  8
0
  6
Continuous
 62
     7
370
    25
100
AcDbLine
 10
3876.2389610434
 20
6960.8453197169
 30
0.0
 11
1901.2389610434
 21
6960.8453197169
 31
0.0
  0
LINE
  5
134
330
1F
100
AcDbEntity
  8
0
  6
Continuous
 62
     7
370
    25
100
AcDbLine
 10
1901.2389610434
 20
6975.8453197169
 30
0.0
 11
1901.2389610434
 21
6960.8453197169
 31
0.0
  0
LINE
  5
135
330
1F
100
AcDbEntity
  8
0
  6
Continuous
 62
     7
370
    25
100
AcDbLine
 10
3876.2389610434
 20
7060.8453197169
 30
0.0
 11
1901.2389610434
 21
7060.8453197169
 31
0.0
  0
LINE
  5
136
330
1F
100
AcDbEntity
  8
0
  6
Continuous
 62
     7
370
    25
100
AcDbLine
 10
3876.2389610434
 20
7060.8453197169
 30
0.0
 11
3876.2389610434
 21
7045.8453197169
 31
0.0
  0
LINE
  5
137
330
1F
100
AcDbEntity
  8
0
  6
Continuous
 62
     7
370
    25
100
AcDbLine
 10
1901.2389610434
 20
7060.8453197169
 30
0.0
 11
1901.2389610434
 21
7045.8453197169
 31
0.0
  0
CIRCLE
  5
138
330
1F
100
AcDbEntity
  8
0
  6
Continuous
 62
     7
370
    25
100
AcDbCircle
 10
2488.7389610434
 20
7214.5953197169
 30
0.0
 40
25.00000000000091
  0
LINE
  5
139
330
1F
100
AcDbEntity
  8
0
  6
Continuous
 62
     7
370
    25
100
AcDbLine
 10
2558.7389610434
 20
7177.0953197169
 30
0.0
 11
2558.7389610434
 21
7187.6694956812
 31
0.0
  0
LINE
  5
13A
330
1F
100
AcDbEntity
  8
0
  6
Continuous
 62
     7
370
    25
100
AcDbLine
 10
2558.7389610434
 20
7241.5211437525
 30
0.0
 11
2558.7389610434
 21
7252.0953197169
 31
0.0
  0
ARC
  5
13B
330
1F
100
AcDbEntity
  8
0
  6
Continuous
 62
     7
370
    25
100
AcDbCircle
 10
2538.7389610434
 20
7177.0953197169
 30
0.0
 40
20.00000000000136
100
AcDbArc
 50
330.0
 51
0.0
  0
ARC
  5
13C
330
1F
100
AcDbEntity
  8
0
  6
Continuous
 62
     7
370
    25
100
AcDbCircle
 10
2438.7389610434
 20
7177.0953197169
 30
0.0
 40
20.0000000000004
100
AcDbArc
 50
180.0
 51
210.0
  0
LINE
  5
13D
330
1F
100
AcDbEntity
  8
0
  6
Continuous
 62
     7
370
    25
100
AcDbLine
 10
2418.7389610434
 20
7252.0953197169
 30
0.0
 11
2418.7389610434
 21
7241.5211437525
 31
0.0
  0
LINE
  5
13E
330
1F
100
AcDbEntity
  8
0
  6
Continuous
 62
     7
370
    25
100
AcDbLine
 10
2418.7389610434
 20
7187.6694956812
 30
0.0
 11
2418.7389610434
 21
7177.0953197169
 31
0.0
  0
CIRCLE
  5
13F
330
1F
100
AcDbEntity
  8
0
  6
Continuous
 62
     7
370
    25
100
AcDbCircle
 10
3288.7389610434
 20
7214.5953197169
 30
0.0
 40
25.00000000000091
  0
LINE
  5
140
330
1F
100
AcDbEntity
  8
0
  6
Continuous
 62
     7
370
    25
100
AcDbLine
 10
3358.7389610434
 20
7177.0953197169
 30
0.0
 11
3358.7389610434
 21
7187.6694956812
 31
0.0
  0
LINE
  5
141
330
1F
100
AcDbEntity
  8
0
  6
Continuous
 62
     7
370
    25
100
AcDbLine
 10
3358.7389610434
 20
7241.5211437525
 30
0.0
 11
3358.7389610434
 21
7252.0953197169
 31
0.0
  0
ARC
  5
142
330
1F
100
AcDbEntity
  8
0
  6
Continuous
 62
     7
370
    25
100
AcDbCircle
 10
3338.7389610434
 20
7177.0953197169
 30
0.0
 40
20.00000000000136
100
AcDbArc
 50
330.0
 51
0.0
  0
ARC
  5
143
330
1F
100
AcDbEntity
  8
0
  6
Continuous
 62
     7
370
    25
100
AcDbCircle
 10
3238.7389610434
 20
7177.0953197169
 30
0.0
 40
20.00000000000034
100
AcDbArc
 50
180.0
 51
210.0
  0
LINE
  5
144
330
1F
100
AcDbEntity
  8
0
  6
Continuous
 62
     7
370
    25
100
AcDbLine
 10
3218.7389610434
 20
7252.0953197169
 30
0.0
 11
3218.7389610434
 21
7241.5211437525
 31
0.0
  0
LINE
  5
145
330
1F
100
AcDbEntity
  8
0
  6
Continuous
 62
     7
370
    25
100
AcDbLine
 10
3218.7389610434
 20
7187.6694956812
 30
0.0
 11
3218.7389610434
 21
7177.0953197169
 31
0.0
  0
LINE
  5
146
330
1F
100
AcDbEntity
  8
0
  6
Continuous
 62
     7
370
    25
100
AcDbLine
 10
4138.7389610434
 20
8695.8453197169
 30
0.0
 11
4123.7389610434
 21
8695.8453197169
 31
0.0
  0
LINE
  5
147
330
1F
100
AcDbEntity
  8
0
  6
Continuous
 62
     7
370
    25
100
AcDbLine
 10
4138.7389610434
 20
8695.8453197169
 30
0.0
 11
4138.7389610434
 21
6795.8453197169
 31
0.0
  0
LINE
  5
148
330
1F
100
AcDbEntity
  8
0
  6
Continuous
 62
     7
370
    25
100
AcDbLine
 10
4138.7389610434
 20
6795.8453197169
 30
0.0
 11
4123.7389610434
 21
6795.8453197169
 31
0.0
  0
LINE
  5
149
330
1F
100
AcDbEntity
  8
0
  6
Continuous
 62
     7
370
    25
100
AcDbLine
 10
4123.7389610434
 20
7137.0953197169
 30
0.0
 11
4123.7389610434
 21
6795.8453197169
 31
0.0
  0
LINE
  5
14A
330
1F
100
AcDbEntity
  8
0
  6
Continuous
 62
     7
370
    25
100
AcDbLine
 10
3163.7389610434
 20
7137.0953197169
 30
0.0
 11
4123.7389610434
 21
7137.0953197169
 31
0.0
  0
LINE
  5
14B
330
1F
100
AcDbEntity
  8
0
  6
Continuous
 62
     7
370
    25
100
AcDbLine
 10
3163.7389610434
 20
7137.0953197169
 30
0.0
 11
3163.7389610434
 21
7167.0953197169
 31
0.0
  0
LINE
  5
14C
330
1F
100
AcDbEntity
  8
0
  6
Continuous
 62
     7
370
    25
100
AcDbLine
 10
3163.7389610434
 20
7167.0953197169
 30
0.0
 11
3230.6980272122
 21
7167.0953197169
 31
0.0
  0
LINE
  5
14D
330
1F
100
AcDbEntity
  8
0
  6
Continuous
 62
     7
370
    25
100
AcDbLine
 10
3346.7798948746
 20
7167.0953197169
 30
0.0
 11
4123.7389610434
 21
7167.0953197169
 31
0.0
  0
LINE
  5
14E
330
1F
100
AcDbEntity
  8
0
  6
Continuous
 62
     7
370
    25
100
AcDbLine
 10
4123.7389610434
 20
7252.0953197169
 30
0.0
 11
4123.7389610434
 21
7167.0953197169
 31
0.0
  0
LINE
  5
14F
330
1F
100
AcDbEntity
  8
0
  6
Continuous
 62
     7
370
    25
100
AcDbLine
 10
3163.7389610434
 20
7252.0953197169
 30
0.0
 11
3223.7870557595
 21
7252.0953197169
 31
0.0
  0
LINE
  5
150
330
1F
100
AcDbEntity
  8
0
  6
Continuous
 62
     7
370
    25
100
AcDbLine
 10
3353.6908663272
 20
7252.0953197169
 30
0.0
 11
4123.7389610434
 21
7252.0953197169
 31
0.0
  0
LINE
  5
151
330
1F
100
AcDbEntity
  8
0
  6
Continuous
 62
     7
370
    25
100
AcDbLine
 10
3163.7389610434
 20
7252.0953197169
 30
0.0
 11
3163.7389610434
 21
7282.0953197169
 31
0.0
  0
LINE
  5
152
330
1F
100
AcDbEntity
  8
0
  6
Continuous
 62
     7
370
    25
100
AcDbLine
 10
4123.7389610434
 20
8695.8453197169
 30
0.0
 11
4123.7389610434
 21
7282.0953197169
 31
0.0
  0
LINE
  5
153
330
1F
100
AcDbEntity
  8
0
  6
Continuous
 62
     7
370
    25
100
AcDbLine
 10
3163.7389610434
 20
7282.0953197169
 30
0.0
 11
3163.7389610434
 21
7297.0953197169
 31
0.0
  0
LINE
  5
154
330
1F
100
AcDbEntity
  8
0
  6
Continuous
 62
     7
370
    25
100
AcDbLine
 10
3163.7389610434
 20
7297.0953197169
 30
0.0
 11
4123.7389610434
 21
7297.0953197169
 31
0.0
  0
LINE
  5
155
330
1F
100
AcDbEntity
  8
0
  6
Continuous
 62
     7
370
    25
100
AcDbLine
 10
3163.7389610434
 20
7122.0953197169
 30
0.0
 11
4123.7389610434
 21
7122.0953197169
 31
0.0
  0
LINE
  5
156
330
1F
100
AcDbEntity
  8
0
  6
Continuous
 62
     7
370
    25
100
AcDbLine
 10
3163.7389610434
 20
7122.0953197169
 30
0.0
 11
3163.7389610434
 21
7137.0953197169
 31
0.0
  0
LINE
  5
157
330
1F
100
AcDbEntity
  8
0
  6
Continuous
 62
     7
370
    25
100
AcDbLine
 10
3876.2389610434
 20
8443.3453197169
 30
0.0
 11
4123.7389610434
 21
8443.3453197169
 31
0.0
  0
LINE
  5
158
330
1F
100
AcDbEntity
  8
0
  6
Continuous
 62
     7
370
    25
100
AcDbLine
 10
3876.2389610434
 20
8520.8453197169
 30
0.0
 11
4123.7389610434
 21
8520.8453197169
 31
0.0
  0
LINE
  5
159
330
1F
100
AcDbEntity
  8
0
  6
Continuous
 62
     7
370
    25
100
AcDbLine
 10
3876.2389610434
 20
6970.8453197169
 30
0.0
 11
4123.7389610434
 21
6970.8453197169
 31
0.0
  0
LINE
  5
15A
330
1F
100
AcDbEntity
  8
0
  6
Continuous
 62
     7
370
    25
100
AcDbLine
 10
3876.2389610434
 20
7048.3453197169
 30
0.0
 11
4123.7389610434
 21
7048.3453197169
 31
0.0
  0
LINE
  5
15B
330
1F
100
AcDbEntity
  8
0
  6
Continuous
 62
     7
370
    25
100
AcDbLine
 10
3163.7389610434
 20
7167.0953197169
 30
0.0
 11
3163.7389610434
 21
7252.0953197169
 31
0.0
  0
LINE
  5
15C
330
1F
100
AcDbEntity
  8
0
  6
Continuous
 62
     7
370
    25
100
AcDbLine
 10
2613.7389610434
 20
7252.0953197169
 30
0.0
 11
2613.7389610434
 21
7282.0953197169
 31
0.0
  0
LINE
  5
15D
330
1F
100
AcDbEntity
  8
0
  6
Continuous
 62
     7
370
    25
100
AcDbLine
 10
2613.7389610434
 20
7252.0953197169
 30
0.0
 11
2553.6908663272
 21
7252.0953197169
 31
0.0
  0
LINE
  5
15E
330
1F
100
AcDbEntity
  8
0
  6
Continuous
 62
     7
370
    25
100
AcDbLine
 10
2423.7870557595
 20
7252.0953197169
 30
0.0
 11
1653.7389610434
 21
7252.0953197169
 31
0.0
  0
LINE
  5
15F
330
1F
100
AcDbEntity
  8
0
  6
Continuous
 62
     7
370
    25
100
AcDbLine
 10
1653.7389610434
 20
7252.0953197169
 30
0.0
 11
1653.7389610434
 21
7167.0953197169
 31
0.0
  0
LINE
  5
160
330
1F
100
AcDbEntity
  8
0
  6
Continuous
 62
     7
370
    25
100
AcDbLine
 10
2613.7389610434
 20
7167.0953197169
 30
0.0
 11
2546.7798948746
 21
7167.0953197169
 31
0.0
  0
LINE
  5
161
330
1F
100
AcDbEntity
  8
0
  6
Continuous
 62
     7
370
    25
100
AcDbLine
 10
2430.6980272122
 20
7167.0953197169
 30
0.0
 11
1653.7389610434
 21
7167.0953197169
 31
0.0
  0
LINE
  5
162
330
1F
100
AcDbEntity
  8
0
  6
Continuous
 62
     7
370
    25
100
AcDbLine
 10
2613.7389610434
 20
7137.0953197169
 30
0.0
 11
2613.7389610434
 21
7167.0953197169
 31
0.0
  0
LINE
  5
163
330
1F
100
AcDbEntity
  8
0
  6
Continuous
 62
     7
370
    25
100
AcDbLine
 10
2613.7389610434
 20
7137.0953197169
 30
0.0
 11
1653.7389610434
 21
7137.0953197169
 31
0.0
  0
LINE
  5
164
330
1F
100
AcDbEntity
  8
0
  6
Continuous
 62
     7
370
    25
100
AcDbLine
 10
1653.7389610434
 20
7137.0953197169
 30
0.0
 11
1653.7389610434
 21
6795.8453197169
 31
0.0
  0
LINE
  5
165
330
1F
100
AcDbEntity
  8
0
  6
Continuous
 62
     7
370
    25
100
AcDbLine
 10
1638.7389610434
 20
6795.8453197169
 30
0.0
 11
1653.7389610434
 21
6795.8453197169
 31
0.0
  0
LINE
  5
166
330
1F
100
AcDbEntity
  8
0
  6
Continuous
 62
     7
370
    25
100
AcDbLine
 10
1653.7389610434
 20
8695.8453197169
 30
0.0
 11
1653.7389610434
 21
7282.0953197169
 31
0.0
  0
LINE
  5
167
330
1F
100
AcDbEntity
  8
0
  6
Continuous
 62
     7
370
    25
100
AcDbLine
 10
1638.7389610434
 20
8695.8453197169
 30
0.0
 11
1653.7389610434
 21
8695.8453197169
 31
0.0
  0
LINE
  5
168
330
1F
100
AcDbEntity
  8
0
  6
Continuous
 62
     7
370
    25
100
AcDbLine
 10
1638.7389610434
 20
8695.8453197169
 30
0.0
 11
1638.7389610434
 21
6795.8453197169
 31
0.0
  0
LINE
  5
169
330
1F
100
AcDbEntity
  8
0
  6
Continuous
 62
     7
370
    25
100
AcDbLine
 10
2613.7389610434
 20
7297.0953197169
 30
0.0
 11
1653.7389610434
 21
7297.0953197169
 31
0.0
  0
LINE
  5
16A
330
1F
100
AcDbEntity
  8
0
  6
Continuous
 62
     7
370
    25
100
AcDbLine
 10
2613.7389610434
 20
7282.0953197169
 30
0.0
 11
2613.7389610434
 21
7297.0953197169
 31
0.0
  0
LINE
  5
16B
330
1F
100
AcDbEntity
  8
0
  6
Continuous
 62
     7
370
    25
100
AcDbLine
 10
2613.7389610434
 20
7122.0953197169
 30
0.0
 11
2613.7389610434
 21
7137.0953197169
 31
0.0
  0
LINE
  5
16C
330
1F
100
AcDbEntity
  8
0
  6
Continuous
 62
     7
370
    25
100
AcDbLine
 10
2613.7389610434
 20
7122.0953197169
 30
0.0
 11
1653.7389610434
 21
7122.0953197169
 31
0.0
  0
LINE
  5
16D
330
1F
100
AcDbEntity
  8
0
  6
Continuous
 62
     7
370
    25
100
AcDbLine
 10
1901.2389610434
 20
8443.3453197169
 30
0.0
 11
1653.7389610434
 21
8443.3453197169
 31
0.0
  0
LINE
  5
16E
330
1F
100
AcDbEntity
  8
0
  6
Continuous
 62
     7
370
    25
100
AcDbLine
 10
1901.2389610434
 20
8520.8453197169
 30
0.0
 11
1653.7389610434
 21
8520.8453197169
 31
0.0
  0
LINE
  5
16F
330
1F
100
AcDbEntity
  8
0
  6
Continuous
 62
     7
370
    25
100
AcDbLine
 10
1901.2389610434
 20
6970.8453197169
 30
0.0
 11
1653.7389610434
 21
6970.8453197169
 31
0.0
  0
LINE
  5
170
330
1F
100
AcDbEntity
  8
0
  6
Continuous
 62
     7
370
    25
100
AcDbLine
 10
1901.2389610434
 20
7048.3453197169
 30
0.0
 11
1653.7389610434
 21
7048.3453197169
 31
0.0
  0
LINE
  5
171
330
1F
100
AcDbEntity
  8
0
  6
Continuous
 62
     7
370
    25
100
AcDbLine
 10
2613.7389610434
 20
7167.0953197169
 30
0.0
 11
2613.7389610434
 21
7252.0953197169
 31
0.0
  0
LINE
  5
172
330
1F
100
AcDbEntity
  8
0
  6
Continuous
 62
     8
370
    25
100
AcDbLine
 10
3098.7389610434
 20
6080.8453197169
 30
0.0
 11
3123.7389610434
 21
6080.8453197169
 31
0.0
  0
LINE
  5
173
330
1F
100
AcDbEntity
  8
0
  6
Continuous
 62
     8
370
    25
100
AcDbLine
 10
3073.7389610434
 20
6080.8453197169
 30
0.0
 11
3098.7389610434
 21
6080.8453197169
 31
0.0
  0
LINE
  5
174
330
1F
100
AcDbEntity
  8
0
  6
Continuous
 62
     8
370
    25
100
AcDbLine
 10
2678.7389610434
 20
6080.8453197169
 30
0.0
 11
2703.7389610434
 21
6080.8453197169
 31
0.0
  0
LINE
  5
175
330
1F
100
AcDbEntity
  8
0
  6
Continuous
 62
     8
370
    25
100
AcDbLine
 10
2653.7389610434
 20
6080.8453197169
 30
0.0
 11
2678.7389610434
 21
6080.8453197169
 31
0.0
  0
LINE
  5
176
330
1F
100
AcDbEntity
  8
0
  6
Continuous
 62
     8
370
    25
100
AcDbLine
 10
3163.7389610434
 20
7282.0953197169
 30
0.0
 11
3256.0472189668
 21
7282.0953197169
 31
0.0
  0
LINE
  5
177
330
1F
100
AcDbEntity
  8
0
  6
Continuous
 62
     8
370
    25
100
AcDbLine
 10
3321.4307031199
 20
7282.0953197169
 30
0.0
 11
4123.7389610434
 21
7282.0953197169
 31
0.0
  0
LINE
  5
178
330
1F
100
AcDbEntity
  8
0
  6
Continuous
 62
     8
370
    25
100
AcDbLine
 10
2613.7389610434
 20
7282.0953197169
 30
0.0
 11
2521.4307031199
 21
7282.0953197169
 31
0.0
  0
LINE
  5
179
330
1F
100
AcDbEntity
  8
0
  6
Continuous
 62
     8
370
    25
100
AcDbLine
 10
2456.0472189668
 20
7282.0953197169
 30
0.0
 11
1653.7389610434
 21
7282.0953197169
 31
0.0
  0
LINE
  5
17A
330
1F
100
AcDbEntity
  8
0
  6
Continuous
 62
     7
370
    25
100
AcDbLine
 10
5500.1971346158
 20
7289.5953197169
 30
0.0
 11
5490.1971346158
 21
7289.5953197169
 31
0.0
  0
LINE
  5
17B
330
1F
100
AcDbEntity
  8
0
  6
Continuous
 62
     7
370
    25
100
AcDbLine
 10
5490.1971346158
 20
7139.5953197169
 30
0.0
 11
5500.1971346158
 21
7139.5953197169
 31
0.0
  0
ARC
  5
17C
330
1F
100
AcDbEntity
  8
0
  6
Continuous
 62
     7
370
    25
100
AcDbCircle
 10
5437.1971346158
 20
6080.8453197169
 30
0.0
 40
10.00000000000091
100
AcDbArc
 50
270.0
 51
0.0
  0
ARC
  5
17D
330
1F
100
AcDbEntity
  8
0
  6
Continuous
 62
     7
370
    25
100
AcDbCircle
 10
5407.1971346158
 20
6080.8453197169
 30
0.0
 40
10.00000000000091
100
AcDbArc
 50
180.0
 51
270.0
  0
LINE
  5
17E
330
1F
100
AcDbEntity
  8
0
  6
Continuous
 62
     7
370
    25
100
AcDbLine
 10
5397.1971346158
 20
6088.3453197169
 30
0.0
 11
5397.1971346158
 21
6080.8453197169
 31
0.0
  0
LINE
  5
17F
330
1F
100
AcDbEntity
  8
0
  6
Continuous
 62
     7
370
    25
100
AcDbLine
 10
5447.1971346158
 20
6080.8453197169
 30
0.0
 11
5447.1971346158
 21
6088.3453197169
 31
0.0
  0
LINE
  5
180
330
1F
100
AcDbEntity
  8
0
  6
Continuous
 62
     7
370
    25
100
AcDbLine
 10
5434.6971346158
 20
6108.3453197169
 30
0.0
 11
5434.6971346158
 21
6163.3453197169
 31
0.0
  0
LINE
  5
181
330
1F
100
AcDbEntity
  8
0
  6
Continuous
 62
     7
370
    25
100
AcDbLine
 10
5409.6971346158
 20
6163.3453197169
 30
0.0
 11
5409.6971346158
 21
6108.3453197169
 31
0.0
  0
LINE
  5
182
330
1F
100
AcDbEntity
  8
0
  6
Continuous
 62
     7
370
    25
100
AcDbLine
 10
5389.6971346158
 20
6245.8631768597
 30
0.0
 11
5366.4471346158
 21
6250.8453197169
 31
0.0
  0
LINE
  5
183
330
1F
100
AcDbEntity
  8
0
  6
Continuous
 62
     7
370
    25
100
AcDbLine
 10
5477.9471346158
 20
6250.8453197169
 30
0.0
 11
5454.6971346158
 21
6245.8631768597
 31
0.0
  0
LINE
  5
184
330
1F
100
AcDbEntity
  8
0
  6
Continuous
 62
     7
370
    25
100
AcDbLine
 10
5366.4471346158
 20
5945.8453197169
 30
0.0
 11
5401.4471346158
 21
5953.3453197169
 31
0.0
  0
LINE
  5
185
330
1F
100
AcDbEntity
  8
0
  6
Continuous
 62
     7
370
    25
100
AcDbLine
 10
5442.9471346158
 20
5953.3453197169
 30
0.0
 11
5477.9471346158
 21
5945.8453197169
 31
0.0
  0
LINE
  5
186
330
1F
100
AcDbEntity
  8
0
  6
Continuous
 62
     7
370
    25
100
AcDbLine
 10
5401.4471346158
 20
5958.3453197169
 30
0.0
 11
5442.9471346158
 21
5958.3453197169
 31
0.0
  0
LINE
  5
187
330
1F
100
AcDbEntity
  8
0
  6
Continuous
 62
     7
370
    25
100
AcDbLine
 10
5442.1971346158
 20
6303.3453197169
 30
0.0
 11
5442.1971346158
 21
6795.8453197169
 31
0.0
  0
LINE
  5
188
330
1F
100
AcDbEntity
  8
0
  6
Continuous
 62
     7
370
    25
100
AcDbLine
 10
5402.1971346158
 20
6927.1994762209
 30
0.0
 11
5402.1971346158
 21
6884.4911632128
 31
0.0
  0
LINE
  5
189
330
1F
100
AcDbEntity
  8
0
  6
Continuous
 62
     7
370
    25
100
AcDbLine
 10
5402.1971346158
 20
6795.8453197169
 30
0.0
 11
5402.1971346158
 21
6303.3453197169
 31
0.0
  0
LINE
  5
18A
330
1F
100
AcDbEntity
  8
0
  6
Continuous
 62
     7
370
    25
100
AcDbLine
 10
5440.9471346158
 20
6268.3453197169
 30
0.0
 11
5440.9471346158
 21
6303.3453197169
 31
0.0
  0
LINE
  5
18B
330
1F
100
AcDbEntity
  8
0
  6
Continuous
 62
     7
370
    25
100
AcDbLine
 10
5403.4471346158
 20
6303.3453197169
 30
0.0
 11
5403.4471346158
 21
6268.3453197169
 31
0.0
  0
LINE
  5
18C
330
1F
100
AcDbEntity
  8
0
  6
Continuous
 62
     7
370
    25
100
AcDbLine
 10
5540.1971346158
 20
7189.5953197169
 30
0.0
 11
5954.1971346158
 21
7189.5953197169
 31
0.0
  0
LINE
  5
18D
330
1F
100
AcDbEntity
  8
0
  6
Continuous
 62
     7
370
    25
100
AcDbLine
 10
5954.1971346158
 20
7239.5953197169
 30
0.0
 11
5540.1971346158
 21
7239.5953197169
 31
0.0
  0
LINE
  5
18E
330
1F
100
AcDbEntity
  8
0
  6
Continuous
 62
     7
370
    25
100
AcDbLine
 10
5340.1971346158
 20
8494.5953197169
 30
0.0
 11
5335.1971346158
 21
8494.5953197169
 31
0.0
  0
LINE
  5
18F
330
1F
100
AcDbEntity
  8
0
  6
Continuous
 62
     7
370
    25
100
AcDbLine
 10
5335.1971346158
 20
8469.5953197169
 30
0.0
 11
5340.1971346158
 21
8469.5953197169
 31
0.0
  0
LINE
  5
190
330
1F
100
AcDbEntity
  8
0
  6
Continuous
 62
     7
370
    25
100
AcDbLine
 10
5340.1971346158
 20
7022.0953197169
 30
0.0
 11
5335.1971346158
 21
7022.0953197169
 31
0.0
  0
LINE
  5
191
330
1F
100
AcDbEntity
  8
0
  6
Continuous
 62
     7
370
    25
100
AcDbLine
 10
5335.1971346158
 20
6997.0953197169
 30
0.0
 11
5340.1971346158
 21
6997.0953197169
 31
0.0
  0
LINE
  5
192
330
1F
100
AcDbEntity
  8
0
  6
Continuous
 62
     7
370
    25
100
AcDbLine
 10
5340.1971346158
 20
8495.8453197169
 30
0.0
 11
5335.1971346158
 21
8495.8453197169
 31
0.0
  0
LINE
  5
193
330
1F
100
AcDbEntity
  8
0
  6
Continuous
 62
     7
370
    25
100
AcDbLine
 10
5340.1971346158
 20
7023.3453197169
 30
0.0
 11
5335.1971346158
 21
7023.3453197169
 31
0.0
  0
SPLINE
  5
194
330
1F
100
AcDbEntity
  8
0
  6
Continuous
 62
     7
370
    25
100
AcDbSpline
210
0.0
220
0.0
230
1.0
 70
     8
 71
     3
 72
     9
 73
     5
 74
     0
 42
0.00000001
 43
0.00000001
 40
0.0
 40
0.0
 40
0.0
 40
0.0
 40
0.4962229202406811
 40
0.9999999999999999
 40
0.9999999999999999
 40
0.9999999999999999
 40
0.9999999999999999
 10
5500.197134615833
 20
7193.345319716858
 30
0.0
 10
5500.155561932759
 20
7196.90016294994
 30
0.0
 10
5500.07178369242
 20
7204.063965926549
 30
0.0
 10
5501.817621528859
 20
7211.0672338524
 30
0.0
 10
5502.697134615833
 20
7214.595319716858
 30
0.0
  0
SPLINE
  5
195
330
1F
100
AcDbEntity
  8
0
  6
Continuous
 62
     7
370
    25
100
AcDbSpline
210
0.0
220
0.0
230
1.0
 70
     8
 71
     3
 72
    10
 73
     6
 74
     0
 42
0.00000001
 43
0.00000001
 40
0.0
 40
0.0
 40
0.0
 40
0.0
 40
0.3315739395275101
 40
0.6721625413041707
 40
1.0
 40
1.0
 40
1.0
 40
1.0
 10
5502.697134615833
 20
7214.595319716858
 30
0.0
 10
5502.017474382669
 20
7216.896662061701
 30
0.0
 10
5500.639675662429
 20
7221.561914467014
 30
0.0
 10
5500.267634839434
 20
7228.732223557276
 30
0.0
 10
5500.220333913708
 20
7233.504634422708
 30
0.0
 10
5500.197134615833
 20
7235.845319716858
 30
0.0
  0
LINE
  5
196
330
1F
100
AcDbEntity
  8
0
  6
Continuous
 62
     7
370
    25
100
AcDbLine
 10
5537.6971346158
 20
7214.5953197169
 30
0.0
 11
5502.6971346158
 21
7214.5953197169
 31
0.0
  0
SPLINE
  5
197
330
1F
100
AcDbEntity
  8
0
  6
Continuous
 62
     7
370
    25
100
AcDbSpline
210
0.0
220
0.0
230
1.0
 70
     8
 71
     3
 72
    10
 73
     6
 74
     0
 42
0.00000001
 43
0.00000001
 40
0.0
 40
0.0
 40
0.0
 40
0.0
 40
0.3315739395275104
 40
0.6721625413041669
 40
1.0
 40
1.0
 40
1.0
 40
1.0
 10
5537.697134615833
 20
7214.595319716858
 30
0.0
 10
5538.376794848996
 20
7212.293977372017
 30
0.0
 10
5539.754593569237
 20
7207.628724966704
 30
0.0
 10
5540.126634392231
 20
7200.45841587644
 30
0.0
 10
5540.173935317958
 20
7195.68600501101
 30
0.0
 10
5540.197134615833
 20
7193.345319716858
 30
0.0
  0
SPLINE
  5
198
330
1F
100
AcDbEntity
  8
0
  6
Continuous
 62
     7
370
    25
100
AcDbSpline
210
0.0
220
0.0
230
1.0
 70
     8
 71
     3
 72
     9
 73
     5
 74
     0
 42
0.00000001
 43
0.00000001
 40
0.0
 40
0.0
 40
0.0
 40
0.0
 40
0.4962229202406771
 40
1.0
 40
1.0
 40
1.0
 40
1.0
 10
5540.197134615833
 20
7193.345319716858
 30
0.0
 10
5540.238707298906
 20
7189.790476483778
 30
0.0
 10
5540.322485539245
 20
7182.626673507169
 30
0.0
 10
5538.576647702806
 20
7175.623405581317
 30
0.0
 10
5537.697134615833
 20
7172.095319716859
 30
0.0
  0
LINE
  5
199
330
1F
100
AcDbEntity
  8
0
  6
Continuous
 62
     7
370
    25
100
AcDbLine
 10
5537.6971346158
 20
7172.0953197169
 30
0.0
 11
5502.6971346158
 21
7172.0953197169
 31
0.0
  0
SPLINE
  5
19A
330
1F
100
AcDbEntity
  8
0
  6
Continuous
 62
     7
370
    25
100
AcDbSpline
210
0.0
220
0.0
230
1.0
 70
     8
 71
     3
 72
    10
 73
     6
 74
     0
 42
0.00000001
 43
0.00000001
 40
0.0
 40
0.0
 40
0.0
 40
0.0
 40
0.3315739395276511
 40
0.6721625413044556
 40
0.9999999999999999
 40
0.9999999999999999
 40
0.9999999999999999
 40
0.9999999999999999
 10
5502.697134615833
 20
7172.095319716859
 30
0.0
 10
5502.017474382669
 20
7174.396662061701
 30
0.0
 10
5500.639675662429
 20
7179.061914467016
 30
0.0
 10
5500.267634839434
 20
7186.23222355728
 30
0.0
 10
5500.220333913708
 20
7191.004634422709
 30
0.0
 10
5500.197134615833
 20
7193.345319716858
 30
0.0
  0
SPLINE
  5
19B
330
1F
100
AcDbEntity
  8
0
  6
Continuous
 62
     7
370
    25
100
AcDbSpline
210
0.0
220
0.0
230
1.0
 70
     8
 71
     3
 72
     9
 73
     5
 74
     0
 42
0.00000001
 43
0.00000001
 40
0.0
 40
0.0
 40
0.0
 40
0.0
 40
0.4962229202406763
 40
0.9999999999999999
 40
0.9999999999999999
 40
0.9999999999999999
 40
0.9999999999999999
 10
5500.197134615833
 20
7235.845319716858
 30
0.0
 10
5500.155561932759
 20
7239.40016294994
 30
0.0
 10
5500.07178369242
 20
7246.563965926549
 30
0.0
 10
5501.817621528859
 20
7253.567233852401
 30
0.0
 10
5502.697134615833
 20
7257.095319716859
 30
0.0
  0
LINE
  5
19C
330
1F
100
AcDbEntity
  8
0
  6
Continuous
 62
     7
370
    25
100
AcDbLine
 10
5537.6971346158
 20
7257.0953197169
 30
0.0
 11
5502.6971346158
 21
7257.0953197169
 31
0.0
  0
SPLINE
  5
19D
330
1F
100
AcDbEntity
  8
0
  6
Continuous
 62
     7
370
    25
100
AcDbSpline
210
0.0
220
0.0
230
1.0
 70
     8
 71
     3
 72
    10
 73
     6
 74
     0
 42
0.00000001
 43
0.00000001
 40
0.0
 40
0.0
 40
0.0
 40
0.0
 40
0.3315739395276516
 40
0.6721625413044566
 40
1.0
 40
1.0
 40
1.0
 40
1.0
 10
5537.697134615833
 20
7257.095319716859
 30
0.0
 10
5538.376794848996
 20
7254.793977372015
 30
0.0
 10
5539.754593569238
 20
7250.128724966701
 30
0.0
 10
5540.126634392231
 20
7242.958415876437
 30
0.0
 10
5540.173935317958
 20
7238.186005011007
 30
0.0
 10
5540.197134615833
 20
7235.845319716858
 30
0.0
  0
SPLINE
  5
19E
330
1F
100
AcDbEntity
  8
0
  6
Continuous
 62
     7
370
    25
100
AcDbSpline
210
0.0
220
0.0
230
1.0
 70
     8
 71
     3
 72
     9
 73
     5
 74
     0
 42
0.00000001
 43
0.00000001
 40
0.0
 40
0.0
 40
0.0
 40
0.0
 40
0.4962229202406771
 40
1.0
 40
1.0
 40
1.0
 40
1.0
 10
5540.197134615833
 20
7235.845319716858
 30
0.0
 10
5540.238707298906
 20
7232.290476483777
 30
0.0
 10
5540.322485539245
 20
7225.126673507169
 30
0.0
 10
5538.576647702806
 20
7218.123405581317
 30
0.0
 10
5537.697134615833
 20
7214.595319716858
 30
0.0
  0
LINE
  5
19F
330
1F
100
AcDbEntity
  8
0
  6
Continuous
 62
     7
370
    25
100
AcDbLine
 10
5540.1971346158
 20
7235.8453197169
 30
0.0
 11
5540.1971346158
 21
7193.3453197169
 31
0.0
  0
SPLINE
  5
1A0
330
1F
100
AcDbEntity
  8
0
  6
Continuous
 62
     7
370
    25
100
AcDbSpline
210
0.0
220
0.0
230
1.0
 70
    24
 71
     3
 72
     9
 73
     5
 74
     0
 42
0.00000001
 43
0.00000001
 40
0.0
 40
0.0
 40
0.0
 40
0.0
 40
0.7169484261070697
 40
1.0
 40
1.0
 40
1.0
 40
1.0
 10
5500.197134615833
 20
7172.095319716859
 30
0.0
 10
5500.121368436346
 20
7172.095319716859
 30
0.0
 10
5500.015689733765
 20
7172.095319716858
 30
0.0
 10
5502.105586146839
 20
7172.095319716859
 30
0.0
 10
5502.697134615833
 20
7172.095319716859
 30
0.0
  0
SPLINE
  5
1A1
330
1F
100
AcDbEntity
  8
0
  6
Continuous
 62
     7
370
    25
100
AcDbSpline
210
0.0
220
0.0
230
1.0
 70
    24
 71
     3
 72
     9
 73
     5
 74
     0
 42
0.00000001
 43
0.00000001
 40
0.0
 40
0.0
 40
0.0
 40
0.0
 40
0.4054701119094976
 40
1.0
 40
1.0
 40
1.0
 40
1.0
 10
5502.697134615833
 20
7257.095319716859
 30
0.0
 10
5501.931407887384
 20
7257.095319716859
 30
0.0
 10
5500.042916711444
 20
7257.095319716859
 30
0.0
 10
5500.139633559174
 20
7257.095319716859
 30
0.0
 10
5500.197134615833
 20
7257.095319716859
 30
0.0
  0
SPLINE
  5
1A2
330
1F
100
AcDbEntity
  8
0
  6
Continuous
 62
     7
370
    25
100
AcDbSpline
210
0.0
220
0.0
230
1.0
 70
    24
 71
     3
 72
     9
 73
     5
 74
     0
 42
0.00000001
 43
0.00000001
 40
0.0
 40
0.0
 40
0.0
 40
0.0
 40
0.4054701119095369
 40
1.0
 40
1.0
 40
1.0
 40
1.0
 10
5537.697134615833
 20
7172.095319716859
 30
0.0
 10
5538.462861344281
 20
7172.095319716859
 30
0.0
 10
5540.351352520222
 20
7172.095319716858
 30
0.0
 10
5540.254635672491
 20
7172.095319716858
 30
0.0
 10
5540.197134615833
 20
7172.095319716859
 30
0.0
  0
LINE
  5
1A3
330
1F
100
AcDbEntity
  8
0
  6
Continuous
 62
     7
370
    25
100
AcDbLine
 10
5540.1971346158
 20
7193.3453197169
 30
0.0
 11
5540.1971346158
 21
7172.0953197169
 31
0.0
  0
SPLINE
  5
1A4
330
1F
100
AcDbEntity
  8
0
  6
Continuous
 62
     7
370
    25
100
AcDbSpline
210
0.0
220
0.0
230
1.0
 70
    24
 71
     3
 72
     9
 73
     5
 74
     0
 42
0.00000001
 43
0.00000001
 40
0.0
 40
0.0
 40
0.0
 40
0.0
 40
0.7169484261070668
 40
1.0
 40
1.0
 40
1.0
 40
1.0
 10
5540.197134615833
 20
7257.095319716859
 30
0.0
 10
5540.272900795321
 20
7257.095319716859
 30
0.0
 10
5540.378579497901
 20
7257.095319716859
 30
0.0
 10
5538.288683084827
 20
7257.095319716859
 30
0.0
 10
5537.697134615833
 20
7257.095319716859
 30
0.0
  0
LINE
  5
1A5
330
1F
100
AcDbEntity
  8
0
  6
Continuous
 62
     7
370
    25
100
AcDbLine
 10
5540.1971346158
 20
7257.0953197169
 30
0.0
 11
5540.1971346158
 21
7235.8453197169
 31
0.0
  0
ARC
  5
1A6
330
1F
100
AcDbEntity
  8
0
  6
Continuous
 62
     7
370
    25
100
AcDbCircle
 10
5187.6971346158
 20
7113.3453197169
 30
0.0
 40
15.0
100
AcDbArc
 50
180.0
 51
270.0
  0
LINE
  5
1A7
330
1F
100
AcDbEntity
  8
0
  6
Continuous
 62
     7
370
    25
100
AcDbLine
 10
5172.6971346158
 20
7113.3453197169
 30
0.0
 11
5182.6971346158
 21
7113.3453197169
 31
0.0
  0
ARC
  5
1A8
330
1F
100
AcDbEntity
  8
0
  6
Continuous
 62
     7
370
    25
100
AcDbCircle
 10
5187.6971346158
 20
7113.3453197169
 30
0.0
 40
5.0
100
AcDbArc
 50
180.0
 51
270.0
  0
LINE
  5
1A9
330
1F
100
AcDbEntity
  8
0
  6
Continuous
 62
     7
370
    25
100
AcDbLine
 10
5187.6971346158
 20
7108.3453197169
 30
0.0
 11
5187.6971346158
 21
7098.3453197169
 31
0.0
  0
LINE
  5
1AA
330
1F
100
AcDbEntity
  8
0
  6
Continuous
 62
     7
370
    25
100
AcDbLine
 10
5172.6971346158
 20
8380.8453197169
 30
0.0
 11
5172.6971346158
 21
7113.3453197169
 31
0.0
  0
LINE
  5
1AB
330
1F
100
AcDbEntity
  8
0
  6
Continuous
 62
     7
370
    25
100
AcDbLine
 10
5182.6971346158
 20
8380.8453197169
 30
0.0
 11
5172.6971346158
 21
8380.8453197169
 31
0.0
  0
LINE
  5
1AC
330
1F
100
AcDbEntity
  8
0
  6
Continuous
 62
     7
370
    25
100
AcDbLine
 10
5182.6971346158
 20
8380.8453197169
 30
0.0
 11
5182.6971346158
 21
7113.3453197169
 31
0.0
  0
LINE
  5
1AD
330
1F
100
AcDbEntity
  8
0
  6
Continuous
 62
     7
370
    25
100
AcDbLine
 10
5187.6971346158
 20
7098.3453197169
 30
0.0
 11
5340.1971346158
 21
7098.3453197169
 31
0.0
  0
LINE
  5
1AE
330
1F
100
AcDbEntity
  8
0
  6
Continuous
 62
     7
370
    25
100
AcDbLine
 10
5187.6971346158
 20
7108.3453197169
 30
0.0
 11
5340.1971346158
 21
7108.3453197169
 31
0.0
  0
ARC
  5
1AF
330
1F
100
AcDbEntity
  8
0
  6
Continuous
 62
     7
370
    25
100
AcDbCircle
 10
5187.6971346158
 20
8380.8453197169
 30
0.0
 40
15.00000000000091
100
AcDbArc
 50
90.0
 51
180.0
  0
LINE
  5
1B0
330
1F
100
AcDbEntity
  8
0
  6
Continuous
 62
     7
370
    25
100
AcDbLine
 10
5187.6971346158
 20
8395.8453197169
 30
0.0
 11
5187.6971346158
 21
8385.8453197169
 31
0.0
  0
ARC
  5
1B1
330
1F
100
AcDbEntity
  8
0
  6
Continuous
 62
     7
370
    25
100
AcDbCircle
 10
5187.6971346158
 20
8380.8453197169
 30
0.0
 40
5.0
100
AcDbArc
 50
90.0
 51
180.0
  0
LINE
  5
1B2
330
1F
100
AcDbEntity
  8
0
  6
Continuous
 62
     7
370
    25
100
AcDbLine
 10
5340.1971346158
 20
8395.8453197169
 30
0.0
 11
5187.6971346158
 21
8395.8453197169
 31
0.0
  0
LINE
  5
1B3
330
1F
100
AcDbEntity
  8
0
  6
Continuous
 62
     7
370
    25
100
AcDbLine
 10
5340.1971346158
 20
8385.8453197169
 30
0.0
 11
5187.6971346158
 21
8385.8453197169
 31
0.0
  0
LINE
  5
1B4
330
1F
100
AcDbEntity
  8
0
  6
Continuous
 62
     7
370
    25
100
AcDbLine
 10
5500.1971346158
 20
7139.5953197169
 30
0.0
 11
5500.1971346158
 21
7289.5953197169
 31
0.0
  0
LINE
  5
1B5
330
1F
100
AcDbEntity
  8
0
  6
Continuous
 62
     7
370
    25
100
AcDbLine
 10
5472.1971346158
 20
6108.3453197169
 30
0.0
 11
5372.1971346158
 21
6108.3453197169
 31
0.0
  0
LINE
  5
1B6
330
1F
100
AcDbEntity
  8
0
  6
Continuous
 62
     7
370
    25
100
AcDbLine
 10
5472.1971346158
 20
6108.3453197169
 30
0.0
 11
5472.1971346158
 21
6088.3453197169
 31
0.0
  0
LINE
  5
1B7
330
1F
100
AcDbEntity
  8
0
  6
Continuous
 62
     7
370
    25
100
AcDbLine
 10
5472.1971346158
 20
6088.3453197169
 30
0.0
 11
5372.1971346158
 21
6088.3453197169
 31
0.0
  0
LINE
  5
1B8
330
1F
100
AcDbEntity
  8
0
  6
Continuous
 62
     7
370
    25
100
AcDbLine
 10
5372.1971346158
 20
6108.3453197169
 30
0.0
 11
5372.1971346158
 21
6088.3453197169
 31
0.0
  0
LINE
  5
1B9
330
1F
100
AcDbEntity
  8
0
  6
Continuous
 62
     7
370
    25
100
AcDbLine
 10
5437.1971346158
 20
6070.8453197169
 30
0.0
 11
5407.1971346158
 21
6070.8453197169
 31
0.0
  0
LINE
  5
1BA
330
1F
100
AcDbEntity
  8
0
  6
Continuous
 62
     7
370
    25
100
AcDbLine
 10
5434.6971346158
 20
6163.3453197169
 30
0.0
 11
5409.6971346158
 21
6163.3453197169
 31
0.0
  0
ELLIPSE
  5
1BB
330
1F
100
AcDbEntity
  8
0
  6
Continuous
 62
     7
370
    25
100
AcDbEllipse
 10
5242.0210991129
 20
6098.3453197169
 30
0.0
 11
310.3189371418602
 21
0.0
 31
0.0
210
0.0
220
0.0
230
1.0
 40
0.5361109642
 41
1.031247488784157
 42
1.074826660447568
  0
LINE
  5
1BC
330
1F
100
AcDbEntity
  8
0
  6
Continuous
 62
     7
370
    25
100
AcDbLine
 10
5401.4471346158
 20
6108.3453197169
 30
0.0
 11
5401.4471346158
 21
6241.0769297407
 31
0.0
  0
LINE
  5
1BD
330
1F
100
AcDbEntity
  8
0
  6
Continuous
 62
     7
370
    25
100
AcDbLine
 10
5372.1971346158
 20
6108.3453197169
 30
0.0
 11
5366.4471346158
 21
6108.3453197169
 31
0.0
  0
LINE
  5
1BE
330
1F
100
AcDbEntity
  8
0
  6
Continuous
 62
     7
370
    25
100
AcDbLine
 10
5366.4471346158
 20
6108.3453197169
 30
0.0
 11
5366.4471346158
 21
6250.8453197169
 31
0.0
  0
LINE
  5
1BF
330
1F
100
AcDbEntity
  8
0
  6
Continuous
 62
     7
370
    25
100
AcDbLine
 10
5477.9471346158
 20
6108.3453197169
 30
0.0
 11
5477.9471346158
 21
6250.8453197169
 31
0.0
  0
LINE
  5
1C0
330
1F
100
AcDbEntity
  8
0
  6
Continuous
 62
     7
370
    25
100
AcDbLine
 10
5442.9471346158
 20
6108.3453197169
 30
0.0
 11
5442.9471346158
 21
6241.0769297407
 31
0.0
  0
ELLIPSE
  5
1C1
330
1F
100
AcDbEntity
  8
0
  6
Continuous
 62
     7
370
    25
100
AcDbEllipse
 10
5602.3731701188
 20
6098.3453197169
 30
0.0
 11
310.3189371418594
 21
9.094947017729282E-13
 31
0.0
210
0.0
220
0.0
230
1.0
 40
0.5361109642
 41
2.066765993142218
 42
2.110345164805629
  0
LINE
  5
1C2
330
1F
100
AcDbEntity
  8
0
  6
Continuous
 62
     7
370
    25
100
AcDbLine
 10
5477.9471346158
 20
6108.3453197169
 30
0.0
 11
5472.1971346158
 21
6108.3453197169
 31
0.0
  0
LINE
  5
1C3
330
1F
100
AcDbEntity
  8
0
  6
Continuous
 62
     7
370
    25
100
AcDbLine
 10
5401.4471346158
 20
5953.3453197169
 30
0.0
 11
5401.4471346158
 21
6072.6637856309
 31
0.0
  0
LINE
  5
1C4
330
1F
100
AcDbEntity
  8
0
  6
Continuous
 62
     7
370
    25
100
AcDbLine
 10
5366.4471346158
 20
5945.8453197169
 30
0.0
 11
5366.4471346158
 21
6088.3453197169
 31
0.0
  0
LINE
  5
1C5
330
1F
100
AcDbEntity
  8
0
  6
Continuous
 62
     7
370
    25
100
AcDbLine
 10
5366.4471346158
 20
6088.3453197169
 30
0.0
 11
5372.1971346158
 21
6088.3453197169
 31
0.0
  0
LINE
  5
1C6
330
1F
100
AcDbEntity
  8
0
  6
Continuous
 62
     7
370
    25
100
AcDbLine
 10
5442.9471346158
 20
5953.3453197169
 30
0.0
 11
5442.9471346158
 21
6072.6637856309
 31
0.0
  0
LINE
  5
1C7
330
1F
100
AcDbEntity
  8
0
  6
Continuous
 62
     7
370
    25
100
AcDbLine
 10
5477.9471346158
 20
5945.8453197169
 30
0.0
 11
5477.9471346158
 21
6088.3453197169
 31
0.0
  0
LINE
  5
1C8
330
1F
100
AcDbEntity
  8
0
  6
Continuous
 62
     7
370
    25
100
AcDbLine
 10
5472.1971346158
 20
6088.3453197169
 30
0.0
 11
5477.9471346158
 21
6088.3453197169
 31
0.0
  0
ELLIPSE
  5
1C9
330
1F
100
AcDbEntity
  8
0
  6
Continuous
 62
     7
370
    25
100
AcDbEllipse
 10
5357.1971346158
 20
6098.3453197169
 30
0.0
 11
242.487113059643
 21
0.0
 31
0.0
210
0.0
220
0.0
230
1.0
 40
0.5773502692
 41
1.299422247474156
 42
1.387284120242602
  0
ELLIPSE
  5
1CA
330
1F
100
AcDbEntity
  8
0
  6
Continuous
 62
     7
370
    25
100
AcDbEllipse
 10
5487.1971346158
 20
6098.3453197169
 30
0.0
 11
242.487113059643
 21
9.094947017729280E-13
 31
0.0
210
0.0
220
0.0
230
1.0
 40
0.5773502692
 41
1.754308533347189
 42
1.842170406115642
  0
LINE
  5
1CB
330
1F
100
AcDbEntity
  8
0
  6
Continuous
 62
     7
370
    25
100
AcDbLine
 10
5389.6971346158
 20
6268.3453197169
 30
0.0
 11
5389.6971346158
 21
6244.664952175
 31
0.0
  0
LINE
  5
1CC
330
1F
100
AcDbEntity
  8
0
  6
Continuous
 62
     7
370
    25
100
AcDbLine
 10
5389.6971346158
 20
6268.3453197169
 30
0.0
 11
5422.1971346158
 21
6268.3453197169
 31
0.0
  0
LINE
  5
1CD
330
1F
100
AcDbEntity
  8
0
  6
Continuous
 62
     7
370
    25
100
AcDbLine
 10
5422.1971346158
 20
6268.3453197169
 30
0.0
 11
5422.1971346158
 21
6233.2218064248
 31
0.0
  0
LINE
  5
1CE
330
1F
100
AcDbEntity
  8
0
  6
Continuous
 62
     7
370
    25
100
AcDbLine
 10
5454.6971346158
 20
6268.3453197169
 30
0.0
 11
5454.6971346158
 21
6244.664952175
 31
0.0
  0
LINE
  5
1CF
330
1F
100
AcDbEntity
  8
0
  6
Continuous
 62
     7
370
    25
100
AcDbLine
 10
5422.1971346158
 20
6268.3453197169
 30
0.0
 11
5454.6971346158
 21
6268.3453197169
 31
0.0
  0
LINE
  5
1D0
330
1F
100
AcDbEntity
  8
0
  6
Continuous
 62
     7
370
    25
100
AcDbLine
 10
5422.1971346158
 20
6303.3453197169
 30
0.0
 11
5402.1971346158
 21
6303.3453197169
 31
0.0
  0
LINE
  5
1D1
330
1F
100
AcDbEntity
  8
0
  6
Continuous
 62
     7
370
    25
100
AcDbLine
 10
5442.1971346158
 20
6303.3453197169
 30
0.0
 11
5422.1971346158
 21
6303.3453197169
 31
0.0
  0
LINE
  5
1D2
330
1F
100
AcDbEntity
  8
0
  6
Continuous
 62
     7
370
    25
100
AcDbLine
 10
5340.1971346158
 20
7272.0953197169
 30
0.0
 11
5335.1971346158
 21
7272.0953197169
 31
0.0
  0
LINE
  5
1D3
330
1F
100
AcDbEntity
  8
0
  6
Continuous
 62
     7
370
    25
100
AcDbLine
 10
5335.1971346158
 20
7272.0953197169
 30
0.0
 11
5335.1971346158
 21
7252.0953197169
 31
0.0
  0
LINE
  5
1D4
330
1F
100
AcDbEntity
  8
0
  6
Continuous
 62
     7
370
    25
100
AcDbLine
 10
5335.1971346158
 20
7252.0953197169
 30
0.0
 11
5335.1971346158
 21
7177.0953197169
 31
0.0
  0
LINE
  5
1D5
330
1F
100
AcDbEntity
  8
0
  6
Continuous
 62
     7
370
    25
100
AcDbLine
 10
5340.1971346158
 20
7157.0953197169
 30
0.0
 11
5335.1971346158
 21
7157.0953197169
 31
0.0
  0
LINE
  5
1D6
330
1F
100
AcDbEntity
  8
0
  6
Continuous
 62
     7
370
    25
100
AcDbLine
 10
5335.1971346158
 20
7177.0953197169
 30
0.0
 11
5335.1971346158
 21
7157.0953197169
 31
0.0
  0
LINE
  5
1D7
330
1F
100
AcDbEntity
  8
0
  6
Continuous
 62
     7
370
    25
100
AcDbLine
 10
5954.1971346158
 20
7189.5953197169
 30
0.0
 11
5954.1971346158
 21
7239.5953197169
 31
0.0
  0
CIRCLE
  5
1D8
330
1F
100
AcDbEntity
  8
0
  6
Continuous
 62
     7
370
    25
100
AcDbCircle
 10
5415.1971346158
 20
8585.8453197169
 30
0.0
 40
25.00000000000091
  0
LINE
  5
1D9
330
1F
100
AcDbEntity
  8
0
  6
Continuous
 62
     7
370
    25
100
AcDbLine
 10
5490.1971346158
 20
6795.8453197169
 30
0.0
 11
5340.1971346158
 21
6795.8453197169
 31
0.0
  0
LINE
  5
1DA
330
1F
100
AcDbEntity
  8
0
  6
Continuous
 62
     7
370
    25
100
AcDbLine
 10
5340.1971346158
 20
6795.8453197169
 30
0.0
 11
5340.1971346158
 21
8695.8453197169
 31
0.0
  0
LINE
  5
1DB
330
1F
100
AcDbEntity
  8
0
  6
Continuous
 62
     7
370
    25
100
AcDbLine
 10
5340.1971346158
 20
8695.8453197169
 30
0.0
 11
5490.1971346158
 21
8695.8453197169
 31
0.0
  0
LINE
  5
1DC
330
1F
100
AcDbEntity
  8
0
  6
Continuous
 62
     7
370
    25
100
AcDbLine
 10
5490.1971346158
 20
8695.8453197169
 30
0.0
 11
5490.1971346158
 21
6795.8453197169
 31
0.0
  0
CIRCLE
  5
1DD
330
1F
100
AcDbEntity
  8
0
  6
Continuous
 62
     7
370
    25
100
AcDbCircle
 10
5415.1971346158
 20
6905.8453197169
 30
0.0
 40
25.00000000000091
  0
LINE
  5
1DE
330
1F
100
AcDbEntity
  8
0
  6
Continuous
 62
     7
370
    25
100
AcDbLine
 10
5330.1971346158
 20
7287.0953197169
 30
0.0
 11
5340.1971346158
 21
7287.0953197169
 31
0.0
  0
ARC
  5
1DF
330
1F
100
AcDbEntity
  8
0
  6
Continuous
 62
     7
370
    25
100
AcDbCircle
 10
5330.1971346158
 20
7282.0953197169
 30
0.0
 40
5.0
100
AcDbArc
 50
90.0
 51
180.0
  0
LINE
  5
1E0
330
1F
100
AcDbEntity
  8
0
  6
Continuous
 62
     7
370
    25
100
AcDbLine
 10
5325.1971346158
 20
7137.0953197169
 30
0.0
 11
5325.1971346158
 21
7282.0953197169
 31
0.0
  0
ARC
  5
1E1
330
1F
100
AcDbEntity
  8
0
  6
Continuous
 62
     7
370
    25
100
AcDbCircle
 10
5330.1971346158
 20
7137.0953197169
 30
0.0
 40
5.0
100
AcDbArc
 50
180.0
 51
270.0
  0
LINE
  5
1E2
330
1F
100
AcDbEntity
  8
0
  6
Continuous
 62
     7
370
    25
100
AcDbLine
 10
5340.1971346158
 20
7132.0953197169
 30
0.0
 11
5330.1971346158
 21
7132.0953197169
 31
0.0
  0
LINE
  5
1E3
330
1F
100
AcDbEntity
  8
0
  6
Continuous
 62
     7
370
    25
100
AcDbLine
 10
5330.1971346158
 20
7122.0953197169
 30
0.0
 11
5340.1971346158
 21
7122.0953197169
 31
0.0
  0
ARC
  5
1E4
330
1F
100
AcDbEntity
  8
0
  6
Continuous
 62
     7
370
    25
100
AcDbCircle
 10
5330.1971346158
 20
7137.0953197169
 30
0.0
 40
15.0
100
AcDbArc
 50
180.0
 51
270.0
  0
LINE
  5
1E5
330
1F
100
AcDbEntity
  8
0
  6
Continuous
 62
     7
370
    25
100
AcDbLine
 10
5315.1971346158
 20
7282.0953197169
 30
0.0
 11
5315.1971346158
 21
7137.0953197169
 31
0.0
  0
ARC
  5
1E6
330
1F
100
AcDbEntity
  8
0
  6
Continuous
 62
     7
370
    25
100
AcDbCircle
 10
5330.1971346158
 20
7282.0953197169
 30
0.0
 40
15.0
100
AcDbArc
 50
90.0
 51
180.0
  0
LINE
  5
1E7
330
1F
100
AcDbEntity
  8
0
  6
Continuous
 62
     7
370
    25
100
AcDbLine
 10
5340.1971346158
 20
7297.0953197169
 30
0.0
 11
5330.1971346158
 21
7297.0953197169
 31
0.0
  0
LINE
  5
1E8
330
1F
100
AcDbEntity
  8
0
  6
Continuous
 62
     7
370
    25
100
AcDbLine
 10
5335.1971346158
 20
8469.5953197169
 30
0.0
 11
5335.1971346158
 21
8494.5953197169
 31
0.0
  0
LINE
  5
1E9
330
1F
100
AcDbEntity
  8
0
  6
Continuous
 62
     7
370
    25
100
AcDbLine
 10
5335.1971346158
 20
7022.0953197169
 30
0.0
 11
5335.1971346158
 21
6997.0953197169
 31
0.0
  0
LINE
  5
1EA
330
1F
100
AcDbEntity
  8
0
  6
Continuous
 62
     7
370
    25
100
AcDbLine
 10
5335.1971346158
 20
8494.5953197169
 30
0.0
 11
5335.1971346158
 21
8495.8453197169
 31
0.0
  0
LINE
  5
1EB
330
1F
100
AcDbEntity
  8
0
  6
Continuous
 62
     7
370
    25
100
AcDbLine
 10
5335.1971346158
 20
7022.0953197169
 30
0.0
 11
5335.1971346158
 21
7023.3453197169
 31
0.0
  0
LINE
  5
1EC
330
1F
100
AcDbEntity
  8
0
  6
Continuous
 62
     8
370
    25
100
AcDbLine
 10
5397.1971346158
 20
6080.8453197169
 30
0.0
 11
5447.1971346158
 21
6080.8453197169
 31
0.0
  0
LINE
  5
1ED
330
1F
100
AcDbEntity
  8
0
  6
Continuous
 62
     8
370
    25
100
AcDbLine
 10
5340.1971346158
 20
7252.0953197169
 30
0.0
 11
5335.1971346158
 21
7252.0953197169
 31
0.0
  0
LINE
  5
1EE
330
1F
100
AcDbEntity
  8
0
  6
Continuous
 62
     8
370
    25
100
AcDbLine
 10
5340.1971346158
 20
7177.0953197169
 30
0.0
 11
5335.1971346158
 21
7177.0953197169
 31
0.0
  0
ARC
  5
1EF
330
1F
100
AcDbEntity
  8
0
  6
Continuous
 62
     7
370
    25
100
AcDbCircle
 10
2206.5360360436
 20
4654.1338234838
 30
0.0
 40
15.00000000000036
100
AcDbArc
 50
223.5756298267
 51
238.6808278062
  0
ARC
  5
1F0
330
1F
100
AcDbEntity
  8
0
  6
Continuous
 62
     7
370
    25
100
AcDbCircle
 10
2230.9418860432
 20
4654.1338234838
 30
0.0
 40
15.00000000000017
100
AcDbArc
 50
301.3191721938
 51
316.5295682622
  0
ARC
  5
1F1
330
1F
100
AcDbEntity
  8
0
  6
Continuous
 62
     7
370
    25
100
AcDbCircle
 10
2230.9418860432
 20
4652.0052752267
 30
0.0
 40
14.99999999999952
100
AcDbArc
 50
43.5756298267
 51
58.6808278062
  0
ARC
  5
1F2
330
1F
100
AcDbEntity
  8
0
  6
Continuous
 62
     7
370
    25
100
AcDbCircle
 10
2206.5360360436
 20
4652.0052752267
 30
0.0
 40
14.99999999999983
100
AcDbArc
 50
121.3191721938
 51
136.5295682622
  0
ARC
  5
1F3
330
1F
100
AcDbEntity
  8
0
  6
Continuous
 62
     7
370
    25
100
AcDbCircle
 10
3546.5360360436
 20
4654.1338234838
 30
0.0
 40
15.00000000000012
100
AcDbArc
 50
223.5756298267
 51
238.6808278062
  0
ARC
  5
1F4
330
1F
100
AcDbEntity
  8
0
  6
Continuous
 62
     7
370
    25
100
AcDbCircle
 10
3570.9418860432
 20
4654.1338234838
 30
0.0
 40
14.99999999999983
100
AcDbArc
 50
301.3191721938
 51
316.5295682622
  0
ARC
  5
1F5
330
1F
100
AcDbEntity
  8
0
  6
Continuous
 62
     7
370
    25
100
AcDbCircle
 10
3570.9418860432
 20
4652.0052752267
 30
0.0
 40
14.99999999999952
100
AcDbArc
 50
43.5756298267
 51
58.6808278062
  0
ARC
  5
1F6
330
1F
100
AcDbEntity
  8
0
  6
Continuous
 62
     7
370
    25
100
AcDbCircle
 10
3546.5360360436
 20
4652.0052752267
 30
0.0
 40
15.00000000000017
100
AcDbArc
 50
121.3191721938
 51
136.5295682622
  0
ARC
  5
1F7
330
1F
100
AcDbEntity
  8
0
  6
Continuous
 62
     7
370
    25
100
AcDbCircle
 10
3250.9418860432
 20
4662.0052752267
 30
0.0
 40
15.00000000000043
100
AcDbArc
 50
57.7083025434
 51
58.6808278062
  0
ARC
  5
1F8
330
1F
100
AcDbEntity
  8
0
  6
Continuous
 62
     7
370
    25
100
AcDbCircle
 10
3250.9418860432
 20
4664.1338234838
 30
0.0
 40
14.99999999999952
100
AcDbArc
 50
301.3191721938
 51
302.3544441536
  0
ARC
  5
1F9
330
1F
100
AcDbEntity
  8
0
  6
Continuous
 62
     7
370
    25
100
AcDbCircle
 10
3226.5360360436
 20
4662.0052752267
 30
0.0
 40
15.00000000000039
100
AcDbArc
 50
121.3191721938
 51
122.2870633086
  0
ARC
  5
1FA
330
1F
100
AcDbEntity
  8
0
  6
Continuous
 62
     7
370
    25
100
AcDbCircle
 10
3226.5360360436
 20
4664.1338234838
 30
0.0
 40
14.99999999999997
100
AcDbArc
 50
237.6472411645
 51
238.6808278062
  0
ARC
  5
1FB
330
1F
100
AcDbEntity
  8
0
  6
Continuous
 62
     7
370
    25
100
AcDbCircle
 10
2795.9418860432
 20
4662.0052752267
 30
0.0
 40
15.00000000000019
100
AcDbArc
 50
57.7083025434
 51
58.6808278062
  0
ARC
  5
1FC
330
1F
100
AcDbEntity
  8
0
  6
Continuous
 62
     7
370
    25
100
AcDbCircle
 10
2795.9418860432
 20
4664.1338234838
 30
0.0
 40
14.99999999999952
100
AcDbArc
 50
301.3191721938
 51
302.3544441536
  0
ARC
  5
1FD
330
1F
100
AcDbEntity
  8
0
  6
Continuous
 62
     7
370
    25
100
AcDbCircle
 10
2771.5360360436
 20
4662.0052752267
 30
0.0
 40
15.00000000000039
100
AcDbArc
 50
121.3191721938
 51
122.2870633086
  0
ARC
  5
1FE
330
1F
100
AcDbEntity
  8
0
  6
Continuous
 62
     7
370
    25
100
AcDbCircle
 10
2771.5360360436
 20
4664.1338234838
 30
0.0
 40
14.99999999999997
100
AcDbArc
 50
237.6472411645
 51
238.6808278062
  0
ARC
  5
1FF
330
1F
100
AcDbEntity
  8
0
  6
Continuous
 62
     7
370
    25
100
AcDbCircle
 10
3005.9418860432
 20
4664.1338234838
 30
0.0
 40
15.00000000000081
100
AcDbArc
 50
301.3191721938
 51
302.3544441536
  0
ARC
  5
200
330
1F
100
AcDbEntity
  8
0
  6
Continuous
 62
     7
370
    25
100
AcDbCircle
 10
3005.9418860432
 20
4662.0052752267
 30
0.0
 40
15.00000000000006
100
AcDbArc
 50
57.7083025434
 51
58.6808278062
  0
ARC
  5
201
330
1F
100
AcDbEntity
  8
0
  6
Continuous
 62
     7
370
    25
100
AcDbCircle
 10
2981.5360360436
 20
4664.1338234838
 30
0.0
 40
14.99999999999997
100
AcDbArc
 50
237.6472411645
 51
238.6808278062
  0
ARC
  5
202
330
1F
100
AcDbEntity
  8
0
  6
Continuous
 62
     7
370
    25
100
AcDbCircle
 10
2981.5360360436
 20
4662.0052752267
 30
0.0
 40
15.00000000000029
100
AcDbArc
 50
121.3191721938
 51
122.2870633086
  0
ARC
  5
203
330
1F
100
AcDbEntity
  8
0
  6
Continuous
 62
     7
370
    25
100
AcDbCircle
 10
2527.71454474
 20
4662.0052752267
 30
0.0
 40
15.00000000000043
100
AcDbArc
 50
57.7083025434
 51
58.6808278062
  0
ARC
  5
204
330
1F
100
AcDbEntity
  8
0
  6
Continuous
 62
     7
370
    25
100
AcDbCircle
 10
2527.71454474
 20
4664.1338234838
 30
0.0
 40
14.99999999999958
100
AcDbArc
 50
301.3191721938
 51
302.3544441536
  0
ARC
  5
205
330
1F
100
AcDbEntity
  8
0
  6
Continuous
 62
     7
370
    25
100
AcDbCircle
 10
2503.3086947404
 20
4662.0052752267
 30
0.0
 40
15.00000000000006
100
AcDbArc
 50
121.3191721938
 51
122.2870633086
  0
ARC
  5
206
330
1F
100
AcDbEntity
  8
0
  6
Continuous
 62
     7
370
    25
100
AcDbCircle
 10
2503.3086947404
 20
4664.1338234838
 30
0.0
 40
14.99999999999997
100
AcDbArc
 50
237.6472411645
 51
238.6808278062
  0
ARC
  5
207
330
1F
100
AcDbEntity
  8
0
  6
Continuous
 62
     7
370
    25
100
AcDbCircle
 10
2529.343739021
 20
4552.9397599251
 30
0.0
 40
15.00000000000037
100
AcDbArc
 50
55.6727826662
 51
82.7413844723
  0
LWPOLYLINE
  5
208
330
1F
100
AcDbEntity
  8
0
  6
Continuous
 62
     7
370
    25
100
AcDbPolyline
 90
        3
 70
   128
 43
0.0
 10
2446.2389610434
 20
4567.8195493553
 10
2445.3650498766
 20
4567.6819409503
 10
2444.5052024115
 20
4567.4941578656
  0
LWPOLYLINE
  5
209
330
1F
100
AcDbEntity
  8
0
  6
Continuous
 62
     7
370
    25
100
AcDbPolyline
 90
        3
 70
   128
 43
0.0
 10
2441.0326873274
 20
4566.1522070216
 10
2440.4273316826
 20
4565.8084988594
 10
2439.6820856679
 20
4565.3317754826
  0
ARC
  5
20A
330
1F
100
AcDbEntity
  8
0
  6
Continuous
 62
     7
370
    25
100
AcDbCircle
 10
2448.1341830657
 20
4542.6993387854
 30
0.0
 40
15.00000000000026
100
AcDbArc
 50
235.6727826662
 51
262.7413844723
  0
LWPOLYLINE
  5
20B
330
1F
100
AcDbEntity
  8
0
  6
Continuous
 62
     7
370
    25
100
AcDbPolyline
 90
        3
 70
   128
 43
0.0
 10
2531.2389610434
 20
4527.8195493553
 10
2532.1128722101
 20
4527.9571577602
 10
2532.9727196753
 20
4528.1449408449
  0
LWPOLYLINE
  5
20C
330
1F
100
AcDbEntity
  8
0
  6
Continuous
 62
     7
370
    25
100
AcDbPolyline
 90
        3
 70
   128
 43
0.0
 10
2536.4452347593
 20
4529.4868916889
 10
2537.0505904041
 20
4529.8305998511
 10
2537.7958364189
 20
4530.3073232279
  0
ARC
  5
20D
330
1F
100
AcDbEntity
  8
0
  6
Continuous
 62
     7
370
    25
100
AcDbCircle
 10
3329.343739021
 20
4552.9397599251
 30
0.0
 40
15.00000000000043
100
AcDbArc
 50
55.6727826662
 51
82.7413844723
  0
LWPOLYLINE
  5
20E
330
1F
100
AcDbEntity
  8
0
  6
Continuous
 62
     7
370
    25
100
AcDbPolyline
 90
        3
 70
   128
 43
0.0
 10
3246.2389610434
 20
4567.8195493553
 10
3245.3650498766
 20
4567.6819409503
 10
3244.5052024115
 20
4567.4941578656
  0
LWPOLYLINE
  5
20F
330
1F
100
AcDbEntity
  8
0
  6
Continuous
 62
     7
370
    25
100
AcDbPolyline
 90
        3
 70
   128
 43
0.0
 10
3241.0326873274
 20
4566.1522070216
 10
3240.4273316826
 20
4565.8084988594
 10
3239.6820856679
 20
4565.3317754826
  0
ARC
  5
210
330
1F
100
AcDbEntity
  8
0
  6
Continuous
 62
     7
370
    25
100
AcDbCircle
 10
3248.1341830657
 20
4542.6993387854
 30
0.0
 40
15.00000000000026
100
AcDbArc
 50
235.6727826662
 51
262.7413844723
  0
LWPOLYLINE
  5
211
330
1F
100
AcDbEntity
  8
0
  6
Continuous
 62
     7
370
    25
100
AcDbPolyline
 90
        3
 70
   128
 43
0.0
 10
3331.2389610434
 20
4527.8195493553
 10
3332.1128722101
 20
4527.9571577602
 10
3332.9727196753
 20
4528.1449408449
  0
LWPOLYLINE
  5
212
330
1F
100
AcDbEntity
  8
0
  6
Continuous
 62
     7
370
    25
100
AcDbPolyline
 90
        3
 70
   128
 43
0.0
 10
3336.4452347593
 20
4529.4868916889
 10
3337.0505904041
 20
4529.8305998512
 10
3337.7958364189
 20
4530.3073232279
  0
LINE
  5
213
330
1F
100
AcDbEntity
  8
0
  6
Continuous
 62
     7
370
    25
100
AcDbLine
 10
3363.7389610434
 20
4567.8195493553
 30
0.0
 11
3363.7389610434
 21
4577.8195493553
 31
0.0
  0
LINE
  5
214
330
1F
100
AcDbEntity
  8
0
  6
Continuous
 62
     7
370
    25
100
AcDbLine
 10
3213.7389610434
 20
4577.8195493553
 30
0.0
 11
3213.7389610434
 21
4567.8195493553
 31
0.0
  0
LINE
  5
215
330
1F
100
AcDbEntity
  8
0
  6
Continuous
 62
     7
370
    25
100
AcDbLine
 10
2563.7389610434
 20
4567.8195493553
 30
0.0
 11
2563.7389610434
 21
4577.8195493553
 31
0.0
  0
LINE
  5
216
330
1F
100
AcDbEntity
  8
0
  6
Continuous
 62
     7
370
    25
100
AcDbLine
 10
2413.7389610434
 20
4577.8195493553
 30
0.0
 11
2413.7389610434
 21
4567.8195493553
 31
0.0
  0
LINE
  5
217
330
1F
100
AcDbEntity
  8
0
  6
Continuous
 62
     7
370
    25
100
AcDbLine
 10
3201.2389610434
 20
4651.3195493553
 30
0.0
 11
3201.2389610434
 21
4645.3195493553
 31
0.0
  0
LINE
  5
218
330
1F
100
AcDbEntity
  8
0
  6
Continuous
 62
     7
370
    25
100
AcDbLine
 10
3276.2389610434
 20
4645.3195493553
 30
0.0
 11
3276.2389610434
 21
4651.3195493553
 31
0.0
  0
LINE
  5
219
330
1F
100
AcDbEntity
  8
0
  6
Continuous
 62
     7
370
    25
100
AcDbLine
 10
2956.2389610434
 20
4651.3195493564
 30
0.0
 11
2956.2389610434
 21
4645.3195493564
 31
0.0
  0
LINE
  5
21A
330
1F
100
AcDbEntity
  8
0
  6
Continuous
 62
     7
370
    25
100
AcDbLine
 10
3031.2389610434
 20
4645.3195493564
 30
0.0
 11
3031.2389610434
 21
4651.3195493564
 31
0.0
  0
LINE
  5
21B
330
1F
100
AcDbEntity
  8
0
  6
Continuous
 62
     7
370
    25
100
AcDbLine
 10
3521.2389610434
 20
4641.3195493553
 30
0.0
 11
3521.2389610434
 21
4635.3195493553
 31
0.0
  0
LINE
  5
21C
330
1F
100
AcDbEntity
  8
0
  6
Continuous
 62
     7
370
    25
100
AcDbLine
 10
3596.2389610434
 20
4635.3195493553
 30
0.0
 11
3596.2389610434
 21
4641.3195493553
 31
0.0
  0
LINE
  5
21D
330
1F
100
AcDbEntity
  8
0
  6
Continuous
 62
     7
370
    25
100
AcDbLine
 10
2746.2389610434
 20
4651.3195493553
 30
0.0
 11
2746.2389610434
 21
4645.3195493553
 31
0.0
  0
LINE
  5
21E
330
1F
100
AcDbEntity
  8
0
  6
Continuous
 62
     7
370
    25
100
AcDbLine
 10
2821.2389610434
 20
4645.3195493553
 30
0.0
 11
2821.2389610434
 21
4651.3195493553
 31
0.0
  0
LINE
  5
21F
330
1F
100
AcDbEntity
  8
0
  6
Continuous
 62
     7
370
    25
100
AcDbLine
 10
2478.0116197402
 20
4651.3195493553
 30
0.0
 11
2478.0116197402
 21
4645.3195493553
 31
0.0
  0
LINE
  5
220
330
1F
100
AcDbEntity
  8
0
  6
Continuous
 62
     7
370
    25
100
AcDbLine
 10
2553.0116197402
 20
4645.3195493553
 30
0.0
 11
2553.0116197402
 21
4651.3195493553
 31
0.0
  0
LINE
  5
221
330
1F
100
AcDbEntity
  8
0
  6
Continuous
 62
     7
370
    25
100
AcDbLine
 10
2181.2389610434
 20
4641.3195493553
 30
0.0
 11
2181.2389610434
 21
4635.3195493553
 31
0.0
  0
LINE
  5
222
330
1F
100
AcDbEntity
  8
0
  6
Continuous
 62
     7
370
    25
100
AcDbLine
 10
2256.2389610434
 20
4635.3195493553
 30
0.0
 11
2256.2389610434
 21
4641.3195493553
 31
0.0
  0
LINE
  5
223
330
1F
100
AcDbEntity
  8
0
  6
Continuous
 62
     7
370
    25
100
AcDbLine
 10
2463.7389610434
 20
4527.8195493553
 30
0.0
 11
2463.7389610434
 21
4113.8195493553
 31
0.0
  0
LINE
  5
224
330
1F
100
AcDbEntity
  8
0
  6
Continuous
 62
     7
370
    25
100
AcDbLine
 10
2513.7389610434
 20
4113.8195493553
 30
0.0
 11
2513.7389610434
 21
4527.8195493553
 31
0.0
  0
LINE
  5
225
330
1F
100
AcDbEntity
  8
0
  6
Continuous
 62
     7
370
    25
100
AcDbLine
 10
3263.7389610434
 20
4527.8195493553
 30
0.0
 11
3263.7389610434
 21
4113.8195493553
 31
0.0
  0
LINE
  5
226
330
1F
100
AcDbEntity
  8
0
  6
Continuous
 62
     7
370
    25
100
AcDbLine
 10
3313.7389610434
 20
4113.8195493553
 30
0.0
 11
3313.7389610434
 21
4527.8195493553
 31
0.0
  0
LINE
  5
227
330
1F
100
AcDbEntity
  8
0
  6
Continuous
 62
     7
370
    25
100
AcDbLine
 10
3571.2389610434
 20
4664.8195493553
 30
0.0
 11
3571.2389610434
 21
4732.8195493553
 31
0.0
  0
LINE
  5
228
330
1F
100
AcDbEntity
  8
0
  6
Continuous
 62
     7
370
    25
100
AcDbLine
 10
3546.2389610434
 20
4732.8195493553
 30
0.0
 11
3546.2389610434
 21
4664.8195493553
 31
0.0
  0
LINE
  5
229
330
1F
100
AcDbEntity
  8
0
  6
Continuous
 62
     7
370
    25
100
AcDbLine
 10
2231.2389610434
 20
4664.8195493553
 30
0.0
 11
2231.2389610434
 21
4732.8195493553
 31
0.0
  0
LINE
  5
22A
330
1F
100
AcDbEntity
  8
0
  6
Continuous
 62
     7
370
    25
100
AcDbLine
 10
2206.2389610434
 20
4732.8195493553
 30
0.0
 11
2206.2389610434
 21
4664.8195493553
 31
0.0
  0
LINE
  5
22B
330
1F
100
AcDbEntity
  8
0
  6
Continuous
 62
     7
370
    25
100
AcDbLine
 10
2528.0116197402
 20
4674.8195493553
 30
0.0
 11
2528.0116197402
 21
4732.8195493553
 31
0.0
  0
LINE
  5
22C
330
1F
100
AcDbEntity
  8
0
  6
Continuous
 62
     7
370
    25
100
AcDbLine
 10
2503.0116197402
 20
4732.8195493553
 30
0.0
 11
2503.0116197402
 21
4674.8195493553
 31
0.0
  0
LINE
  5
22D
330
1F
100
AcDbEntity
  8
0
  6
Continuous
 62
     7
370
    25
100
AcDbLine
 10
3251.2389610434
 20
4674.8195493553
 30
0.0
 11
3251.2389610434
 21
4732.8195493553
 31
0.0
  0
LINE
  5
22E
330
1F
100
AcDbEntity
  8
0
  6
Continuous
 62
     7
370
    25
100
AcDbLine
 10
3226.2389610434
 20
4732.8195493553
 30
0.0
 11
3226.2389610434
 21
4674.8195493553
 31
0.0
  0
LINE
  5
22F
330
1F
100
AcDbEntity
  8
0
  6
Continuous
 62
     7
370
    25
100
AcDbLine
 10
3006.2389610434
 20
4643.8195493553
 30
0.0
 11
3006.2389610434
 21
4645.3195493564
 31
0.0
  0
LINE
  5
230
330
1F
100
AcDbEntity
  8
0
  6
Continuous
 62
     7
370
    25
100
AcDbLine
 10
3006.2389610434
 20
4674.8195493553
 30
0.0
 11
3006.2389610434
 21
4732.8195493553
 31
0.0
  0
LINE
  5
231
330
1F
100
AcDbEntity
  8
0
  6
Continuous
 62
     7
370
    25
100
AcDbLine
 10
2981.2389610434
 20
4732.8195493553
 30
0.0
 11
2981.2389610434
 21
4674.8195493553
 31
0.0
  0
LINE
  5
232
330
1F
100
AcDbEntity
  8
0
  6
Continuous
 62
     7
370
    25
100
AcDbLine
 10
2981.2389610434
 20
4645.3195493564
 30
0.0
 11
2981.2389610434
 21
4643.8195493553
 31
0.0
  0
LINE
  5
233
330
1F
100
AcDbEntity
  8
0
  6
Continuous
 62
     7
370
    25
100
AcDbLine
 10
2796.2389610434
 20
4643.8195493553
 30
0.0
 11
2796.2389610434
 21
4645.3195493553
 31
0.0
  0
LINE
  5
234
330
1F
100
AcDbEntity
  8
0
  6
Continuous
 62
     7
370
    25
100
AcDbLine
 10
2796.2389610434
 20
4674.8195493553
 30
0.0
 11
2796.2389610434
 21
4732.8195493553
 31
0.0
  0
LINE
  5
235
330
1F
100
AcDbEntity
  8
0
  6
Continuous
 62
     7
370
    25
100
AcDbLine
 10
2771.2389610434
 20
4732.8195493553
 30
0.0
 11
2771.2389610434
 21
4674.8195493553
 31
0.0
  0
LINE
  5
236
330
1F
100
AcDbEntity
  8
0
  6
Continuous
 62
     7
370
    25
100
AcDbLine
 10
2771.2389610434
 20
4645.3195493553
 30
0.0
 11
2771.2389610434
 21
4643.8195493553
 31
0.0
  0
SPLINE
  5
237
330
1F
100
AcDbEntity
  8
0
  6
Continuous
 62
     7
370
    25
100
AcDbSpline
210
0.0
220
0.0
230
1.0
 70
     8
 71
     3
 72
     9
 73
     5
 74
     0
 42
0.00000001
 43
0.00000001
 40
0.0
 40
0.0
 40
0.0
 40
0.0
 40
0.5843443298746015
 40
1.0
 40
1.0
 40
1.0
 40
1.0
 10
2230.28596642717
 20
4662.319549355258
 30
0.0
 10
2231.374069082356
 20
4663.178560100722
 30
0.0
 10
2233.236160660142
 20
4664.648602165904
 30
0.0
 10
2235.230507533115
 20
4664.769356946152
 30
0.0
 10
2236.059469119064
 20
4664.819549355256
 30
0.0
  0
SPLINE
  5
238
330
1F
100
AcDbEntity
  8
0
  6
Continuous
 62
     7
370
    25
100
AcDbSpline
210
0.0
220
0.0
230
1.0
 70
     8
 71
     3
 72
     9
 73
     5
 74
     0
 42
0.00000001
 43
0.00000001
 40
0.0
 40
0.0
 40
0.0
 40
0.0
 40
0.865960471897649
 40
1.0
 40
1.0
 40
1.0
 40
1.0
 10
2218.738961043375
 20
4664.819549355256
 30
0.0
 10
2222.226488051802
 20
4664.581110605367
 30
0.0
 10
2226.253839324296
 20
4664.305764607914
 30
0.0
 10
2229.809383027099
 20
4662.554313090188
 30
0.0
 10
2230.28596642717
 20
4662.319549355258
 30
0.0
  0
LINE
  5
239
330
1F
100
AcDbEntity
  8
0
  6
Continuous
 62
     7
370
    25
100
AcDbLine
 10
2218.7389610434
 20
4664.8195493553
 30
0.0
 11
2236.0594691191
 21
4664.8195493553
 31
0.0
  0
SPLINE
  5
23A
330
1F
100
AcDbEntity
  8
0
  6
Continuous
 62
     7
370
    25
100
AcDbSpline
210
0.0
220
0.0
230
1.0
 70
     8
 71
     3
 72
     9
 73
     5
 74
     0
 42
0.00000001
 43
0.00000001
 40
0.0
 40
0.0
 40
0.0
 40
0.0
 40
0.321900148045689
 40
1.0
 40
1.0
 40
1.0
 40
1.0
 10
2207.191955659582
 20
4662.319549355256
 30
0.0
 10
2208.363362108948
 20
4662.844298908968
 30
0.0
 10
2212.002398799294
 20
4664.474461420228
 30
0.0
 10
2216.016797725696
 20
4664.68010349488
 30
0.0
 10
2218.738961043375
 20
4664.819549355256
 30
0.0
  0
SPLINE
  5
23B
330
1F
100
AcDbEntity
  8
0
  6
Continuous
 62
     7
370
    25
100
AcDbSpline
210
0.0
220
0.0
230
1.0
 70
     8
 71
     3
 72
     9
 73
     5
 74
     0
 42
0.00000001
 43
0.00000001
 40
0.0
 40
0.0
 40
0.0
 40
0.0
 40
0.4726592242542997
 40
1.0
 40
1.0
 40
1.0
 40
1.0
 10
2201.418452967687
 20
4664.819549355257
 30
0.0
 10
2202.362543834883
 20
4664.754217224258
 30
0.0
 10
2204.3599466544
 20
4664.615994742509
 30
0.0
 10
2206.214155649638
 20
4663.112436778418
 30
0.0
 10
2207.191955659582
 20
4662.319549355256
 30
0.0
  0
LINE
  5
23C
330
1F
100
AcDbEntity
  8
0
  6
Continuous
 62
     7
370
    25
100
AcDbLine
 10
2218.7389610434
 20
4664.8195493553
 30
0.0
 11
2201.4184529677
 21
4664.8195493553
 31
0.0
  0
LINE
  5
23D
330
1F
100
AcDbEntity
  8
0
  6
Continuous
 62
     7
370
    25
100
AcDbLine
 10
2230.2859664272
 20
4643.8195493553
 30
0.0
 11
2230.2859664272
 21
4662.3195493553
 31
0.0
  0
SPLINE
  5
23E
330
1F
100
AcDbEntity
  8
0
  6
Continuous
 62
     7
370
    25
100
AcDbSpline
210
0.0
220
0.0
230
1.0
 70
     8
 71
     3
 72
     9
 73
     5
 74
     0
 42
0.00000001
 43
0.00000001
 40
0.0
 40
0.0
 40
0.0
 40
0.0
 40
0.321900148045442
 40
1.0
 40
1.0
 40
1.0
 40
1.0
 10
2230.285966427166
 20
4643.819549355255
 30
0.0
 10
2229.114559977801
 20
4643.294799801543
 30
0.0
 10
2225.475523287457
 20
4641.664637290283
 30
0.0
 10
2221.461124361056
 20
4641.458995215633
 30
0.0
 10
2218.738961043377
 20
4641.319549355257
 30
0.0
  0
SPLINE
  5
23F
330
1F
100
AcDbEntity
  8
0
  6
Continuous
 62
     7
370
    25
100
AcDbSpline
210
0.0
220
0.0
230
1.0
 70
     8
 71
     3
 72
     9
 73
     5
 74
     0
 42
0.00000001
 43
0.00000001
 40
0.0
 40
0.0
 40
0.0
 40
0.0
 40
0.8659604718975985
 40
1.0
 40
1.0
 40
1.0
 40
1.0
 10
2218.738961043377
 20
4641.319549355257
 30
0.0
 10
2215.251434034949
 20
4641.557988105145
 30
0.0
 10
2211.224082762454
 20
4641.833334102596
 30
0.0
 10
2207.668539059654
 20
4643.584785620325
 30
0.0
 10
2207.191955659583
 20
4643.819549355257
 30
0.0
  0
LINE
  5
240
330
1F
100
AcDbEntity
  8
0
  6
Continuous
 62
     7
370
    25
100
AcDbLine
 10
2207.1919556596
 20
4643.8195493553
 30
0.0
 11
2207.1919556596
 21
4662.3195493553
 31
0.0
  0
SPLINE
  5
241
330
1F
100
AcDbEntity
  8
0
  6
Continuous
 62
     7
370
    25
100
AcDbSpline
210
0.0
220
0.0
230
1.0
 70
     8
 71
     3
 72
     9
 73
     5
 74
     0
 42
0.00000001
 43
0.00000001
 40
0.0
 40
0.0
 40
0.0
 40
0.0
 40
0.4726592242541459
 40
1.0
 40
1.0
 40
1.0
 40
1.0
 10
2236.059469119064
 20
4664.819549355256
 30
0.0
 10
2237.003559986259
 20
4664.754217224257
 30
0.0
 10
2239.000962805777
 20
4664.615994742509
 30
0.0
 10
2240.855171801015
 20
4663.112436778419
 30
0.0
 10
2241.832971810959
 20
4662.319549355258
 30
0.0
  0
LINE
  5
242
330
1F
100
AcDbEntity
  8
0
  6
Continuous
 62
     7
370
    25
100
AcDbLine
 10
2241.832971811
 20
4643.8195493553
 30
0.0
 11
2241.832971811
 21
4662.3195493553
 31
0.0
  0
SPLINE
  5
243
330
1F
100
AcDbEntity
  8
0
  6
Continuous
 62
     7
370
    25
100
AcDbSpline
210
0.0
220
0.0
230
1.0
 70
     8
 71
     3
 72
     9
 73
     5
 74
     0
 42
0.00000001
 43
0.00000001
 40
0.0
 40
0.0
 40
0.0
 40
0.0
 40
0.5843443298745876
 40
1.0
 40
1.0
 40
1.0
 40
1.0
 10
2241.832971810961
 20
4643.819549355258
 30
0.0
 10
2240.744869155774
 20
4642.960538609791
 30
0.0
 10
2238.882777577988
 20
4641.490496544609
 30
0.0
 10
2236.888430705014
 20
4641.369741764361
 30
0.0
 10
2236.059469119065
 20
4641.319549355257
 30
0.0
  0
SPLINE
  5
244
330
1F
100
AcDbEntity
  8
0
  6
Continuous
 62
     7
370
    25
100
AcDbSpline
210
0.0
220
0.0
230
1.0
 70
     8
 71
     3
 72
     9
 73
     5
 74
     0
 42
0.00000001
 43
0.00000001
 40
0.0
 40
0.0
 40
0.0
 40
0.0
 40
0.4726592242541577
 40
1.0
 40
1.0
 40
1.0
 40
1.0
 10
2236.059469119065
 20
4641.319549355257
 30
0.0
 10
2235.115378251869
 20
4641.384881486254
 30
0.0
 10
2233.11797543235
 20
4641.523103968002
 30
0.0
 10
2231.263766437111
 20
4643.026661932093
 30
0.0
 10
2230.285966427166
 20
4643.819549355255
 30
0.0
  0
SPLINE
  5
245
330
1F
100
AcDbEntity
  8
0
  6
Continuous
 62
     7
370
    25
100
AcDbSpline
210
0.0
220
0.0
230
1.0
 70
     8
 71
     3
 72
     9
 73
     5
 74
     0
 42
0.00000001
 43
0.00000001
 40
0.0
 40
0.0
 40
0.0
 40
0.0
 40
0.5843443298746264
 40
1.0
 40
1.0
 40
1.0
 40
1.0
 10
2207.191955659583
 20
4643.819549355257
 30
0.0
 10
2206.103853004396
 20
4642.960538609791
 30
0.0
 10
2204.241761426611
 20
4641.49049654461
 30
0.0
 10
2202.247414553635
 20
4641.369741764362
 30
0.0
 10
2201.418452967686
 20
4641.319549355258
 30
0.0
  0
SPLINE
  5
246
330
1F
100
AcDbEntity
  8
0
  6
Continuous
 62
     7
370
    25
100
AcDbSpline
210
0.0
220
0.0
230
1.0
 70
     8
 71
     3
 72
     9
 73
     5
 74
     0
 42
0.00000001
 43
0.00000001
 40
0.0
 40
0.0
 40
0.0
 40
0.0
 40
0.4726592242540477
 40
1.0
 40
1.0
 40
1.0
 40
1.0
 10
2201.418452967686
 20
4641.319549355258
 30
0.0
 10
2200.474362100492
 20
4641.384881486255
 30
0.0
 10
2198.476959280978
 20
4641.523103968004
 30
0.0
 10
2196.622750285736
 20
4643.026661932094
 30
0.0
 10
2195.64495027579
 20
4643.819549355256
 30
0.0
  0
LINE
  5
247
330
1F
100
AcDbEntity
  8
0
  6
Continuous
 62
     7
370
    25
100
AcDbLine
 10
2195.6449502758
 20
4643.8195493553
 30
0.0
 11
2195.6449502758
 21
4662.3195493553
 31
0.0
  0
SPLINE
  5
248
330
1F
100
AcDbEntity
  8
0
  6
Continuous
 62
     7
370
    25
100
AcDbSpline
210
0.0
220
0.0
230
1.0
 70
     8
 71
     3
 72
     9
 73
     5
 74
     0
 42
0.00000001
 43
0.00000001
 40
0.0
 40
0.0
 40
0.0
 40
0.0
 40
0.5843443298745883
 40
0.9999999999999999
 40
0.9999999999999999
 40
0.9999999999999999
 40
0.9999999999999999
 10
2195.644950275789
 20
4662.319549355257
 30
0.0
 10
2196.733052930976
 20
4663.178560100723
 30
0.0
 10
2198.595144508761
 20
4664.648602165907
 30
0.0
 10
2200.589491381737
 20
4664.769356946153
 30
0.0
 10
2201.418452967686
 20
4664.819549355257
 30
0.0
  0
LINE
  5
249
330
1F
100
AcDbEntity
  8
0
  6
Continuous
 62
     7
370
    25
100
AcDbLine
 10
2238.7389610434
 20
4664.8195493553
 30
0.0
 11
2236.0594691191
 21
4664.8195493553
 31
0.0
  0
LINE
  5
24A
330
1F
100
AcDbEntity
  8
0
  6
Continuous
 62
     7
370
    25
100
AcDbLine
 10
2201.4184529677
 20
4664.8195493553
 30
0.0
 11
2198.7389610434
 21
4664.8195493553
 31
0.0
  0
SPLINE
  5
24B
330
1F
100
AcDbEntity
  8
0
  6
Continuous
 62
     7
370
    25
100
AcDbSpline
210
0.0
220
0.0
230
1.0
 70
     8
 71
     3
 72
     9
 73
     5
 74
     0
 42
0.00000001
 43
0.00000001
 40
0.0
 40
0.0
 40
0.0
 40
0.0
 40
0.321900148045689
 40
1.0
 40
1.0
 40
1.0
 40
1.0
 10
3547.191955659582
 20
4662.319549355256
 30
0.0
 10
3548.363362108948
 20
4662.844298908968
 30
0.0
 10
3552.002398799294
 20
4664.474461420228
 30
0.0
 10
3556.016797725696
 20
4664.68010349488
 30
0.0
 10
3558.738961043375
 20
4664.819549355256
 30
0.0
  0
SPLINE
  5
24C
330
1F
100
AcDbEntity
  8
0
  6
Continuous
 62
     7
370
    25
100
AcDbSpline
210
0.0
220
0.0
230
1.0
 70
     8
 71
     3
 72
     9
 73
     5
 74
     0
 42
0.00000001
 43
0.00000001
 40
0.0
 40
0.0
 40
0.0
 40
0.0
 40
0.4726592242542997
 40
1.0
 40
1.0
 40
1.0
 40
1.0
 10
3541.418452967687
 20
4664.819549355258
 30
0.0
 10
3542.362543834883
 20
4664.754217224258
 30
0.0
 10
3544.3599466544
 20
4664.615994742509
 30
0.0
 10
3546.214155649639
 20
4663.112436778418
 30
0.0
 10
3547.191955659582
 20
4662.319549355256
 30
0.0
  0
LINE
  5
24D
330
1F
100
AcDbEntity
  8
0
  6
Continuous
 62
     7
370
    25
100
AcDbLine
 10
3558.7389610434
 20
4664.8195493553
 30
0.0
 11
3541.4184529677
 21
4664.8195493553
 31
0.0
  0
SPLINE
  5
24E
330
1F
100
AcDbEntity
  8
0
  6
Continuous
 62
     7
370
    25
100
AcDbSpline
210
0.0
220
0.0
230
1.0
 70
     8
 71
     3
 72
     9
 73
     5
 74
     0
 42
0.00000001
 43
0.00000001
 40
0.0
 40
0.0
 40
0.0
 40
0.0
 40
0.5843443298746015
 40
1.0
 40
1.0
 40
1.0
 40
1.0
 10
3570.28596642717
 20
4662.319549355258
 30
0.0
 10
3571.374069082357
 20
4663.178560100722
 30
0.0
 10
3573.236160660142
 20
4664.648602165905
 30
0.0
 10
3575.230507533116
 20
4664.769356946152
 30
0.0
 10
3576.059469119064
 20
4664.819549355256
 30
0.0
  0
SPLINE
  5
24F
330
1F
100
AcDbEntity
  8
0
  6
Continuous
 62
     7
370
    25
100
AcDbSpline
210
0.0
220
0.0
230
1.0
 70
     8
 71
     3
 72
     9
 73
     5
 74
     0
 42
0.00000001
 43
0.00000001
 40
0.0
 40
0.0
 40
0.0
 40
0.0
 40
0.865960471897649
 40
1.0
 40
1.0
 40
1.0
 40
1.0
 10
3558.738961043375
 20
4664.819549355256
 30
0.0
 10
3562.226488051801
 20
4664.581110605367
 30
0.0
 10
3566.253839324296
 20
4664.305764607914
 30
0.0
 10
3569.809383027099
 20
4662.554313090188
 30
0.0
 10
3570.28596642717
 20
4662.319549355258
 30
0.0
  0
LINE
  5
250
330
1F
100
AcDbEntity
  8
0
  6
Continuous
 62
     7
370
    25
100
AcDbLine
 10
3558.7389610434
 20
4664.8195493553
 30
0.0
 11
3576.0594691191
 21
4664.8195493553
 31
0.0
  0
SPLINE
  5
251
330
1F
100
AcDbEntity
  8
0
  6
Continuous
 62
     7
370
    25
100
AcDbSpline
210
0.0
220
0.0
230
1.0
 70
     8
 71
     3
 72
     9
 73
     5
 74
     0
 42
0.00000001
 43
0.00000001
 40
0.0
 40
0.0
 40
0.0
 40
0.0
 40
0.4726592242541459
 40
1.0
 40
1.0
 40
1.0
 40
1.0
 10
3576.059469119064
 20
4664.819549355256
 30
0.0
 10
3577.003559986259
 20
4664.754217224257
 30
0.0
 10
3579.000962805777
 20
4664.615994742509
 30
0.0
 10
3580.855171801016
 20
4663.11243677842
 30
0.0
 10
3581.832971810959
 20
4662.319549355258
 30
0.0
  0
LINE
  5
252
330
1F
100
AcDbEntity
  8
0
  6
Continuous
 62
     7
370
    25
100
AcDbLine
 10
3581.832971811
 20
4643.8195493553
 30
0.0
 11
3581.832971811
 21
4662.3195493553
 31
0.0
  0
SPLINE
  5
253
330
1F
100
AcDbEntity
  8
0
  6
Continuous
 62
     7
370
    25
100
AcDbSpline
210
0.0
220
0.0
230
1.0
 70
     8
 71
     3
 72
     9
 73
     5
 74
     0
 42
0.00000001
 43
0.00000001
 40
0.0
 40
0.0
 40
0.0
 40
0.0
 40
0.5843443298745877
 40
1.0
 40
1.0
 40
1.0
 40
1.0
 10
3581.832971810961
 20
4643.819549355258
 30
0.0
 10
3580.744869155774
 20
4642.960538609791
 30
0.0
 10
3578.882777577988
 20
4641.490496544609
 30
0.0
 10
3576.888430705014
 20
4641.369741764361
 30
0.0
 10
3576.059469119066
 20
4641.319549355257
 30
0.0
  0
SPLINE
  5
254
330
1F
100
AcDbEntity
  8
0
  6
Continuous
 62
     7
370
    25
100
AcDbSpline
210
0.0
220
0.0
230
1.0
 70
     8
 71
     3
 72
     9
 73
     5
 74
     0
 42
0.00000001
 43
0.00000001
 40
0.0
 40
0.0
 40
0.0
 40
0.0
 40
0.4726592242541577
 40
1.0
 40
1.0
 40
1.0
 40
1.0
 10
3576.059469119066
 20
4641.319549355257
 30
0.0
 10
3575.115378251869
 20
4641.384881486254
 30
0.0
 10
3573.11797543235
 20
4641.523103968002
 30
0.0
 10
3571.263766437111
 20
4643.026661932093
 30
0.0
 10
3570.285966427167
 20
4643.819549355255
 30
0.0
  0
LINE
  5
255
330
1F
100
AcDbEntity
  8
0
  6
Continuous
 62
     7
370
    25
100
AcDbLine
 10
3570.2859664272
 20
4643.8195493553
 30
0.0
 11
3570.2859664272
 21
4662.3195493553
 31
0.0
  0
SPLINE
  5
256
330
1F
100
AcDbEntity
  8
0
  6
Continuous
 62
     7
370
    25
100
AcDbSpline
210
0.0
220
0.0
230
1.0
 70
     8
 71
     3
 72
     9
 73
     5
 74
     0
 42
0.00000001
 43
0.00000001
 40
0.0
 40
0.0
 40
0.0
 40
0.0
 40
0.3219001480454421
 40
1.0
 40
1.0
 40
1.0
 40
1.0
 10
3570.285966427167
 20
4643.819549355255
 30
0.0
 10
3569.114559977802
 20
4643.294799801543
 30
0.0
 10
3565.475523287457
 20
4641.664637290283
 30
0.0
 10
3561.461124361056
 20
4641.458995215633
 30
0.0
 10
3558.738961043377
 20
4641.319549355257
 30
0.0
  0
SPLINE
  5
257
330
1F
100
AcDbEntity
  8
0
  6
Continuous
 62
     7
370
    25
100
AcDbSpline
210
0.0
220
0.0
230
1.0
 70
     8
 71
     3
 72
     9
 73
     5
 74
     0
 42
0.00000001
 43
0.00000001
 40
0.0
 40
0.0
 40
0.0
 40
0.0
 40
0.8659604718975985
 40
1.0
 40
1.0
 40
1.0
 40
1.0
 10
3558.738961043377
 20
4641.319549355257
 30
0.0
 10
3555.25143403495
 20
4641.557988105145
 30
0.0
 10
3551.224082762456
 20
4641.833334102596
 30
0.0
 10
3547.668539059653
 20
4643.584785620325
 30
0.0
 10
3547.191955659582
 20
4643.819549355257
 30
0.0
  0
LINE
  5
258
330
1F
100
AcDbEntity
  8
0
  6
Continuous
 62
     7
370
    25
100
AcDbLine
 10
3547.1919556596
 20
4643.8195493553
 30
0.0
 11
3547.1919556596
 21
4662.3195493553
 31
0.0
  0
SPLINE
  5
259
330
1F
100
AcDbEntity
  8
0
  6
Continuous
 62
     7
370
    25
100
AcDbSpline
210
0.0
220
0.0
230
1.0
 70
     8
 71
     3
 72
     9
 73
     5
 74
     0
 42
0.00000001
 43
0.00000001
 40
0.0
 40
0.0
 40
0.0
 40
0.0
 40
0.5843443298746264
 40
1.0
 40
1.0
 40
1.0
 40
1.0
 10
3547.191955659582
 20
4643.819549355257
 30
0.0
 10
3546.103853004396
 20
4642.960538609791
 30
0.0
 10
3544.24176142661
 20
4641.49049654461
 30
0.0
 10
3542.247414553636
 20
4641.369741764362
 30
0.0
 10
3541.418452967687
 20
4641.319549355258
 30
0.0
  0
SPLINE
  5
25A
330
1F
100
AcDbEntity
  8
0
  6
Continuous
 62
     7
370
    25
100
AcDbSpline
210
0.0
220
0.0
230
1.0
 70
     8
 71
     3
 72
     9
 73
     5
 74
     0
 42
0.00000001
 43
0.00000001
 40
0.0
 40
0.0
 40
0.0
 40
0.0
 40
0.4726592242540477
 40
1.0
 40
1.0
 40
1.0
 40
1.0
 10
3541.418452967687
 20
4641.319549355258
 30
0.0
 10
3540.474362100492
 20
4641.384881486255
 30
0.0
 10
3538.476959280978
 20
4641.523103968004
 30
0.0
 10
3536.622750285736
 20
4643.026661932094
 30
0.0
 10
3535.644950275791
 20
4643.819549355256
 30
0.0
  0
LINE
  5
25B
330
1F
100
AcDbEntity
  8
0
  6
Continuous
 62
     7
370
    25
100
AcDbLine
 10
3535.6449502758
 20
4643.8195493553
 30
0.0
 11
3535.6449502758
 21
4662.3195493553
 31
0.0
  0
SPLINE
  5
25C
330
1F
100
AcDbEntity
  8
0
  6
Continuous
 62
     7
370
    25
100
AcDbSpline
210
0.0
220
0.0
230
1.0
 70
     8
 71
     3
 72
     9
 73
     5
 74
     0
 42
0.00000001
 43
0.00000001
 40
0.0
 40
0.0
 40
0.0
 40
0.0
 40
0.5843443298745883
 40
0.9999999999999999
 40
0.9999999999999999
 40
0.9999999999999999
 40
0.9999999999999999
 10
3535.64495027579
 20
4662.319549355257
 30
0.0
 10
3536.733052930976
 20
4663.178560100723
 30
0.0
 10
3538.595144508761
 20
4664.648602165907
 30
0.0
 10
3540.589491381738
 20
4664.769356946153
 30
0.0
 10
3541.418452967687
 20
4664.819549355258
 30
0.0
  0
LINE
  5
25D
330
1F
100
AcDbEntity
  8
0
  6
Continuous
 62
     7
370
    25
100
AcDbLine
 10
3578.7389610434
 20
4664.8195493553
 30
0.0
 11
3576.0594691191
 21
4664.8195493553
 31
0.0
  0
LINE
  5
25E
330
1F
100
AcDbEntity
  8
0
  6
Continuous
 62
     7
370
    25
100
AcDbLine
 10
3541.4184529677
 20
4664.8195493553
 30
0.0
 11
3538.7389610434
 21
4664.8195493553
 31
0.0
  0
SPLINE
  5
25F
330
1F
100
AcDbEntity
  8
0
  6
Continuous
 62
     7
370
    25
100
AcDbSpline
210
0.0
220
0.0
230
1.0
 70
     8
 71
     3
 72
     9
 73
     5
 74
     0
 42
0.00000001
 43
0.00000001
 40
0.0
 40
0.0
 40
0.0
 40
0.0
 40
0.4726592242540028
 40
1.0
 40
1.0
 40
1.0
 40
1.0
 10
3250.907909616231
 20
4674.819549355256
 30
0.0
 10
3252.406359656242
 20
4674.754217224258
 30
0.0
 10
3255.576614171798
 20
4674.61599474251
 30
0.0
 10
3258.51959311551
 20
4673.11243677842
 30
0.0
 10
3260.071545914691
 20
4672.319549355257
 30
0.0
  0
LINE
  5
260
330
1F
100
AcDbEntity
  8
0
  6
Continuous
 62
     7
370
    25
100
AcDbLine
 10
3260.0715459147
 20
4653.8195493553
 30
0.0
 11
3260.0715459147
 21
4672.3195493553
 31
0.0
  0
SPLINE
  5
261
330
1F
100
AcDbEntity
  8
0
  6
Continuous
 62
     7
370
    25
100
AcDbSpline
210
0.0
220
0.0
230
1.0
 70
     8
 71
     3
 72
     9
 73
     5
 74
     0
 42
0.00000001
 43
0.00000001
 40
0.0
 40
0.0
 40
0.0
 40
0.0
 40
0.5843443298746592
 40
1.0
 40
1.0
 40
1.0
 40
1.0
 10
3260.07154591469
 20
4653.819549355257
 30
0.0
 10
3258.344522040342
 20
4652.960538609791
 30
0.0
 10
3255.389031953326
 20
4651.490496544609
 30
0.0
 10
3252.223627800565
 20
4651.369741764363
 30
0.0
 10
3250.907909616232
 20
4651.319549355258
 30
0.0
  0
SPLINE
  5
262
330
1F
100
AcDbEntity
  8
0
  6
Continuous
 62
     7
370
    25
100
AcDbSpline
210
0.0
220
0.0
230
1.0
 70
     8
 71
     3
 72
     9
 73
     5
 74
     0
 42
0.00000001
 43
0.00000001
 40
0.0
 40
0.0
 40
0.0
 40
0.0
 40
0.472659224254125
 40
1.0
 40
1.0
 40
1.0
 40
1.0
 10
3250.907909616232
 20
4651.319549355258
 30
0.0
 10
3249.409459576221
 20
4651.384881486256
 30
0.0
 10
3246.239205060664
 20
4651.523103968004
 30
0.0
 10
3243.296226116951
 20
4653.026661932095
 30
0.0
 10
3241.74427331777
 20
4653.819549355257
 30
0.0
  0
LINE
  5
263
330
1F
100
AcDbEntity
  8
0
  6
Continuous
 62
     7
370
    25
100
AcDbLine
 10
3241.7442733178
 20
4653.8195493553
 30
0.0
 11
3241.7442733178
 21
4672.3195493553
 31
0.0
  0
SPLINE
  5
264
330
1F
100
AcDbEntity
  8
0
  6
Continuous
 62
     7
370
    25
100
AcDbSpline
210
0.0
220
0.0
230
1.0
 70
     8
 71
     3
 72
     9
 73
     5
 74
     0
 42
0.00000001
 43
0.00000001
 40
0.0
 40
0.0
 40
0.0
 40
0.0
 40
0.5843443298746219
 40
1.0
 40
1.0
 40
1.0
 40
1.0
 10
3241.744273317772
 20
4672.319549355257
 30
0.0
 10
3243.47129719212
 20
4673.178560100723
 30
0.0
 10
3246.426787279136
 20
4674.648602165905
 30
0.0
 10
3249.592191431898
 20
4674.769356946152
 30
0.0
 10
3250.907909616232
 20
4674.819549355256
 30
0.0
  0
SPLINE
  5
265
330
1F
100
AcDbEntity
  8
0
  6
Continuous
 62
     7
370
    25
100
AcDbSpline
210
0.0
220
0.0
230
1.0
 70
     8
 71
     3
 72
     9
 73
     5
 74
     0
 42
0.00000001
 43
0.00000001
 40
0.0
 40
0.0
 40
0.0
 40
0.0
 40
0.3219001480455965
 40
1.0
 40
1.0
 40
1.0
 40
1.0
 10
3241.74427331777
 20
4653.819549355257
 30
0.0
 10
3240.662212356105
 20
4653.294799801544
 30
0.0
 10
3237.300732194522
 20
4651.664637290284
 30
0.0
 10
3233.592519417338
 20
4651.458995215633
 30
0.0
 10
3231.077980882115
 20
4651.319549355258
 30
0.0
  0
SPLINE
  5
266
330
1F
100
AcDbEntity
  8
0
  6
Continuous
 62
     7
370
    25
100
AcDbSpline
210
0.0
220
0.0
230
1.0
 70
     8
 71
     3
 72
     9
 73
     5
 74
     0
 42
0.00000001
 43
0.00000001
 40
0.0
 40
0.0
 40
0.0
 40
0.0
 40
0.8659604718976509
 40
1.0
 40
1.0
 40
1.0
 40
1.0
 10
3231.077980882116
 20
4674.819549355256
 30
0.0
 10
3234.299507305004
 20
4674.581110605366
 30
0.0
 10
3238.019684527214
 20
4674.305764607913
 30
0.0
 10
3241.304039876617
 20
4672.554313090187
 30
0.0
 10
3241.744273317772
 20
4672.319549355257
 30
0.0
  0
LINE
  5
267
330
1F
100
AcDbEntity
  8
0
  6
Continuous
 62
     7
370
    25
100
AcDbLine
 10
3250.9079096162
 20
4674.8195493553
 30
0.0
 11
3231.0779808821
 21
4674.8195493553
 31
0.0
  0
SPLINE
  5
268
330
1F
100
AcDbEntity
  8
0
  6
Continuous
 62
     7
370
    25
100
AcDbSpline
210
0.0
220
0.0
230
1.0
 70
     8
 71
     3
 72
     9
 73
     5
 74
     0
 42
0.00000001
 43
0.00000001
 40
0.0
 40
0.0
 40
0.0
 40
0.0
 40
0.8659604718977063
 40
1.0
 40
1.0
 40
1.0
 40
1.0
 10
3231.077980882115
 20
4651.319549355258
 30
0.0
 10
3227.856454459226
 20
4651.557988105144
 30
0.0
 10
3224.136277237016
 20
4651.833334102594
 30
0.0
 10
3220.851921887617
 20
4653.584785620325
 30
0.0
 10
3220.411688446463
 20
4653.819549355256
 30
0.0
  0
LINE
  5
269
330
1F
100
AcDbEntity
  8
0
  6
Continuous
 62
     7
370
    25
100
AcDbLine
 10
3220.4116884465
 20
4653.8195493553
 30
0.0
 11
3220.4116884465
 21
4672.3195493553
 31
0.0
  0
SPLINE
  5
26A
330
1F
100
AcDbEntity
  8
0
  6
Continuous
 62
     7
370
    25
100
AcDbSpline
210
0.0
220
0.0
230
1.0
 70
     8
 71
     3
 72
     9
 73
     5
 74
     0
 42
0.00000001
 43
0.00000001
 40
0.0
 40
0.0
 40
0.0
 40
0.0
 40
0.3219001480455808
 40
1.0
 40
1.0
 40
1.0
 40
1.0
 10
3220.411688446461
 20
4672.319549355258
 30
0.0
 10
3221.493749408126
 20
4672.844298908971
 30
0.0
 10
3224.85522956971
 20
4674.474461420228
 30
0.0
 10
3228.563442346893
 20
4674.680103494879
 30
0.0
 10
3231.077980882116
 20
4674.819549355256
 30
0.0
  0
SPLINE
  5
26B
330
1F
100
AcDbEntity
  8
0
  6
Continuous
 62
     7
370
    25
100
AcDbSpline
210
0.0
220
0.0
230
1.0
 70
     8
 71
     3
 72
     9
 73
     5
 74
     0
 42
0.00000001
 43
0.00000001
 40
0.0
 40
0.0
 40
0.0
 40
0.0
 40
0.4726592242541572
 40
1.0
 40
1.0
 40
1.0
 40
1.0
 10
3218.909032309268
 20
4674.819549355256
 30
0.0
 10
3219.154748646709
 20
4674.754217224258
 30
0.0
 10
3219.674608039758
 20
4674.61599474251
 30
0.0
 10
3220.157198708722
 20
4673.11243677842
 30
0.0
 10
3220.411688446461
 20
4672.319549355258
 30
0.0
  0
LINE
  5
26C
330
1F
100
AcDbEntity
  8
0
  6
Continuous
 62
     7
370
    25
100
AcDbLine
 10
3231.0779808821
 20
4674.8195493553
 30
0.0
 11
3218.9090323093
 21
4674.8195493553
 31
0.0
  0
SPLINE
  5
26D
330
1F
100
AcDbEntity
  8
0
  6
Continuous
 62
     7
370
    25
100
AcDbSpline
210
0.0
220
0.0
230
1.0
 70
     8
 71
     3
 72
     9
 73
     5
 74
     0
 42
0.00000001
 43
0.00000001
 40
0.0
 40
0.0
 40
0.0
 40
0.0
 40
0.5843443298746509
 40
1.0
 40
1.0
 40
1.0
 40
1.0
 10
3220.411688446463
 20
4653.819549355256
 30
0.0
 10
3220.128490495414
 20
4652.96053860979
 30
0.0
 10
3219.643848244997
 20
4651.490496544609
 30
0.0
 10
3219.124784216055
 20
4651.369741764362
 30
0.0
 10
3218.909032309267
 20
4651.319549355258
 30
0.0
  0
SPLINE
  5
26E
330
1F
100
AcDbEntity
  8
0
  6
Continuous
 62
     7
370
    25
100
AcDbSpline
210
0.0
220
0.0
230
1.0
 70
     8
 71
     3
 72
     9
 73
     5
 74
     0
 42
0.00000001
 43
0.00000001
 40
0.0
 40
0.0
 40
0.0
 40
0.0
 40
0.7505156471202132
 40
1.0
 40
1.0
 40
1.0
 40
1.0
 10
3260.071545914691
 20
4672.319549355257
 30
0.0
 10
3259.789462096413
 20
4673.22223260237
 30
0.0
 10
3259.413608748971
 20
4674.424983338585
 30
0.0
 10
3259.01095493283
 20
4674.577191854461
 30
0.0
 10
3258.910499106076
 20
4674.615165497547
 30
0.0
  0
LINE
  5
26F
330
1F
100
AcDbEntity
  8
0
  6
Continuous
 62
     7
370
    25
100
AcDbLine
 10
3258.7389610434
 20
4674.8195493553
 30
0.0
 11
3250.9079096162
 21
4674.8195493553
 31
0.0
  0
SPLINE
  5
270
330
1F
100
AcDbEntity
  8
0
  6
Continuous
 62
     7
370
    25
100
AcDbSpline
210
0.0
220
0.0
230
1.0
 70
     8
 71
     3
 72
     9
 73
     5
 74
     0
 42
0.00000001
 43
0.00000001
 40
0.0
 40
0.0
 40
0.0
 40
0.0
 40
0.3225849509417225
 40
1.0
 40
1.0
 40
1.0
 40
1.0
 10
3258.910495625999
 20
4651.554382650803
 30
0.0
 10
3259.040574333399
 20
4651.606244639297
 30
0.0
 10
3259.443812943944
 20
4651.767014657687
 30
0.0
 10
3259.818039329417
 20
4652.990644252952
 30
0.0
 10
3260.07154591469
 20
4653.819549355257
 30
0.0
  0
LINE
  5
271
330
1F
100
AcDbEntity
  8
0
  6
Continuous
 62
     7
370
    25
100
AcDbLine
 10
3218.1802093812
 20
4651.8205709005
 30
0.0
 11
3217.4063761721
 21
4653.8195493553
 31
0.0
  0
LINE
  5
272
330
1F
100
AcDbEntity
  8
0
  6
Continuous
 62
     7
370
    25
100
AcDbLine
 10
3217.4063761721
 20
4653.8195493553
 30
0.0
 11
3217.4063761721
 21
4672.3195493553
 31
0.0
  0
LINE
  5
273
330
1F
100
AcDbEntity
  8
0
  6
Continuous
 62
     7
370
    25
100
AcDbLine
 10
3217.4063761721
 20
4672.3195493553
 30
0.0
 11
3218.2677236271
 21
4674.4358562547
 31
0.0
  0
LINE
  5
274
330
1F
100
AcDbEntity
  8
0
  6
Continuous
 62
     7
370
    25
100
AcDbLine
 10
3218.5676870132
 20
4674.6153234674
 30
0.0
 11
3218.9090323093
 21
4674.8195493553
 31
0.0
  0
LINE
  5
275
330
1F
100
AcDbEntity
  8
0
  6
Continuous
 62
     7
370
    25
100
AcDbLine
 10
3218.9090323093
 20
4674.8195493553
 30
0.0
 11
3218.7389610434
 21
4674.8195493553
 31
0.0
  0
SPLINE
  5
276
330
1F
100
AcDbEntity
  8
0
  6
Continuous
 62
     7
370
    25
100
AcDbSpline
210
0.0
220
0.0
230
1.0
 70
     8
 71
     3
 72
     9
 73
     5
 74
     0
 42
0.00000001
 43
0.00000001
 40
0.0
 40
0.0
 40
0.0
 40
0.0
 40
0.472659224253996
 40
1.0
 40
1.0
 40
1.0
 40
1.0
 10
2795.907909616232
 20
4674.819549355257
 30
0.0
 10
2797.406359656242
 20
4674.754217224259
 30
0.0
 10
2800.576614171798
 20
4674.615994742511
 30
0.0
 10
2803.51959311551
 20
4673.11243677842
 30
0.0
 10
2805.071545914691
 20
4672.319549355258
 30
0.0
  0
LINE
  5
277
330
1F
100
AcDbEntity
  8
0
  6
Continuous
 62
     7
370
    25
100
AcDbLine
 10
2805.0715459147
 20
4653.8195493553
 30
0.0
 11
2805.0715459147
 21
4672.3195493553
 31
0.0
  0
SPLINE
  5
278
330
1F
100
AcDbEntity
  8
0
  6
Continuous
 62
     7
370
    25
100
AcDbSpline
210
0.0
220
0.0
230
1.0
 70
     8
 71
     3
 72
     9
 73
     5
 74
     0
 42
0.00000001
 43
0.00000001
 40
0.0
 40
0.0
 40
0.0
 40
0.0
 40
0.5843443298746616
 40
1.0
 40
1.0
 40
1.0
 40
1.0
 10
2805.07154591469
 20
4653.819549355258
 30
0.0
 10
2803.344522040342
 20
4652.960538609792
 30
0.0
 10
2800.389031953326
 20
4651.490496544609
 30
0.0
 10
2797.223627800565
 20
4651.369741764363
 30
0.0
 10
2795.907909616232
 20
4651.319549355259
 30
0.0
  0
SPLINE
  5
279
330
1F
100
AcDbEntity
  8
0
  6
Continuous
 62
     7
370
    25
100
AcDbSpline
210
0.0
220
0.0
230
1.0
 70
     8
 71
     3
 72
     9
 73
     5
 74
     0
 42
0.00000001
 43
0.00000001
 40
0.0
 40
0.0
 40
0.0
 40
0.0
 40
0.4726592242541182
 40
1.0
 40
1.0
 40
1.0
 40
1.0
 10
2795.907909616232
 20
4651.319549355259
 30
0.0
 10
2794.40945957622
 20
4651.384881486257
 30
0.0
 10
2791.239205060664
 20
4651.523103968005
 30
0.0
 10
2788.296226116951
 20
4653.026661932096
 30
0.0
 10
2786.74427331777
 20
4653.819549355258
 30
0.0
  0
LINE
  5
27A
330
1F
100
AcDbEntity
  8
0
  6
Continuous
 62
     7
370
    25
100
AcDbLine
 10
2786.7442733178
 20
4653.8195493553
 30
0.0
 11
2786.7442733178
 21
4672.3195493553
 31
0.0
  0
SPLINE
  5
27B
330
1F
100
AcDbEntity
  8
0
  6
Continuous
 62
     7
370
    25
100
AcDbSpline
210
0.0
220
0.0
230
1.0
 70
     8
 71
     3
 72
     9
 73
     5
 74
     0
 42
0.00000001
 43
0.00000001
 40
0.0
 40
0.0
 40
0.0
 40
0.0
 40
0.5843443298746231
 40
1.0
 40
1.0
 40
1.0
 40
1.0
 10
2786.744273317772
 20
4672.319549355258
 30
0.0
 10
2788.47129719212
 20
4673.178560100723
 30
0.0
 10
2791.426787279136
 20
4674.648602165906
 30
0.0
 10
2794.592191431898
 20
4674.769356946153
 30
0.0
 10
2795.907909616232
 20
4674.819549355257
 30
0.0
  0
SPLINE
  5
27C
330
1F
100
AcDbEntity
  8
0
  6
Continuous
 62
     7
370
    25
100
AcDbSpline
210
0.0
220
0.0
230
1.0
 70
     8
 71
     3
 72
     9
 73
     5
 74
     0
 42
0.00000001
 43
0.00000001
 40
0.0
 40
0.0
 40
0.0
 40
0.0
 40
0.3219001480455994
 40
1.0
 40
1.0
 40
1.0
 40
1.0
 10
2786.74427331777
 20
4653.819549355258
 30
0.0
 10
2785.662212356105
 20
4653.294799801545
 30
0.0
 10
2782.300732194522
 20
4651.664637290285
 30
0.0
 10
2778.592519417338
 20
4651.458995215634
 30
0.0
 10
2776.077980882114
 20
4651.319549355258
 30
0.0
  0
SPLINE
  5
27D
330
1F
100
AcDbEntity
  8
0
  6
Continuous
 62
     7
370
    25
100
AcDbSpline
210
0.0
220
0.0
230
1.0
 70
     8
 71
     3
 72
     9
 73
     5
 74
     0
 42
0.00000001
 43
0.00000001
 40
0.0
 40
0.0
 40
0.0
 40
0.0
 40
0.8659604718976501
 40
1.0
 40
1.0
 40
1.0
 40
1.0
 10
2776.077980882116
 20
4674.819549355257
 30
0.0
 10
2779.299507305004
 20
4674.581110605367
 30
0.0
 10
2783.019684527214
 20
4674.305764607914
 30
0.0
 10
2786.304039876617
 20
4672.554313090188
 30
0.0
 10
2786.744273317772
 20
4672.319549355258
 30
0.0
  0
LINE
  5
27E
330
1F
100
AcDbEntity
  8
0
  6
Continuous
 62
     7
370
    25
100
AcDbLine
 10
2795.9079096162
 20
4674.8195493553
 30
0.0
 11
2776.0779808821
 21
4674.8195493553
 31
0.0
  0
SPLINE
  5
27F
330
1F
100
AcDbEntity
  8
0
  6
Continuous
 62
     7
370
    25
100
AcDbSpline
210
0.0
220
0.0
230
1.0
 70
     8
 71
     3
 72
     9
 73
     5
 74
     0
 42
0.00000001
 43
0.00000001
 40
0.0
 40
0.0
 40
0.0
 40
0.0
 40
0.865960471897704
 40
0.9999999999999999
 40
0.9999999999999999
 40
0.9999999999999999
 40
0.9999999999999999
 10
2776.077980882114
 20
4651.319549355258
 30
0.0
 10
2772.856454459226
 20
4651.557988105144
 30
0.0
 10
2769.136277237016
 20
4651.833334102595
 30
0.0
 10
2765.851921887616
 20
4653.584785620326
 30
0.0
 10
2765.411688446463
 20
4653.819549355257
 30
0.0
  0
LINE
  5
280
330
1F
100
AcDbEntity
  8
0
  6
Continuous
 62
     7
370
    25
100
AcDbLine
 10
2765.4116884465
 20
4653.8195493553
 30
0.0
 11
2765.4116884465
 21
4672.3195493553
 31
0.0
  0
SPLINE
  5
281
330
1F
100
AcDbEntity
  8
0
  6
Continuous
 62
     7
370
    25
100
AcDbSpline
210
0.0
220
0.0
230
1.0
 70
     8
 71
     3
 72
     9
 73
     5
 74
     0
 42
0.00000001
 43
0.00000001
 40
0.0
 40
0.0
 40
0.0
 40
0.0
 40
0.3219001480455805
 40
1.0
 40
1.0
 40
1.0
 40
1.0
 10
2765.411688446461
 20
4672.319549355259
 30
0.0
 10
2766.493749408126
 20
4672.844298908971
 30
0.0
 10
2769.85522956971
 20
4674.474461420229
 30
0.0
 10
2773.563442346893
 20
4674.68010349488
 30
0.0
 10
2776.077980882116
 20
4674.819549355257
 30
0.0
  0
SPLINE
  5
282
330
1F
100
AcDbEntity
  8
0
  6
Continuous
 62
     7
370
    25
100
AcDbSpline
210
0.0
220
0.0
230
1.0
 70
     8
 71
     3
 72
     9
 73
     5
 74
     0
 42
0.00000001
 43
0.00000001
 40
0.0
 40
0.0
 40
0.0
 40
0.0
 40
0.472659224254157
 40
1.0
 40
1.0
 40
1.0
 40
1.0
 10
2763.909032309269
 20
4674.819549355257
 30
0.0
 10
2764.154748646708
 20
4674.754217224259
 30
0.0
 10
2764.674608039758
 20
4674.615994742511
 30
0.0
 10
2765.157198708722
 20
4673.112436778421
 30
0.0
 10
2765.411688446461
 20
4672.319549355259
 30
0.0
  0
LINE
  5
283
330
1F
100
AcDbEntity
  8
0
  6
Continuous
 62
     7
370
    25
100
AcDbLine
 10
2776.0779808821
 20
4674.8195493553
 30
0.0
 11
2763.9090323093
 21
4674.8195493553
 31
0.0
  0
SPLINE
  5
284
330
1F
100
AcDbEntity
  8
0
  6
Continuous
 62
     7
370
    25
100
AcDbSpline
210
0.0
220
0.0
230
1.0
 70
     8
 71
     3
 72
     9
 73
     5
 74
     0
 42
0.00000001
 43
0.00000001
 40
0.0
 40
0.0
 40
0.0
 40
0.0
 40
0.5843443298746507
 40
1.0
 40
1.0
 40
1.0
 40
1.0
 10
2765.411688446463
 20
4653.819549355257
 30
0.0
 10
2765.128490495414
 20
4652.960538609791
 30
0.0
 10
2764.643848244997
 20
4651.490496544609
 30
0.0
 10
2764.124784216055
 20
4651.369741764363
 30
0.0
 10
2763.909032309267
 20
4651.319549355258
 30
0.0
  0
SPLINE
  5
285
330
1F
100
AcDbEntity
  8
0
  6
Continuous
 62
     7
370
    25
100
AcDbSpline
210
0.0
220
0.0
230
1.0
 70
     8
 71
     3
 72
     9
 73
     5
 74
     0
 42
0.00000001
 43
0.00000001
 40
0.0
 40
0.0
 40
0.0
 40
0.0
 40
0.750515647120211
 40
1.0
 40
1.0
 40
1.0
 40
1.0
 10
2805.071545914691
 20
4672.319549355258
 30
0.0
 10
2804.789462096413
 20
4673.222232602371
 30
0.0
 10
2804.413608748971
 20
4674.424983338586
 30
0.0
 10
2804.01095493283
 20
4674.577191854461
 30
0.0
 10
2803.910499106076
 20
4674.615165497547
 30
0.0
  0
LINE
  5
286
330
1F
100
AcDbEntity
  8
0
  6
Continuous
 62
     7
370
    25
100
AcDbLine
 10
2803.7389610434
 20
4674.8195493553
 30
0.0
 11
2795.9079096162
 21
4674.8195493553
 31
0.0
  0
SPLINE
  5
287
330
1F
100
AcDbEntity
  8
0
  6
Continuous
 62
     7
370
    25
100
AcDbSpline
210
0.0
220
0.0
230
1.0
 70
     8
 71
     3
 72
     9
 73
     5
 74
     0
 42
0.00000001
 43
0.00000001
 40
0.0
 40
0.0
 40
0.0
 40
0.0
 40
0.3225849509417271
 40
1.0
 40
1.0
 40
1.0
 40
1.0
 10
2803.910495625999
 20
4651.554382650804
 30
0.0
 10
2804.040574333399
 20
4651.606244639298
 30
0.0
 10
2804.443812943944
 20
4651.767014657688
 30
0.0
 10
2804.818039329416
 20
4652.990644252952
 30
0.0
 10
2805.07154591469
 20
4653.819549355258
 30
0.0
  0
LINE
  5
288
330
1F
100
AcDbEntity
  8
0
  6
Continuous
 62
     7
370
    25
100
AcDbLine
 10
2763.1802093812
 20
4651.8205709005
 30
0.0
 11
2762.4063761721
 21
4653.8195493553
 31
0.0
  0
LINE
  5
289
330
1F
100
AcDbEntity
  8
0
  6
Continuous
 62
     7
370
    25
100
AcDbLine
 10
2762.4063761721
 20
4653.8195493553
 30
0.0
 11
2762.4063761721
 21
4672.3195493553
 31
0.0
  0
LINE
  5
28A
330
1F
100
AcDbEntity
  8
0
  6
Continuous
 62
     7
370
    25
100
AcDbLine
 10
2762.4063761721
 20
4672.3195493553
 30
0.0
 11
2763.2677236271
 21
4674.4358562547
 31
0.0
  0
LINE
  5
28B
330
1F
100
AcDbEntity
  8
0
  6
Continuous
 62
     7
370
    25
100
AcDbLine
 10
2763.5676870132
 20
4674.6153234674
 30
0.0
 11
2763.9090323093
 21
4674.8195493553
 31
0.0
  0
LINE
  5
28C
330
1F
100
AcDbEntity
  8
0
  6
Continuous
 62
     7
370
    25
100
AcDbLine
 10
2763.9090323093
 20
4674.8195493553
 30
0.0
 11
2763.7389610434
 21
4674.8195493553
 31
0.0
  0
SPLINE
  5
28D
330
1F
100
AcDbEntity
  8
0
  6
Continuous
 62
     7
370
    25
100
AcDbSpline
210
0.0
220
0.0
230
1.0
 70
     8
 71
     3
 72
     9
 73
     5
 74
     0
 42
0.00000001
 43
0.00000001
 40
0.0
 40
0.0
 40
0.0
 40
0.0
 40
0.4726592242541443
 40
1.0
 40
1.0
 40
1.0
 40
1.0
 10
3005.907909616229
 20
4674.819549355258
 30
0.0
 10
3007.406359656241
 20
4674.754217224259
 30
0.0
 10
3010.576614171798
 20
4674.615994742509
 30
0.0
 10
3013.519593115509
 20
4673.11243677842
 30
0.0
 10
3015.071545914689
 20
4672.319549355259
 30
0.0
  0
LINE
  5
28E
330
1F
100
AcDbEntity
  8
0
  6
Continuous
 62
     7
370
    25
100
AcDbLine
 10
3015.0715459147
 20
4653.8195493553
 30
0.0
 11
3015.0715459147
 21
4672.3195493553
 31
0.0
  0
SPLINE
  5
28F
330
1F
100
AcDbEntity
  8
0
  6
Continuous
 62
     7
370
    25
100
AcDbSpline
210
0.0
220
0.0
230
1.0
 70
     8
 71
     3
 72
     9
 73
     5
 74
     0
 42
0.00000001
 43
0.00000001
 40
0.0
 40
0.0
 40
0.0
 40
0.0
 40
0.5843443298745832
 40
1.0
 40
1.0
 40
1.0
 40
1.0
 10
3015.071545914689
 20
4653.819549355258
 30
0.0
 10
3013.344522040341
 20
4652.960538609793
 30
0.0
 10
3010.389031953325
 20
4651.490496544609
 30
0.0
 10
3007.223627800564
 20
4651.369741764362
 30
0.0
 10
3005.90790961623
 20
4651.319549355258
 30
0.0
  0
SPLINE
  5
290
330
1F
100
AcDbEntity
  8
0
  6
Continuous
 62
     7
370
    25
100
AcDbSpline
210
0.0
220
0.0
230
1.0
 70
     8
 71
     3
 72
     9
 73
     5
 74
     0
 42
0.00000001
 43
0.00000001
 40
0.0
 40
0.0
 40
0.0
 40
0.0
 40
0.4726592242541561
 40
1.0
 40
1.0
 40
1.0
 40
1.0
 10
3005.90790961623
 20
4651.319549355258
 30
0.0
 10
3004.409459576218
 20
4651.384881486255
 30
0.0
 10
3001.239205060659
 20
4651.523103968003
 30
0.0
 10
2998.296226116948
 20
4653.026661932094
 30
0.0
 10
2996.744273317768
 20
4653.819549355257
 30
0.0
  0
LINE
  5
291
330
1F
100
AcDbEntity
  8
0
  6
Continuous
 62
     7
370
    25
100
AcDbLine
 10
2996.7442733178
 20
4653.8195493553
 30
0.0
 11
2996.7442733178
 21
4672.3195493553
 31
0.0
  0
SPLINE
  5
292
330
1F
100
AcDbEntity
  8
0
  6
Continuous
 62
     7
370
    25
100
AcDbSpline
210
0.0
220
0.0
230
1.0
 70
     8
 71
     3
 72
     9
 73
     5
 74
     0
 42
0.00000001
 43
0.00000001
 40
0.0
 40
0.0
 40
0.0
 40
0.0
 40
0.5843443298745994
 40
1.0
 40
1.0
 40
1.0
 40
1.0
 10
2996.744273317771
 20
4672.319549355258
 30
0.0
 10
2998.471297192119
 20
4673.178560100724
 30
0.0
 10
3001.426787279135
 20
4674.648602165905
 30
0.0
 10
3004.592191431896
 20
4674.769356946153
 30
0.0
 10
3005.907909616229
 20
4674.819549355258
 30
0.0
  0
SPLINE
  5
293
330
1F
100
AcDbEntity
  8
0
  6
Continuous
 62
     7
370
    25
100
AcDbSpline
210
0.0
220
0.0
230
1.0
 70
     8
 71
     3
 72
     9
 73
     5
 74
     0
 42
0.00000001
 43
0.00000001
 40
0.0
 40
0.0
 40
0.0
 40
0.0
 40
0.321900148045444
 40
1.0
 40
1.0
 40
1.0
 40
1.0
 10
2996.744273317768
 20
4653.819549355257
 30
0.0
 10
2995.662212356103
 20
4653.294799801544
 30
0.0
 10
2992.300732194522
 20
4651.664637290284
 30
0.0
 10
2988.59251941734
 20
4651.458995215634
 30
0.0
 10
2986.077980882116
 20
4651.319549355258
 30
0.0
  0
SPLINE
  5
294
330
1F
100
AcDbEntity
  8
0
  6
Continuous
 62
     7
370
    25
100
AcDbSpline
210
0.0
220
0.0
230
1.0
 70
     8
 71
     3
 72
     9
 73
     5
 74
     0
 42
0.00000001
 43
0.00000001
 40
0.0
 40
0.0
 40
0.0
 40
0.0
 40
0.865960471897648
 40
1.0
 40
1.0
 40
1.0
 40
1.0
 10
2986.077980882114
 20
4674.819549355258
 30
0.0
 10
2989.299507305003
 20
4674.581110605368
 30
0.0
 10
2993.019684527214
 20
4674.305764607915
 30
0.0
 10
2996.304039876617
 20
4672.554313090188
 30
0.0
 10
2996.744273317771
 20
4672.319549355258
 30
0.0
  0
LINE
  5
295
330
1F
100
AcDbEntity
  8
0
  6
Continuous
 62
     7
370
    25
100
AcDbLine
 10
2986.0779808821
 20
4674.8195493553
 30
0.0
 11
3005.9079096162
 21
4674.8195493553
 31
0.0
  0
SPLINE
  5
296
330
1F
100
AcDbEntity
  8
0
  6
Continuous
 62
     7
370
    25
100
AcDbSpline
210
0.0
220
0.0
230
1.0
 70
     8
 71
     3
 72
     9
 73
     5
 74
     0
 42
0.00000001
 43
0.00000001
 40
0.0
 40
0.0
 40
0.0
 40
0.0
 40
0.8659604718975992
 40
1.0
 40
1.0
 40
1.0
 40
1.0
 10
2986.077980882116
 20
4651.319549355258
 30
0.0
 10
2982.856454459227
 20
4651.557988105145
 30
0.0
 10
2979.136277237015
 20
4651.833334102597
 30
0.0
 10
2975.851921887614
 20
4653.584785620327
 30
0.0
 10
2975.41168844646
 20
4653.819549355258
 30
0.0
  0
LINE
  5
297
330
1F
100
AcDbEntity
  8
0
  6
Continuous
 62
     7
370
    25
100
AcDbLine
 10
2975.4116884465
 20
4653.8195493553
 30
0.0
 11
2975.4116884465
 21
4672.3195493553
 31
0.0
  0
SPLINE
  5
298
330
1F
100
AcDbEntity
  8
0
  6
Continuous
 62
     7
370
    25
100
AcDbSpline
210
0.0
220
0.0
230
1.0
 70
     8
 71
     3
 72
     9
 73
     5
 74
     0
 42
0.00000001
 43
0.00000001
 40
0.0
 40
0.0
 40
0.0
 40
0.0
 40
0.3219001480456887
 40
1.0
 40
1.0
 40
1.0
 40
1.0
 10
2975.411688446459
 20
4672.319549355257
 30
0.0
 10
2976.493749408125
 20
4672.84429890897
 30
0.0
 10
2979.855229569708
 20
4674.47446142023
 30
0.0
 10
2983.563442346891
 20
4674.68010349488
 30
0.0
 10
2986.077980882114
 20
4674.819549355258
 30
0.0
  0
SPLINE
  5
299
330
1F
100
AcDbEntity
  8
0
  6
Continuous
 62
     7
370
    25
100
AcDbSpline
210
0.0
220
0.0
230
1.0
 70
     8
 71
     3
 72
     9
 73
     5
 74
     0
 42
0.00000001
 43
0.00000001
 40
0.0
 40
0.0
 40
0.0
 40
0.0
 40
0.5843443298746342
 40
1.0
 40
1.0
 40
1.0
 40
1.0
 10
2975.41168844646
 20
4653.819549355258
 30
0.0
 10
2975.128490495412
 20
4652.960538609793
 30
0.0
 10
2974.643848244997
 20
4651.490496544611
 30
0.0
 10
2974.124784216054
 20
4651.369741764363
 30
0.0
 10
2973.909032309265
 20
4651.319549355258
 30
0.0
  0
SPLINE
  5
29A
330
1F
100
AcDbEntity
  8
0
  6
Continuous
 62
     7
370
    25
100
AcDbSpline
210
0.0
220
0.0
230
1.0
 70
     8
 71
     3
 72
     9
 73
     5
 74
     0
 42
0.00000001
 43
0.00000001
 40
0.0
 40
0.0
 40
0.0
 40
0.0
 40
0.4726592242543055
 40
1.0
 40
1.0
 40
1.0
 40
1.0
 10
2973.909032309266
 20
4674.819549355258
 30
0.0
 10
2974.154748646708
 20
4674.75421722426
 30
0.0
 10
2974.674608039761
 20
4674.615994742509
 30
0.0
 10
2975.157198708722
 20
4673.112436778419
 30
0.0
 10
2975.411688446459
 20
4672.319549355257
 30
0.0
  0
LINE
  5
29B
330
1F
100
AcDbEntity
  8
0
  6
Continuous
 62
     7
370
    25
100
AcDbLine
 10
2986.0779808821
 20
4674.8195493553
 30
0.0
 11
2973.9090323093
 21
4674.8195493553
 31
0.0
  0
SPLINE
  5
29C
330
1F
100
AcDbEntity
  8
0
  6
Continuous
 62
     7
370
    25
100
AcDbSpline
210
0.0
220
0.0
230
1.0
 70
     8
 71
     3
 72
     9
 73
     5
 74
     0
 42
0.00000001
 43
0.00000001
 40
0.0
 40
0.0
 40
0.0
 40
0.0
 40
0.3225849509417599
 40
0.9999999999999999
 40
0.9999999999999999
 40
0.9999999999999999
 40
0.9999999999999999
 10
3013.910495625998
 20
4651.554382650804
 30
0.0
 10
3014.040574333399
 20
4651.606244639298
 30
0.0
 10
3014.443812943944
 20
4651.767014657687
 30
0.0
 10
3014.818039329415
 20
4652.990644252952
 30
0.0
 10
3015.071545914689
 20
4653.819549355258
 30
0.0
  0
SPLINE
  5
29D
330
1F
100
AcDbEntity
  8
0
  6
Continuous
 62
     7
370
    25
100
AcDbSpline
210
0.0
220
0.0
230
1.0
 70
     8
 71
     3
 72
     9
 73
     5
 74
     0
 42
0.00000001
 43
0.00000001
 40
0.0
 40
0.0
 40
0.0
 40
0.0
 40
0.75051564712017
 40
1.0
 40
1.0
 40
1.0
 40
1.0
 10
3015.071545914689
 20
4672.319549355259
 30
0.0
 10
3014.789462096411
 20
4673.222232602372
 30
0.0
 10
3014.41360874897
 20
4674.424983338585
 30
0.0
 10
3014.010954932828
 20
4674.577191854461
 30
0.0
 10
3013.910499106074
 20
4674.615165497546
 30
0.0
  0
LINE
  5
29E
330
1F
100
AcDbEntity
  8
0
  6
Continuous
 62
     7
370
    25
100
AcDbLine
 10
3013.7389610434
 20
4674.8195493553
 30
0.0
 11
3005.9079096162
 21
4674.8195493553
 31
0.0
  0
LINE
  5
29F
330
1F
100
AcDbEntity
  8
0
  6
Continuous
 62
     7
370
    25
100
AcDbLine
 10
2973.1802093812
 20
4651.8205709005
 30
0.0
 11
2972.4063761721
 21
4653.8195493553
 31
0.0
  0
LINE
  5
2A0
330
1F
100
AcDbEntity
  8
0
  6
Continuous
 62
     7
370
    25
100
AcDbLine
 10
2972.4063761721
 20
4653.8195493553
 30
0.0
 11
2972.4063761721
 21
4672.3195493553
 31
0.0
  0
LINE
  5
2A1
330
1F
100
AcDbEntity
  8
0
  6
Continuous
 62
     7
370
    25
100
AcDbLine
 10
2972.4063761721
 20
4672.3195493553
 30
0.0
 11
2973.267723627
 21
4674.4358562547
 31
0.0
  0
LINE
  5
2A2
330
1F
100
AcDbEntity
  8
0
  6
Continuous
 62
     7
370
    25
100
AcDbLine
 10
2973.5676870132
 20
4674.6153234674
 30
0.0
 11
2973.9090323093
 21
4674.8195493553
 31
0.0
  0
LINE
  5
2A3
330
1F
100
AcDbEntity
  8
0
  6
Continuous
 62
     7
370
    25
100
AcDbLine
 10
2973.9090323093
 20
4674.8195493553
 30
0.0
 11
2973.7389610434
 21
4674.8195493553
 31
0.0
  0
SPLINE
  5
2A4
330
1F
100
AcDbEntity
  8
0
  6
Continuous
 62
     7
370
    25
100
AcDbSpline
210
0.0
220
0.0
230
1.0
 70
     8
 71
     3
 72
     9
 73
     5
 74
     0
 42
0.00000001
 43
0.00000001
 40
0.0
 40
0.0
 40
0.0
 40
0.0
 40
0.4726592242540006
 40
1.0
 40
1.0
 40
1.0
 40
1.0
 10
2527.680568313078
 20
4674.819549355256
 30
0.0
 10
2529.179018353088
 20
4674.754217224258
 30
0.0
 10
2532.349272868645
 20
4674.61599474251
 30
0.0
 10
2535.292251812356
 20
4673.11243677842
 30
0.0
 10
2536.844204611538
 20
4672.319549355257
 30
0.0
  0
LINE
  5
2A5
330
1F
100
AcDbEntity
  8
0
  6
Continuous
 62
     7
370
    25
100
AcDbLine
 10
2536.8442046115
 20
4653.8195493553
 30
0.0
 11
2536.8442046115
 21
4672.3195493553
 31
0.0
  0
SPLINE
  5
2A6
330
1F
100
AcDbEntity
  8
0
  6
Continuous
 62
     7
370
    25
100
AcDbSpline
210
0.0
220
0.0
230
1.0
 70
     8
 71
     3
 72
     9
 73
     5
 74
     0
 42
0.00000001
 43
0.00000001
 40
0.0
 40
0.0
 40
0.0
 40
0.0
 40
0.5843443298746592
 40
1.0
 40
1.0
 40
1.0
 40
1.0
 10
2536.844204611537
 20
4653.819549355257
 30
0.0
 10
2535.117180737188
 20
4652.960538609791
 30
0.0
 10
2532.161690650173
 20
4651.490496544609
 30
0.0
 10
2528.996286497412
 20
4651.369741764362
 30
0.0
 10
2527.680568313078
 20
4651.319549355258
 30
0.0
  0
SPLINE
  5
2A7
330
1F
100
AcDbEntity
  8
0
  6
Continuous
 62
     7
370
    25
100
AcDbSpline
210
0.0
220
0.0
230
1.0
 70
     8
 71
     3
 72
     9
 73
     5
 74
     0
 42
0.00000001
 43
0.00000001
 40
0.0
 40
0.0
 40
0.0
 40
0.0
 40
0.4726592242541271
 40
1.0
 40
1.0
 40
1.0
 40
1.0
 10
2527.680568313078
 20
4651.319549355258
 30
0.0
 10
2526.182118273067
 20
4651.384881486256
 30
0.0
 10
2523.01186375751
 20
4651.523103968004
 30
0.0
 10
2520.068884813798
 20
4653.026661932095
 30
0.0
 10
2518.516932014616
 20
4653.819549355257
 30
0.0
  0
LINE
  5
2A8
330
1F
100
AcDbEntity
  8
0
  6
Continuous
 62
     7
370
    25
100
AcDbLine
 10
2518.5169320146
 20
4653.8195493553
 30
0.0
 11
2518.5169320146
 21
4672.3195493553
 31
0.0
  0
SPLINE
  5
2A9
330
1F
100
AcDbEntity
  8
0
  6
Continuous
 62
     7
370
    25
100
AcDbSpline
210
0.0
220
0.0
230
1.0
 70
     8
 71
     3
 72
     9
 73
     5
 74
     0
 42
0.00000001
 43
0.00000001
 40
0.0
 40
0.0
 40
0.0
 40
0.0
 40
0.5843443298746234
 40
1.0
 40
1.0
 40
1.0
 40
1.0
 10
2518.516932014618
 20
4672.319549355257
 30
0.0
 10
2520.243955888967
 20
4673.178560100722
 30
0.0
 10
2523.199445975983
 20
4674.648602165905
 30
0.0
 10
2526.364850128744
 20
4674.769356946152
 30
0.0
 10
2527.680568313078
 20
4674.819549355256
 30
0.0
  0
SPLINE
  5
2AA
330
1F
100
AcDbEntity
  8
0
  6
Continuous
 62
     7
370
    25
100
AcDbSpline
210
0.0
220
0.0
230
1.0
 70
     8
 71
     3
 72
     9
 73
     5
 74
     0
 42
0.00000001
 43
0.00000001
 40
0.0
 40
0.0
 40
0.0
 40
0.0
 40
0.3219001480455999
 40
1.0
 40
1.0
 40
1.0
 40
1.0
 10
2518.516932014616
 20
4653.819549355257
 30
0.0
 10
2517.434871052951
 20
4653.294799801544
 30
0.0
 10
2514.073390891368
 20
4651.664637290284
 30
0.0
 10
2510.365178114185
 20
4651.458995215633
 30
0.0
 10
2507.850639578961
 20
4651.319549355258
 30
0.0
  0
SPLINE
  5
2AB
330
1F
100
AcDbEntity
  8
0
  6
Continuous
 62
     7
370
    25
100
AcDbSpline
210
0.0
220
0.0
230
1.0
 70
     8
 71
     3
 72
     9
 73
     5
 74
     0
 42
0.00000001
 43
0.00000001
 40
0.0
 40
0.0
 40
0.0
 40
0.0
 40
0.8659604718976492
 40
1.0
 40
1.0
 40
1.0
 40
1.0
 10
2507.850639578963
 20
4674.819549355256
 30
0.0
 10
2511.072166001851
 20
4674.581110605366
 30
0.0
 10
2514.792343224061
 20
4674.305764607913
 30
0.0
 10
2518.076698573464
 20
4672.554313090187
 30
0.0
 10
2518.516932014618
 20
4672.319549355257
 30
0.0
  0
LINE
  5
2AC
330
1F
100
AcDbEntity
  8
0
  6
Continuous
 62
     7
370
    25
100
AcDbLine
 10
2527.6805683131
 20
4674.8195493553
 30
0.0
 11
2507.850639579
 21
4674.8195493553
 31
0.0
  0
SPLINE
  5
2AD
330
1F
100
AcDbEntity
  8
0
  6
Continuous
 62
     7
370
    25
100
AcDbSpline
210
0.0
220
0.0
230
1.0
 70
     8
 71
     3
 72
     9
 73
     5
 74
     0
 42
0.00000001
 43
0.00000001
 40
0.0
 40
0.0
 40
0.0
 40
0.0
 40
0.8659604718977063
 40
1.0
 40
1.0
 40
1.0
 40
1.0
 10
2507.850639578961
 20
4651.319549355258
 30
0.0
 10
2504.629113156073
 20
4651.557988105144
 30
0.0
 10
2500.908935933862
 20
4651.833334102594
 30
0.0
 10
2497.624580584463
 20
4653.584785620325
 30
0.0
 10
2497.184347143309
 20
4653.819549355256
 30
0.0
  0
LINE
  5
2AE
330
1F
100
AcDbEntity
  8
0
  6
Continuous
 62
     7
370
    25
100
AcDbLine
 10
2497.1843471433
 20
4653.8195493553
 30
0.0
 11
2497.1843471433
 21
4672.3195493553
 31
0.0
  0
SPLINE
  5
2AF
330
1F
100
AcDbEntity
  8
0
  6
Continuous
 62
     7
370
    25
100
AcDbSpline
210
0.0
220
0.0
230
1.0
 70
     8
 71
     3
 72
     9
 73
     5
 74
     0
 42
0.00000001
 43
0.00000001
 40
0.0
 40
0.0
 40
0.0
 40
0.0
 40
0.3219001480455808
 40
1.0
 40
1.0
 40
1.0
 40
1.0
 10
2497.184347143307
 20
4672.319549355258
 30
0.0
 10
2498.266408104973
 20
4672.84429890897
 30
0.0
 10
2501.627888266557
 20
4674.474461420228
 30
0.0
 10
2505.336101043739
 20
4674.680103494878
 30
0.0
 10
2507.850639578963
 20
4674.819549355256
 30
0.0
  0
SPLINE
  5
2B0
330
1F
100
AcDbEntity
  8
0
  6
Continuous
 62
     7
370
    25
100
AcDbSpline
210
0.0
220
0.0
230
1.0
 70
     8
 71
     3
 72
     9
 73
     5
 74
     0
 42
0.00000001
 43
0.00000001
 40
0.0
 40
0.0
 40
0.0
 40
0.0
 40
0.4726592242541572
 40
1.0
 40
1.0
 40
1.0
 40
1.0
 10
2495.681691006115
 20
4674.819549355256
 30
0.0
 10
2495.927407343555
 20
4674.754217224258
 30
0.0
 10
2496.447266736605
 20
4674.61599474251
 30
0.0
 10
2496.929857405568
 20
4673.11243677842
 30
0.0
 10
2497.184347143307
 20
4672.319549355258
 30
0.0
  0
LINE
  5
2B1
330
1F
100
AcDbEntity
  8
0
  6
Continuous
 62
     7
370
    25
100
AcDbLine
 10
2507.850639579
 20
4674.8195493553
 30
0.0
 11
2495.6816910061
 21
4674.8195493553
 31
0.0
  0
SPLINE
  5
2B2
330
1F
100
AcDbEntity
  8
0
  6
Continuous
 62
     7
370
    25
100
AcDbSpline
210
0.0
220
0.0
230
1.0
 70
     8
 71
     3
 72
     9
 73
     5
 74
     0
 42
0.00000001
 43
0.00000001
 40
0.0
 40
0.0
 40
0.0
 40
0.0
 40
0.5843443298746509
 40
1.0
 40
1.0
 40
1.0
 40
1.0
 10
2497.184347143309
 20
4653.819549355256
 30
0.0
 10
2496.901149192261
 20
4652.96053860979
 30
0.0
 10
2496.416506941844
 20
4651.490496544608
 30
0.0
 10
2495.897442912901
 20
4651.369741764362
 30
0.0
 10
2495.681691006113
 20
4651.319549355258
 30
0.0
  0
SPLINE
  5
2B3
330
1F
100
AcDbEntity
  8
0
  6
Continuous
 62
     7
370
    25
100
AcDbSpline
210
0.0
220
0.0
230
1.0
 70
     8
 71
     3
 72
     9
 73
     5
 74
     0
 42
0.00000001
 43
0.00000001
 40
0.0
 40
0.0
 40
0.0
 40
0.0
 40
0.7505156471202135
 40
1.0
 40
1.0
 40
1.0
 40
1.0
 10
2536.844204611538
 20
4672.319549355257
 30
0.0
 10
2536.56212079326
 20
4673.22223260237
 30
0.0
 10
2536.186267445818
 20
4674.424983338585
 30
0.0
 10
2535.783613629677
 20
4674.577191854461
 30
0.0
 10
2535.683157802922
 20
4674.615165497547
 30
0.0
  0
LINE
  5
2B4
330
1F
100
AcDbEntity
  8
0
  6
Continuous
 62
     7
370
    25
100
AcDbLine
 10
2535.5116197402
 20
4674.8195493553
 30
0.0
 11
2527.6805683131
 21
4674.8195493553
 31
0.0
  0
SPLINE
  5
2B5
330
1F
100
AcDbEntity
  8
0
  6
Continuous
 62
     7
370
    25
100
AcDbSpline
210
0.0
220
0.0
230
1.0
 70
     8
 71
     3
 72
     9
 73
     5
 74
     0
 42
0.00000001
 43
0.00000001
 40
0.0
 40
0.0
 40
0.0
 40
0.0
 40
0.3225849509417225
 40
0.9999999999999999
 40
0.9999999999999999
 40
0.9999999999999999
 40
0.9999999999999999
 10
2535.683154322846
 20
4651.554382650803
 30
0.0
 10
2535.813233030246
 20
4651.606244639297
 30
0.0
 10
2536.216471640791
 20
4651.767014657687
 30
0.0
 10
2536.590698026263
 20
4652.990644252952
 30
0.0
 10
2536.844204611537
 20
4653.819549355257
 30
0.0
  0
LINE
  5
2B6
330
1F
100
AcDbEntity
  8
0
  6
Continuous
 62
     7
370
    25
100
AcDbLine
 10
2494.952868078
 20
4651.8205709005
 30
0.0
 11
2494.1790348689
 21
4653.8195493553
 31
0.0
  0
LINE
  5
2B7
330
1F
100
AcDbEntity
  8
0
  6
Continuous
 62
     7
370
    25
100
AcDbLine
 10
2494.1790348689
 20
4653.8195493553
 30
0.0
 11
2494.1790348689
 21
4672.3195493553
 31
0.0
  0
LINE
  5
2B8
330
1F
100
AcDbEntity
  8
0
  6
Continuous
 62
     7
370
    25
100
AcDbLine
 10
2494.1790348689
 20
4672.3195493553
 30
0.0
 11
2495.0403823239
 21
4674.4358562547
 31
0.0
  0
LINE
  5
2B9
330
1F
100
AcDbEntity
  8
0
  6
Continuous
 62
     7
370
    25
100
AcDbLine
 10
2495.34034571
 20
4674.6153234674
 30
0.0
 11
2495.6816910061
 21
4674.8195493553
 31
0.0
  0
LINE
  5
2BA
330
1F
100
AcDbEntity
  8
0
  6
Continuous
 62
     7
370
    25
100
AcDbLine
 10
2495.6816910061
 20
4674.8195493553
 30
0.0
 11
2495.5116197402
 21
4674.8195493553
 31
0.0
  0
SPLINE
  5
2BB
330
1F
100
AcDbEntity
  8
0
  6
Continuous
 62
     7
370
    25
100
AcDbSpline
210
0.0
220
0.0
230
1.0
 70
     8
 71
     3
 72
     9
 73
     5
 74
     0
 42
0.00000001
 43
0.00000001
 40
0.0
 40
0.0
 40
0.0
 40
0.0
 40
0.4054701119094976
 40
1.0
 40
1.0
 40
1.0
 40
1.0
 10
2464.201574602816
 20
4565.319549355258
 30
0.0
 10
2467.467742433582
 20
4566.085276083706
 30
0.0
 10
2475.523004054186
 20
4567.973767259647
 30
0.0
 10
2483.811313409751
 20
4567.877050411916
 30
0.0
 10
2488.738961043375
 20
4567.819549355258
 30
0.0
  0
SPLINE
  5
2BC
330
1F
100
AcDbEntity
  8
0
  6
Continuous
 62
     7
370
    25
100
AcDbSpline
210
0.0
220
0.0
230
1.0
 70
     8
 71
     3
 72
     9
 73
     5
 74
     0
 42
0.00000001
 43
0.00000001
 40
0.0
 40
0.0
 40
0.0
 40
0.0
 40
0.4962229202406763
 40
0.9999999999999999
 40
0.9999999999999999
 40
0.9999999999999999
 40
0.9999999999999999
 10
2451.932881382536
 20
4567.819549355258
 30
0.0
 10
2453.985271080083
 20
4567.861122038331
 30
0.0
 10
2458.121294657049
 20
4567.944900278671
 30
0.0
 10
2462.164633279247
 20
4566.199062442232
 30
0.0
 10
2464.201574602816
 20
4565.319549355258
 30
0.0
  0
LINE
  5
2BD
330
1F
100
AcDbEntity
  8
0
  6
Continuous
 62
     7
370
    25
100
AcDbLine
 10
2464.2015746028
 20
4530.3195493553
 30
0.0
 11
2464.2015746028
 21
4565.3195493553
 31
0.0
  0
SPLINE
  5
2BE
330
1F
100
AcDbEntity
  8
0
  6
Continuous
 62
     7
370
    25
100
AcDbSpline
210
0.0
220
0.0
230
1.0
 70
     8
 71
     3
 72
    10
 73
     6
 74
     0
 42
0.00000001
 43
0.00000001
 40
0.0
 40
0.0
 40
0.0
 40
0.0
 40
0.3315739395276516
 40
0.6721625413044566
 40
1.0
 40
1.0
 40
1.0
 40
1.0
 10
2464.201574602816
 20
4530.319549355258
 30
0.0
 10
2462.872893980524
 20
4529.639889122094
 30
0.0
 10
2460.179409248478
 20
4528.262090401854
 30
0.0
 10
2456.039629365041
 20
4527.890049578859
 30
0.0
 10
2453.284276667202
 20
4527.842748653133
 30
0.0
 10
2451.932881382536
 20
4527.819549355258
 30
0.0
  0
SPLINE
  5
2BF
330
1F
100
AcDbEntity
  8
0
  6
Continuous
 62
     7
370
    25
100
AcDbSpline
210
0.0
220
0.0
230
1.0
 70
     8
 71
     3
 72
     9
 73
     5
 74
     0
 42
0.00000001
 43
0.00000001
 40
0.0
 40
0.0
 40
0.0
 40
0.0
 40
0.4962229202406771
 40
1.0
 40
1.0
 40
1.0
 40
1.0
 10
2451.932881382536
 20
4527.819549355258
 30
0.0
 10
2449.88049168499
 20
4527.777976672184
 30
0.0
 10
2445.744468108024
 20
4527.694198431846
 30
0.0
 10
2441.701129485826
 20
4529.440036268284
 30
0.0
 10
2439.664188162257
 20
4530.319549355258
 30
0.0
  0
LINE
  5
2C0
330
1F
100
AcDbEntity
  8
0
  6
Continuous
 62
     7
370
    25
100
AcDbLine
 10
2439.6641881623
 20
4530.3195493553
 30
0.0
 11
2439.6641881623
 21
4565.3195493553
 31
0.0
  0
SPLINE
  5
2C1
330
1F
100
AcDbEntity
  8
0
  6
Continuous
 62
     7
370
    25
100
AcDbSpline
210
0.0
220
0.0
230
1.0
 70
     8
 71
     3
 72
    10
 73
     6
 74
     0
 42
0.00000001
 43
0.00000001
 40
0.0
 40
0.0
 40
0.0
 40
0.0
 40
0.3315739395275101
 40
0.6721625413041707
 40
1.0
 40
1.0
 40
1.0
 40
1.0
 10
2439.664188162257
 20
4565.319549355258
 30
0.0
 10
2440.992868784549
 20
4565.999209588421
 30
0.0
 10
2443.686353516594
 20
4567.377008308662
 30
0.0
 10
2447.82613340003
 20
4567.749049131656
 30
0.0
 10
2450.58148609787
 20
4567.796350057383
 30
0.0
 10
2451.932881382536
 20
4567.819549355258
 30
0.0
  0
LINE
  5
2C2
330
1F
100
AcDbEntity
  8
0
  6
Continuous
 62
     7
370
    25
100
AcDbLine
 10
2513.2763474839
 20
4530.3195493553
 30
0.0
 11
2513.2763474839
 21
4565.3195493553
 31
0.0
  0
SPLINE
  5
2C3
330
1F
100
AcDbEntity
  8
0
  6
Continuous
 62
     7
370
    25
100
AcDbSpline
210
0.0
220
0.0
230
1.0
 70
     8
 71
     3
 72
     9
 73
     5
 74
     0
 42
0.00000001
 43
0.00000001
 40
0.0
 40
0.0
 40
0.0
 40
0.0
 40
0.4054701119095638
 40
1.0
 40
1.0
 40
1.0
 40
1.0
 10
2513.276347483934
 20
4530.319549355258
 30
0.0
 10
2510.010179653168
 20
4529.553822626809
 30
0.0
 10
2501.954918032565
 20
4527.66533145087
 30
0.0
 10
2493.666608676999
 20
4527.762048298599
 30
0.0
 10
2488.738961043375
 20
4527.819549355258
 30
0.0
  0
SPLINE
  5
2C4
330
1F
100
AcDbEntity
  8
0
  6
Continuous
 62
     7
370
    25
100
AcDbSpline
210
0.0
220
0.0
230
1.0
 70
     8
 71
     3
 72
     9
 73
     5
 74
     0
 42
0.00000001
 43
0.00000001
 40
0.0
 40
0.0
 40
0.0
 40
0.0
 40
0.7169484261070668
 40
1.0
 40
1.0
 40
1.0
 40
1.0
 10
2488.738961043375
 20
4527.819549355258
 30
0.0
 10
2482.779695107878
 20
4527.743783175771
 30
0.0
 10
2474.46770819432
 20
4527.638104473191
 30
0.0
 10
2466.466366860584
 20
4529.728000886264
 30
0.0
 10
2464.201574602816
 20
4530.319549355258
 30
0.0
  0
SPLINE
  5
2C5
330
1F
100
AcDbEntity
  8
0
  6
Continuous
 62
     7
370
    25
100
AcDbSpline
210
0.0
220
0.0
230
1.0
 70
     8
 71
     3
 72
     9
 73
     5
 74
     0
 42
0.00000001
 43
0.00000001
 40
0.0
 40
0.0
 40
0.0
 40
0.0
 40
0.7169484261070648
 40
0.9999999999999999
 40
0.9999999999999999
 40
0.9999999999999999
 40
0.9999999999999999
 10
2488.738961043375
 20
4567.819549355258
 30
0.0
 10
2494.698226978873
 20
4567.895315534746
 30
0.0
 10
2503.01021389243
 20
4568.000994237326
 30
0.0
 10
2511.011555226166
 20
4565.911097824252
 30
0.0
 10
2513.276347483934
 20
4565.319549355258
 30
0.0
  0
SPLINE
  5
2C6
330
1F
100
AcDbEntity
  8
0
  6
Continuous
 62
     7
370
    25
100
AcDbSpline
210
0.0
220
0.0
230
1.0
 70
     8
 71
     3
 72
    10
 73
     6
 74
     0
 42
0.00000001
 43
0.00000001
 40
0.0
 40
0.0
 40
0.0
 40
0.0
 40
0.3315739395276484
 40
0.6721625413044537
 40
1.0
 40
1.0
 40
1.0
 40
1.0
 10
2513.276347483934
 20
4565.319549355258
 30
0.0
 10
2514.605028106227
 20
4565.999209588421
 30
0.0
 10
2517.298512838273
 20
4567.377008308663
 30
0.0
 10
2521.438292721709
 20
4567.749049131656
 30
0.0
 10
2524.193645419549
 20
4567.796350057383
 30
0.0
 10
2525.545040704214
 20
4567.819549355258
 30
0.0
  0
SPLINE
  5
2C7
330
1F
100
AcDbEntity
  8
0
  6
Continuous
 62
     7
370
    25
100
AcDbSpline
210
0.0
220
0.0
230
1.0
 70
     8
 71
     3
 72
     9
 73
     5
 74
     0
 42
0.00000001
 43
0.00000001
 40
0.0
 40
0.0
 40
0.0
 40
0.0
 40
0.4962229202406764
 40
1.0
 40
1.0
 40
1.0
 40
1.0
 10
2525.545040704214
 20
4527.819549355258
 30
0.0
 10
2523.492651006668
 20
4527.777976672184
 30
0.0
 10
2519.356627429701
 20
4527.694198431846
 30
0.0
 10
2515.313288807503
 20
4529.440036268284
 30
0.0
 10
2513.276347483934
 20
4530.319549355258
 30
0.0
  0
LINE
  5
2C8
330
1F
100
AcDbEntity
  8
0
  6
Continuous
 62
     7
370
    25
100
AcDbLine
 10
2488.7389610434
 20
4527.8195493553
 30
0.0
 11
2525.5450407042
 21
4527.8195493553
 31
0.0
  0
LINE
  5
2C9
330
1F
100
AcDbEntity
  8
0
  6
Continuous
 62
     7
370
    25
100
AcDbLine
 10
2488.7389610434
 20
4527.8195493553
 30
0.0
 11
2451.9328813825
 21
4527.8195493553
 31
0.0
  0
SPLINE
  5
2CA
330
1F
100
AcDbEntity
  8
0
  6
Continuous
 62
     7
370
    25
100
AcDbSpline
210
0.0
220
0.0
230
1.0
 70
     8
 71
     3
 72
     9
 73
     5
 74
     0
 42
0.00000001
 43
0.00000001
 40
0.0
 40
0.0
 40
0.0
 40
0.0
 40
0.4962229202406764
 40
1.0
 40
1.0
 40
1.0
 40
1.0
 10
2525.545040704214
 20
4567.819549355258
 30
0.0
 10
2527.59743040176
 20
4567.861122038331
 30
0.0
 10
2531.733453978727
 20
4567.944900278671
 30
0.0
 10
2535.776792600925
 20
4566.199062442232
 30
0.0
 10
2537.813733924494
 20
4565.319549355258
 30
0.0
  0
LINE
  5
2CB
330
1F
100
AcDbEntity
  8
0
  6
Continuous
 62
     7
370
    25
100
AcDbLine
 10
2537.8137339245
 20
4530.3195493553
 30
0.0
 11
2537.8137339245
 21
4565.3195493553
 31
0.0
  0
SPLINE
  5
2CC
330
1F
100
AcDbEntity
  8
0
  6
Continuous
 62
     7
370
    25
100
AcDbSpline
210
0.0
220
0.0
230
1.0
 70
     8
 71
     3
 72
    10
 73
     6
 74
     0
 42
0.00000001
 43
0.00000001
 40
0.0
 40
0.0
 40
0.0
 40
0.0
 40
0.3315739395275091
 40
0.6721625413041653
 40
1.0
 40
1.0
 40
1.0
 40
1.0
 10
2537.813733924494
 20
4530.319549355258
 30
0.0
 10
2536.485053302202
 20
4529.639889122094
 30
0.0
 10
2533.791568570156
 20
4528.262090401854
 30
0.0
 10
2529.65178868672
 20
4527.890049578859
 30
0.0
 10
2526.896435988881
 20
4527.842748653133
 30
0.0
 10
2525.545040704214
 20
4527.819549355258
 30
0.0
  0
LINE
  5
2CD
330
1F
100
AcDbEntity
  8
0
  6
Continuous
 62
     7
370
    25
100
AcDbLine
 10
2451.9328813825
 20
4527.8195493553
 30
0.0
 11
2446.2389610434
 21
4527.8195493553
 31
0.0
  0
LINE
  5
2CE
330
1F
100
AcDbEntity
  8
0
  6
Continuous
 62
     7
370
    25
100
AcDbLine
 10
2531.2389610434
 20
4527.8195493553
 30
0.0
 11
2525.5450407042
 21
4527.8195493553
 31
0.0
  0
LINE
  5
2CF
330
1F
100
AcDbEntity
  8
0
  6
Continuous
 62
     7
370
    25
100
AcDbLine
 10
3313.2763474839
 20
4530.3195493553
 30
0.0
 11
3313.2763474839
 21
4565.3195493553
 31
0.0
  0
SPLINE
  5
2D0
330
1F
100
AcDbEntity
  8
0
  6
Continuous
 62
     7
370
    25
100
AcDbSpline
210
0.0
220
0.0
230
1.0
 70
     8
 71
     3
 72
     9
 73
     5
 74
     0
 42
0.00000001
 43
0.00000001
 40
0.0
 40
0.0
 40
0.0
 40
0.0
 40
0.4054701119095638
 40
1.0
 40
1.0
 40
1.0
 40
1.0
 10
3313.276347483935
 20
4530.319549355258
 30
0.0
 10
3310.010179653169
 20
4529.553822626809
 30
0.0
 10
3301.954918032566
 20
4527.66533145087
 30
0.0
 10
3293.666608677
 20
4527.7620482986
 30
0.0
 10
3288.738961043377
 20
4527.819549355258
 30
0.0
  0
SPLINE
  5
2D1
330
1F
100
AcDbEntity
  8
0
  6
Continuous
 62
     7
370
    25
100
AcDbSpline
210
0.0
220
0.0
230
1.0
 70
     8
 71
     3
 72
     9
 73
     5
 74
     0
 42
0.00000001
 43
0.00000001
 40
0.0
 40
0.0
 40
0.0
 40
0.0
 40
0.7169484261070668
 40
1.0
 40
1.0
 40
1.0
 40
1.0
 10
3288.738961043377
 20
4527.819549355258
 30
0.0
 10
3282.779695107879
 20
4527.743783175771
 30
0.0
 10
3274.467708194321
 20
4527.638104473191
 30
0.0
 10
3266.466366860586
 20
4529.728000886264
 30
0.0
 10
3264.201574602817
 20
4530.319549355258
 30
0.0
  0
LINE
  5
2D2
330
1F
100
AcDbEntity
  8
0
  6
Continuous
 62
     7
370
    25
100
AcDbLine
 10
3264.2015746028
 20
4530.3195493553
 30
0.0
 11
3264.2015746028
 21
4565.3195493553
 31
0.0
  0
SPLINE
  5
2D3
330
1F
100
AcDbEntity
  8
0
  6
Continuous
 62
     7
370
    25
100
AcDbSpline
210
0.0
220
0.0
230
1.0
 70
     8
 71
     3
 72
     9
 73
     5
 74
     0
 42
0.00000001
 43
0.00000001
 40
0.0
 40
0.0
 40
0.0
 40
0.0
 40
0.4054701119094976
 40
1.0
 40
1.0
 40
1.0
 40
1.0
 10
3264.201574602817
 20
4565.319549355258
 30
0.0
 10
3267.467742433583
 20
4566.085276083706
 30
0.0
 10
3275.523004054186
 20
4567.973767259647
 30
0.0
 10
3283.811313409753
 20
4567.877050411916
 30
0.0
 10
3288.738961043377
 20
4567.819549355258
 30
0.0
  0
SPLINE
  5
2D4
330
1F
100
AcDbEntity
  8
0
  6
Continuous
 62
     7
370
    25
100
AcDbSpline
210
0.0
220
0.0
230
1.0
 70
     8
 71
     3
 72
     9
 73
     5
 74
     0
 42
0.00000001
 43
0.00000001
 40
0.0
 40
0.0
 40
0.0
 40
0.0
 40
0.7169484261070648
 40
0.9999999999999999
 40
0.9999999999999999
 40
0.9999999999999999
 40
0.9999999999999999
 10
3288.738961043377
 20
4567.819549355258
 30
0.0
 10
3294.698226978873
 20
4567.895315534746
 30
0.0
 10
3303.010213892431
 20
4568.000994237326
 30
0.0
 10
3311.011555226167
 20
4565.911097824252
 30
0.0
 10
3313.276347483935
 20
4565.319549355258
 30
0.0
  0
SPLINE
  5
2D5
330
1F
100
AcDbEntity
  8
0
  6
Continuous
 62
     7
370
    25
100
AcDbSpline
210
0.0
220
0.0
230
1.0
 70
     8
 71
     3
 72
     9
 73
     5
 74
     0
 42
0.00000001
 43
0.00000001
 40
0.0
 40
0.0
 40
0.0
 40
0.0
 40
0.4962229202406763
 40
0.9999999999999999
 40
0.9999999999999999
 40
0.9999999999999999
 40
0.9999999999999999
 10
3251.932881382538
 20
4567.819549355258
 30
0.0
 10
3253.985271080084
 20
4567.861122038332
 30
0.0
 10
3258.12129465705
 20
4567.944900278671
 30
0.0
 10
3262.164633279248
 20
4566.199062442232
 30
0.0
 10
3264.201574602817
 20
4565.319549355258
 30
0.0
  0
SPLINE
  5
2D6
330
1F
100
AcDbEntity
  8
0
  6
Continuous
 62
     7
370
    25
100
AcDbSpline
210
0.0
220
0.0
230
1.0
 70
     8
 71
     3
 72
    10
 73
     6
 74
     0
 42
0.00000001
 43
0.00000001
 40
0.0
 40
0.0
 40
0.0
 40
0.0
 40
0.3315739395276516
 40
0.6721625413044566
 40
1.0
 40
1.0
 40
1.0
 40
1.0
 10
3264.201574602817
 20
4530.319549355258
 30
0.0
 10
3262.872893980525
 20
4529.639889122094
 30
0.0
 10
3260.179409248479
 20
4528.262090401854
 30
0.0
 10
3256.039629365042
 20
4527.890049578859
 30
0.0
 10
3253.284276667203
 20
4527.842748653133
 30
0.0
 10
3251.932881382538
 20
4527.819549355258
 30
0.0
  0
SPLINE
  5
2D7
330
1F
100
AcDbEntity
  8
0
  6
Continuous
 62
     7
370
    25
100
AcDbSpline
210
0.0
220
0.0
230
1.0
 70
     8
 71
     3
 72
     9
 73
     5
 74
     0
 42
0.00000001
 43
0.00000001
 40
0.0
 40
0.0
 40
0.0
 40
0.0
 40
0.4962229202406771
 40
1.0
 40
1.0
 40
1.0
 40
1.0
 10
3251.932881382538
 20
4527.819549355258
 30
0.0
 10
3249.880491684991
 20
4527.777976672184
 30
0.0
 10
3245.744468108025
 20
4527.694198431846
 30
0.0
 10
3241.701129485827
 20
4529.440036268284
 30
0.0
 10
3239.664188162258
 20
4530.319549355258
 30
0.0
  0
LINE
  5
2D8
330
1F
100
AcDbEntity
  8
0
  6
Continuous
 62
     7
370
    25
100
AcDbLine
 10
3239.6641881623
 20
4530.3195493553
 30
0.0
 11
3239.6641881623
 21
4565.3195493553
 31
0.0
  0
SPLINE
  5
2D9
330
1F
100
AcDbEntity
  8
0
  6
Continuous
 62
     7
370
    25
100
AcDbSpline
210
0.0
220
0.0
230
1.0
 70
     8
 71
     3
 72
    10
 73
     6
 74
     0
 42
0.00000001
 43
0.00000001
 40
0.0
 40
0.0
 40
0.0
 40
0.0
 40
0.3315739395275101
 40
0.6721625413041707
 40
1.0
 40
1.0
 40
1.0
 40
1.0
 10
3239.664188162258
 20
4565.319549355258
 30
0.0
 10
3240.99286878455
 20
4565.999209588421
 30
0.0
 10
3243.686353516595
 20
4567.377008308662
 30
0.0
 10
3247.826133400031
 20
4567.749049131656
 30
0.0
 10
3250.581486097871
 20
4567.796350057383
 30
0.0
 10
3251.932881382538
 20
4567.819549355258
 30
0.0
  0
SPLINE
  5
2DA
330
1F
100
AcDbEntity
  8
0
  6
Continuous
 62
     7
370
    25
100
AcDbSpline
210
0.0
220
0.0
230
1.0
 70
     8
 71
     3
 72
    10
 73
     6
 74
     0
 42
0.00000001
 43
0.00000001
 40
0.0
 40
0.0
 40
0.0
 40
0.0
 40
0.3315739395276484
 40
0.6721625413044537
 40
1.0
 40
1.0
 40
1.0
 40
1.0
 10
3313.276347483935
 20
4565.319549355258
 30
0.0
 10
3314.605028106228
 20
4565.999209588421
 30
0.0
 10
3317.298512838274
 20
4567.377008308663
 30
0.0
 10
3321.438292721711
 20
4567.749049131656
 30
0.0
 10
3324.19364541955
 20
4567.796350057383
 30
0.0
 10
3325.545040704215
 20
4567.819549355258
 30
0.0
  0
SPLINE
  5
2DB
330
1F
100
AcDbEntity
  8
0
  6
Continuous
 62
     7
370
    25
100
AcDbSpline
210
0.0
220
0.0
230
1.0
 70
     8
 71
     3
 72
     9
 73
     5
 74
     0
 42
0.00000001
 43
0.00000001
 40
0.0
 40
0.0
 40
0.0
 40
0.0
 40
0.4962229202406764
 40
1.0
 40
1.0
 40
1.0
 40
1.0
 10
3325.545040704215
 20
4527.819549355258
 30
0.0
 10
3323.492651006668
 20
4527.777976672184
 30
0.0
 10
3319.356627429702
 20
4527.694198431846
 30
0.0
 10
3315.313288807504
 20
4529.440036268284
 30
0.0
 10
3313.276347483935
 20
4530.319549355258
 30
0.0
  0
LINE
  5
2DC
330
1F
100
AcDbEntity
  8
0
  6
Continuous
 62
     7
370
    25
100
AcDbLine
 10
3288.7389610434
 20
4527.8195493553
 30
0.0
 11
3325.5450407042
 21
4527.8195493553
 31
0.0
  0
SPLINE
  5
2DD
330
1F
100
AcDbEntity
  8
0
  6
Continuous
 62
     7
370
    25
100
AcDbSpline
210
0.0
220
0.0
230
1.0
 70
     8
 71
     3
 72
     9
 73
     5
 74
     0
 42
0.00000001
 43
0.00000001
 40
0.0
 40
0.0
 40
0.0
 40
0.0
 40
0.4962229202406764
 40
1.0
 40
1.0
 40
1.0
 40
1.0
 10
3325.545040704215
 20
4567.819549355258
 30
0.0
 10
3327.597430401761
 20
4567.861122038332
 30
0.0
 10
3331.733453978728
 20
4567.944900278671
 30
0.0
 10
3335.776792600926
 20
4566.199062442232
 30
0.0
 10
3337.813733924494
 20
4565.319549355258
 30
0.0
  0
LINE
  5
2DE
330
1F
100
AcDbEntity
  8
0
  6
Continuous
 62
     7
370
    25
100
AcDbLine
 10
3337.8137339245
 20
4530.3195493553
 30
0.0
 11
3337.8137339245
 21
4565.3195493553
 31
0.0
  0
SPLINE
  5
2DF
330
1F
100
AcDbEntity
  8
0
  6
Continuous
 62
     7
370
    25
100
AcDbSpline
210
0.0
220
0.0
230
1.0
 70
     8
 71
     3
 72
    10
 73
     6
 74
     0
 42
0.00000001
 43
0.00000001
 40
0.0
 40
0.0
 40
0.0
 40
0.0
 40
0.3315739395275091
 40
0.6721625413041653
 40
1.0
 40
1.0
 40
1.0
 40
1.0
 10
3337.813733924494
 20
4530.319549355258
 30
0.0
 10
3336.485053302202
 20
4529.639889122095
 30
0.0
 10
3333.791568570158
 20
4528.262090401855
 30
0.0
 10
3329.651788686721
 20
4527.890049578859
 30
0.0
 10
3326.896435988881
 20
4527.842748653133
 30
0.0
 10
3325.545040704215
 20
4527.819549355258
 30
0.0
  0
LINE
  5
2E0
330
1F
100
AcDbEntity
  8
0
  6
Continuous
 62
     7
370
    25
100
AcDbLine
 10
3288.7389610434
 20
4527.8195493553
 30
0.0
 11
3251.9328813825
 21
4527.8195493553
 31
0.0
  0
LINE
  5
2E1
330
1F
100
AcDbEntity
  8
0
  6
Continuous
 62
     7
370
    25
100
AcDbLine
 10
3251.9328813825
 20
4527.8195493553
 30
0.0
 11
3246.2389610434
 21
4527.8195493553
 31
0.0
  0
LINE
  5
2E2
330
1F
100
AcDbEntity
  8
0
  6
Continuous
 62
     7
370
    25
100
AcDbLine
 10
3331.2389610434
 20
4527.8195493553
 30
0.0
 11
3325.5450407042
 21
4527.8195493553
 31
0.0
  0
LINE
  5
2E3
330
1F
100
AcDbEntity
  8
0
  6
Continuous
 62
     7
370
    25
100
AcDbLine
 10
2465.5116197402
 20
4635.3195493553
 30
0.0
 11
2565.5116197402
 21
4635.3195493553
 31
0.0
  0
LINE
  5
2E4
330
1F
100
AcDbEntity
  8
0
  6
Continuous
 62
     7
370
    25
100
AcDbLine
 10
2465.5116197402
 20
4645.3195493553
 30
0.0
 11
2465.5116197402
 21
4635.3195493553
 31
0.0
  0
LINE
  5
2E5
330
1F
100
AcDbEntity
  8
0
  6
Continuous
 62
     7
370
    25
100
AcDbLine
 10
2465.5116197402
 20
4645.3195493553
 30
0.0
 11
2565.5116197402
 21
4645.3195493553
 31
0.0
  0
LINE
  5
2E6
330
1F
100
AcDbEntity
  8
0
  6
Continuous
 62
     7
370
    25
100
AcDbLine
 10
2565.5116197402
 20
4645.3195493553
 30
0.0
 11
2565.5116197402
 21
4635.3195493553
 31
0.0
  0
LINE
  5
2E7
330
1F
100
AcDbEntity
  8
0
  6
Continuous
 62
     7
370
    25
100
AcDbLine
 10
2565.5116197402
 20
4645.3195493553
 30
0.0
 11
2565.5116197402
 21
4650.3195493553
 31
0.0
  0
LINE
  5
2E8
330
1F
100
AcDbEntity
  8
0
  6
Continuous
 62
     7
370
    25
100
AcDbLine
 10
2465.5116197402
 20
4645.3195493553
 30
0.0
 11
2465.5116197402
 21
4650.3195493553
 31
0.0
  0
LINE
  5
2E9
330
1F
100
AcDbEntity
  8
0
  6
Continuous
 62
     7
370
    25
100
AcDbLine
 10
2465.5116197402
 20
4650.3195493553
 30
0.0
 11
2465.5116197402
 21
4880.3195493553
 31
0.0
  0
LINE
  5
2EA
330
1F
100
AcDbEntity
  8
0
  6
Continuous
 62
     7
370
    25
100
AcDbLine
 10
2465.5116197402
 20
4880.3195493553
 30
0.0
 11
2565.5116197402
 21
4880.3195493553
 31
0.0
  0
LINE
  5
2EB
330
1F
100
AcDbEntity
  8
0
  6
Continuous
 62
     7
370
    25
100
AcDbLine
 10
2565.5116197402
 20
4650.3195493553
 30
0.0
 11
2565.5116197402
 21
4880.3195493553
 31
0.0
  0
LINE
  5
2EC
330
1F
100
AcDbEntity
  8
0
  6
Continuous
 62
     7
370
    25
100
AcDbLine
 10
2465.5116197402
 20
4880.3195493553
 30
0.0
 11
2465.5116197402
 21
4895.3195493553
 31
0.0
  0
LINE
  5
2ED
330
1F
100
AcDbEntity
  8
0
  6
Continuous
 62
     7
370
    25
100
AcDbLine
 10
2465.5116197402
 20
4895.3195493553
 30
0.0
 11
2565.5116197402
 21
4895.3195493553
 31
0.0
  0
LINE
  5
2EE
330
1F
100
AcDbEntity
  8
0
  6
Continuous
 62
     7
370
    25
100
AcDbLine
 10
2565.5116197402
 20
4880.3195493553
 30
0.0
 11
2565.5116197402
 21
4895.3195493553
 31
0.0
  0
LINE
  5
2EF
330
1F
100
AcDbEntity
  8
0
  6
Continuous
 62
     7
370
    25
100
AcDbLine
 10
3188.7389610434
 20
4635.3195493553
 30
0.0
 11
3288.7389610434
 21
4635.3195493553
 31
0.0
  0
LINE
  5
2F0
330
1F
100
AcDbEntity
  8
0
  6
Continuous
 62
     7
370
    25
100
AcDbLine
 10
3188.7389610434
 20
4645.3195493553
 30
0.0
 11
3188.7389610434
 21
4635.3195493553
 31
0.0
  0
LINE
  5
2F1
330
1F
100
AcDbEntity
  8
0
  6
Continuous
 62
     7
370
    25
100
AcDbLine
 10
3288.7389610434
 20
4645.3195493553
 30
0.0
 11
3288.7389610434
 21
4635.3195493553
 31
0.0
  0
LINE
  5
2F2
330
1F
100
AcDbEntity
  8
0
  6
Continuous
 62
     7
370
    25
100
AcDbLine
 10
3188.7389610434
 20
4645.3195493553
 30
0.0
 11
3288.7389610434
 21
4645.3195493553
 31
0.0
  0
LINE
  5
2F3
330
1F
100
AcDbEntity
  8
0
  6
Continuous
 62
     7
370
    25
100
AcDbLine
 10
3188.7389610434
 20
4645.3195493553
 30
0.0
 11
3188.7389610434
 21
4650.3195493553
 31
0.0
  0
LINE
  5
2F4
330
1F
100
AcDbEntity
  8
0
  6
Continuous
 62
     7
370
    25
100
AcDbLine
 10
3288.7389610434
 20
4645.3195493553
 30
0.0
 11
3288.7389610434
 21
4650.3195493553
 31
0.0
  0
LINE
  5
2F5
330
1F
100
AcDbEntity
  8
0
  6
Continuous
 62
     7
370
    25
100
AcDbLine
 10
3188.7389610434
 20
4880.3195493553
 30
0.0
 11
3288.7389610434
 21
4880.3195493553
 31
0.0
  0
LINE
  5
2F6
330
1F
100
AcDbEntity
  8
0
  6
Continuous
 62
     7
370
    25
100
AcDbLine
 10
3188.7389610434
 20
4880.3195493553
 30
0.0
 11
3188.7389610434
 21
4895.3195493553
 31
0.0
  0
LINE
  5
2F7
330
1F
100
AcDbEntity
  8
0
  6
Continuous
 62
     7
370
    25
100
AcDbLine
 10
3188.7389610434
 20
4895.3195493553
 30
0.0
 11
3288.7389610434
 21
4895.3195493553
 31
0.0
  0
LINE
  5
2F8
330
1F
100
AcDbEntity
  8
0
  6
Continuous
 62
     7
370
    25
100
AcDbLine
 10
3288.7389610434
 20
4880.3195493553
 30
0.0
 11
3288.7389610434
 21
4895.3195493553
 31
0.0
  0
LINE
  5
2F9
330
1F
100
AcDbEntity
  8
0
  6
Continuous
 62
     7
370
    25
100
AcDbLine
 10
3288.7389610434
 20
4650.3195493553
 30
0.0
 11
3288.7389610434
 21
4880.3195493553
 31
0.0
  0
LINE
  5
2FA
330
1F
100
AcDbEntity
  8
0
  6
Continuous
 62
     7
370
    25
100
AcDbLine
 10
3188.7389610434
 20
4650.3195493553
 30
0.0
 11
3188.7389610434
 21
4880.3195493553
 31
0.0
  0
LINE
  5
2FB
330
1F
100
AcDbEntity
  8
0
  6
Continuous
 62
     7
370
    25
100
AcDbLine
 10
3288.7389610434
 20
4567.8195493553
 30
0.0
 11
3363.7389610434
 21
4567.8195493553
 31
0.0
  0
LINE
  5
2FC
330
1F
100
AcDbEntity
  8
0
  6
Continuous
 62
     7
370
    25
100
AcDbLine
 10
3213.7389610434
 20
4567.8195493553
 30
0.0
 11
3288.7389610434
 21
4567.8195493553
 31
0.0
  0
LINE
  5
2FD
330
1F
100
AcDbEntity
  8
0
  6
Continuous
 62
     7
370
    25
100
AcDbLine
 10
3288.7389610434
 20
4577.8195493553
 30
0.0
 11
3321.4307031199
 21
4577.8195493553
 31
0.0
  0
LINE
  5
2FE
330
1F
100
AcDbEntity
  8
0
  6
Continuous
 62
     7
370
    25
100
AcDbLine
 10
3256.0472189668
 20
4577.8195493553
 30
0.0
 11
3288.7389610434
 21
4577.8195493553
 31
0.0
  0
LINE
  5
2FF
330
1F
100
AcDbEntity
  8
0
  6
Continuous
 62
     7
370
    25
100
AcDbLine
 10
2488.7389610434
 20
4567.8195493553
 30
0.0
 11
2563.7389610434
 21
4567.8195493553
 31
0.0
  0
LINE
  5
300
330
1F
100
AcDbEntity
  8
0
  6
Continuous
 62
     7
370
    25
100
AcDbLine
 10
2413.7389610434
 20
4567.8195493553
 30
0.0
 11
2488.7389610434
 21
4567.8195493553
 31
0.0
  0
LINE
  5
301
330
1F
100
AcDbEntity
  8
0
  6
Continuous
 62
     7
370
    25
100
AcDbLine
 10
2488.7389610434
 20
4577.8195493553
 30
0.0
 11
2521.4307031199
 21
4577.8195493553
 31
0.0
  0
LINE
  5
302
330
1F
100
AcDbEntity
  8
0
  6
Continuous
 62
     7
370
    25
100
AcDbLine
 10
2456.0472189668
 20
4577.8195493553
 30
0.0
 11
2488.7389610434
 21
4577.8195493553
 31
0.0
  0
LINE
  5
303
330
1F
100
AcDbEntity
  8
0
  6
Continuous
 62
     7
370
    25
100
AcDbLine
 10
3276.2389610434
 20
4651.3195493553
 30
0.0
 11
3201.2389610434
 21
4651.3195493553
 31
0.0
  0
LINE
  5
304
330
1F
100
AcDbEntity
  8
0
  6
Continuous
 62
     7
370
    25
100
AcDbLine
 10
3031.2389610434
 20
4651.3195493564
 30
0.0
 11
2956.2389610434
 21
4651.3195493564
 31
0.0
  0
LINE
  5
305
330
1F
100
AcDbEntity
  8
0
  6
Continuous
 62
     7
370
    25
100
AcDbLine
 10
3031.2389610434
 20
4645.3195493564
 30
0.0
 11
2956.2389610434
 21
4645.3195493564
 31
0.0
  0
LINE
  5
306
330
1F
100
AcDbEntity
  8
0
  6
Continuous
 62
     7
370
    25
100
AcDbLine
 10
3596.2389610434
 20
4641.3195493553
 30
0.0
 11
3521.2389610434
 21
4641.3195493553
 31
0.0
  0
LINE
  5
307
330
1F
100
AcDbEntity
  8
0
  6
Continuous
 62
     7
370
    25
100
AcDbLine
 10
2821.2389610434
 20
4651.3195493553
 30
0.0
 11
2746.2389610434
 21
4651.3195493553
 31
0.0
  0
LINE
  5
308
330
1F
100
AcDbEntity
  8
0
  6
Continuous
 62
     7
370
    25
100
AcDbLine
 10
2821.2389610434
 20
4645.3195493553
 30
0.0
 11
2746.2389610434
 21
4645.3195493553
 31
0.0
  0
LINE
  5
309
330
1F
100
AcDbEntity
  8
0
  6
Continuous
 62
     7
370
    25
100
AcDbLine
 10
2553.0116197402
 20
4651.3195493553
 30
0.0
 11
2478.0116197402
 21
4651.3195493553
 31
0.0
  0
LINE
  5
30A
330
1F
100
AcDbEntity
  8
0
  6
Continuous
 62
     7
370
    25
100
AcDbLine
 10
2256.2389610434
 20
4641.3195493553
 30
0.0
 11
2181.2389610434
 21
4641.3195493553
 31
0.0
  0
LINE
  5
30B
330
1F
100
AcDbEntity
  8
0
  6
Continuous
 62
     7
370
    25
100
AcDbLine
 10
2920.2045507142
 20
4635.3195493553
 30
0.0
 11
2921.8143729952
 21
4638.107843337
 31
0.0
  0
LINE
  5
30C
330
1F
100
AcDbEntity
  8
0
  6
Continuous
 62
     7
370
    25
100
AcDbLine
 10
2926.0772216218
 20
4645.4913137433
 30
0.0
 11
2926.2667285407
 21
4645.8195493553
 31
0.0
  0
LINE
  5
30D
330
1F
100
AcDbEntity
  8
0
  6
Continuous
 62
     7
370
    25
100
AcDbLine
 10
2851.2111935461
 20
4645.8195493553
 30
0.0
 11
2851.4007004649
 21
4645.4913137433
 31
0.0
  0
LINE
  5
30E
330
1F
100
AcDbEntity
  8
0
  6
Continuous
 62
     7
370
    25
100
AcDbLine
 10
2855.6635490916
 20
4638.107843337
 30
0.0
 11
2857.2733713725
 21
4635.3195493553
 31
0.0
  0
LINE
  5
30F
330
1F
100
AcDbEntity
  8
0
  6
Continuous
 62
     7
370
    25
100
AcDbLine
 10
2869.9750772947
 20
4678.3195493553
 30
0.0
 11
2851.2111935461
 21
4645.8195493553
 31
0.0
  0
LINE
  5
310
330
1F
100
AcDbEntity
  8
0
  6
Continuous
 62
     7
370
    25
100
AcDbLine
 10
2926.2667285407
 20
4645.8195493553
 30
0.0
 11
2907.502844792
 21
4678.3195493553
 31
0.0
  0
LINE
  5
311
330
1F
100
AcDbEntity
  8
0
  6
Continuous
 62
     7
370
    25
100
AcDbLine
 10
2907.502844792
 20
4678.3195493553
 30
0.0
 11
2869.9750772947
 21
4678.3195493553
 31
0.0
  0
LINE
  5
312
330
1F
100
AcDbEntity
  8
0
  6
Continuous
 62
     7
370
    25
100
AcDbLine
 10
2744.0841996285
 20
4666.5695493553
 30
0.0
 11
2762.4063761721
 21
4666.5695493553
 31
0.0
  0
LINE
  5
313
330
1F
100
AcDbEntity
  8
0
  6
Continuous
 62
     7
370
    25
100
AcDbLine
 10
2805.0715459147
 20
4666.5695493553
 30
0.0
 11
2863.1912116317
 21
4666.5695493553
 31
0.0
  0
LWPOLYLINE
  5
314
330
1F
100
AcDbEntity
  8
0
  6
Continuous
 62
     7
370
    25
100
AcDbPolyline
 90
        3
 70
   128
 43
0.0
 10
2744.0841996285
 20
4666.5695493553
 10
2741.8285026973
 20
4677.0714551821
 10
2737.8020053149
 20
4695.8195493553
  0
LINE
  5
315
330
1F
100
AcDbEntity
  8
0
  6
Continuous
 62
     7
370
    25
100
AcDbLine
 10
2737.8020053149
 20
4695.8195493553
 30
0.0
 11
2736.567183108
 21
4701.5695493553
 31
0.0
  0
LINE
  5
316
330
1F
100
AcDbEntity
  8
0
  6
Continuous
 62
     7
370
    25
100
AcDbLine
 10
3040.9107389787
 20
4701.5695493553
 30
0.0
 11
3039.6759167719
 21
4695.8195493553
 31
0.0
  0
LWPOLYLINE
  5
317
330
1F
100
AcDbEntity
  8
0
  6
Continuous
 62
     7
370
    25
100
AcDbPolyline
 90
        3
 70
   128
 43
0.0
 10
3039.6759167719
 20
4695.8195493553
 10
3035.6494193894
 20
4677.0714551821
 10
3033.3937224583
 20
4666.5695493553
  0
LINE
  5
318
330
1F
100
AcDbEntity
  8
0
  6
Continuous
 62
     7
370
    25
100
AcDbLine
 10
2914.286710455
 20
4666.5695493553
 30
0.0
 11
2972.4063761721
 21
4666.5695493553
 31
0.0
  0
LINE
  5
319
330
1F
100
AcDbEntity
  8
0
  6
Continuous
 62
     7
370
    25
100
AcDbLine
 10
3015.0715459147
 20
4666.5695493553
 30
0.0
 11
3033.3937224583
 21
4666.5695493553
 31
0.0
  0
LINE
  5
31A
330
1F
100
AcDbEntity
  8
0
  6
Continuous
 62
     7
370
    25
100
AcDbLine
 10
2736.567183108
 20
4701.5695493553
 30
0.0
 11
2771.2389610434
 21
4701.5695493553
 31
0.0
  0
LINE
  5
31B
330
1F
100
AcDbEntity
  8
0
  6
Continuous
 62
     7
370
    25
100
AcDbLine
 10
2796.2389610434
 20
4701.5695493553
 30
0.0
 11
2981.2389610434
 21
4701.5695493553
 31
0.0
  0
LINE
  5
31C
330
1F
100
AcDbEntity
  8
0
  6
Continuous
 62
     7
370
    25
100
AcDbLine
 10
3006.2389610434
 20
4701.5695493553
 30
0.0
 11
3040.9107389787
 21
4701.5695493553
 31
0.0
  0
LINE
  5
31D
330
1F
100
AcDbEntity
  8
0
  6
Continuous
 62
     7
370
    25
100
AcDbLine
 10
2749.0965606057
 20
4643.8195493553
 30
0.0
 11
2749.0965606057
 21
4645.3195493553
 31
0.0
  0
LINE
  5
31E
330
1F
100
AcDbEntity
  8
0
  6
Continuous
 62
     7
370
    25
100
AcDbLine
 10
2749.0965606057
 20
4651.3195493553
 30
0.0
 11
2749.0965606057
 21
4666.5695493553
 31
0.0
  0
LINE
  5
31F
330
1F
100
AcDbEntity
  8
0
  6
Continuous
 62
     7
370
    25
100
AcDbLine
 10
3028.3813614811
 20
4666.5695493553
 30
0.0
 11
3028.3813614811
 21
4651.3195493563
 31
0.0
  0
LINE
  5
320
330
1F
100
AcDbEntity
  8
0
  6
Continuous
 62
     7
370
    25
100
AcDbLine
 10
3028.3813614811
 20
4645.3195493563
 30
0.0
 11
3028.3813614811
 21
4643.8195493553
 31
0.0
  0
ARC
  5
321
330
1F
100
AcDbEntity
  8
0
  6
Continuous
 62
     7
370
    25
100
AcDbCircle
 10
3098.7389610434
 20
4645.8195493553
 30
0.0
 40
12.50000000000045
100
AcDbArc
 50
180.0
 51
237.1401196211
  0
ARC
  5
322
330
1F
100
AcDbEntity
  8
0
  6
Continuous
 62
     7
370
    25
100
AcDbCircle
 10
3098.7389610434
 20
4645.8195493553
 30
0.0
 40
12.50000000000045
100
AcDbArc
 50
302.8598803789
 51
180.0
  0
ARC
  5
323
330
1F
100
AcDbEntity
  8
0
  6
Continuous
 62
     7
370
    25
100
AcDbCircle
 10
2678.7389610434
 20
4645.8195493553
 30
0.0
 40
12.5
100
AcDbArc
 50
302.8598803789
 51
0.0
  0
ARC
  5
324
330
1F
100
AcDbEntity
  8
0
  6
Continuous
 62
     7
370
    25
100
AcDbCircle
 10
2678.7389610434
 20
4645.8195493553
 30
0.0
 40
12.5
100
AcDbArc
 50
0.0
 51
237.1401196211
  0
LINE
  5
325
330
1F
100
AcDbEntity
  8
0
  6
Continuous
 62
     7
370
    25
100
AcDbLine
 10
3138.7389610434
 20
4695.8195493553
 30
0.0
 11
3039.6759167719
 21
4695.8195493553
 31
0.0
  0
LINE
  5
326
330
1F
100
AcDbEntity
  8
0
  6
Continuous
 62
     7
370
    25
100
AcDbLine
 10
3138.7389610434
 20
4635.3195493553
 30
0.0
 11
3138.7389610434
 21
4695.8195493553
 31
0.0
  0
LINE
  5
327
330
1F
100
AcDbEntity
  8
0
  6
Continuous
 62
     7
370
    25
100
AcDbLine
 10
2638.7389610434
 20
4635.3195493553
 30
0.0
 11
2638.7389610434
 21
4695.8195493553
 31
0.0
  0
LINE
  5
328
330
1F
100
AcDbEntity
  8
0
  6
Continuous
 62
     7
370
    25
100
AcDbLine
 10
2737.8020053149
 20
4695.8195493553
 30
0.0
 11
2638.7389610434
 21
4695.8195493553
 31
0.0
  0
ARC
  5
329
330
1F
100
AcDbEntity
  8
0
  6
Continuous
 62
     7
370
    25
100
AcDbCircle
 10
2888.7389610434
 20
4645.8195493553
 30
0.0
 40
20.00000000000057
100
AcDbArc
 50
0.0
 51
211.6682432535
  0
LWPOLYLINE
  5
32A
330
1F
100
AcDbEntity
  8
0
  6
Continuous
 62
     7
370
    25
100
AcDbPolyline
 90
        3
 70
   128
 43
0.0
 10
2905.7610055739
 20
4635.3195493553
 10
2907.8504171591
 20
4639.924445867
 10
2908.7389610434
 20
4645.8195493553
  0
LINE
  5
32B
330
1F
100
AcDbEntity
  8
0
  6
Continuous
 62
     7
370
    25
100
AcDbLine
 10
2748.7389610434
 20
4643.8195493553
 30
0.0
 11
2748.7389610434
 21
4635.3195493553
 31
0.0
  0
LINE
  5
32C
330
1F
100
AcDbEntity
  8
0
  6
Continuous
 62
     7
370
    25
100
AcDbLine
 10
2843.7389610434
 20
4643.8195493553
 30
0.0
 11
2748.7389610434
 21
4643.8195493553
 31
0.0
  0
ARC
  5
32D
330
1F
100
AcDbEntity
  8
0
  6
Continuous
 62
     7
370
    25
100
AcDbCircle
 10
2843.7389610434
 20
4662.2124064981
 30
0.0
 40
18.39285714285716
100
AcDbArc
 50
270.0
 51
339.9840403971
  0
ARC
  5
32E
330
1F
100
AcDbEntity
  8
0
  6
Continuous
 62
     7
370
    25
100
AcDbCircle
 10
2888.7389610434
 20
4645.8195493553
 30
0.0
 40
29.50000000000032
100
AcDbArc
 50
20.0159596029
 51
159.9840403971
  0
ARC
  5
32F
330
1F
100
AcDbEntity
  8
0
  6
Continuous
 62
     7
370
    25
100
AcDbCircle
 10
2933.7389610434
 20
4662.2124064981
 30
0.0
 40
18.39285714285779
100
AcDbArc
 50
200.0159596029
 51
270.0
  0
LINE
  5
330
330
1F
100
AcDbEntity
  8
0
  6
Continuous
 62
     7
370
    25
100
AcDbLine
 10
3028.7389610434
 20
4643.8195493553
 30
0.0
 11
2933.7389610434
 21
4643.8195493553
 31
0.0
  0
LINE
  5
331
330
1F
100
AcDbEntity
  8
0
  6
Continuous
 62
     7
370
    25
100
AcDbLine
 10
3028.7389610434
 20
4635.3195493553
 30
0.0
 11
3028.7389610434
 21
4643.8195493553
 31
0.0
  0
ARC
  5
332
330
1F
100
AcDbEntity
  8
0
  6
Continuous
 62
     7
370
    25
100
AcDbCircle
 10
2933.7389610434
 20
4662.2124064981
 30
0.0
 40
26.89285714285732
100
AcDbArc
 50
200.0159596029
 51
270.0
  0
ARC
  5
333
330
1F
100
AcDbEntity
  8
0
  6
Continuous
 62
     7
370
    25
100
AcDbCircle
 10
2888.7389610434
 20
4645.8195493553
 30
0.0
 40
21.00000000000005
100
AcDbArc
 50
20.0159596029
 51
159.9840403971
  0
ARC
  5
334
330
1F
100
AcDbEntity
  8
0
  6
Continuous
 62
     7
370
    25
100
AcDbCircle
 10
2843.7389610434
 20
4662.2124064981
 30
0.0
 40
26.892857142857
100
AcDbArc
 50
270.0
 51
339.9840403971
  0
LINE
  5
335
330
1F
100
AcDbEntity
  8
0
  6
Continuous
 62
     7
370
    25
100
AcDbLine
 10
3876.2389610434
 20
4620.3195493553
 30
0.0
 11
1901.2389610434
 21
4620.3195493553
 31
0.0
  0
LINE
  5
336
330
1F
100
AcDbEntity
  8
0
  6
Continuous
 62
     7
370
    25
100
AcDbLine
 10
3876.2389610434
 20
4620.3195493553
 30
0.0
 11
3876.2389610434
 21
4600.3195493553
 31
0.0
  0
LINE
  5
337
330
1F
100
AcDbEntity
  8
0
  6
Continuous
 62
     7
370
    25
100
AcDbLine
 10
3876.2389610434
 20
4600.3195493553
 30
0.0
 11
1901.2389610434
 21
4600.3195493553
 31
0.0
  0
LINE
  5
338
330
1F
100
AcDbEntity
  8
0
  6
Continuous
 62
     7
370
    25
100
AcDbLine
 10
1901.2389610434
 20
4620.3195493553
 30
0.0
 11
1901.2389610434
 21
4600.3195493553
 31
0.0
  0
LINE
  5
339
330
1F
100
AcDbEntity
  8
0
  6
Continuous
 62
     7
370
    25
100
AcDbLine
 10
3876.2389610434
 20
4635.3195493553
 30
0.0
 11
1901.2389610434
 21
4635.3195493553
 31
0.0
  0
LINE
  5
33A
330
1F
100
AcDbEntity
  8
0
  6
Continuous
 62
     7
370
    25
100
AcDbLine
 10
3876.2389610434
 20
4635.3195493553
 30
0.0
 11
3876.2389610434
 21
4620.3195493553
 31
0.0
  0
LINE
  5
33B
330
1F
100
AcDbEntity
  8
0
  6
Continuous
 62
     7
370
    25
100
AcDbLine
 10
1901.2389610434
 20
4635.3195493553
 30
0.0
 11
1901.2389610434
 21
4620.3195493553
 31
0.0
  0
LINE
  5
33C
330
1F
100
AcDbEntity
  8
0
  6
Continuous
 62
     7
370
    25
100
AcDbLine
 10
3876.2389610434
 20
4600.3195493553
 30
0.0
 11
3876.2389610434
 21
4585.3195493553
 31
0.0
  0
LINE
  5
33D
330
1F
100
AcDbEntity
  8
0
  6
Continuous
 62
     7
370
    25
100
AcDbLine
 10
3876.2389610434
 20
4585.3195493553
 30
0.0
 11
1901.2389610434
 21
4585.3195493553
 31
0.0
  0
LINE
  5
33E
330
1F
100
AcDbEntity
  8
0
  6
Continuous
 62
     7
370
    25
100
AcDbLine
 10
1901.2389610434
 20
4600.3195493553
 30
0.0
 11
1901.2389610434
 21
4585.3195493553
 31
0.0
  0
LINE
  5
33F
330
1F
100
AcDbEntity
  8
0
  6
Continuous
 62
     7
370
    25
100
AcDbLine
 10
2488.7389610434
 20
4113.8195493553
 30
0.0
 11
2513.7389610434
 21
4113.8195493553
 31
0.0
  0
LINE
  5
340
330
1F
100
AcDbEntity
  8
0
  6
Continuous
 62
     7
370
    25
100
AcDbLine
 10
2463.7389610434
 20
4113.8195493553
 30
0.0
 11
2488.7389610434
 21
4113.8195493553
 31
0.0
  0
LINE
  5
341
330
1F
100
AcDbEntity
  8
0
  6
Continuous
 62
     7
370
    25
100
AcDbLine
 10
3288.7389610434
 20
4113.8195493553
 30
0.0
 11
3313.7389610434
 21
4113.8195493553
 31
0.0
  0
LINE
  5
342
330
1F
100
AcDbEntity
  8
0
  6
Continuous
 62
     7
370
    25
100
AcDbLine
 10
3263.7389610434
 20
4113.8195493553
 30
0.0
 11
3288.7389610434
 21
4113.8195493553
 31
0.0
  0
LINE
  5
343
330
1F
100
AcDbEntity
  8
0
  6
Continuous
 62
     7
370
    25
100
AcDbLine
 10
4138.7389610434
 20
4727.8195493553
 30
0.0
 11
4123.7389610434
 21
4727.8195493553
 31
0.0
  0
LINE
  5
344
330
1F
100
AcDbEntity
  8
0
  6
Continuous
 62
     7
370
    25
100
AcDbLine
 10
4138.7389610434
 20
4727.8195493553
 30
0.0
 11
4138.7389610434
 21
4577.8195493553
 31
0.0
  0
LINE
  5
345
330
1F
100
AcDbEntity
  8
0
  6
Continuous
 62
     7
370
    25
100
AcDbLine
 10
4138.7389610434
 20
4577.8195493553
 30
0.0
 11
4123.7389610434
 21
4577.8195493553
 31
0.0
  0
LINE
  5
346
330
1F
100
AcDbEntity
  8
0
  6
Continuous
 62
     7
370
    25
100
AcDbLine
 10
4123.7389610434
 20
4727.8195493553
 30
0.0
 11
4123.7389610434
 21
4577.8195493553
 31
0.0
  0
LINE
  5
347
330
1F
100
AcDbEntity
  8
0
  6
Continuous
 62
     7
370
    25
100
AcDbLine
 10
3876.2389610434
 20
4592.8195493553
 30
0.0
 11
4123.7389610434
 21
4592.8195493553
 31
0.0
  0
LINE
  5
348
330
1F
100
AcDbEntity
  8
0
  6
Continuous
 62
     7
370
    25
100
AcDbLine
 10
3876.2389610434
 20
4607.8195493553
 30
0.0
 11
4123.7389610434
 21
4607.8195493553
 31
0.0
  0
LINE
  5
349
330
1F
100
AcDbEntity
  8
0
  6
Continuous
 62
     7
370
    25
100
AcDbLine
 10
3571.2389610434
 20
4732.8195493553
 30
0.0
 11
3546.2389610434
 21
4732.8195493553
 31
0.0
  0
LINE
  5
34A
330
1F
100
AcDbEntity
  8
0
  6
Continuous
 62
     7
370
    25
100
AcDbLine
 10
3668.7389610434
 20
4635.3195493553
 30
0.0
 11
3668.7389610434
 21
4670.3195493553
 31
0.0
  0
LINE
  5
34B
330
1F
100
AcDbEntity
  8
0
  6
Continuous
 62
     7
370
    25
100
AcDbLine
 10
3668.7389610434
 20
4670.3195493553
 30
0.0
 11
4123.7389610434
 21
4670.3195493553
 31
0.0
  0
LINE
  5
34C
330
1F
100
AcDbEntity
  8
0
  6
Continuous
 62
     7
370
    25
100
AcDbLine
 10
3163.7389610434
 20
4635.3195493553
 30
0.0
 11
3163.7389610434
 21
4737.8195493553
 31
0.0
  0
LINE
  5
34D
330
1F
100
AcDbEntity
  8
0
  6
Continuous
 62
     7
370
    25
100
AcDbLine
 10
4123.7389610434
 20
4727.8195493553
 30
0.0
 11
4123.7389610434
 21
4737.8195493553
 31
0.0
  0
LINE
  5
34E
330
1F
100
AcDbEntity
  8
0
  6
Continuous
 62
     7
370
    25
100
AcDbLine
 10
3163.7389610434
 20
4737.8195493553
 30
0.0
 11
3163.7389610434
 21
4752.8195493553
 31
0.0
  0
LINE
  5
34F
330
1F
100
AcDbEntity
  8
0
  6
Continuous
 62
     7
370
    25
100
AcDbLine
 10
3163.7389610434
 20
4752.8195493553
 30
0.0
 11
3188.7389610434
 21
4752.8195493553
 31
0.0
  0
LINE
  5
350
330
1F
100
AcDbEntity
  8
0
  6
Continuous
 62
     7
370
    25
100
AcDbLine
 10
3288.7389610434
 20
4752.8195493553
 30
0.0
 11
4123.7389610434
 21
4752.8195493553
 31
0.0
  0
LINE
  5
351
330
1F
100
AcDbEntity
  8
0
  6
Continuous
 62
     7
370
    25
100
AcDbLine
 10
4123.7389610434
 20
4737.8195493553
 30
0.0
 11
4123.7389610434
 21
4752.8195493553
 31
0.0
  0
LINE
  5
352
330
1F
100
AcDbEntity
  8
0
  6
Continuous
 62
     7
370
    25
100
AcDbLine
 10
3163.7389610434
 20
4577.8195493553
 30
0.0
 11
3163.7389610434
 21
4585.3195493553
 31
0.0
  0
LINE
  5
353
330
1F
100
AcDbEntity
  8
0
  6
Continuous
 62
     7
370
    25
100
AcDbLine
 10
3163.7389610434
 20
4577.8195493553
 30
0.0
 11
3256.0472189668
 21
4577.8195493553
 31
0.0
  0
LINE
  5
354
330
1F
100
AcDbEntity
  8
0
  6
Continuous
 62
     7
370
    25
100
AcDbLine
 10
3321.4307031199
 20
4577.8195493553
 30
0.0
 11
4123.7389610434
 21
4577.8195493553
 31
0.0
  0
LINE
  5
355
330
1F
100
AcDbEntity
  8
0
  6
Continuous
 62
     7
370
    25
100
AcDbLine
 10
1638.7389610434
 20
4577.8195493553
 30
0.0
 11
1653.7389610434
 21
4577.8195493553
 31
0.0
  0
LINE
  5
356
330
1F
100
AcDbEntity
  8
0
  6
Continuous
 62
     7
370
    25
100
AcDbLine
 10
1638.7389610434
 20
4727.8195493553
 30
0.0
 11
1653.7389610434
 21
4727.8195493553
 31
0.0
  0
LINE
  5
357
330
1F
100
AcDbEntity
  8
0
  6
Continuous
 62
     7
370
    25
100
AcDbLine
 10
1638.7389610434
 20
4727.8195493553
 30
0.0
 11
1638.7389610434
 21
4577.8195493553
 31
0.0
  0
LINE
  5
358
330
1F
100
AcDbEntity
  8
0
  6
Continuous
 62
     7
370
    25
100
AcDbLine
 10
1653.7389610434
 20
4727.8195493553
 30
0.0
 11
1653.7389610434
 21
4577.8195493553
 31
0.0
  0
LINE
  5
359
330
1F
100
AcDbEntity
  8
0
  6
Continuous
 62
     7
370
    25
100
AcDbLine
 10
1901.2389610434
 20
4592.8195493553
 30
0.0
 11
1653.7389610434
 21
4592.8195493553
 31
0.0
  0
LINE
  5
35A
330
1F
100
AcDbEntity
  8
0
  6
Continuous
 62
     7
370
    25
100
AcDbLine
 10
1901.2389610434
 20
4607.8195493553
 30
0.0
 11
1653.7389610434
 21
4607.8195493553
 31
0.0
  0
LINE
  5
35B
330
1F
100
AcDbEntity
  8
0
  6
Continuous
 62
     7
370
    25
100
AcDbLine
 10
2206.2389610434
 20
4732.8195493553
 30
0.0
 11
2231.2389610434
 21
4732.8195493553
 31
0.0
  0
LINE
  5
35C
330
1F
100
AcDbEntity
  8
0
  6
Continuous
 62
     7
370
    25
100
AcDbLine
 10
2108.7389610434
 20
4635.3195493553
 30
0.0
 11
2108.7389610434
 21
4670.3195493553
 31
0.0
  0
LINE
  5
35D
330
1F
100
AcDbEntity
  8
0
  6
Continuous
 62
     7
370
    25
100
AcDbLine
 10
2108.7389610434
 20
4670.3195493553
 30
0.0
 11
1653.7389610434
 21
4670.3195493553
 31
0.0
  0
LINE
  5
35E
330
1F
100
AcDbEntity
  8
0
  6
Continuous
 62
     7
370
    25
100
AcDbLine
 10
1653.7389610434
 20
4727.8195493553
 30
0.0
 11
1653.7389610434
 21
4737.8195493553
 31
0.0
  0
LINE
  5
35F
330
1F
100
AcDbEntity
  8
0
  6
Continuous
 62
     7
370
    25
100
AcDbLine
 10
2613.7389610434
 20
4635.3195493553
 30
0.0
 11
2613.7389610434
 21
4737.8195493553
 31
0.0
  0
LINE
  5
360
330
1F
100
AcDbEntity
  8
0
  6
Continuous
 62
     7
370
    25
100
AcDbLine
 10
2613.7389610434
 20
4752.8195493553
 30
0.0
 11
2565.5116197402
 21
4752.8195493553
 31
0.0
  0
LINE
  5
361
330
1F
100
AcDbEntity
  8
0
  6
Continuous
 62
     7
370
    25
100
AcDbLine
 10
2465.5116197402
 20
4752.8195493553
 30
0.0
 11
1653.7389610434
 21
4752.8195493553
 31
0.0
  0
LINE
  5
362
330
1F
100
AcDbEntity
  8
0
  6
Continuous
 62
     7
370
    25
100
AcDbLine
 10
1653.7389610434
 20
4737.8195493553
 30
0.0
 11
1653.7389610434
 21
4752.8195493553
 31
0.0
  0
LINE
  5
363
330
1F
100
AcDbEntity
  8
0
  6
Continuous
 62
     7
370
    25
100
AcDbLine
 10
2613.7389610434
 20
4737.8195493553
 30
0.0
 11
2613.7389610434
 21
4752.8195493553
 31
0.0
  0
LINE
  5
364
330
1F
100
AcDbEntity
  8
0
  6
Continuous
 62
     7
370
    25
100
AcDbLine
 10
2613.7389610434
 20
4577.8195493553
 30
0.0
 11
2613.7389610434
 21
4585.3195493553
 31
0.0
  0
LINE
  5
365
330
1F
100
AcDbEntity
  8
0
  6
Continuous
 62
     7
370
    25
100
AcDbLine
 10
2613.7389610434
 20
4577.8195493553
 30
0.0
 11
2521.4307031199
 21
4577.8195493553
 31
0.0
  0
LINE
  5
366
330
1F
100
AcDbEntity
  8
0
  6
Continuous
 62
     7
370
    25
100
AcDbLine
 10
2456.0472189668
 20
4577.8195493553
 30
0.0
 11
1653.7389610434
 21
4577.8195493553
 31
0.0
  0
LINE
  5
367
330
1F
100
AcDbEntity
  8
0
  6
Continuous
 62
     7
370
    25
100
AcDbLine
 10
2515.5116197402
 20
4732.8195493553
 30
0.0
 11
2528.0116197402
 21
4732.8195493553
 31
0.0
  0
LINE
  5
368
330
1F
100
AcDbEntity
  8
0
  6
Continuous
 62
     7
370
    25
100
AcDbLine
 10
2503.0116197402
 20
4732.8195493553
 30
0.0
 11
2515.5116197402
 21
4732.8195493553
 31
0.0
  0
LINE
  5
369
330
1F
100
AcDbEntity
  8
0
  6
Continuous
 62
     7
370
    25
100
AcDbLine
 10
3238.7389610434
 20
4732.8195493553
 30
0.0
 11
3251.2389610434
 21
4732.8195493553
 31
0.0
  0
LINE
  5
36A
330
1F
100
AcDbEntity
  8
0
  6
Continuous
 62
     7
370
    25
100
AcDbLine
 10
3226.2389610434
 20
4732.8195493553
 30
0.0
 11
3238.7389610434
 21
4732.8195493553
 31
0.0
  0
LINE
  5
36B
330
1F
100
AcDbEntity
  8
0
  6
Continuous
 62
     7
370
    25
100
AcDbLine
 10
2993.7389610434
 20
4732.8195493553
 30
0.0
 11
3006.2389610434
 21
4732.8195493553
 31
0.0
  0
LINE
  5
36C
330
1F
100
AcDbEntity
  8
0
  6
Continuous
 62
     7
370
    25
100
AcDbLine
 10
2981.2389610434
 20
4732.8195493553
 30
0.0
 11
2993.7389610434
 21
4732.8195493553
 31
0.0
  0
LINE
  5
36D
330
1F
100
AcDbEntity
  8
0
  6
Continuous
 62
     7
370
    25
100
AcDbLine
 10
2783.7389610434
 20
4732.8195493553
 30
0.0
 11
2796.2389610434
 21
4732.8195493553
 31
0.0
  0
LINE
  5
36E
330
1F
100
AcDbEntity
  8
0
  6
Continuous
 62
     7
370
    25
100
AcDbLine
 10
2771.2389610434
 20
4732.8195493553
 30
0.0
 11
2783.7389610434
 21
4732.8195493553
 31
0.0
  0
LINE
  5
36F
330
1F
100
AcDbEntity
  8
0
  6
Continuous
 62
     8
370
    25
100
AcDbLine
 10
2465.5116197402
 20
4650.3195493553
 30
0.0
 11
2478.0116197402
 21
4650.3195493553
 31
0.0
  0
LINE
  5
370
330
1F
100
AcDbEntity
  8
0
  6
Continuous
 62
     8
370
    25
100
AcDbLine
 10
2553.0116197402
 20
4650.3195493553
 30
0.0
 11
2565.5116197402
 21
4650.3195493553
 31
0.0
  0
LINE
  5
371
330
1F
100
AcDbEntity
  8
0
  6
Continuous
 62
     8
370
    25
100
AcDbLine
 10
3188.7389610434
 20
4650.3195493553
 30
0.0
 11
3201.2389610434
 21
4650.3195493553
 31
0.0
  0
LINE
  5
372
330
1F
100
AcDbEntity
  8
0
  6
Continuous
 62
     8
370
    25
100
AcDbLine
 10
3276.2389610434
 20
4650.3195493553
 30
0.0
 11
3288.7389610434
 21
4650.3195493553
 31
0.0
  0
LINE
  5
373
330
1F
100
AcDbEntity
  8
0
  6
Continuous
 62
     8
370
    25
100
AcDbLine
 10
3163.7389610434
 20
4737.8195493553
 30
0.0
 11
3188.7389610434
 21
4737.8195493553
 31
0.0
  0
LINE
  5
374
330
1F
100
AcDbEntity
  8
0
  6
Continuous
 62
     8
370
    25
100
AcDbLine
 10
3288.7389610434
 20
4737.8195493553
 30
0.0
 11
4123.7389610434
 21
4737.8195493553
 31
0.0
  0
LINE
  5
375
330
1F
100
AcDbEntity
  8
0
  6
Continuous
 62
     8
370
    25
100
AcDbLine
 10
2613.7389610434
 20
4737.8195493553
 30
0.0
 11
2565.5116197402
 21
4737.8195493553
 31
0.0
  0
LINE
  5
376
330
1F
100
AcDbEntity
  8
0
  6
Continuous
 62
     8
370
    25
100
AcDbLine
 10
2465.5116197402
 20
4737.8195493553
 30
0.0
 11
1653.7389610434
 21
4737.8195493553
 31
0.0
  0
ENDSEC
  0
SECTION
  2
OBJECTS
  0
DICTIONARY
  5
C
330
0
100
AcDbDictionary
281
     1
  3
ACAD_GROUP
350
D
  3
ACAD_LAYOUT
350
1A
  3
ACAD_MLINESTYLE
350
17
  3
ACAD_PLOTSETTINGS
350
19
  3
ACAD_PLOTSTYLENAME
350
E
  3
ACAD_SCALELIST
350
47
  3
DWGPROPS
350
377
  0
DICTIONARY
  5
D
102
{ACAD_REACTORS
330
C
102
}
330
C
100
AcDbDictionary
281
     1
  0
DICTIONARY
  5
1A
102
{ACAD_REACTORS
330
C
102
}
330
C
100
AcDbDictionary
281
     1
  3
Layout1
350
1E
  3
Layout2
350
26
  3
Model
350
22
  0
DICTIONARY
  5
17
102
{ACAD_REACTORS
330
C
102
}
330
C
100
AcDbDictionary
281
     1
  3
Standard
350
18
  0
DICTIONARY
  5
19
102
{ACAD_REACTORS
330
C
102
}
330
C
100
AcDbDictionary
281
     1
  0
ACDBDICTIONARYWDFLT
  5
E
102
{ACAD_REACTORS
330
C
102
}
330
C
100
AcDbDictionary
281
     1
  3
Normal
350
F
100
AcDbDictionaryWithDefault
340
F
  0
DICTIONARY
  5
47
102
{ACAD_REACTORS
330
C
102
}
330
C
100
AcDbDictionary
281
     1
  3
A0
350
48
  3
A1
350
49
  3
A2
350
4A
  3
A3
350
4B
  3
A4
350
4C
  3
A5
350
4D
  3
A6
350
4E
  3
A7
350
4F
  3
A8
350
50
  3
A9
350
51
  3
B0
350
52
  3
B1
350
53
  3
B2
350
54
  3
B3
350
55
  3
B4
350
56
  3
B5
350
57
  3
B6
350
58
  3
B7
350
59
  3
B8
350
5A
  3
B9
350
5B
  3
C0
350
5C
  3
C1
350
5D
  3
C2
350
5E
  3
C3
350
5F
  3
C4
350
60
  3
C5
350
61
  3
C6
350
62
  3
C7
350
63
  3
C8
350
64
  3
C9
350
65
  3
D0
350
66
  3
D1
350
67
  3
D2
350
68
  0
XRECORD
  5
377
102
{ACAD_REACTORS
330
C
102
}
330
C
100
AcDbXrecord
280
     1
  1
DWGPROPS COOKIE
  2

  3

  4

  6

  7

  8
radek.stransky
  9

300
=
301
=
302
=
303
=
304
=
305
=
306
=
307
=
308
=
309
=
 40
0.0
 41
2459094.534320671
 42
2459094.534321018
  1

 90
        0
  0
LAYOUT
  5
1E
102
{ACAD_REACTORS
330
1A
102
}
330
1A
100
AcDbPlotSettings
  1

  2
none_device
  4

  6

 40
0.0
 41
0.0
 42
0.0
 43
0.0
 44
0.0
 45
0.0
 46
0.0
 47
0.0
 48
0.0
 49
0.0
140
0.0
141
0.0
142
1.0
143
1.0
 70
   688
 72
     1
 73
     0
 74
     5
  7

 75
    16
147
1.0
148
0.0
149
0.0
100
AcDbLayout
  1
Layout1
 70
     1
 71
     1
 10
0.0
 20
0.0
 11
420.0
 21
297.0
 12
0.0
 22
0.0
 32
0.0
 14
1.0000000000E+20
 24
1.0000000000E+20
 34
1.0000000000E+20
 15
-1.0000000000E+20
 25
-1.0000000000E+20
 35
-1.0000000000E+20
146
0.0
 13
0.0
 23
0.0
 33
0.0
 16
1.0
 26
0.0
 36
0.0
 17
0.0
 27
1.0
 37
0.0
 76
     0
330
1B
  0
LAYOUT
  5
26
102
{ACAD_REACTORS
330
1A
102
}
330
1A
100
AcDbPlotSettings
  1

  2
none_device
  4

  6

 40
0.0
 41
0.0
 42
0.0
 43
0.0
 44
0.0
 45
0.0
 46
0.0
 47
0.0
 48
0.0
 49
0.0
140
0.0
141
0.0
142
1.0
143
1.0
 70
   688
 72
     1
 73
     0
 74
     5
  7

 75
    16
147
1.0
148
0.0
149
0.0
100
AcDbLayout
  1
Layout2
 70
     1
 71
     2
 10
0.0
 20
0.0
 11
0.0
 21
0.0
 12
0.0
 22
0.0
 32
0.0
 14
0.0
 24
0.0
 34
0.0
 15
0.0
 25
0.0
 35
0.0
146
0.0
 13
0.0
 23
0.0
 33
0.0
 16
1.0
 26
0.0
 36
0.0
 17
0.0
 27
1.0
 37
0.0
 76
     0
330
23
  0
LAYOUT
  5
22
102
{ACAD_REACTORS
330
1A
102
}
330
1A
100
AcDbPlotSettings
  1

  2
none_device
  4
Letter_(8.50_x_11.00_Inches)
  6

 40
6.35
 41
6.35
 42
6.35000508
 43
6.35000508
 44
215.9
 45
279.4
 46
0.0
 47
0.0
 48
0.0
 49
0.0
140
0.0
141
0.0
142
1.0
143
1.0
 70
  1712
 72
     1
 73
     0
 74
     0
  7

 75
     0
147
1.0
148
0.0
149
0.0
100
AcDbLayout
  1
Model
 70
     1
 71
     0
 10
0.0
 20
0.0
 11
20000.0
 21
10000.0
 12
0.0
 22
0.0
 32
0.0
 14
0.0
 24
0.0
 34
0.0
 15
20000.0
 25
10000.0
 35
0.0
146
0.0
 13
0.0
 23
0.0
 33
0.0
 16
1.0
 26
0.0
 36
0.0
 17
0.0
 27
1.0
 37
0.0
 76
     0
330
1F
331
29
  0
MLINESTYLE
  5
18
102
{ACAD_REACTORS
330
17
102
}
330
17
100
AcDbMlineStyle
  2
Standard
 70
     0
  3

 62
   256
 51
90.0
 52
90.0
 71
     2
 49
0.5
 62
   256
  6
BYLAYER
 49
-0.5
 62
   256
  6
BYLAYER
  0
ACDBPLACEHOLDER
  5
F
102
{ACAD_REACTORS
330
E
102
}
330
E
  0
SCALE
  5
48
102
{ACAD_REACTORS
330
47
102
}
330
47
100
AcDbScale
 70
     0
300
1:1
140
1.0
141
1.0
290
     1
  0
SCALE
  5
49
102
{ACAD_REACTORS
330
47
102
}
330
47
100
AcDbScale
 70
     0
300
1:2
140
1.0
141
2.0
290
     0
  0
SCALE
  5
4A
102
{ACAD_REACTORS
330
47
102
}
330
47
100
AcDbScale
 70
     0
300
1:4
140
1.0
141
4.0
290
     0
  0
SCALE
  5
4B
102
{ACAD_REACTORS
330
47
102
}
330
47
100
AcDbScale
 70
     0
300
1:5
140
1.0
141
5.0
290
     0
  0
SCALE
  5
4C
102
{ACAD_REACTORS
330
47
102
}
330
47
100
AcDbScale
 70
     0
300
1:8
140
1.0
141
8.0
290
     0
  0
SCALE
  5
4D
102
{ACAD_REACTORS
330
47
102
}
330
47
100
AcDbScale
 70
     0
300
1:10
140
1.0
141
10.0
290
     0
  0
SCALE
  5
4E
102
{ACAD_REACTORS
330
47
102
}
330
47
100
AcDbScale
 70
     0
300
1:16
140
1.0
141
16.0
290
     0
  0
SCALE
  5
4F
102
{ACAD_REACTORS
330
47
102
}
330
47
100
AcDbScale
 70
     0
300
1:20
140
1.0
141
20.0
290
     0
  0
SCALE
  5
50
102
{ACAD_REACTORS
330
47
102
}
330
47
100
AcDbScale
 70
     0
300
1:30
140
1.0
141
30.0
290
     0
  0
SCALE
  5
51
102
{ACAD_REACTORS
330
47
102
}
330
47
100
AcDbScale
 70
     0
300
1:40
140
1.0
141
40.0
290
     0
  0
SCALE
  5
52
102
{ACAD_REACTORS
330
47
102
}
330
47
100
AcDbScale
 70
     0
300
1:50
140
1.0
141
50.0
290
     0
  0
SCALE
  5
53
102
{ACAD_REACTORS
330
47
102
}
330
47
100
AcDbScale
 70
     0
300
1:100
140
1.0
141
100.0
290
     0
  0
SCALE
  5
54
102
{ACAD_REACTORS
330
47
102
}
330
47
100
AcDbScale
 70
     0
300
2:1
140
2.0
141
1.0
290
     0
  0
SCALE
  5
55
102
{ACAD_REACTORS
330
47
102
}
330
47
100
AcDbScale
 70
     0
300
4:1
140
4.0
141
1.0
290
     0
  0
SCALE
  5
56
102
{ACAD_REACTORS
330
47
102
}
330
47
100
AcDbScale
 70
     0
300
8:1
140
8.0
141
1.0
290
     0
  0
SCALE
  5
57
102
{ACAD_REACTORS
330
47
102
}
330
47
100
AcDbScale
 70
     0
300
10:1
140
10.0
141
1.0
290
     0
  0
SCALE
  5
58
102
{ACAD_REACTORS
330
47
102
}
330
47
100
AcDbScale
 70
     0
300
100:1
140
100.0
141
1.0
290
     0
  0
SCALE
  5
59
102
{ACAD_REACTORS
330
47
102
}
330
47
100
AcDbScale
 70
     0
300
1/128" = 1'-0"
140
0.0078125
141
12.0
290
     0
  0
SCALE
  5
5A
102
{ACAD_REACTORS
330
47
102
}
330
47
100
AcDbScale
 70
     0
300
1/64" = 1'-0"
140
0.015625
141
12.0
290
     0
  0
SCALE
  5
5B
102
{ACAD_REACTORS
330
47
102
}
330
47
100
AcDbScale
 70
     0
300
1/32" = 1'-0"
140
0.03125
141
12.0
290
     0
  0
SCALE
  5
5C
102
{ACAD_REACTORS
330
47
102
}
330
47
100
AcDbScale
 70
     0
300
1/16" = 1'-0"
140
0.0625
141
12.0
290
     0
  0
SCALE
  5
5D
102
{ACAD_REACTORS
330
47
102
}
330
47
100
AcDbScale
 70
     0
300
3/32" = 1'-0"
140
0.09375
141
12.0
290
     0
  0
SCALE
  5
5E
102
{ACAD_REACTORS
330
47
102
}
330
47
100
AcDbScale
 70
     0
300
1/8" = 1'-0"
140
0.125
141
12.0
290
     0
  0
SCALE
  5
5F
102
{ACAD_REACTORS
330
47
102
}
330
47
100
AcDbScale
 70
     0
300
3/16" = 1'-0"
140
0.1875
141
12.0
290
     0
  0
SCALE
  5
60
102
{ACAD_REACTORS
330
47
102
}
330
47
100
AcDbScale
 70
     0
300
1/4" = 1'-0"
140
0.25
141
12.0
290
     0
  0
SCALE
  5
61
102
{ACAD_REACTORS
330
47
102
}
330
47
100
AcDbScale
 70
     0
300
3/8" = 1'-0"
140
0.375
141
12.0
290
     0
  0
SCALE
  5
62
102
{ACAD_REACTORS
330
47
102
}
330
47
100
AcDbScale
 70
     0
300
1/2" = 1'-0"
140
0.5
141
12.0
290
     0
  0
SCALE
  5
63
102
{ACAD_REACTORS
330
47
102
}
330
47
100
AcDbScale
 70
     0
300
3/4" = 1'-0"
140
0.75
141
12.0
290
     0
  0
SCALE
  5
64
102
{ACAD_REACTORS
330
47
102
}
330
47
100
AcDbScale
 70
     0
300
1" = 1'-0"
140
1.0
141
12.0
290
     0
  0
SCALE
  5
65
102
{ACAD_REACTORS
330
47
102
}
330
47
100
AcDbScale
 70
     0
300
1-1/2" = 1'-0"
140
1.5
141
12.0
290
     0
  0
SCALE
  5
66
102
{ACAD_REACTORS
330
47
102
}
330
47
100
AcDbScale
 70
     0
300
3" = 1'-0"
140
3.0
141
12.0
290
     0
  0
SCALE
  5
67
102
{ACAD_REACTORS
330
47
102
}
330
47
100
AcDbScale
 70
     0
300
6" = 1'-0"
140
6.0
141
12.0
290
     0
  0
SCALE
  5
68
102
{ACAD_REACTORS
330
47
102
}
330
47
100
AcDbScale
 70
     0
300
1'-0" = 1'-0"
140
12.0
141
12.0
290
     0
  0
ENDSEC
  0
EOF
