  0
SECTION
  2
HEADER
  9
$ACADVER
  1
AC1015
  9
$ACADMAINTVER
 70
     6
  9
$DWGCODEPAGE
  3
ANSI_1250
  9
$INSBASE
 10
0.0
 20
0.0
 30
0.0
  9
$EXTMIN
 10
0.0
 20
0.0
 30
0.0
  9
$EXTMAX
 10
20000.0
 20
10000.0
 30
0.0
  9
$LIMMIN
 10
0.0
 20
0.0
  9
$LIMMAX
 10
20000.0
 20
10000.0
  9
$ORTHOMODE
 70
     0
  9
$REGENMODE
 70
     1
  9
$FILLMODE
 70
     1
  9
$QTEXTMODE
 70
     0
  9
$MIRRTEXT
 70
     1
  9
$LTSCALE
 40
1.0
  9
$ATTMODE
 70
     1
  9
$TEXTSIZE
 40
2.0
  9
$TRACEWID
 40
1.0
  9
$TEXTSTYLE
  7
Standard
  9
$CLAYER
  8
0
  9
$CELTYPE
  6
ByLayer
  9
$CECOLOR
 62
   256
  9
$CELTSCALE
 40
1.0
  9
$DISPSILH
 70
     0
  9
$DIMSCALE
 40
1.0
  9
$DIMASZ
 40
2.0
  9
$DIMEXO
 40
1.0
  9
$DIMDLI
 40
3.75
  9
$DIMRND
 40
0.0
  9
$DIMDLE
 40
0.0
  9
$DIMEXE
 40
1.0
  9
$DIMTP
 40
0.0
  9
$DIMTM
 40
0.0
  9
$DIMTXT
 40
2.0
  9
$DIMCEN
 40
2.5
  9
$DIMTSZ
 40
0.0
  9
$DIMTOL
 70
     0
  9
$DIMLIM
 70
     0
  9
$DIMTIH
 70
     1
  9
$DIMTOH
 70
     1
  9
$DIMSE1
 70
     0
  9
$DIMSE2
 70
     0
  9
$DIMTAD
 70
     1
  9
$DIMZIN
 70
     0
  9
$DIMBLK
  1

  9
$DIMASO
 70
     1
  9
$DIMSHO
 70
     1
  9
$DIMPOST
  1

  9
$DIMAPOST
  1

  9
$DIMALT
 70
     0
  9
$DIMALTD
 70
     3
  9
$DIMALTF
 40
0.0393700787
  9
$DIMLFAC
 40
1.0
  9
$DIMTOFL
 70
     1
  9
$DIMTVP
 40
0.0
  9
$DIMTIX
 70
     0
  9
$DIMSOXD
 70
     0
  9
$DIMSAH
 70
     0
  9
$DIMBLK1
  1

  9
$DIMBLK2
  1

  9
$DIMSTYLE
  2
ISO-25
  9
$DIMCLRD
 70
     0
  9
$DIMCLRE
 70
     0
  9
$DIMCLRT
 70
     0
  9
$DIMTFAC
 40
1.0
  9
$DIMGAP
 40
1.524
  9
$DIMJUST
 70
     0
  9
$DIMSD1
 70
     0
  9
$DIMSD2
 70
     0
  9
$DIMTOLJ
 70
     0
  9
$DIMTZIN
 70
     0
  9
$DIMALTZ
 70
     0
  9
$DIMALTTZ
 70
     0
  9
$DIMUPT
 70
     0
  9
$DIMDEC
 70
     2
  9
$DIMTDEC
 70
     0
  9
$DIMALTU
 70
     2
  9
$DIMALTTD
 70
     3
  9
$DIMTXSTY
  7
Standard
  9
$DIMAUNIT
 70
     0
  9
$DIMADEC
 70
     2
  9
$DIMALTRND
 40
0.0
  9
$DIMAZIN
 70
     0
  9
$DIMDSEP
 70
    44
  9
$DIMATFIT
 70
     3
  9
$DIMFRAC
 70
     0
  9
$DIMLDRBLK
  1

  9
$DIMLUNIT
 70
     2
  9
$DIMLWD
 70
    -2
  9
$DIMLWE
 70
    -2
  9
$DIMTMOVE
 70
     0
  9
$LUNITS
 70
     2
  9
$LUPREC
 70
     3
  9
$SKETCHINC
 40
1.0
  9
$FILLETRAD
 40
10.0
  9
$AUNITS
 70
     0
  9
$AUPREC
 70
     2
  9
$MENU
  1
.
  9
$ELEVATION
 40
0.0
  9
$PELEVATION
 40
0.0
  9
$THICKNESS
 40
0.0
  9
$LIMCHECK
 70
     0
  9
$CHAMFERA
 40
0.0
  9
$CHAMFERB
 40
0.0
  9
$CHAMFERC
 40
0.0
  9
$CHAMFERD
 40
0.0
  9
$SKPOLY
 70
     0
  9
$TDCREATE
 40
2458697.618584757
  9
$TDUCREATE
 40
2458697.535251424
  9
$TDUPDATE
 40
2458697.618585035
  9
$TDUUPDATE
 40
2458697.535251701
  9
$TDINDWG
 40
0.0000000116
  9
$TDUSRTIMER
 40
0.0000000116
  9
$USRTIMER
 70
     1
  9
$ANGBASE
 50
0.0
  9
$ANGDIR
 70
     0
  9
$PDMODE
 70
     0
  9
$PDSIZE
 40
-1.0
  9
$PLINEWID
 40
0.0
  9
$SPLFRAME
 70
     0
  9
$SPLINETYPE
 70
     6
  9
$SPLINESEGS
 70
     8
  9
$HANDSEED
  5
10A
  9
$SURFTAB1
 70
     6
  9
$SURFTAB2
 70
     6
  9
$SURFTYPE
 70
     6
  9
$SURFU
 70
     6
  9
$SURFV
 70
     6
  9
$UCSBASE
  2

  9
$UCSNAME
  2

  9
$UCSORG
 10
0.0
 20
0.0
 30
0.0
  9
$UCSXDIR
 10
1.0
 20
0.0
 30
0.0
  9
$UCSYDIR
 10
0.0
 20
1.0
 30
0.0
  9
$UCSORTHOREF
  2

  9
$UCSORTHOVIEW
 70
     0
  9
$UCSORGTOP
 10
0.0
 20
0.0
 30
0.0
  9
$UCSORGBOTTOM
 10
0.0
 20
0.0
 30
0.0
  9
$UCSORGLEFT
 10
0.0
 20
0.0
 30
0.0
  9
$UCSORGRIGHT
 10
0.0
 20
0.0
 30
0.0
  9
$UCSORGFRONT
 10
0.0
 20
0.0
 30
0.0
  9
$UCSORGBACK
 10
0.0
 20
0.0
 30
0.0
  9
$PUCSBASE
  2

  9
$PUCSNAME
  2

  9
$PUCSORG
 10
0.0
 20
0.0
 30
0.0
  9
$PUCSXDIR
 10
1.0
 20
0.0
 30
0.0
  9
$PUCSYDIR
 10
0.0
 20
1.0
 30
0.0
  9
$PUCSORTHOREF
  2

  9
$PUCSORTHOVIEW
 70
     0
  9
$PUCSORGTOP
 10
0.0
 20
0.0
 30
0.0
  9
$PUCSORGBOTTOM
 10
0.0
 20
0.0
 30
0.0
  9
$PUCSORGLEFT
 10
0.0
 20
0.0
 30
0.0
  9
$PUCSORGRIGHT
 10
0.0
 20
0.0
 30
0.0
  9
$PUCSORGFRONT
 10
0.0
 20
0.0
 30
0.0
  9
$PUCSORGBACK
 10
0.0
 20
0.0
 30
0.0
  9
$USERI1
 70
     0
  9
$USERI2
 70
     0
  9
$USERI3
 70
     0
  9
$USERI4
 70
     0
  9
$USERI5
 70
     0
  9
$USERR1
 40
0.0
  9
$USERR2
 40
0.0
  9
$USERR3
 40
0.0
  9
$USERR4
 40
0.0
  9
$USERR5
 40
0.0
  9
$WORLDVIEW
 70
     1
  9
$SHADEDGE
 70
     3
  9
$SHADEDIF
 70
    70
  9
$TILEMODE
 70
     1
  9
$MAXACTVP
 70
    64
  9
$PINSBASE
 10
0.0
 20
0.0
 30
0.0
  9
$PLIMCHECK
 70
     0
  9
$PEXTMIN
 10
1.0000000000E+20
 20
1.0000000000E+20
 30
1.0000000000E+20
  9
$PEXTMAX
 10
-1.0000000000E+20
 20
-1.0000000000E+20
 30
-1.0000000000E+20
  9
$PLIMMIN
 10
0.0
 20
0.0
  9
$PLIMMAX
 10
420.0
 20
297.0
  9
$UNITMODE
 70
     0
  9
$VISRETAIN
 70
     1
  9
$PLINEGEN
 70
     0
  9
$PSLTSCALE
 70
     1
  9
$TREEDEPTH
 70
  3020
  9
$CMLSTYLE
  2
Standard
  9
$CMLJUST
 70
     0
  9
$CMLSCALE
 40
20.0
  9
$PROXYGRAPHICS
 70
     1
  9
$MEASUREMENT
 70
     1
  9
$CELWEIGHT
370
    -1
  9
$ENDCAPS
280
     0
  9
$JOINSTYLE
280
     0
  9
$LWDISPLAY
290
     1
  9
$INSUNITS
 70
     4
  9
$HYPERLINKBASE
  1

  9
$STYLESHEET
  1

  9
$XEDIT
290
     1
  9
$CEPSNTYPE
380
     0
  9
$PSTYLEMODE
290
     1
  9
$FINGERPRINTGUID
  2
{A1DD9582-AC25-4CC7-8435-C6B651C3D789}
  9
$VERSIONGUID
  2
{FAEB1C32-E019-11D5-929B-00C0DF256EC4}
  9
$EXTNAMES
290
     1
  9
$PSVPSCALE
 40
0.0
  9
$OLESTARTUP
290
     0
  0
ENDSEC
  0
SECTION
  2
CLASSES
  0
CLASS
  1
ACDBDICTIONARYWDFLT
  2
AcDbDictionaryWithDefault
  3
ObjectDBX Classes
 90
        0
280
     0
281
     0
  0
CLASS
  1
VISUALSTYLE
  2
AcDbVisualStyle
  3
ObjectDBX Classes
 90
     4095
280
     0
281
     0
  0
CLASS
  1
MATERIAL
  2
AcDbMaterial
  3
ObjectDBX Classes
 90
     1153
280
     0
281
     0
  0
CLASS
  1
SCALE
  2
AcDbScale
  3
ObjectDBX Classes
 90
     1153
280
     0
281
     0
  0
CLASS
  1
TABLESTYLE
  2
AcDbTableStyle
  3
ObjectDBX Classes
 90
     4095
280
     0
281
     0
  0
CLASS
  1
MLEADERSTYLE
  2
AcDbMLeaderStyle
  3
ACDB_MLEADERSTYLE_CLASS
 90
     4095
280
     0
281
     0
  0
CLASS
  1
SUN
  2
AcDbSun
  3
SCENEOE
 90
     1153
280
     0
281
     0
  0
CLASS
  1
ACDBPLACEHOLDER
  2
AcDbPlaceHolder
  3
ObjectDBX Classes
 90
        0
280
     0
281
     0
  0
CLASS
  1
LAYOUT
  2
AcDbLayout
  3
ObjectDBX Classes
 90
        0
280
     0
281
     0
  0
ENDSEC
  0
SECTION
  2
TABLES
  0
TABLE
  2
VPORT
  5
8
330
0
100
AcDbSymbolTable
 70
     1
  0
VPORT
  5
29
330
8
100
AcDbSymbolTableRecord
100
AcDbViewportTableRecord
  2
*Active
 70
     0
 10
0.0
 20
0.0
 11
1.0
 21
1.0
 12
10000.0
 22
5000.0
 13
0.0
 23
0.0
 14
10.0
 24
10.0
 15
10.0
 25
10.0
 16
0.0
 26
0.0
 36
1.0
 17
0.0
 27
0.0
 37
0.0
 40
10000.0
 41
2.0
 42
50.0
 43
0.0
 44
0.0
 50
0.0
 51
0.0
 71
     0
 72
  2000
 73
     1
 74
     3
 75
     0
 76
     0
 77
     0
 78
     0
281
     0
 65
     1
110
0.0
120
0.0
130
0.0
111
1.0
121
0.0
131
0.0
112
0.0
122
1.0
132
0.0
 79
     0
146
0.0
  0
ENDTAB
  0
TABLE
  2
LTYPE
  5
5
330
0
100
AcDbSymbolTable
 70
     6
  0
LTYPE
  5
14
330
5
100
AcDbSymbolTableRecord
100
AcDbLinetypeTableRecord
  2
ByBlock
 70
     0
  3

 72
    65
 73
     0
 40
0.0
  0
LTYPE
  5
15
330
5
100
AcDbSymbolTableRecord
100
AcDbLinetypeTableRecord
  2
ByLayer
 70
     0
  3

 72
    65
 73
     0
 40
0.0
  0
LTYPE
  5
16
330
5
100
AcDbSymbolTableRecord
100
AcDbLinetypeTableRecord
  2
Continuous
 70
     0
  3
Solid line
 72
    65
 73
     0
 40
0.0
  0
LTYPE
  5
6E
330
5
100
AcDbSymbolTableRecord
100
AcDbLinetypeTableRecord
  2
HIDDEN
 70
     0
  3
Hidden __ __ __ __ __ __ __ __ __ __ __ __ __ __
 72
    65
 73
     2
 40
1.905
 49
1.27
 74
     0
 49
-0.635
 74
     0
  0
LTYPE
  5
6F
330
5
100
AcDbSymbolTableRecord
100
AcDbLinetypeTableRecord
  2
PHANTOM
 70
     0
  3
Phantom ______  __  __  ______  __  __  ______
 72
    65
 73
     6
 40
12.7
 49
6.35
 74
     0
 49
-1.27
 74
     0
 49
1.27
 74
     0
 49
-1.27
 74
     0
 49
1.27
 74
     0
 49
-1.27
 74
     0
  0
LTYPE
  5
70
330
5
100
AcDbSymbolTableRecord
100
AcDbLinetypeTableRecord
  2
CENTER
 70
     0
  3
Center ____ _ ____ _ ____ _ ____ _ ____ _ ____
 72
    65
 73
     4
 40
10.16
 49
6.35
 74
     0
 49
-1.27
 74
     0
 49
1.27
 74
     0
 49
-1.27
 74
     0
  0
LTYPE
  5
71
330
5
100
AcDbSymbolTableRecord
100
AcDbLinetypeTableRecord
  2
CENTERX2
 70
     0
  3
Center (2x) ________  __  ________  __  _____
 72
    65
 73
     4
 40
20.32
 49
12.7
 74
     0
 49
-2.54
 74
     0
 49
2.54
 74
     0
 49
-2.54
 74
     0
  0
LTYPE
  5
72
330
5
100
AcDbSymbolTableRecord
100
AcDbLinetypeTableRecord
  2
DOT2
 70
     0
  3
Dot (.5x) ........................................
 72
    65
 73
     2
 40
0.635
 49
0.0
 74
     0
 49
-0.635
 74
     0
  0
ENDTAB
  0
TABLE
  2
LAYER
  5
2
330
0
100
AcDbSymbolTable
 70
    13
  0
LAYER
  5
10
330
2
100
AcDbSymbolTableRecord
100
AcDbLayerTableRecord
  2
0
 70
     0
 62
     7
  6
Continuous
370
    -3
390
F
  0
LAYER
  5
73
330
2
100
AcDbSymbolTableRecord
100
AcDbLayerTableRecord
  2
FORMAT
 70
     0
 62
     7
  6
Continuous
370
    -3
390
F
  0
LAYER
  5
74
330
2
100
AcDbSymbolTableRecord
100
AcDbLayerTableRecord
  2
OSA
 70
     0
 62
     7
  6
CENTER
370
    -3
390
F
  0
LAYER
  5
75
330
2
100
AcDbSymbolTableRecord
100
AcDbLayerTableRecord
  2
0_35
 70
     0
 62
     7
  6
Continuous
370
    35
390
F
  0
LAYER
  5
76
330
2
100
AcDbSymbolTableRecord
100
AcDbLayerTableRecord
  2
0_5
 70
     0
 62
     7
  6
Continuous
370
    50
390
F
  0
LAYER
  5
77
330
2
100
AcDbSymbolTableRecord
100
AcDbLayerTableRecord
  2
0_25
 70
     0
 62
     7
  6
Continuous
370
    25
390
F
  0
LAYER
  5
78
330
2
100
AcDbSymbolTableRecord
100
AcDbLayerTableRecord
  2
0_18
 70
     0
 62
     7
  6
Continuous
370
    -3
390
F
  0
LAYER
  5
79
330
2
100
AcDbSymbolTableRecord
100
AcDbLayerTableRecord
  2
SLD-0
 70
     0
 62
   179
  6
Continuous
370
    -3
390
F
  0
LAYER
  5
7A
330
2
100
AcDbSymbolTableRecord
100
AcDbLayerTableRecord
  2
KOTY
 70
     0
 62
     7
  6
Continuous
370
    -3
390
F
  0
LAYER
  5
7B
330
2
100
AcDbSymbolTableRecord
100
AcDbLayerTableRecord
  2
SILNA
 70
     0
 62
   179
  6
Continuous
370
    -3
390
F
  0
LAYER
  5
7C
330
2
100
AcDbSymbolTableRecord
100
AcDbLayerTableRecord
  2
0_18_1
 70
     0
 62
   179
  6
Continuous
370
    -3
390
F
  0
LAYER
  5
7D
330
2
100
AcDbSymbolTableRecord
100
AcDbLayerTableRecord
  2
0_35_1
 70
     0
 62
   179
  6
Continuous
370
    35
390
F
  0
LAYER
  5
7E
330
2
100
AcDbSymbolTableRecord
100
AcDbLayerTableRecord
  2
0_5_1
 70
     0
 62
   179
  6
Continuous
370
    50
390
F
  0
ENDTAB
  0
TABLE
  2
STYLE
  5
3
330
0
100
AcDbSymbolTable
 70
     1
  0
STYLE
  5
11
330
3
100
AcDbSymbolTableRecord
100
AcDbTextStyleTableRecord
  2
Standard
 70
     0
 40
0.0
 41
1.0
 50
0.0
 71
     0
 42
2.0
  3
txt
  4

  0
ENDTAB
  0
TABLE
  2
VIEW
  5
6
330
0
100
AcDbSymbolTable
 70
     0
  0
ENDTAB
  0
TABLE
  2
UCS
  5
7
330
0
100
AcDbSymbolTable
 70
     0
  0
ENDTAB
  0
TABLE
  2
APPID
  5
9
330
0
100
AcDbSymbolTable
 70
     1
  0
APPID
  5
12
330
9
100
AcDbSymbolTableRecord
100
AcDbRegAppTableRecord
  2
ACAD
 70
     0
  0
ENDTAB
  0
TABLE
  2
DIMSTYLE
  5
A
330
0
100
AcDbSymbolTable
 70
     1
100
AcDbDimStyleTable
  0
DIMSTYLE
105
27
330
A
100
AcDbSymbolTableRecord
100
AcDbDimStyleTableRecord
  2
ISO-25
 70
     0
 41
2.5
 42
0.625
 43
3.75
 44
1.25
 73
     0
 74
     0
 77
     1
 78
     8
140
2.5
141
2.5
143
0.0393700787
147
0.625
171
     3
172
     1
178
     0
271
     2
272
     2
274
     3
278
    44
283
     0
284
     8
340
11
  0
ENDTAB
  0
TABLE
  2
BLOCK_RECORD
  5
1
330
0
100
AcDbSymbolTable
 70
     1
  0
BLOCK_RECORD
  5
1F
330
1
100
AcDbSymbolTableRecord
100
AcDbBlockTableRecord
  2
*Model_Space
340
22
  0
BLOCK_RECORD
  5
1B
330
1
100
AcDbSymbolTableRecord
100
AcDbBlockTableRecord
  2
*Paper_Space
340
1E
  0
BLOCK_RECORD
  5
23
330
1
100
AcDbSymbolTableRecord
100
AcDbBlockTableRecord
  2
*Paper_Space0
340
26
  0
ENDTAB
  0
ENDSEC
  0
SECTION
  2
BLOCKS
  0
BLOCK
  5
20
330
1F
100
AcDbEntity
  8
0
100
AcDbBlockBegin
  2
*Model_Space
 70
     0
 10
0.0
 20
0.0
 30
0.0
  3
*Model_Space
  1

  0
ENDBLK
  5
21
330
1F
100
AcDbEntity
  8
0
100
AcDbBlockEnd
  0
BLOCK
  5
1C
330
1B
100
AcDbEntity
 67
     1
  8
0
100
AcDbBlockBegin
  2
*Paper_Space
 70
     0
 10
0.0
 20
0.0
 30
0.0
  3
*Paper_Space
  1

  0
ENDBLK
  5
1D
330
1B
100
AcDbEntity
 67
     1
  8
0
100
AcDbBlockEnd
  0
BLOCK
  5
24
330
23
100
AcDbEntity
  8
0
100
AcDbBlockBegin
  2
*Paper_Space0
 70
     0
 10
0.0
 20
0.0
 30
0.0
  3
*Paper_Space0
  1

  0
ENDBLK
  5
25
330
23
100
AcDbEntity
  8
0
100
AcDbBlockEnd
  0
ENDSEC
  0
SECTION
  2
ENTITIES
  0
LINE
  5
7F
330
1F
100
AcDbEntity
  8
0
  6
Continuous
 62
     7
370
    25
100
AcDbLine
 10
6248.9058319983
 20
5139.8463420834
 30
0.0
 11
6248.9058319983
 21
5138.346331593
 31
0.0
  0
LINE
  5
80
330
1F
100
AcDbEntity
  8
0
  6
Continuous
 62
     7
370
    25
100
AcDbLine
 10
6298.9057843145
 20
5138.346331593
 30
0.0
 11
6298.9057843145
 21
5139.8463420834
 31
0.0
  0
LINE
  5
81
330
1F
100
AcDbEntity
  8
0
  6
Continuous
 62
     7
370
    25
100
AcDbLine
 10
6262.7288643774
 20
5248.2955627407
 30
0.0
 11
6263.660365766
 21
5247.4804096188
 31
0.0
  0
LINE
  5
82
330
1F
100
AcDbEntity
  8
0
  6
Continuous
 62
     7
370
    25
100
AcDbLine
 10
6284.1512505468
 20
5247.4804096188
 30
0.0
 11
6285.0827519354
 21
5248.2955627407
 31
0.0
  0
LINE
  5
83
330
1F
100
AcDbEntity
  8
0
  6
Continuous
 62
     7
370
    25
100
AcDbLine
 10
6261.9058434424
 20
5257.3069505657
 30
0.0
 11
6261.9058434424
 21
5249.7893743481
 31
0.0
  0
LINE
  5
84
330
1F
100
AcDbEntity
  8
0
  6
Continuous
 62
     7
370
    25
100
AcDbLine
 10
6285.9057728705
 20
5249.7893743481
 30
0.0
 11
6285.9057728705
 21
5257.3069505657
 31
0.0
  0
ARC
  5
85
330
1F
100
AcDbEntity
  8
0
  6
Continuous
 62
     7
370
    25
100
AcDbCircle
 10
6273.8431757301
 20
5264.5110194834
 30
0.0
 40
15.24600201880541
100
AcDbArc
 50
183.9195103432
 51
210.6975930835
  0
ARC
  5
86
330
1F
100
AcDbEntity
  8
0
  6
Continuous
 62
     7
370
    25
100
AcDbCircle
 10
6273.9646258907
 20
5264.5126503287
 30
0.0
 40
15.25005119595794
100
AcDbArc
 50
330.0070125645
 51
356.0812264804
  0
LINE
  5
87
330
1F
100
AcDbEntity
  8
0
  6
Continuous
 62
     7
370
    25
100
AcDbLine
 10
6289.3306557592
 20
5277.8948717083
 30
0.0
 11
6258.4828679022
 21
5277.8948717083
 31
0.0
  0
LINE
  5
88
330
1F
100
AcDbEntity
  8
0
  6
Continuous
 62
     7
370
    25
100
AcDbLine
 10
6289.8701970038
 20
5277.8861694302
 30
0.0
 11
6289.3323246893
 21
5277.9025011028
 31
0.0
  0
LINE
  5
89
330
1F
100
AcDbEntity
  8
0
  6
Continuous
 62
     7
370
    25
100
AcDbLine
 10
6258.4821526465
 20
5277.8936796154
 30
0.0
 11
6257.9395119604
 21
5277.8920106854
 31
0.0
  0
SPLINE
  5
8A
330
1F
100
AcDbEntity
  8
0
  6
Continuous
 62
     7
370
    25
100
AcDbSpline
210
0.0
220
0.0
230
1.0
 70
     8
 71
     3
 72
    16
 73
    12
 74
     0
 42
0.000000001
 43
0.00000001
 40
0.0
 40
0.0
 40
0.0
 40
0.0
 40
0.1019779955924871
 40
0.2471137674594023
 40
0.3858164981979682
 40
0.5034236657804388
 40
0.6133086169320127
 40
0.7296289963774766
 40
0.8418131729938428
 40
0.9376617735628446
 40
1.0
 40
1.0
 40
1.0
 40
1.0
 10
6289.185458844575
 20
5263.495820042049
 30
0.0
 10
6289.204457068618
 20
5263.787513136098
 30
0.0
 10
6289.250493693389
 20
5264.494345811063
 30
0.0
 10
6289.328811772227
 20
5265.487866874249
 30
0.0
 10
6289.413213394193
 20
5266.427187353504
 30
0.0
 10
6289.490349740383
 20
5267.174015067445
 30
0.0
 10
6289.560576926921
 20
5267.770002453087
 30
0.0
 10
6289.62237232112
 20
5268.225201441525
 30
0.0
 10
6289.670221324605
 20
5268.532486048617
 30
0.0
 10
6289.699079738413
 20
5268.689833445397
 30
0.0
 10
6289.699544547746
 20
5268.691582798293
 30
0.0
 10
6289.699727719697
 20
5268.692272182857
 30
0.0
  0
SPLINE
  5
8B
330
1F
100
AcDbEntity
  8
0
  6
Continuous
 62
     7
370
    25
100
AcDbSpline
210
0.0
220
0.0
230
1.0
 70
     8
 71
     3
 72
    16
 73
    12
 74
     0
 42
0.000000001
 43
0.00000001
 40
0.0
 40
0.0
 40
0.0
 40
0.0
 40
0.0846114450521123
 40
0.1807974876713349
 40
0.2842745077235091
 40
0.3948391751070758
 40
0.5117652389536577
 40
0.6340101788205204
 40
0.7608052927019386
 40
0.8863089601344437
 40
1.0
 40
1.0
 40
1.0
 40
1.0
 10
6258.107835477265
 20
5268.679635998164
 30
0.0
 10
6258.109753216922
 20
5268.670203895024
 30
0.0
 10
6258.113851037399
 20
5268.650049404693
 30
0.0
 10
6258.147456619147
 20
5268.463770214743
 30
0.0
 10
6258.195993380154
 20
5268.151730203477
 30
0.0
 10
6258.258643202563
 20
5267.694682863361
 30
0.0
 10
6258.33030333133
 20
5267.093550746276
 30
0.0
 10
6258.407537814393
 20
5266.350314491181
 30
0.0
 10
6258.486560214799
 20
5265.470788799509
 30
0.0
 10
6258.561546482158
 20
5264.522478778581
 30
0.0
 10
6258.606957470426
 20
5263.837977261212
 30
0.0
 10
6258.628541654023
 20
5263.512628551875
 30
0.0
  0
LINE
  5
8C
330
1F
100
AcDbEntity
  8
0
  6
Continuous
 62
     7
370
    25
100
AcDbLine
 10
6299.4057480749
 20
5139.8463420834
 30
0.0
 11
6299.4057480749
 21
5155.0731830563
 31
0.0
  0
LINE
  5
8D
330
1F
100
AcDbEntity
  8
0
  6
Continuous
 62
     7
370
    25
100
AcDbLine
 10
6298.9057843145
 20
5138.346331593
 30
0.0
 11
6248.9058319983
 21
5138.346331593
 31
0.0
  0
ARC
  5
8E
330
1F
100
AcDbEntity
  8
0
  6
Continuous
 62
     7
370
    25
100
AcDbCircle
 10
6273.9057661001
 20
5167.8463804623
 30
0.0
 40
10.95000000000108
100
AcDbArc
 50
90.0
 51
257.0944159597
  0
SPLINE
  5
8F
330
1F
100
AcDbEntity
  8
0
  6
Continuous
 62
     7
370
    25
100
AcDbSpline
210
0.0
220
0.0
230
1.0
 70
     8
 71
     3
 72
     9
 73
     5
 74
     0
 42
0.000000001
 43
0.00000001
 40
0.0
 40
0.0
 40
0.0
 40
0.0
 40
0.9833935368212201
 40
1.0
 40
1.0
 40
1.0
 40
1.0
 10
6273.905688947114
 20
5178.846376415645
 30
0.0
 10
6273.315352127323
 20
5178.843538735096
 30
0.0
 10
6272.715046351777
 20
5178.840653134932
 30
0.0
 10
6272.140912218778
 20
5178.701112590102
 30
0.0
 10
6272.13137788144
 20
5178.698795315181
 30
0.0
  0
ARC
  5
90
330
1F
100
AcDbEntity
  8
0
  6
Continuous
 62
     7
370
    25
100
AcDbCircle
 10
6273.9214686641
 20
5167.8488735278
 30
0.0
 40
10.99751420859799
100
AcDbArc
 50
117.7750174132
 51
90.082210532
  0
LWPOLYLINE
  5
91
330
1F
100
AcDbEntity
  8
0
  6
Continuous
 62
     7
370
    25
100
AcDbPolyline
 90
       53
 70
   128
 43
0.0
 10
6273.9056889471
 20
5252.6118926968
 10
6272.5798432287
 20
5252.5844745602
 10
6271.2733094153
 20
5252.5025777783
 10
6270.005160993
 20
5252.3673944439
 10
6268.7937561926
 20
5252.180951115
 10
6267.6569764074
 20
5251.9459896053
 10
6266.6115109381
 20
5251.6657285656
 10
6265.6721417364
 20
5251.3444595303
 10
6264.8529354986
 20
5250.9868316616
 10
6264.1658131537
 20
5250.5980901684
 10
6263.6205498633
 20
5250.1838378872
 10
6263.2254902777
 20
5249.7500352825
 10
6262.9858796057
 20
5249.3032388653
 10
6262.9057709631
 20
5248.8496475186
 10
6262.9858796057
 20
5248.3961753811
 10
6263.2254902777
 20
5247.9493789639
 10
6263.6205498633
 20
5247.5155763592
 10
6264.1658131537
 20
5247.101324078
 10
6264.8529354986
 20
5246.7124633755
 10
6265.6721417364
 20
5246.3548355068
 10
6266.6115109381
 20
5246.0336856808
 10
6267.6569764074
 20
5245.753424641
 10
6268.7937561926
 20
5245.5184631313
 10
6270.005160993
 20
5245.3319005932
 10
6271.2733094153
 20
5245.1968364681
 10
6272.5798432287
 20
5245.1149396862
 10
6273.9056889471
 20
5245.0875215496
 10
6275.2317730841
 20
5245.1149396862
 10
6276.5383068976
 20
5245.1968364681
 10
6277.8064553198
 20
5245.3319005932
 10
6279.0176217016
 20
5245.5184631313
 10
6280.1544014868
 20
5245.753424641
 10
6281.2001053747
 20
5246.0336856808
 10
6282.1394745764
 20
5246.3548355068
 10
6282.9586808142
 20
5246.7124633755
 10
6283.6458031592
 20
5247.101324078
 10
6284.190828031
 20
5247.5155763592
 10
6284.5861260351
 20
5247.9493789639
 10
6284.8254982885
 20
5248.3961753811
 10
6284.9058453497
 20
5248.8496475186
 10
6284.8254982885
 20
5249.3032388653
 10
6284.5861260351
 20
5249.7500352825
 10
6284.190828031
 20
5250.1838378872
 10
6283.6458031592
 20
5250.5980901684
 10
6282.9586808142
 20
5250.9868316616
 10
6282.1394745764
 20
5251.3444595303
 10
6281.2001053747
 20
5251.6657285656
 10
6280.1544014868
 20
5251.9459896053
 10
6279.0176217016
 20
5252.180951115
 10
6277.8064553198
 20
5252.3673944439
 10
6276.5383068976
 20
5252.5025777783
 10
6275.2317730841
 20
5252.5844745602
 10
6273.9056889471
 20
5252.6118926968
  0
LWPOLYLINE
  5
92
330
1F
100
AcDbEntity
  8
0
  6
Continuous
 62
     7
370
    25
100
AcDbPolyline
 90
       18
 70
   128
 43
0.0
 10
6273.9056889471
 20
5253.893630978
 10
6275.2987687048
 20
5253.8658552136
 10
6276.6732518133
 20
5253.7830047573
 10
6278.0100647863
 20
5253.6461524929
 10
6279.2913262304
 20
5253.4570865597
 10
6280.4998700079
 20
5253.218429562
 10
6281.6192452368
 20
5252.9334001507
 10
6282.634193128
 20
5252.6059322323
 10
6283.5313622412
 20
5252.2403173412
 10
6284.2981163916
 20
5251.8415622677
 10
6284.9244419989
 20
5251.4150314297
 10
6285.4017559942
 20
5250.9664468731
 10
6285.7233826574
 20
5250.5021266903
 10
6285.8855072912
 20
5250.0280313458
 10
6285.8855072912
 20
5249.5507173504
 10
6285.7233826574
 20
5249.0767412151
 10
6285.4017559942
 20
5248.6123018231
 10
6285.0827519354
 20
5248.2955627407
  0
LWPOLYLINE
  5
93
330
1F
100
AcDbEntity
  8
0
  6
Continuous
 62
     7
370
    25
100
AcDbPolyline
 90
       18
 70
   128
 43
0.0
 10
6262.7288643774
 20
5248.2955627407
 10
6262.4098603186
 20
5248.6123018231
 10
6262.0879952368
 20
5249.0767412151
 10
6261.9261090216
 20
5249.5507173504
 10
6261.9261090216
 20
5250.0280313458
 10
6262.0879952368
 20
5250.5021266903
 10
6262.4098603186
 20
5250.9664468731
 10
6262.8871743139
 20
5251.4150314297
 10
6263.5134999212
 20
5251.8415622677
 10
6264.2802540716
 20
5252.2403173412
 10
6265.1771847662
 20
5252.6059322323
 10
6266.192371076
 20
5252.9334001507
 10
6267.3117463049
 20
5253.218429562
 10
6268.5202900824
 20
5253.4570865597
 10
6269.8015515265
 20
5253.6461524929
 10
6271.1383644995
 20
5253.7830047573
 10
6272.5126091894
 20
5253.8658552136
 10
6273.9056889471
 20
5253.893630978
  0
ARC
  5
94
330
1F
100
AcDbEntity
  8
0
  6
Continuous
 62
     7
370
    25
100
AcDbCircle
 10
6273.9056889471
 20
5226.8019008241
 30
0.0
 40
34.60950944665444
100
AcDbArc
 50
85.6101931996
 51
94.3898068004
  0
LINE
  5
95
330
1F
100
AcDbEntity
  8
0
  6
Continuous
 62
     7
370
    25
100
AcDbLine
 10
6276.5547577795
 20
5261.3098792996
 30
0.0
 11
6278.9460961279
 21
5261.0316448177
 31
0.0
  0
LWPOLYLINE
  5
96
330
1F
100
AcDbEntity
  8
0
  6
Continuous
 62
     7
370
    25
100
AcDbPolyline
 90
       11
 70
   128
 43
0.0
 10
6268.8655201849
 20
5261.0316448177
 10
6267.6467244085
 20
5260.8087234463
 10
6266.5108982977
 20
5260.5393104519
 10
6265.4733006414
 20
5260.2269821133
 10
6264.5475212988
 20
5259.8760299648
 10
6263.7459580359
 20
5259.4909839596
 10
6263.0791012701
 20
5259.076970097
 10
6262.555772489
 20
5258.6394720043
 10
6262.1831242498
 20
5258.1842117275
 10
6261.9659249243
 20
5257.7173881497
 10
6261.9058434424
 20
5257.3069505657
  0
LWPOLYLINE
  5
97
330
1F
100
AcDbEntity
  8
0
  6
Continuous
 62
     7
370
    25
100
AcDbPolyline
 90
       11
 70
   128
 43
0.0
 10
6285.9057728705
 20
5257.3069505657
 10
6285.8456913885
 20
5257.7173881497
 10
6285.628492063
 20
5258.1842117275
 10
6285.2558438238
 20
5258.6394720043
 10
6284.7325150427
 20
5259.076970097
 10
6284.0656582769
 20
5259.4909839596
 10
6283.2638565954
 20
5259.8760299648
 10
6282.3380772528
 20
5260.2269821133
 10
6281.3004795965
 20
5260.5393104519
 10
6280.1648919043
 20
5260.8087234463
 10
6278.9460961279
 20
5261.0316448177
  0
SPLINE
  5
98
330
1F
100
AcDbEntity
  8
0
  6
Continuous
 62
     7
370
    25
100
AcDbSpline
210
0.0
220
0.0
230
1.0
 70
     8
 71
     3
 72
    10
 73
     6
 74
     0
 42
0.000000001
 43
0.00000001
 40
0.0
 40
0.0
 40
0.0
 40
0.0
 40
0.4999686831318454
 40
0.6868121369165193
 40
1.0
 40
1.0
 40
1.0
 40
1.0
 10
6268.865520184907
 20
5261.031644817745
 30
0.0
 10
6269.253504591459
 20
5261.087285608383
 30
0.0
 10
6269.786482772585
 20
5261.163719936384
 30
0.0
 10
6270.590685772653
 20
5261.250689946144
 30
0.0
 10
6271.000154750044
 20
5261.287084230811
 30
0.0
 10
6271.256620114716
 20
5261.309879299556
 30
0.0
  0
SPLINE
  5
99
330
1F
100
AcDbEntity
  8
0
  6
Continuous
 62
     7
370
    25
100
AcDbSpline
210
0.0
220
0.0
230
1.0
 70
     8
 71
     3
 72
    15
 73
    11
 74
     0
 42
0.000000001
 43
0.00000001
 40
0.0
 40
0.0
 40
0.0
 40
0.0
 40
0.1469263084462659
 40
0.2938714335557905
 40
0.4074745083021655
 40
0.5208821450815643
 40
0.6344439539602771
 40
0.7481878745250607
 40
0.8741161613387971
 40
1.0
 40
1.0
 40
1.0
 40
1.0
 10
6281.609708493622
 20
5261.031644817745
 30
0.0
 10
6280.927356736202
 20
5261.185801041913
 30
0.0
 10
6279.56256583345
 20
5261.494133232839
 30
0.0
 10
6277.450608721826
 20
5261.859852228174
 30
0.0
 10
6275.440687835536
 20
5262.142482184815
 30
0.0
 10
6273.55613887137
 20
5262.225902974066
 30
0.0
 10
6271.684488145454
 20
5262.064331505324
 30
0.0
 10
6269.812629455572
 20
5261.759124295279
 30
0.0
 10
6267.947677756521
 20
5261.426435930724
 30
0.0
 10
6266.78376264952
 20
5261.163226368754
 30
0.0
 10
6266.201907819184
 20
5261.031644817745
 30
0.0
  0
LINE
  5
9A
330
1F
100
AcDbEntity
  8
0
  6
Continuous
 62
     7
370
    25
100
AcDbLine
 10
6281.6097084936
 20
5261.0316448177
 30
0.0
 11
6278.9460961279
 21
5261.0316448177
 31
0.0
  0
LINE
  5
9B
330
1F
100
AcDbEntity
  8
0
  6
Continuous
 62
     7
370
    25
100
AcDbLine
 10
6268.8655201849
 20
5261.0316448177
 30
0.0
 11
6266.2019078192
 21
5261.0316448177
 31
0.0
  0
SPLINE
  5
9C
330
1F
100
AcDbEntity
  8
0
  6
Continuous
 62
     7
370
    25
100
AcDbSpline
210
0.0
220
0.0
230
1.0
 70
     8
 71
     3
 72
    10
 73
     6
 74
     0
 42
0.000000001
 43
0.00000001
 40
0.0
 40
0.0
 40
0.0
 40
0.0
 40
0.2229415642929805
 40
0.7145199448917189
 40
1.0
 40
1.0
 40
1.0
 40
1.0
 10
6285.905772870454
 20
5255.407946583186
 30
0.0
 10
6286.059291157565
 20
5255.516121282438
 30
0.0
 10
6286.551311918228
 20
5255.862817424058
 30
0.0
 10
6286.932447709832
 20
5256.39206643973
 30
0.0
 10
6287.067370548508
 20
5256.807969870536
 30
0.0
 10
6287.11693925229
 20
5256.960766788875
 30
0.0
  0
SPLINE
  5
9D
330
1F
100
AcDbEntity
  8
0
  6
Continuous
 62
     7
370
    25
100
AcDbSpline
210
0.0
220
0.0
230
1.0
 70
     8
 71
     3
 72
    14
 73
    10
 74
     0
 42
0.000000001
 43
0.00000001
 40
0.0
 40
0.0
 40
0.0
 40
0.0
 40
0.0163052097728634
 40
0.1806849357363603
 40
0.3450608098911699
 40
0.5087820977557382
 40
0.6724881330294507
 40
0.8362447644554385
 40
1.0
 40
1.0
 40
1.0
 40
1.0
 10
6287.11693925229
 20
5256.960766788875
 30
0.0
 10
6287.122242634819
 20
5256.986152505618
 30
0.0
 10
6287.181011662936
 20
5257.267462385221
 30
0.0
 10
6287.140493787513
 20
5257.80881450882
 30
0.0
 10
6286.718675441755
 20
5258.567162823046
 30
0.0
 10
6285.926941222242
 20
5259.289673851715
 30
0.0
 10
6284.797627337422
 20
5259.955144779292
 30
0.0
 10
6283.366878104493
 20
5260.552625034909
 30
0.0
 10
6282.195430032978
 20
5260.871972010495
 30
0.0
 10
6281.609708493623
 20
5261.031644817745
 30
0.0
  0
SPLINE
  5
9E
330
1F
100
AcDbEntity
  8
0
  6
Continuous
 62
     7
370
    25
100
AcDbSpline
210
0.0
220
0.0
230
1.0
 70
     8
 71
     3
 72
    14
 73
    10
 74
     0
 42
0.000000001
 43
0.00000001
 40
0.0
 40
0.0
 40
0.0
 40
0.0
 40
0.1637545428713193
 40
0.3275104816181605
 40
0.4912245507171439
 40
0.6549390432206523
 40
0.8193142220769617
 40
0.9836936595423194
 40
0.9999999999999999
 40
0.9999999999999999
 40
0.9999999999999999
 40
0.9999999999999999
 10
6266.201907819184
 20
5261.031644817745
 30
0.0
 10
6265.616179676824
 20
5260.871973348016
 30
0.0
 10
6264.444718399246
 20
5260.552629047483
 30
0.0
 10
6263.014042787203
 20
5259.955118116504
 30
0.0
 10
6261.884354649389
 20
5259.289718036022
 30
0.0
 10
6261.092911740217
 20
5258.567138435144
 30
0.0
 10
6260.671533742397
 20
5257.80882458241
 30
0.0
 10
6260.629593170084
 20
5257.267443003414
 30
0.0
 10
6260.68928963647
 20
5256.986152407375
 30
0.0
 10
6260.694677060517
 20
5256.960766788875
 30
0.0
  0
SPLINE
  5
9F
330
1F
100
AcDbEntity
  8
0
  6
Continuous
 62
     7
370
    25
100
AcDbSpline
210
0.0
220
0.0
230
1.0
 70
     8
 71
     3
 72
    11
 73
     7
 74
     0
 42
0.000000001
 43
0.00000001
 40
0.0
 40
0.0
 40
0.0
 40
0.0
 40
0.3114315712661223
 40
0.6267161200783957
 40
0.9296878358476421
 40
1.0
 40
1.0
 40
1.0
 40
1.0
 10
6260.694677060517
 20
5256.960766788875
 30
0.0
 10
6260.748162126145
 20
5256.791049225964
 30
0.0
 10
6260.855793965387
 20
5256.449514383802
 30
0.0
 10
6261.233165032255
 20
5255.956537707465
 30
0.0
 10
6261.585622568919
 20
5255.597979143668
 30
0.0
 10
6261.855086852165
 20
5255.415396712299
 30
0.0
 10
6261.905843442353
 20
5255.381005283748
 30
0.0
  0
LINE
  5
A0
330
1F
100
AcDbEntity
  8
0
  6
Continuous
 62
     7
370
    25
100
AcDbLine
 10
6258.6302105841
 20
5263.5127477612
 30
0.0
 11
6258.6342636999
 21
5263.4691171612
 31
0.0
  0
LINE
  5
A1
330
1F
100
AcDbEntity
  8
0
  6
Continuous
 62
     7
370
    25
100
AcDbLine
 10
6258.6595360693
 20
5264.7648029293
 30
0.0
 11
6289.1520802435
 21
5264.7648029293
 31
0.0
  0
LWPOLYLINE
  5
A2
330
1F
100
AcDbEntity
  8
0
  6
Continuous
 62
     7
370
    25
100
AcDbPolyline
 90
       50
 70
   128
 43
0.0
 10
6273.9056889471
 20
5252.2698812451
 10
6272.6270501074
 20
5252.241867062
 10
6271.3691536841
 20
5252.1580629315
 10
6270.1529805121
 20
5252.0198993649
 10
6268.998557752
 20
5251.829760548
 10
6267.9247204718
 20
5251.5907459225
 10
6266.9488732275
 20
5251.3065509762
 10
6266.0874669012
 20
5250.9821824993
 10
6265.3543297705
 20
5250.622647282
 10
6264.7616211828
 20
5250.2341442074
 10
6264.3191163
 20
5249.8228721584
 10
6264.0339676794
 20
5249.3955068554
 10
6263.9109436926
 20
5248.9593200649
 10
6263.9519516882
 20
5248.5212259258
 10
6264.1565148291
 20
5248.0886154141
 10
6264.5210568365
 20
5247.6685218777
 10
6265.0398556646
 20
5247.2677402462
 10
6265.704089826
 20
5246.8929462399
 10
6266.5030304846
 20
5246.5503387417
 10
6267.4235646185
 20
5246.245401379
 10
6268.4504334387
 20
5245.9832601513
 10
6269.5669476446
 20
5245.768206593
 10
6270.7547490057
 20
5245.6036977734
 10
6271.9942871985
 20
5245.4925947155
 10
6273.2650582251
 20
5245.4365663494
 10
6274.5465580877
 20
5245.4365663494
 10
6275.8173291144
 20
5245.4925947155
 10
6277.0568673071
 20
5245.6036977734
 10
6278.2446686682
 20
5245.768206593
 10
6279.3611828741
 20
5245.9832601513
 10
6280.3880516943
 20
5246.245401379
 10
6281.3085858282
 20
5246.5503387417
 10
6282.1075264868
 20
5246.8929462399
 10
6282.7717606482
 20
5247.2677402462
 10
6283.2905594763
 20
5247.6685218777
 10
6283.6551014837
 20
5248.0886154141
 10
6283.8596646246
 20
5248.5212259258
 10
6283.9006726202
 20
5248.9593200649
 10
6283.7776486334
 20
5249.3955068554
 10
6283.4925000128
 20
5249.8228721584
 10
6283.04999513
 20
5250.2341442074
 10
6282.4572865423
 20
5250.622647282
 10
6281.7241494116
 20
5250.9821824993
 10
6280.8625046667
 20
5251.3065509762
 10
6279.886895841
 20
5251.5907459225
 10
6278.8130585608
 20
5251.829760548
 10
6277.6583973822
 20
5252.0198993649
 10
6276.4422242102
 20
5252.1580629315
 10
6275.1845662054
 20
5252.241867062
 10
6273.9056889471
 20
5252.2698812451
  0
SPLINE
  5
A3
330
1F
100
AcDbEntity
  8
0
  6
Continuous
 62
     7
370
    25
100
AcDbSpline
210
0.0
220
0.0
230
1.0
 70
     8
 71
     3
 72
    25
 73
    21
 74
     0
 42
0.000000001
 43
0.00000001
 40
0.0
 40
0.0
 40
0.0
 40
0.0
 40
0.0566737493965419
 40
0.1133525455852291
 40
0.1699779247068295
 40
0.2266073272588804
 40
0.2843904954750636
 40
0.3421584492024822
 40
0.3996198768043708
 40
0.457088968718713
 40
0.5121137438858963
 40
0.567143090570023
 40
0.6216144451277306
 40
0.6760772697366646
 40
0.7309561445333456
 40
0.7858383845315157
 40
0.843524961445826
 40
0.9012037210235635
 40
0.9506026203556868
 40
1.0
 40
1.0
 40
1.0
 40
1.0
 10
6258.659536069306
 20
5277.576702114497
 30
0.0
 10
6258.779691572218
 20
5277.494425800933
 30
0.0
 10
6259.020013277885
 20
5277.329865847104
 30
0.0
 10
6259.906839719845
 20
5276.985524557622
 30
0.0
 10
6261.156765977657
 20
5276.580587868476
 30
0.0
 10
6262.769115596732
 20
5276.136241404883
 30
0.0
 10
6264.711211950626
 20
5275.686961199025
 30
0.0
 10
6266.930659792557
 20
5275.285208985789
 30
0.0
 10
6269.369148211877
 20
5275.028071425237
 30
0.0
 10
6271.904425949108
 20
5274.883882418128
 30
0.0
 10
6274.463241429347
 20
5274.848825557428
 30
0.0
 10
6276.960225410275
 20
5274.935646628551
 30
0.0
 10
6279.360793354642
 20
5275.111444167351
 30
0.0
 10
6281.608757270851
 20
5275.403946737119
 30
0.0
 10
6283.644326920474
 20
5275.805161205521
 30
0.0
 10
6285.461402213795
 20
5276.245410903648
 30
0.0
 10
6286.989486202126
 20
5276.682046864193
 30
0.0
 10
6288.111934035019
 20
5277.061547090905
 30
0.0
 10
6288.852635248401
 20
5277.364592041666
 30
0.0
 10
6289.052266268711
 20
5277.505999481932
 30
0.0
 10
6289.152080243501
 20
5277.576702114497
 30
0.0
  0
LINE
  5
A4
330
1F
100
AcDbEntity
  8
0
  6
Continuous
 62
     7
370
    25
100
AcDbLine
 10
6258.5710827765
 20
5277.6547841992
 30
0.0
 11
6258.6595360693
 21
5277.5767021145
 31
0.0
  0
LINE
  5
A5
330
1F
100
AcDbEntity
  8
0
  6
Continuous
 62
     7
370
    25
100
AcDbLine
 10
6289.3306557592
 20
5277.8836660351
 30
0.0
 11
6289.3316094336
 21
5277.8864078488
 31
0.0
  0
LINE
  5
A6
330
1F
100
AcDbEntity
  8
0
  6
Continuous
 62
     7
370
    25
100
AcDbLine
 10
6258.4821526465
 20
5277.8692417111
 30
0.0
 11
6258.4828679022
 21
5277.8705530132
 31
0.0
  0
LINE
  5
A7
330
1F
100
AcDbEntity
  8
0
  6
Continuous
 62
     7
370
    25
100
AcDbLine
 10
6289.1520802435
 20
5277.5767021145
 30
0.0
 11
6289.2405335363
 21
5277.6547841992
 31
0.0
  0
LINE
  5
A8
330
1F
100
AcDbEntity
  8
0
  6
Continuous
 62
     7
370
    25
100
AcDbLine
 10
6289.1520802435
 20
5277.5767021145
 30
0.0
 11
6289.1520802435
 21
5264.7648029293
 31
0.0
  0
LINE
  5
A9
330
1F
100
AcDbEntity
  8
0
  6
Continuous
 62
     7
370
    25
100
AcDbLine
 10
6258.6595360693
 20
5277.5767021145
 30
0.0
 11
6258.6595360693
 21
5264.7648029293
 31
0.0
  0
LWPOLYLINE
  5
AA
330
1F
100
AcDbEntity
  8
0
  6
Continuous
 62
     7
370
    25
100
AcDbPolyline
 90
       26
 70
   128
 43
0.0
 10
6263.9293019232
 20
5249.0846090283
 10
6263.9519516882
 20
5248.9911489452
 10
6264.1565148291
 20
5248.5584192242
 10
6264.5210568365
 20
5248.1383256878
 10
6265.0398556646
 20
5247.7375440563
 10
6265.704089826
 20
5247.36275005
 10
6266.5030304846
 20
5247.0201425518
 10
6267.4235646185
 20
5246.7152051891
 10
6268.4504334387
 20
5246.4530639614
 10
6269.5669476446
 20
5246.2380104031
 10
6270.7547490057
 20
5246.0736207928
 10
6271.9942871985
 20
5245.9623985256
 10
6273.2650582251
 20
5245.9063701595
 10
6274.5465580877
 20
5245.9063701595
 10
6275.8173291144
 20
5245.9623985256
 10
6277.0568673071
 20
5246.0736207928
 10
6278.2446686682
 20
5246.2380104031
 10
6279.3611828741
 20
5246.4530639614
 10
6280.3880516943
 20
5246.7152051891
 10
6281.3085858282
 20
5247.0201425518
 10
6282.1075264868
 20
5247.36275005
 10
6282.7717606482
 20
5247.7375440563
 10
6283.2905594763
 20
5248.1383256878
 10
6283.6551014837
 20
5248.5584192242
 10
6283.8596646246
 20
5248.9911489452
 10
6283.882075971
 20
5249.0846090283
  0
SPLINE
  5
AB
330
1F
100
AcDbEntity
  8
0
  6
Continuous
 62
     7
370
    25
100
AcDbSpline
210
0.0
220
0.0
230
1.0
 70
     8
 71
     3
 72
    29
 73
    25
 74
     0
 42
0.000000001
 43
0.00000001
 40
0.0
 40
0.0
 40
0.0
 40
0.0
 40
0.0431566630957239
 40
0.0863203686093109
 40
0.1298936739406193
 40
0.1734702359948218
 40
0.2310289161885418
 40
0.2886151133679506
 40
0.3461832156773989
 40
0.4047762567543182
 40
0.4633957839623766
 40
0.5219444254458745
 40
0.5706942548013073
 40
0.6194849385291931
 40
0.668241760617968
 40
0.7181711441066801
 40
0.7681304231474461
 40
0.8180687095150172
 40
0.8547683588531626
 40
0.8914612715948965
 40
0.928641773256914
 40
0.9657900729129236
 40
0.9828462555909351
 40
0.9999999999999999
 40
0.9999999999999999
 40
0.9999999999999999
 40
0.9999999999999999
 10
6258.57108277646
 20
5277.654784199153
 30
0.0
 10
6258.420686522273
 20
5277.746856204527
 30
0.0
 10
6258.119869471843
 20
5277.931015239825
 30
0.0
 10
6257.666375799014
 20
5277.852129599361
 30
0.0
 10
6257.212310246377
 20
5277.566482526371
 30
0.0
 10
6256.709761393136
 20
5277.015430196717
 30
0.0
 10
6256.161132809571
 20
5276.169813492524
 30
0.0
 10
6255.567954161872
 20
5274.978168681109
 30
0.0
 10
6254.975962824702
 20
5273.537094943674
 30
0.0
 10
6254.385385767592
 20
5271.845992117101
 30
0.0
 10
6253.799665220738
 20
5269.81243060991
 30
0.0
 10
6253.258571580627
 20
5267.514616321388
 30
0.0
 10
6252.763883058473
 20
5264.984400716435
 30
0.0
 10
6252.312564699988
 20
5262.332554195504
 30
0.0
 10
6251.871389610906
 20
5259.390133049998
 30
0.0
 10
6251.441191773935
 20
5256.177783391642
 30
0.0
 10
6251.021268635195
 20
5252.722142617396
 30
0.0
 10
6250.650758843592
 20
5249.393200665642
 30
0.0
 10
6250.326304236426
 20
5246.256698200495
 30
0.0
 10
6250.047166062211
 20
5243.302912418651
 30
0.0
 10
6249.781034205316
 20
5240.176020187431
 30
0.0
 10
6249.582427800224
 20
5237.40436404387
 30
0.0
 10
6249.442915930605
 20
5235.112428522854
 30
0.0
 10
6249.387068877511
 20
5233.941646237264
 30
0.0
 10
6249.359065717133
 20
5233.354585644161
 30
0.0
  0
SPLINE
  5
AC
330
1F
100
AcDbEntity
  8
0
  6
Continuous
 62
     7
370
    25
100
AcDbSpline
210
0.0
220
0.0
230
1.0
 70
     8
 71
     3
 72
    25
 73
    21
 74
     0
 42
0.000000001
 43
0.00000001
 40
0.0
 40
0.0
 40
0.0
 40
0.0
 40
0.0314173291908511
 40
0.0630166740608117
 40
0.0946047690912392
 40
0.1595738246058584
 40
0.2247666306596901
 40
0.2900655461442846
 40
0.3553156086933761
 40
0.4203320003707618
 40
0.4851050408547196
 40
0.5500378054508704
 40
0.6151281511780845
 40
0.68025106929818
 40
0.7451832593189981
 40
0.7961238181917185
 40
0.847171135467143
 40
0.8982018355840964
 40
0.9491459154474661
 40
1.0
 40
1.0
 40
1.0
 40
1.0
 10
6298.452550595674
 20
5233.354585644161
 30
0.0
 10
6298.399594016298
 20
5234.421511150003
 30
0.0
 10
6298.293374054644
 20
5236.56154337363
 30
0.0
 10
6298.086889940428
 20
5239.434411495216
 30
0.0
 10
6297.785510370236
 20
5243.09978456905
 30
0.0
 10
6297.380929108436
 20
5247.474290866852
 30
0.0
 10
6296.859491504144
 20
5252.35891234116
 30
0.0
 10
6296.308054798163
 20
5256.841039543284
 30
0.0
 10
6295.73176815561
 20
5260.900111292593
 30
0.0
 10
6295.135229772297
 20
5264.546122523216
 30
0.0
 10
6294.516817503709
 20
5267.68962383559
 30
0.0
 10
6293.878835190987
 20
5270.302684315366
 30
0.0
 10
6293.225915853932
 20
5272.473221335696
 30
0.0
 10
6292.563900967869
 20
5274.25204513172
 30
0.0
 10
6291.943933782764
 20
5275.60192929293
 30
0.0
 10
6291.369043889726
 20
5276.634234535698
 30
0.0
 10
6290.838932622382
 20
5277.357982132789
 30
0.0
 10
6290.306050560577
 20
5277.80670245473
 30
0.0
 10
6289.772646966274
 20
5277.968408473765
 30
0.0
 10
6289.417800111455
 20
5277.75926399219
 30
0.0
 10
6289.240533536347
 20
5277.654784199153
 30
0.0
  0
LINE
  5
AD
330
1F
100
AcDbEntity
  8
0
  6
Continuous
 62
     7
370
    25
100
AcDbLine
 10
6299.3017975744
 20
5202.0167283978
 30
0.0
 11
6299.3017975744
 21
5155.0886802639
 31
0.0
  0
SPLINE
  5
AE
330
1F
100
AcDbEntity
  8
0
  6
Continuous
 62
     7
370
    25
100
AcDbSpline
210
0.0
220
0.0
230
1.0
 70
     8
 71
     3
 72
    29
 73
    25
 74
     0
 42
0.000000001
 43
0.00000001
 40
0.0
 40
0.0
 40
0.0
 40
0.0
 40
0.0276022288304768
 40
0.1203012318436706
 40
0.2130087778936111
 40
0.3032568951542943
 40
0.3935116912616349
 40
0.5684593833395272
 40
0.7347212107371941
 40
0.8828944614947062
 40
0.942070222358833
 40
0.9745457508488156
 40
0.9874033862038265
 40
0.9936331782686428
 40
0.9967356591014371
 40
0.9977801335953237
 40
0.9984911421438002
 40
0.9989733815408565
 40
0.9993059015064006
 40
0.9995878694317217
 40
0.9997923555811999
 40
0.9998835025117827
 40
0.9999755967266978
 40
1.0
 40
1.0
 40
1.0
 40
1.0
 10
6298.58868760434
 20
5197.804587360775
 30
0.0
 10
6298.60180832783
 20
5197.430618579155
 30
0.0
 10
6298.658993535887
 20
5195.800717407898
 30
0.0
 10
6298.751451192907
 20
5192.875605546261
 30
0.0
 10
6298.855978361114
 20
5189.037264008804
 30
0.0
 10
6298.945698321745
 20
5185.188527677218
 30
0.0
 10
6299.04476646623
 20
5180.137498175617
 30
0.0
 10
6299.138471346396
 20
5173.945278197085
 30
0.0
 10
6299.213703117676
 20
5166.875062018136
 30
0.0
 10
6299.253742238348
 20
5161.459622149822
 30
0.0
 10
6299.275963298649
 20
5157.980434597798
 30
0.0
 10
6299.285633855696
 20
5156.464464113864
 30
0.0
 10
6299.29155795057
 20
5155.717365184836
 30
0.0
 10
6299.295178899257
 20
5155.396702362326
 30
0.0
 10
6299.296646306993
 20
5155.247411061566
 30
0.0
 10
6299.298523573669
 20
5155.178229059703
 30
0.0
 10
6299.298694336177
 20
5155.146639362049
 30
0.0
 10
6299.299620207929
 20
5155.12548446937
 30
0.0
 10
6299.300058050278
 20
5155.110588643508
 30
0.0
 10
6299.300614454804
 20
5155.099996363153
 30
0.0
 10
6299.300789127383
 20
5155.093149435847
 30
0.0
 10
6299.301616139453
 20
5155.089788608007
 30
0.0
 10
6299.301807312323
 20
5155.08888067043
 30
0.0
 10
6299.301799260983
 20
5155.088714973271
 30
0.0
 10
6299.301797574432
 20
5155.088680263912
 30
0.0
  0
SPLINE
  5
AF
330
1F
100
AcDbEntity
  8
0
  6
Continuous
 62
     7
370
    25
100
AcDbSpline
210
0.0
220
0.0
230
1.0
 70
     8
 71
     3
 72
    36
 73
    32
 74
     0
 42
0.000000001
 43
0.00000001
 40
0.0
 40
0.0
 40
0.0
 40
0.0
 40
0.0241549340464594
 40
0.048305659242812
 40
0.0659214439424723
 40
0.0835952983577649
 40
0.1012157258032722
 40
0.1223964142749472
 40
0.1436674811509938
 40
0.1649132494431765
 40
0.1998271660222241
 40
0.2348397183667537
 40
0.2697998968993283
 40
0.3118168078291918
 40
0.3538913982057206
 40
0.3959266996097326
 40
0.4378900021345919
 40
0.4862811234710703
 40
0.534815066675021
 40
0.583448197687163
 40
0.6320772456742709
 40
0.6805480923518463
 40
0.7118101793003365
 40
0.7432130375426911
 40
0.7746368535696694
 40
0.805989764541
 40
0.8372100923858505
 40
0.8777911695138918
 40
0.9185031680015044
 40
0.9593010229861769
 40
1.0
 40
1.0
 40
1.0
 40
1.0
 10
6289.1520802435
 20
5264.764802929318
 30
0.0
 10
6289.218987635482
 20
5265.696388905251
 30
0.0
 10
6289.352790761242
 20
5267.559398533938
 30
0.0
 10
6289.577170946043
 20
5269.675562427276
 30
0.0
 10
6289.79851412792
 20
5271.273038998871
 30
0.0
 10
6290.00926404291
 20
5272.436825619765
 30
0.0
 10
6290.244586322086
 20
5273.40255226917
 30
0.0
 10
6290.505493862201
 20
5274.070035272015
 30
0.0
 10
6290.786484551043
 20
5274.421031783259
 30
0.0
 10
6291.130387457471
 20
5274.519413036873
 30
0.0
 10
6291.535316230915
 20
5274.236451191779
 30
0.0
 10
6291.99516108783
 20
5273.415650566988
 30
0.0
 10
6292.477446993452
 20
5272.045372287736
 30
0.0
 10
6292.980967307535
 20
5270.275704412155
 30
0.0
 10
6293.507975574604
 20
5268.175281730256
 30
0.0
 10
6294.023852057242
 20
5265.753220309435
 30
0.0
 10
6294.549177948701
 20
5262.831048435891
 30
0.0
 10
6295.078050209731
 20
5259.302730422371
 30
0.0
 10
6295.606409669569
 20
5255.171711390612
 30
0.0
 10
6296.109952470408
 20
5250.656161946097
 30
0.0
 10
6296.586857807638
 20
5245.808165195544
 30
0.0
 10
6296.988207691401
 20
5241.314329104589
 30
0.0
 10
6297.313411383481
 20
5237.201302912868
 30
0.0
 10
6297.565177643587
 20
5233.496724165306
 30
0.0
 10
6297.791647548528
 20
5229.599546424768
 30
0.0
 10
6297.991054661639
 20
5225.526960349477
 30
0.0
 10
6298.174623948357
 20
5220.871375299834
 30
0.0
 10
6298.330540102869
 20
5215.598562928963
 30
0.0
 10
6298.453043204372
 20
5209.739575053637
 30
0.0
 10
6298.538832830188
 20
5203.795049813517
 30
0.0
 10
6298.572082793392
 20
5199.799792397977
 30
0.0
 10
6298.58868760434
 20
5197.804587360775
 30
0.0
  0
SPLINE
  5
B0
330
1F
100
AcDbEntity
  8
0
  6
Continuous
 62
     7
370
    25
100
AcDbSpline
210
0.0
220
0.0
230
1.0
 70
     8
 71
     3
 72
    13
 73
     9
 74
     0
 42
0.000000001
 43
0.00000001
 40
0.0
 40
0.0
 40
0.0
 40
0.0
 40
0.1642251889338037
 40
0.3288774281586538
 40
0.4956979964190538
 40
0.6625181998675402
 40
0.831262024728975
 40
1.0
 40
1.0
 40
1.0
 40
1.0
 10
6299.301797574433
 20
5202.016728397762
 30
0.0
 10
6299.277587524127
 20
5203.795656775093
 30
0.0
 10
6299.22910446783
 20
5207.358139445462
 30
0.0
 10
6299.125235417177
 20
5212.666272049592
 30
0.0
 10
6298.997072573272
 20
5217.938229724619
 30
0.0
 10
6298.842166753386
 20
5223.167843316493
 30
0.0
 10
6298.663971052559
 20
5228.32938608164
 30
0.0
 10
6298.523023266949
 20
5231.679538479446
 30
0.0
 10
6298.452550595674
 20
5233.354585644161
 30
0.0
  0
SPLINE
  5
B1
330
1F
100
AcDbEntity
  8
0
  6
Continuous
 62
     7
370
    25
100
AcDbSpline
210
0.0
220
0.0
230
1.0
 70
     8
 71
     3
 72
    26
 73
    22
 74
     0
 42
0.000000001
 43
0.00000001
 40
0.0
 40
0.0
 40
0.0
 40
0.0
 40
0.0566493755491418
 40
0.1131008062509734
 40
0.1593752132747689
 40
0.1828764798110585
 40
0.2063365488122119
 40
0.2269682174604133
 40
0.2476172969764197
 40
0.2729859935722032
 40
0.298406374140287
 40
0.3423721184895814
 40
0.3864478576089526
 40
0.4427268859403671
 40
0.4992171431703364
 40
0.5556095775990126
 40
0.6371440795987313
 40
0.7189595456128438
 40
0.8005326325922681
 40
0.9002361296655846
 40
1.0
 40
1.0
 40
1.0
 40
1.0
 10
6298.58868760434
 20
5197.804587360775
 30
0.0
 10
6298.560670072467
 20
5198.504855557913
 30
0.0
 10
6298.504732907883
 20
5199.902945067647
 30
0.0
 10
6298.338250113958
 20
5201.717156010023
 30
0.0
 10
6298.108412388268
 20
5202.953313518719
 30
0.0
 10
6297.839658149115
 20
5203.627539532846
 30
0.0
 10
6297.588852304777
 20
5203.96768609679
 30
0.0
 10
6297.291292349703
 20
5204.120226522631
 30
0.0
 10
6296.939244070042
 20
5204.1246411032
 30
0.0
 10
6296.513567520852
 20
5203.961332159379
 30
0.0
 10
6295.901517819118
 20
5203.568655473551
 30
0.0
 10
6295.102904024798
 20
5202.897726353152
 30
0.0
 10
6294.0215613022
 20
5201.854844581741
 30
0.0
 10
6292.77183112352
 20
5200.595169918181
 30
0.0
 10
6291.370265182568
 20
5199.121459816867
 30
0.0
 10
6289.724453995044
 20
5197.331333864634
 30
0.0
 10
6287.856505211602
 20
5195.186432819825
 30
0.0
 10
6285.862056574165
 20
5192.631931988792
 30
0.0
 10
6283.907423539747
 20
5189.707711599865
 30
0.0
 10
6282.121938874841
 20
5186.375059802698
 30
0.0
 10
6281.191492991349
 20
5183.86649985462
 30
0.0
 10
6280.726129239472
 20
5182.611840244685
 30
0.0
  0
SPLINE
  5
B2
330
1F
100
AcDbEntity
  8
0
  6
Continuous
 62
     7
370
    25
100
AcDbSpline
210
0.0
220
0.0
230
1.0
 70
     8
 71
     3
 72
    37
 73
    33
 74
     0
 42
0.000000001
 43
0.00000001
 40
0.0
 40
0.0
 40
0.0
 40
0.0
 40
0.0399938897398287
 40
0.0800801217400319
 40
0.12008573549917
 40
0.1599695151703343
 40
0.1985197587530783
 40
0.237251719114519
 40
0.2760170805310532
 40
0.3146145125559522
 40
0.3631551989031574
 40
0.411852635569419
 40
0.4605612499152215
 40
0.5091784777827553
 40
0.5576515693519003
 40
0.5950408093087135
 40
0.6324858329758454
 40
0.6699766338034288
 40
0.7074290629649721
 40
0.7363646490276894
 40
0.7654288856890645
 40
0.7944808525170403
 40
0.8234357232905863
 40
0.8522788852438157
 40
0.8708757911174105
 40
0.8895090607944417
 40
0.9080784453632519
 40
0.9267869182420815
 40
0.9455612992770251
 40
0.9642660208320329
 40
0.9821322115133958
 40
1.0
 40
1.0
 40
1.0
 40
1.0
 10
6249.222928708466
 20
5197.804587360774
 30
0.0
 10
6249.239117675932
 20
5199.765183024873
 30
0.0
 10
6249.27153298972
 20
5203.690901190458
 30
0.0
 10
6249.354967521595
 20
5209.533350317629
 30
0.0
 10
6249.473902900926
 20
5215.294953096236
 30
0.0
 10
6249.634774348946
 20
5220.854591485312
 30
0.0
 10
6249.844874890413
 20
5226.139881375861
 30
0.0
 10
6250.100069643523
 20
5231.112921581881
 30
0.0
 10
6250.394421613292
 20
5235.810907107877
 30
0.0
 10
6250.756320235419
 20
5240.541799255542
 30
0.0
 10
6251.177772003667
 20
5245.32714461886
 30
0.0
 10
6251.653331528066
 20
5250.212524956329
 30
0.0
 10
6252.155315882099
 20
5254.76334078583
 30
0.0
 10
6252.682708525907
 20
5258.930319009223
 30
0.0
 10
6253.192131246293
 20
5262.392931882765
 30
0.0
 10
6253.679485977802
 20
5265.15839206083
 30
0.0
 10
6254.13743914733
 20
5267.358453311619
 30
0.0
 10
6254.604001753828
 20
5269.313011268288
 30
0.0
 10
6255.039828484851
 20
5270.985721306256
 30
0.0
 10
6255.444911622625
 20
5272.367488757413
 30
0.0
 10
6255.820673758576
 20
5273.365027520278
 30
0.0
 10
6256.201988344115
 20
5274.087790125072
 30
0.0
 10
6256.586488482483
 20
5274.475250554498
 30
0.0
 10
6256.925854278867
 20
5274.496300588356
 30
0.0
 10
6257.218181780542
 20
5274.211146417031
 30
0.0
 10
6257.46240976322
 20
5273.701097114218
 30
0.0
 10
6257.699896981179
 20
5272.903522542116
 30
0.0
 10
6257.928587030943
 20
5271.785968275323
 30
0.0
 10
6258.143411808827
 20
5270.378198886207
 30
0.0
 10
6258.3391124297
 20
5268.71657520959
 30
0.0
 10
6258.513316257123
 20
5266.84971136416
 30
0.0
 10
6258.610794679031
 20
5265.459793123815
 30
0.0
 10
6258.659536069306
 20
5264.764802929317
 30
0.0
  0
SPLINE
  5
B3
330
1F
100
AcDbEntity
  8
0
  6
Continuous
 62
     7
370
    25
100
AcDbSpline
210
0.0
220
0.0
230
1.0
 70
     8
 71
     3
 72
    29
 73
    25
 74
     0
 42
0.000000001
 43
0.00000001
 40
0.0
 40
0.0
 40
0.0
 40
0.0
 40
0.0000250076527263
 40
0.0001171018285413
 40
0.0002077559268611
 40
0.0004122419895213
 40
0.0006944744480768
 40
0.0010269942724442
 40
0.0015090786232996
 40
0.0022201918660433
 40
0.003264665916481
 40
0.0063671454320658
 40
0.0125969348519211
 40
0.0254545194567434
 40
0.0579300341587045
 40
0.1171057698987852
 40
0.2652789995673221
 40
0.4315406979104135
 40
0.6064883157113754
 40
0.6967431788846244
 40
0.7869911345671459
 40
0.8796986412565675
 40
0.9723976049128696
 40
1.0
 40
1.0
 40
1.0
 40
1.0
 10
6248.509580319794
 20
5155.088680263912
 30
0.0
 10
6248.509666714857
 20
5155.088714681494
 30
0.0
 10
6248.510071271818
 20
5155.088875846623
 30
0.0
 10
6248.509981154089
 20
5155.089782517995
 30
0.0
 10
6248.510452547625
 20
5155.093164267685
 30
0.0
 10
6248.510773862242
 20
5155.099997600948
 30
0.0
 10
6248.511628541957
 20
5155.110582463692
 30
0.0
 10
6248.512024430868
 20
5155.125481944037
 30
0.0
 10
6248.512508328641
 20
5155.14664713417
 30
0.0
 10
6248.513282975834
 20
5155.178223632655
 30
0.0
 10
6248.514779693861
 20
5155.247414996079
 30
0.0
 10
6248.516581407952
 20
5155.396699347771
 30
0.0
 10
6248.519986918544
 20
5155.717366454477
 30
0.0
 10
6248.525590216888
 20
5156.464464811879
 30
0.0
 10
6248.535521230968
 20
5157.980434545692
 30
0.0
 10
6248.557504435786
 20
5161.459623080665
 30
0.0
 10
6248.598123293486
 20
5166.875059210895
 30
0.0
 10
6248.672838555742
 20
5173.945278883916
 30
0.0
 10
6248.766401416782
 20
5180.137504000029
 30
0.0
 10
6248.866085313543
 20
5185.18852092591
 30
0.0
 10
6248.955265102937
 20
5189.037268820287
 30
0.0
 10
6249.060049796114
 20
5192.875602086926
 30
0.0
 10
6249.152140899332
 20
5195.800727224544
 30
0.0
 10
6249.209718002014
 20
5197.430618899887
 30
0.0
 10
6249.222928708466
 20
5197.804587360774
 30
0.0
  0
LINE
  5
B4
330
1F
100
AcDbEntity
  8
0
  6
Continuous
 62
     7
370
    25
100
AcDbLine
 10
6248.5095803198
 20
5202.0167283978
 30
0.0
 11
6248.5095803198
 21
5155.0886802639
 31
0.0
  0
SPLINE
  5
B5
330
1F
100
AcDbEntity
  8
0
  6
Continuous
 62
     7
370
    25
100
AcDbSpline
210
0.0
220
0.0
230
1.0
 70
     8
 71
     3
 72
    13
 73
     9
 74
     0
 42
0.000000001
 43
0.00000001
 40
0.0
 40
0.0
 40
0.0
 40
0.0
 40
0.166791469947399
 40
0.3335919220936606
 40
0.5023567061558819
 40
0.6711225386790128
 40
0.8353430920028794
 40
1.0
 40
1.0
 40
1.0
 40
1.0
 10
6249.359065717133
 20
5233.354585644161
 30
0.0
 10
6249.289332696614
 20
5231.699022674557
 30
0.0
 10
6249.149862900256
 20
5228.387807578534
 30
0.0
 10
6248.972070192886
 20
5223.248202653893
 30
0.0
 10
6248.815710684746
 20
5217.999860411759
 30
0.0
 10
6248.687079598531
 20
5212.691660297982
 30
0.0
 10
6248.582252513578
 20
5207.362803280042
 30
0.0
 10
6248.533825801912
 20
5203.800328922389
 30
0.0
 10
6248.509580319795
 20
5202.016728397762
 30
0.0
  0
SPLINE
  5
B6
330
1F
100
AcDbEntity
  8
0
  6
Continuous
 62
     7
370
    25
100
AcDbSpline
210
0.0
220
0.0
230
1.0
 70
     8
 71
     3
 72
    27
 73
    23
 74
     0
 42
0.000000001
 43
0.00000001
 40
0.0
 40
0.0
 40
0.0
 40
0.0
 40
0.0694656148004557
 40
0.1389173016383435
 40
0.2104044018262743
 40
0.2818841900815867
 40
0.3378673295348282
 40
0.3938455691029231
 40
0.4512592816793692
 40
0.5086596943136373
 40
0.5618214511018172
 40
0.6155368464334164
 40
0.6593822797162402
 40
0.7041156637295914
 40
0.7491542706805016
 40
0.7715727114595955
 40
0.7948804294238877
 40
0.8336159132838483
 40
0.8610798304467564
 40
0.8892882623213821
 40
0.9439926359916582
 40
1.0
 40
1.0
 40
1.0
 40
1.0
 10
6267.085487073335
 20
5182.611840244685
 30
0.0
 10
6266.770335646032
 20
5183.488170665618
 30
0.0
 10
6266.140095979774
 20
5185.240655801885
 30
0.0
 10
6264.937895305067
 20
5187.797076349833
 30
0.0
 10
6263.53162743373
 20
5190.274044179512
 30
0.0
 10
6262.046225123663
 20
5192.479213921147
 30
0.0
 10
6260.571307528872
 20
5194.409702148706
 30
0.0
 10
6259.155553145019
 20
5196.1134898957
 30
0.0
 10
6257.703237795507
 20
5197.752763227936
 30
0.0
 10
6256.281121425362
 20
5199.286651891116
 30
0.0
 10
6254.924892143606
 20
5200.705843915346
 30
0.0
 10
6253.730933295498
 20
5201.915945514133
 30
0.0
 10
6252.664528381413
 20
5202.933740698187
 30
0.0
 10
6251.730632660482
 20
5203.717602660839
 30
0.0
 10
6251.023271238386
 20
5204.110000615097
 30
0.0
 10
6250.535922698713
 20
5204.131574311756
 30
0.0
 10
6250.148148597327
 20
5203.931025909135
 30
0.0
 10
6249.845082051181
 20
5203.388762322817
 30
0.0
 10
6249.629273423645
 20
5202.569718860692
 30
0.0
 10
6249.447913012074
 20
5201.452858457258
 30
0.0
 10
6249.308507033667
 20
5199.862672913342
 30
0.0
 10
6249.251677762187
 20
5198.49597752265
 30
0.0
 10
6249.222928708466
 20
5197.804587360774
 30
0.0
  0
SPLINE
  5
B7
330
1F
100
AcDbEntity
  8
0
  6
Continuous
 62
     7
370
    25
100
AcDbSpline
210
0.0
220
0.0
230
1.0
 70
     8
 71
     3
 72
     9
 73
     5
 74
     0
 42
0.000000001
 43
0.00000001
 40
0.0
 40
0.0
 40
0.0
 40
0.0
 40
0.628035036351234
 40
1.0
 40
1.0
 40
1.0
 40
1.0
 10
6267.085487073335
 20
5182.611840244685
 30
0.0
 10
6267.436207088031
 20
5181.553656145622
 30
0.0
 10
6267.994647293428
 20
5179.868743620341
 30
0.0
 10
6268.511935963918
 20
5178.170555434623
 30
0.0
 10
6268.704349225434
 20
5177.538888927852
 30
0.0
  0
SPLINE
  5
B8
330
1F
100
AcDbEntity
  8
0
  6
Continuous
 62
     7
370
    25
100
AcDbSpline
210
0.0
220
0.0
230
1.0
 70
     8
 71
     3
 72
     9
 73
     5
 74
     0
 42
0.000000001
 43
0.00000001
 40
0.0
 40
0.0
 40
0.0
 40
0.0
 40
0.7991939878184007
 40
1.0
 40
1.0
 40
1.0
 40
1.0
 10
6279.107028668794
 20
5177.538888927852
 30
0.0
 10
6279.525682345479
 20
5178.894506986414
 30
0.0
 10
6280.049527223028
 20
5180.590738538733
 30
0.0
 10
6280.612983776025
 20
5182.273859447065
 30
0.0
 10
6280.726129239472
 20
5182.611840244685
 30
0.0
  0
SPLINE
  5
B9
330
1F
100
AcDbEntity
  8
0
  6
Continuous
 62
     7
370
    25
100
AcDbSpline
210
0.0
220
0.0
230
1.0
 70
     8
 71
     3
 72
    13
 73
     9
 74
     0
 42
0.000000001
 43
0.00000001
 40
0.0
 40
0.0
 40
0.0
 40
0.0
 40
0.1534817756405627
 40
0.324692775993913
 40
0.4959157928055604
 40
0.6671097606022467
 40
0.838305043278507
 40
1.0
 40
1.0
 40
1.0
 40
1.0
 10
6279.107028668794
 20
5177.538888927852
 30
0.0
 10
6278.607213578081
 20
5177.77964694081
 30
0.0
 10
6277.549847981353
 20
5178.288973779412
 30
0.0
 10
6275.803097964159
 20
5178.728828887178
 30
0.0
 10
6273.950346611489
 20
5178.901252435949
 30
0.0
 10
6272.096410057172
 20
5178.743705296307
 30
0.0
 10
6270.317086478906
 20
5178.311262091004
 30
0.0
 10
6269.231602128371
 20
5177.791401227389
 30
0.0
 10
6268.704349225434
 20
5177.538888927852
 30
0.0
  0
LINE
  5
BA
330
1F
100
AcDbEntity
  8
0
  6
Continuous
 62
     7
370
    25
100
AcDbLine
 10
6273.9056889471
 20
5139.8463420834
 30
0.0
 11
6248.4058682379
 21
5139.8463420834
 31
0.0
  0
LINE
  5
BB
330
1F
100
AcDbEntity
  8
0
  6
Continuous
 62
     7
370
    25
100
AcDbLine
 10
6248.4058682379
 20
5155.1523380245
 30
0.0
 11
6248.4058682379
 21
5139.8469381298
 31
0.0
  0
SPLINE
  5
BC
330
1F
100
AcDbEntity
  8
0
  6
Continuous
 62
     7
370
    25
100
AcDbSpline
210
0.0
220
0.0
230
1.0
 70
     8
 71
     3
 72
     9
 73
     5
 74
     0
 42
0.000000001
 43
0.00000001
 40
0.0
 40
0.0
 40
0.0
 40
0.0
 40
0.2266048063517313
 40
1.0
 40
1.0
 40
1.0
 40
1.0
 10
6248.405868237885
 20
5155.152338024533
 30
0.0
 10
6248.406725117555
 20
5155.147575514893
 30
0.0
 10
6248.410506501027
 20
5155.126558707192
 30
0.0
 10
6248.466373246986
 20
5155.105199427876
 30
0.0
 10
6248.509580319794
 20
5155.088680263912
 30
0.0
  0
SPLINE
  5
BD
330
1F
100
AcDbEntity
  8
0
  6
Continuous
 62
     7
370
    25
100
AcDbSpline
210
0.0
220
0.0
230
1.0
 70
     8
 71
     3
 72
    23
 73
    19
 74
     0
 42
0.000000001
 43
0.00000001
 40
0.0
 40
0.0
 40
0.0
 40
0.0
 40
0.0809477986492464
 40
0.142068531346695
 40
0.2032098018861745
 40
0.2671210964543985
 40
0.3310348259090694
 40
0.3985362902947495
 40
0.4659952016761263
 40
0.5300150981132101
 40
0.5940189067518902
 40
0.6521065188401766
 40
0.7102184920995386
 40
0.7696170997931988
 40
0.8290378323587974
 40
0.8951664219745192
 40
0.9612854520543976
 40
1.0
 40
1.0
 40
1.0
 40
1.0
 10
6273.019725507173
 20
5156.882064815914
 30
0.0
 10
6272.250782414572
 20
5156.991014241374
 30
0.0
 10
6270.901238416122
 20
5157.182227407443
 30
0.0
 10
6269.103824925964
 20
5157.904900362179
 30
0.0
 10
6267.584524397583
 20
5158.784487324708
 30
0.0
 10
6266.215859078569
 20
5159.915475161016
 30
0.0
 10
6265.005753352489
 20
5161.292224303751
 30
0.0
 10
6264.025062964168
 20
5162.892301130786
 30
0.0
 10
6263.32239550721
 20
5164.651743868762
 30
0.0
 10
6262.941097299253
 20
5166.488738545073
 30
0.0
 10
6262.866320609137
 20
5168.278634352991
 30
0.0
 10
6263.076184993192
 20
5169.990167375483
 30
0.0
 10
6263.519084845914
 20
5171.594672243041
 30
0.0
 10
6264.199013744515
 20
5173.106642613896
 30
0.0
 10
6265.126711857258
 20
5174.551957322406
 30
0.0
 10
6266.312068892585
 20
5175.869367614448
 30
0.0
 10
6267.544044341266
 20
5176.871517027404
 30
0.0
 10
6268.391418082894
 20
5177.358900500538
 30
0.0
 10
6268.704349225434
 20
5177.538888927852
 30
0.0
  0
SPLINE
  5
BE
330
1F
100
AcDbEntity
  8
0
  6
Continuous
 62
     7
370
    25
100
AcDbSpline
210
0.0
220
0.0
230
1.0
 70
     8
 71
     3
 72
    21
 73
    17
 74
     0
 42
0.000000001
 43
0.00000001
 40
0.0
 40
0.0
 40
0.0
 40
0.0
 40
0.1538281167369964
 40
0.3668533165383019
 40
0.5561474074631723
 40
0.9032795266290455
 40
0.9913610153566557
 40
0.9942188229357389
 40
0.9960951687898834
 40
0.9973564783016771
 40
0.9982161984288138
 40
0.9988033690211287
 40
0.9994154189452973
 40
0.999653224593227
 40
0.9998874151783035
 40
1.0
 40
1.0
 40
1.0
 40
1.0
 10
6273.019725507173
 20
5156.882064815914
 30
0.0
 10
6273.100462391001
 20
5156.010262037234
 30
0.0
 10
6273.293005823426
 20
5153.931163966545
 30
0.0
 10
6273.441199463886
 20
5150.768610722997
 30
0.0
 10
6273.513675720497
 20
5146.502387030949
 30
0.0
 10
6273.648170367642
 20
5142.958537982603
 30
0.0
 10
6273.764058376557
 20
5140.45782008965
 30
0.0
 10
6273.866292417812
 20
5139.939473152153
 30
0.0
 10
6273.874310458481
 20
5139.906296615837
 30
0.0
 10
6273.880642486482
 20
5139.884437661633
 30
0.0
 10
6273.886124085396
 20
5139.869995356714
 30
0.0
 10
6273.891009511948
 20
5139.859387517834
 30
0.0
 10
6273.895393641494
 20
5139.852276825836
 30
0.0
 10
6273.90010389187
 20
5139.848305365204
 30
0.0
 10
6273.903062171094
 20
5139.846537069854
 30
0.0
 10
6273.905045149302
 20
5139.846389872702
 30
0.0
 10
6273.905688947114
 20
5139.84634208337
 30
0.0
  0
LINE
  5
BF
330
1F
100
AcDbEntity
  8
0
  6
Continuous
 62
     7
370
    25
100
AcDbLine
 10
6299.3017975744
 20
5155.0886802639
 30
0.0
 11
6299.3017975744
 21
5139.9803333248
 31
0.0
  0
LINE
  5
C0
330
1F
100
AcDbEntity
  8
0
  6
Continuous
 62
     7
370
    25
100
AcDbLine
 10
6299.3017975744
 20
5139.9803333248
 30
0.0
 11
6299.3017975744
 21
5139.8463420834
 31
0.0
  0
LINE
  5
C1
330
1F
100
AcDbEntity
  8
0
  6
Continuous
 62
     7
370
    25
100
AcDbLine
 10
6299.3017975744
 20
5139.8463420834
 30
0.0
 11
6273.9056889471
 21
5139.8463420834
 31
0.0
  0
SPLINE
  5
C2
330
1F
100
AcDbEntity
  8
0
  6
Continuous
 62
     7
370
    25
100
AcDbSpline
210
0.0
220
0.0
230
1.0
 70
     8
 71
     3
 72
    18
 73
    14
 74
     0
 42
0.000000001
 43
0.00000001
 40
0.0
 40
0.0
 40
0.0
 40
0.0
 40
0.0000424719942637
 40
0.00021364647837
 40
0.0004653987904586
 40
0.0009517636484903
 40
0.0028276660116652
 40
0.0102754115845219
 40
0.03994340992838
 40
0.1585097319292893
 40
0.3956176727246734
 40
0.6327484030354465
 40
1.0
 40
1.0
 40
1.0
 40
1.0
 10
6273.905688947114
 20
5139.84634208337
 30
0.0
 10
6273.9059269122
 20
5139.846382544501
 30
0.0
 10
6273.907123945762
 20
5139.846586075745
 30
0.0
 10
6273.909806505678
 20
5139.846909601781
 30
0.0
 10
6273.914039304749
 20
5139.850215889815
 30
0.0
 10
6273.922990883998
 20
5139.862117021888
 30
0.0
 10
6273.9423044115
 20
5139.915411284775
 30
0.0
 10
6273.98048450586
 20
5140.133731013449
 30
0.0
 10
6274.071913357456
 20
5141.016220263111
 30
0.0
 10
6274.201995528372
 20
5143.204919465135
 30
0.0
 10
6274.298564189053
 20
5146.577851715275
 30
0.0
 10
6274.356403023485
 20
5151.367519780619
 30
0.0
 10
6274.627288089052
 20
5154.797714506378
 30
0.0
 10
6274.791890805634
 20
5156.882064815914
 30
0.0
  0
SPLINE
  5
C3
330
1F
100
AcDbEntity
  8
0
  6
Continuous
 62
     7
370
    25
100
AcDbSpline
210
0.0
220
0.0
230
1.0
 70
     8
 71
     3
 72
    23
 73
    19
 74
     0
 42
0.000000001
 43
0.00000001
 40
0.0
 40
0.0
 40
0.0
 40
0.0
 40
0.038701902142677
 40
0.1020096010129067
 40
0.1653206436814068
 40
0.2343764241321927
 40
0.3033879880781357
 40
0.3697110482022272
 40
0.4360053025481475
 40
0.4948771891778979
 40
0.5537714079742527
 40
0.6123185403003487
 40
0.6708860527491308
 40
0.7350675323041587
 40
0.799253630140294
 40
0.8667509974078369
 40
0.9342174293076021
 40
1.0
 40
1.0
 40
1.0
 40
1.0
 10
6279.107028668794
 20
5177.538888927852
 30
0.0
 10
6279.419898386187
 20
5177.359003933848
 30
0.0
 10
6280.244553332672
 20
5176.884867122715
 30
0.0
 10
6281.43925286251
 20
5175.920441778366
 30
0.0
 10
6282.663242201162
 20
5174.58907443616
 30
0.0
 10
6283.676964254822
 20
5173.015119055169
 30
0.0
 10
6284.427011640364
 20
5171.246926976264
 30
0.0
 10
6284.851364717199
 20
5169.374155906391
 30
0.0
 10
6284.951911714017
 20
5167.536370128711
 30
0.0
 10
6284.751655305174
 20
5165.778486949034
 30
0.0
 10
6284.312180522244
 20
5164.150021845405
 30
0.0
 10
6283.632827271397
 20
5162.624431422439
 30
0.0
 10
6282.716113510663
 20
5161.183752665154
 30
0.0
 10
6281.551329392807
 20
5159.871787105716
 30
0.0
 10
6280.125336001645
 20
5158.708245219925
 30
0.0
 10
6278.483891805709
 20
5157.789925509876
 30
0.0
 10
6276.682817539107
 20
5157.129743738499
 30
0.0
 10
6275.416867132083
 20
5156.963925979775
 30
0.0
 10
6274.791890805634
 20
5156.882064815914
 30
0.0
  0
SPLINE
  5
C4
330
1F
100
AcDbEntity
  8
0
  6
Continuous
 62
     7
370
    25
100
AcDbSpline
210
0.0
220
0.0
230
1.0
 70
     8
 71
     3
 72
     9
 73
     5
 74
     0
 42
0.000000001
 43
0.00000001
 40
0.0
 40
0.0
 40
0.0
 40
0.0
 40
0.4777704694636971
 40
1.0
 40
1.0
 40
1.0
 40
1.0
 10
6273.019725507173
 20
5156.882064815914
 30
0.0
 10
6273.301923892873
 20
5156.864748768982
 30
0.0
 10
6273.892580711861
 20
5156.828505325659
 30
0.0
 10
6274.483365528298
 20
5156.863690223324
 30
0.0
 10
6274.791890805634
 20
5156.882064815914
 30
0.0
  0
SPLINE
  5
C5
330
1F
100
AcDbEntity
  8
0
  6
Continuous
 62
     7
370
    25
100
AcDbSpline
210
0.0
220
0.0
230
1.0
 70
     8
 71
     3
 72
    14
 73
    10
 74
     0
 42
0.000000001
 43
0.00000001
 40
0.0
 40
0.0
 40
0.0
 40
0.0
 40
0.145921693947716
 40
0.2919969517420177
 40
0.5178767597734799
 40
0.6951212510860849
 40
0.8280220087536903
 40
0.9888854304844844
 40
1.0
 40
1.0
 40
1.0
 40
1.0
 10
6248.509580319795
 20
5202.016728397762
 30
0.0
 10
6248.487040690162
 20
5199.750436769276
 30
0.0
 10
6248.441937710833
 20
5195.215468531355
 30
0.0
 10
6248.415473196957
 20
5187.13606712101
 30
0.0
 10
6248.407057469707
 20
5178.549682761231
 30
0.0
 10
6248.4060510291
 20
5170.161899314799
 30
0.0
 10
6248.405812481961
 20
5162.79011167538
 30
0.0
 10
6248.405868984974
 20
5158.018116624868
 30
0.0
 10
6248.405868283236
 20
5155.326304106698
 30
0.0
 10
6248.405868237885
 20
5155.152338024532
 30
0.0
  0
SPLINE
  5
C6
330
1F
100
AcDbEntity
  8
0
  6
Continuous
 62
     7
370
    25
100
AcDbSpline
210
0.0
220
0.0
230
1.0
 70
     8
 71
     3
 72
    14
 73
    10
 74
     0
 42
0.000000001
 43
0.00000001
 40
0.0
 40
0.0
 40
0.0
 40
0.0
 40
0.0111145692903431
 40
0.1719779877621705
 40
0.3048787427373106
 40
0.4821232304590813
 40
0.708003040477092
 40
0.853930292160398
 40
1.0
 40
1.0
 40
1.0
 40
1.0
 10
6299.405748074922
 20
5155.152338024532
 30
0.0
 10
6299.405748025038
 20
5155.326304106693
 30
0.0
 10
6299.405747253186
 20
5158.018116624776
 30
0.0
 10
6299.405809401904
 20
5162.79011168218
 30
0.0
 10
6299.405547019438
 20
5170.161899292506
 30
0.0
 10
6299.404664240673
 20
5178.549682992576
 30
0.0
 10
6299.395713929733
 20
5187.133752864738
 30
0.0
 10
6299.369773941489
 20
5195.213162032027
 30
0.0
 10
6299.324463731928
 20
5199.748135452095
 30
0.0
 10
6299.301797574433
 20
5202.016728397762
 30
0.0
  0
LINE
  5
C7
330
1F
100
AcDbEntity
  8
0
  6
Continuous
 62
     7
370
    25
100
AcDbLine
 10
6299.4057480749
 20
5139.8463420834
 30
0.0
 11
6299.3017975744
 21
5139.8463420834
 31
0.0
  0
SPLINE
  5
C8
330
1F
100
AcDbEntity
  8
0
  6
Continuous
 62
     8
370
    25
100
AcDbSpline
210
0.0
220
0.0
230
1.0
 70
     8
 71
     3
 72
    13
 73
     9
 74
     0
 42
0.000000001
 43
0.00000001
 40
0.0
 40
0.0
 40
0.0
 40
0.0
 40
0.2672338537301336
 40
0.4342570798986906
 40
0.5937856386920379
 40
0.7582567343270248
 40
0.9372905164465893
 40
1.0
 40
1.0
 40
1.0
 40
1.0
 10
6289.152080243501
 20
5264.764802929317
 30
0.0
 10
6289.162280990699
 20
5264.628868861082
 30
0.0
 10
6289.178857283821
 20
5264.407974948478
 30
0.0
 10
6289.190026132043
 20
5264.135587136928
 30
0.0
 10
6289.194126063075
 20
5263.923416574862
 30
0.0
 10
6289.19194414813
 20
5263.7229626599
 30
0.0
 10
6289.187149064579
 20
5263.569028695283
 30
0.0
 10
6289.179370431505
 20
5263.490169659271
 30
0.0
 10
6289.177352612885
 20
5263.469713207637
 30
0.0
  0
SPLINE
  5
C9
330
1F
100
AcDbEntity
  8
0
  6
Continuous
 62
     8
370
    25
100
AcDbSpline
210
0.0
220
0.0
230
1.0
 70
     8
 71
     3
 72
    13
 73
     9
 74
     0
 42
0.000000001
 43
0.00000001
 40
0.0
 40
0.0
 40
0.0
 40
0.0
 40
0.2793517075928574
 40
0.4539486861814021
 40
0.6207111479230673
 40
0.792639742220619
 40
0.9797919014766615
 40
1.0
 40
1.0
 40
1.0
 40
1.0
 10
6258.659536069306
 20
5264.764802929317
 30
0.0
 10
6258.649335404506
 20
5264.628864155552
 30
0.0
 10
6258.632759245285
 20
5264.407962596424
 30
0.0
 10
6258.62158968758
 20
5264.135615300366
 30
0.0
 10
6258.61749206022
 20
5263.923313643117
 30
0.0
 10
6258.619664899215
 20
5263.723377499831
 30
0.0
 10
6258.62287515721
 20
5263.584411801411
 30
0.0
 10
6258.629559197253
 20
5263.519111536909
 30
0.0
 10
6258.630210584077
 20
5263.512747761165
 30
0.0
  0
LINE
  5
CA
330
1F
100
AcDbEntity
  8
0
  6
Continuous
 62
     8
370
    25
100
AcDbLine
 10
6289.2405335363
 20
5277.6547841992
 30
0.0
 11
6289.3306557592
 21
5277.8836660351
 31
0.0
  0
SPLINE
  5
CB
330
1F
100
AcDbEntity
  8
0
  6
Continuous
 62
     8
370
    25
100
AcDbSpline
210
0.0
220
0.0
230
1.0
 70
     8
 71
     3
 72
     9
 73
     5
 74
     0
 42
0.000000001
 43
0.00000001
 40
0.0
 40
0.0
 40
0.0
 40
0.0
 40
0.1868425075610221
 40
1.0
 40
1.0
 40
1.0
 40
1.0
 10
6258.482867902192
 20
5277.87055301324
 30
0.0
 10
6258.485426419172
 20
5277.878520631756
 30
0.0
 10
6258.499119860848
 20
5277.921164131991
 30
0.0
 10
6258.538809140964
 20
5277.774249187234
 30
0.0
 10
6258.57108277646
 20
5277.654784199153
 30
0.0
  0
SPLINE
  5
CC
330
1F
100
AcDbEntity
  8
0
  6
Continuous
 62
     8
370
    25
100
AcDbSpline
210
0.0
220
0.0
230
1.0
 70
     8
 71
     3
 72
    22
 73
    18
 74
     0
 42
0.000000001
 43
0.00000001
 40
0.0
 40
0.0
 40
0.0
 40
0.0
 40
0.107199852734816
 40
0.2143632624136792
 40
0.2690154546231907
 40
0.3237849071106336
 40
0.3784463812657041
 40
0.4329504528749557
 40
0.4859925317965775
 40
0.5390294171645638
 40
0.594244309020198
 40
0.6495022333981201
 40
0.7481861031169588
 40
0.8469020725062961
 40
0.9141733287102012
 40
0.9814864603887207
 40
1.0
 40
1.0
 40
1.0
 40
1.0
 10
6280.726129239471
 20
5182.611840244686
 30
0.0
 10
6280.718597072037
 20
5185.303138394732
 30
0.0
 10
6280.703535297763
 20
5190.684819776316
 30
0.0
 10
6280.659241659134
 20
5197.430351140718
 30
0.0
 10
6280.592156095848
 20
5202.834978593963
 30
0.0
 10
6280.513775617018
 20
5206.899790668207
 30
0.0
 10
6280.398239683363
 20
5210.906370067402
 30
0.0
 10
6280.23691680155
 20
5214.778896401785
 30
0.0
 10
6280.021773856147
 20
5218.466676097411
 30
0.0
 10
6279.755380306004
 20
5221.986520572861
 30
0.0
 10
6279.438111850336
 20
5225.307891944361
 30
0.0
 10
6279.019597880392
 20
5229.251011748611
 30
0.0
 10
6278.55125316571
 20
5233.701291322246
 30
0.0
 10
6278.046367386747
 20
5238.076889322747
 30
0.0
 10
6277.550471313578
 20
5241.679291257691
 30
0.0
 10
6277.208009645622
 20
5243.928613922605
 30
0.0
 10
6276.996610124423
 20
5245.020642816692
 30
0.0
 10
6276.951009457978
 20
5245.256202694331
 30
0.0
  0
SPLINE
  5
CD
330
1F
100
AcDbEntity
  8
0
  6
Continuous
 62
     8
370
    25
100
AcDbSpline
210
0.0
220
0.0
230
1.0
 70
     8
 71
     3
 72
    23
 73
    19
 74
     0
 42
0.000000001
 43
0.00000001
 40
0.0
 40
0.0
 40
0.0
 40
0.0
 40
0.0237216130781691
 40
0.0895864968745832
 40
0.1554118579926298
 40
0.222894284798323
 40
0.2903972722573577
 40
0.3578494842909962
 40
0.4101525794210493
 40
0.4624213997762622
 40
0.5166277304221174
 40
0.5708415285162424
 40
0.6236408947676004
 40
0.6764600375864501
 40
0.7303221176111645
 40
0.7841974621267376
 40
0.8920175081609969
 40
1.0
 40
1.0
 40
1.0
 40
1.0
 10
6270.858699506196
 20
5245.243685718929
 30
0.0
 10
6270.800620960194
 20
5244.939118422745
 30
0.0
 10
6270.581282862798
 20
5243.788896596016
 30
0.0
 10
6270.234979856495
 20
5241.500603923113
 30
0.0
 10
6269.81342064084
 20
5238.413825713098
 30
0.0
 10
6269.423019270104
 20
5235.128282405464
 30
0.0
 10
6269.044493778137
 20
5231.668285059417
 30
0.0
 10
6268.691347678423
 20
5228.304422142564
 30
0.0
 10
6268.346810186563
 20
5225.037005793764
 30
0.0
 10
6268.040256239047
 20
5221.798604701372
 30
0.0
 10
6267.777371414455
 20
5218.283906449589
 30
0.0
 10
6267.564642611424
 20
5214.571558413195
 30
0.0
 10
6267.407999662161
 20
5210.751481088184
 30
0.0
 10
6267.296650927664
 20
5206.85382217844
 30
0.0
 10
6267.220062667046
 20
5202.876950227104
 30
0.0
 10
6267.15258915876
 20
5197.499745980889
 30
0.0
 10
6267.110188567959
 20
5190.738093721778
 30
0.0
 10
6267.093725035862
 20
5185.321950408061
 30
0.0
 10
6267.085487073335
 20
5182.611840244685
 30
0.0
  0
LINE
  5
CE
330
1F
100
AcDbEntity
  8
0
  6
Continuous
 62
     7
370
    25
100
AcDbLine
 10
6523.640088504
 20
5139.8463420834
 30
0.0
 11
6523.640088504
 21
5138.346331593
 31
0.0
  0
LINE
  5
CF
330
1F
100
AcDbEntity
  8
0
  6
Continuous
 62
     7
370
    25
100
AcDbLine
 10
6573.6400855238
 20
5138.346331593
 30
0.0
 11
6573.6400855238
 21
5139.8463420834
 31
0.0
  0
LINE
  5
D0
330
1F
100
AcDbEntity
  8
0
  6
Continuous
 62
     7
370
    25
100
AcDbLine
 10
6574.1402131969
 20
5156.8464212383
 30
0.0
 11
6574.1402131969
 21
5177.0842246975
 31
0.0
  0
LINE
  5
D1
330
1F
100
AcDbEntity
  8
0
  6
Continuous
 62
     7
370
    25
100
AcDbLine
 10
6574.0883869583
 20
5156.8464212383
 30
0.0
 11
6574.1402131969
 21
5156.8464212383
 31
0.0
  0
SPLINE
  5
D2
330
1F
100
AcDbEntity
  8
0
  6
Continuous
 62
     7
370
    25
100
AcDbSpline
210
0.0
220
0.0
230
1.0
 70
     8
 71
     3
 72
     9
 73
     5
 74
     0
 42
0.000000001
 43
0.00000001
 40
0.0
 40
0.0
 40
0.0
 40
0.0
 40
0.3441481833901022
 40
1.0
 40
1.0
 40
1.0
 40
1.0
 10
6524.42323393171
 20
5185.250061031734
 30
0.0
 10
6524.401006327766
 20
5185.140758548481
 30
0.0
 10
6524.33641902202
 20
5184.823155584037
 30
0.0
 10
6524.304292716783
 20
5184.499198563378
 30
0.0
 10
6524.283222621132
 20
5184.286730762874
 30
0.0
  0
LINE
  5
D3
330
1F
100
AcDbEntity
  8
0
  6
Continuous
 62
     7
370
    25
100
AcDbLine
 10
6523.1400800401
 20
5155.7961873974
 30
0.0
 11
6523.1400800401
 21
5139.8463420834
 31
0.0
  0
SPLINE
  5
D4
330
1F
100
AcDbEntity
  8
0
  6
Continuous
 62
     7
370
    25
100
AcDbSpline
210
0.0
220
0.0
230
1.0
 70
     8
 71
     3
 72
    11
 73
     7
 74
     0
 42
0.000000001
 43
0.00000001
 40
0.0
 40
0.0
 40
0.0
 40
0.0
 40
0.2439880223191684
 40
0.5051066835573618
 40
0.7678513706241299
 40
1.0
 40
1.0
 40
1.0
 40
1.0
 10
6524.269349640061
 20
5184.18957519189
 30
0.0
 10
6524.07055847597
 20
5181.886087854324
 30
0.0
 10
6523.65901882472
 20
5177.117383068589
 30
0.0
 10
6523.356201896615
 20
5169.846484824047
 30
0.0
 10
6523.18462083147
 20
5162.685204526703
 30
0.0
 10
6523.157517542206
 20
5157.996052047951
 30
0.0
 10
6523.144803708245
 20
5155.796425815975
 30
0.0
  0
SPLINE
  5
D5
330
1F
100
AcDbEntity
  8
0
  6
Continuous
 62
     7
370
    25
100
AcDbSpline
210
0.0
220
0.0
230
1.0
 70
     8
 71
     3
 72
    10
 73
     6
 74
     0
 42
0.000000001
 43
0.00000001
 40
0.0
 40
0.0
 40
0.0
 40
0.0
 40
0.3190640551928802
 40
0.8050555107507207
 40
1.0
 40
1.0
 40
1.0
 40
1.0
 10
6676.757387583901
 20
5262.169616695796
 30
0.0
 10
6676.803148935138
 20
5262.443285752284
 30
0.0
 10
6676.918612985047
 20
5263.133801585895
 30
0.0
 10
6676.984147638842
 20
5264.003680209034
 30
0.0
 10
6676.974606438958
 20
5264.595770743366
 30
0.0
 10
6676.971874898125
 20
5264.765279766475
 30
0.0
  0
SPLINE
  5
D6
330
1F
100
AcDbEntity
  8
0
  6
Continuous
 62
     7
370
    25
100
AcDbSpline
210
0.0
220
0.0
230
1.0
 70
     8
 71
     3
 72
    19
 73
    15
 74
     0
 42
0.000000001
 43
0.00000001
 40
0.0
 40
0.0
 40
0.0
 40
0.0
 40
0.0875434205049301
 40
0.2206822614780449
 40
0.3332610989177458
 40
0.4390519121291881
 40
0.5257541406444539
 40
0.5980957783565419
 40
0.6582530810286773
 40
0.7259078995502966
 40
0.7972801793645822
 40
0.8352368515372666
 40
0.9338030594537243
 40
1.0
 40
1.0
 40
1.0
 40
1.0
 10
6634.924255078484
 20
5255.962031361018
 30
0.0
 10
6635.432914299729
 20
5256.048063680677
 30
0.0
 10
6636.715158774739
 20
5256.264936710686
 30
0.0
 10
6638.663735340546
 20
5256.516858332305
 30
0.0
 10
6640.730206583054
 20
5256.673603525691
 30
0.0
 10
6642.529804446167
 20
5256.687146386069
 30
0.0
 10
6644.087743463141
 20
5256.565967665519
 30
0.0
 10
6645.362406413054
 20
5256.342900327016
 30
0.0
 10
6646.495627198211
 20
5256.003929056859
 30
0.0
 10
6647.565188492221
 20
5255.51566844833
 30
0.0
 10
6648.474919988722
 20
5254.997187764995
 30
0.0
 10
6649.438722058447
 20
5254.239152203107
 30
0.0
 10
6650.354844031606
 20
5253.471823876615
 30
0.0
 10
6651.148229194541
 20
5252.911514266254
 30
0.0
 10
6651.466987794091
 20
5252.686398502742
 30
0.0
  0
LINE
  5
D7
330
1F
100
AcDbEntity
  8
0
  6
Continuous
 62
     7
370
    25
100
AcDbLine
 10
6676.9719345028
 20
5264.7648029293
 30
0.0
 11
6676.9719345028
 21
5274.8760156597
 31
0.0
  0
LINE
  5
D8
330
1F
100
AcDbEntity
  8
0
  6
Continuous
 62
     7
370
    25
100
AcDbLine
 10
6652.8658492023
 20
5253.2026939358
 30
0.0
 11
6655.6020004207
 21
5245.6851177181
 31
0.0
  0
LINE
  5
D9
330
1F
100
AcDbEntity
  8
0
  6
Continuous
 62
     7
370
    25
100
AcDbLine
 10
6678.1546396667
 20
5253.893630978
 30
0.0
 11
6675.4184884483
 21
5261.4112071957
 31
0.0
  0
LINE
  5
DA
330
1F
100
AcDbEntity
  8
0
  6
Continuous
 62
     7
370
    25
100
AcDbLine
 10
6655.6020004207
 20
5245.6851177181
 30
0.0
 11
6656.883738702
 21
5245.0875215496
 31
0.0
  0
LINE
  5
DB
330
1F
100
AcDbEntity
  8
0
  6
Continuous
 62
     7
370
    25
100
AcDbLine
 10
6677.5569540912
 20
5252.6118926968
 30
0.0
 11
6678.1546396667
 21
5253.893630978
 31
0.0
  0
LINE
  5
DC
330
1F
100
AcDbEntity
  8
0
  6
Continuous
 62
     7
370
    25
100
AcDbLine
 10
6573.6400855238
 20
5138.346331593
 30
0.0
 11
6523.640088504
 21
5138.346331593
 31
0.0
  0
LINE
  5
DD
330
1F
100
AcDbEntity
  8
0
  6
Continuous
 62
     7
370
    25
100
AcDbLine
 10
6663.0436701233
 20
5277.5767021145
 30
0.0
 11
6663.0436701233
 21
5264.7648029293
 31
0.0
  0
SPLINE
  5
DE
330
1F
100
AcDbEntity
  8
0
  6
Continuous
 62
     7
370
    25
100
AcDbSpline
210
0.0
220
0.0
230
1.0
 70
     8
 71
     3
 72
    37
 73
    33
 74
     0
 42
0.000000001
 43
0.00000001
 40
0.0
 40
0.0
 40
0.0
 40
0.0
 40
0.0399938897398287
 40
0.0800801217400319
 40
0.12008573549917
 40
0.1599695151703343
 40
0.1985197587530783
 40
0.237251719114519
 40
0.2760170805310532
 40
0.3146145125559522
 40
0.3631551989031574
 40
0.411852635569419
 40
0.4605612499152215
 40
0.5091784777827553
 40
0.5576515693519003
 40
0.5950408093087135
 40
0.6324858329758454
 40
0.6699766338034288
 40
0.7074290629649721
 40
0.7363646490276894
 40
0.7654288856890645
 40
0.7944808525170403
 40
0.8234357232905863
 40
0.8522788852438157
 40
0.8708757911174105
 40
0.8895090607944417
 40
0.9080784453632519
 40
0.9267869182420815
 40
0.9455612992770251
 40
0.9642660208320329
 40
0.9821322115133958
 40
1.0
 40
1.0
 40
1.0
 40
1.0
 10
6558.817170327355
 20
5197.804587360774
 30
0.0
 10
6558.996077256362
 20
5199.765183024873
 30
0.0
 10
6559.354304194234
 20
5203.690901190458
 30
0.0
 10
6560.27683260001
 20
5209.533350317629
 30
0.0
 10
6561.587926243408
 20
5215.294953096236
 30
0.0
 10
6563.364954264549
 20
5220.854591485312
 30
0.0
 10
6565.688775718473
 20
5226.139881375861
 30
0.0
 10
6568.503459310398
 20
5231.112921581881
 30
0.0
 10
6571.758039519855
 20
5235.810907107877
 30
0.0
 10
6575.754773500978
 20
5240.541799255542
 30
0.0
 10
6580.409912990618
 20
5245.32714461886
 30
0.0
 10
6585.65910640609
 20
5250.212524956329
 30
0.0
 10
6591.206002816919
 20
5254.76334078583
 30
0.0
 10
6597.030398748714
 20
5258.930319009223
 30
0.0
 10
6602.65664644029
 20
5262.392931882765
 30
0.0
 10
6608.04209442739
 20
5265.15839206083
 30
0.0
 10
6613.096514822148
 20
5267.358453311619
 30
0.0
 10
6618.251435414175
 20
5269.313011268288
 30
0.0
 10
6623.063664558899
 20
5270.985721306256
 30
0.0
 10
6627.537513393176
 20
5272.367488757413
 30
0.0
 10
6631.690552694655
 20
5273.365027520278
 30
0.0
 10
6635.901177347767
 20
5274.087790125072
 30
0.0
 10
6640.145294429768
 20
5274.475250554498
 30
0.0
 10
6643.896209888712
 20
5274.496300588356
 30
0.0
 10
6647.126483642598
 20
5274.211146417031
 30
0.0
 10
6649.819000053963
 20
5273.701097114218
 30
0.0
 10
6652.448491933365
 20
5272.903522542116
 30
0.0
 10
6654.967718553274
 20
5271.785968275323
 30
0.0
 10
6657.346223756551
 20
5270.378198886207
 30
0.0
 10
6659.502927386726
 20
5268.71657520959
 30
0.0
 10
6661.429310057199
 20
5266.84971136416
 30
0.0
 10
6662.505534060524
 20
5265.459793123815
 30
0.0
 10
6663.043670123268
 20
5264.764802929317
 30
0.0
  0
SPLINE
  5
DF
330
1F
100
AcDbEntity
  8
0
  6
Continuous
 62
     7
370
    25
100
AcDbSpline
210
0.0
220
0.0
230
1.0
 70
     8
 71
     3
 72
    29
 73
    25
 74
     0
 42
0.000000001
 43
0.00000001
 40
0.0
 40
0.0
 40
0.0
 40
0.0
 40
0.0000250076527263
 40
0.0001171018285413
 40
0.0002077559268611
 40
0.0004122419895213
 40
0.0006944744480768
 40
0.0010269942724442
 40
0.0015090786232996
 40
0.0022201918660433
 40
0.003264665916481
 40
0.0063671454320658
 40
0.0125969348519211
 40
0.0254545194567434
 40
0.0579300341587045
 40
0.1171057698987852
 40
0.2652789995673221
 40
0.4315406979104135
 40
0.6064883157113754
 40
0.6967431788846244
 40
0.7869911345671459
 40
0.8796986412565675
 40
0.9723976049128696
 40
1.0
 40
1.0
 40
1.0
 40
1.0
 10
6550.939433043648
 20
5155.088680263912
 30
0.0
 10
6550.939785175768
 20
5155.088714681494
 30
0.0
 10
6550.941434083624
 20
5155.088875846623
 30
0.0
 10
6550.944421191364
 20
5155.089782517995
 30
0.0
 10
6550.948976964918
 20
5155.093164267685
 30
0.0
 10
6550.954036919747
 20
5155.099997600948
 30
0.0
 10
6550.95946521817
 20
5155.110582463692
 30
0.0
 10
6550.965222327111
 20
5155.125481944037
 30
0.0
 10
6550.971889504714
 20
5155.14664713417
 30
0.0
 10
6550.979792934404
 20
5155.178223632655
 30
0.0
 10
6550.994063723799
 20
5155.247414996079
 30
0.0
 10
6551.01661239165
 20
5155.396699347771
 30
0.0
 10
6551.052850581822
 20
5155.717366454477
 30
0.0
 10
6551.11780585119
 20
5156.464464811879
 30
0.0
 10
6551.226007035114
 20
5157.980434545692
 30
0.0
 10
6551.468550782774
 20
5161.459623080665
 30
0.0
 10
6551.91521229053
 20
5166.875059210895
 30
0.0
 10
6552.742976872064
 20
5173.945278883916
 30
0.0
 10
6553.776817069484
 20
5180.137504000029
 30
0.0
 10
6554.876106604009
 20
5185.18852092591
 30
0.0
 10
6555.863216422962
 20
5189.037268820287
 30
0.0
 10
6557.018767795827
 20
5192.875602086926
 30
0.0
 10
6558.038609530174
 20
5195.800727224544
 30
0.0
 10
6558.671872171179
 20
5197.430618899887
 30
0.0
 10
6558.817170327355
 20
5197.804587360774
 30
0.0
  0
LINE
  5
E0
330
1F
100
AcDbEntity
  8
0
  6
Continuous
 62
     7
370
    25
100
AcDbLine
 10
6550.9394330436
 20
5202.0167283978
 30
0.0
 11
6550.9394330436
 21
5155.0886802639
 31
0.0
  0
SPLINE
  5
E1
330
1F
100
AcDbEntity
  8
0
  6
Continuous
 62
     7
370
    25
100
AcDbSpline
210
0.0
220
0.0
230
1.0
 70
     8
 71
     3
 72
    13
 73
     9
 74
     0
 42
0.000000001
 43
0.00000001
 40
0.0
 40
0.0
 40
0.0
 40
0.0
 40
0.166791469947399
 40
0.3335919220936606
 40
0.5023567061558819
 40
0.6711225386790128
 40
0.8353430920028794
 40
1.0
 40
1.0
 40
1.0
 40
1.0
 10
6560.321174328972
 20
5233.354585644161
 30
0.0
 10
6559.551146399909
 20
5231.699022674557
 30
0.0
 10
6558.011049073571
 20
5228.387807578534
 30
0.0
 10
6556.044234277474
 20
5223.248202653893
 30
0.0
 10
6554.322798429149
 20
5217.999860411759
 30
0.0
 10
6552.898130450926
 20
5212.691660297982
 30
0.0
 10
6551.742016514731
 20
5207.362803280042
 30
0.0
 10
6551.207197400041
 20
5203.800328922389
 30
0.0
 10
6550.939433043648
 20
5202.016728397762
 30
0.0
  0
SPLINE
  5
E2
330
1F
100
AcDbEntity
  8
0
  6
Continuous
 62
     7
370
    25
100
AcDbSpline
210
0.0
220
0.0
230
1.0
 70
     8
 71
     3
 72
    26
 73
    22
 74
     0
 42
0.000000001
 43
0.00000001
 40
0.0
 40
0.0
 40
0.0
 40
0.0
 40
0.0577684949656505
 40
0.1156229460603244
 40
0.1734443090136741
 40
0.2430987977746562
 40
0.3129415010298032
 40
0.3827709668209733
 40
0.4524644779316169
 40
0.5219935798180665
 40
0.5810605459316476
 40
0.640280353081341
 40
0.6996015010078529
 40
0.7589131582457131
 40
0.8180570537199977
 40
0.8550068860835539
 40
0.8920257585387376
 40
0.9289590607519107
 40
0.9657923849043758
 40
0.9829023437266533
 40
1.0
 40
1.0
 40
1.0
 40
1.0
 10
6662.067018216301
 20
5277.654784199153
 30
0.0
 10
6659.842410802552
 20
5277.765561670651
 30
0.0
 10
6655.389885889826
 20
5277.987281444019
 30
0.0
 10
6648.703252213747
 20
5277.711111738522
 30
0.0
 10
6641.590720776268
 20
5277.041835451987
 30
0.0
 10
6634.055118201369
 20
5275.995021464642
 30
0.0
 10
6626.117911952801
 20
5274.52987457143
 30
0.0
 10
6618.267337471872
 20
5272.638832492369
 30
0.0
 10
6610.556423136869
 20
5270.276540146939
 30
0.0
 10
6603.40623680678
 20
5267.54788735704
 30
0.0
 10
6596.846473606334
 20
5264.46158701925
 30
0.0
 10
6590.857637409308
 20
5261.123453756828
 30
0.0
 10
6585.077455062462
 20
5257.417290945091
 30
0.0
 10
6579.517630639109
 20
5253.391248996803
 30
0.0
 10
6574.850965979382
 20
5249.618048838685
 30
0.0
 10
6570.974528910595
 20
5246.242919517639
 30
0.0
 10
6567.865995130257
 20
5243.294956217799
 30
0.0
 10
6564.948306351615
 20
5240.159239020546
 30
0.0
 10
6562.781972138902
 20
5237.390870975172
 30
0.0
 10
6561.244143090533
 20
5235.112041956835
 30
0.0
 10
6560.628756809585
 20
5233.940263940908
 30
0.0
 10
6560.321174328972
 20
5233.354585644161
 30
0.0
  0
LINE
  5
E3
330
1F
100
AcDbEntity
  8
0
  6
Continuous
 62
     7
370
    25
100
AcDbLine
 10
6662.0670182163
 20
5277.6547841992
 30
0.0
 11
6663.0436701233
 21
5277.5767021145
 31
0.0
  0
SPLINE
  5
E4
330
1F
100
AcDbEntity
  8
0
  6
Continuous
 62
     7
370
    25
100
AcDbSpline
210
0.0
220
0.0
230
1.0
 70
     8
 71
     3
 72
    39
 73
    35
 74
     0
 42
0.000000001
 43
0.00000001
 40
0.0
 40
0.0
 40
0.0
 40
0.0
 40
0.0043522637473221
 40
0.0095796142420034
 40
0.0142627401243558
 40
0.0190589370829294
 40
0.0267130785614355
 40
0.034377506689768
 40
0.0500361094859531
 40
0.0745177699714561
 40
0.0990410641782073
 40
0.1235535649775833
 40
0.1611213309705401
 40
0.1986924302798225
 40
0.2350947232924006
 40
0.2715001537395837
 40
0.3086053644109262
 40
0.34571495770231
 40
0.3922158515794747
 40
0.4387737655272472
 40
0.4853079849845328
 40
0.5330290161349793
 40
0.5807689521557935
 40
0.6284520157398759
 40
0.6637037789412178
 40
0.6990072878743082
 40
0.7343184473556893
 40
0.7695799356760736
 40
0.8181832142384275
 40
0.8668116041806848
 40
0.9154180201316763
 40
0.9468462164996866
 40
0.97827205224183
 40
1.0
 40
1.0
 40
1.0
 40
1.0
 10
6524.46105307882
 20
5185.429232593929
 30
0.0
 10
6524.464893708152
 20
5185.446246360054
 30
0.0
 10
6524.473347181928
 20
5185.483694760643
 30
0.0
 10
6524.576302911251
 20
5185.93570620239
 30
0.0
 10
6524.710526342179
 20
5186.515419363354
 30
0.0
 10
6524.891769722472
 20
5187.286835414056
 30
0.0
 10
6525.126767015961
 20
5188.263484763454
 30
0.0
 10
6525.51760544841
 20
5189.84166109469
 30
0.0
 10
6526.173002187282
 20
5192.366137151243
 30
0.0
 10
6527.152559511386
 20
5195.856014519425
 30
0.0
 10
6528.412903054817
 20
5199.845706650261
 30
0.0
 10
6530.099449977924
 20
5204.507630368064
 30
0.0
 10
6532.412064423906
 20
5209.723522629427
 30
0.0
 10
6535.485954843451
 20
5215.329681183776
 30
0.0
 10
6538.959966273964
 20
5220.639572261645
 30
0.0
 10
6542.788991862117
 20
5225.69778051144
 30
0.0
 10
6546.973972976494
 20
5230.555279116737
 30
0.0
 10
6551.851034735366
 20
5235.605454976419
 30
0.0
 10
6557.430421590829
 20
5240.759145541771
 30
0.0
 10
6563.71546947379
 20
5245.958687392995
 30
0.0
 10
6570.300211291972
 20
5250.898536741985
 30
0.0
 10
6577.124938203602
 20
5255.624131473928
 30
0.0
 10
6584.226399772314
 20
5260.053761530057
 30
0.0
 10
6590.944958544835
 20
5263.698577016727
 30
0.0
 10
6597.226494357728
 20
5266.587522750488
 30
0.0
 10
6602.987024867353
 20
5268.853551320053
 30
0.0
 10
6608.858762140955
 20
5270.815488387132
 30
0.0
 10
6615.576815554599
 20
5272.664001239507
 30
0.0
 10
6623.135393495515
 20
5274.359714148151
 30
0.0
 10
6631.525700980369
 20
5275.871829323103
 30
0.0
 10
6638.979081902969
 20
5276.889643872234
 30
0.0
 10
6645.463015976357
 20
5277.519544753671
 30
0.0
 10
6650.398802219374
 20
5277.840578030492
 30
0.0
 10
6653.505642436644
 20
5277.857370553977
 30
0.0
 10
6654.775641625572
 20
5277.864234920894
 30
0.0
  0
SPLINE
  5
E5
330
1F
100
AcDbEntity
  8
0
  6
Continuous
 62
     7
370
    25
100
AcDbSpline
210
0.0
220
0.0
230
1.0
 70
     8
 71
     3
 72
    29
 73
    25
 74
     0
 42
0.000000001
 43
0.00000001
 40
0.0
 40
0.0
 40
0.0
 40
0.0
 40
0.0366558735211198
 40
0.0735481640499454
 40
0.1179626203169211
 40
0.1623735344613452
 40
0.2071144761083256
 40
0.2518465699727438
 40
0.2990721330583949
 40
0.3463604200103765
 40
0.3936203312992121
 40
0.4420699478333788
 40
0.4905343260739222
 40
0.538962249640171
 40
0.5765137281887659
 40
0.6140405988538509
 40
0.652958522494593
 40
0.6918818074571234
 40
0.7297895883300765
 40
0.7677115679679034
 40
0.8063823337725181
 40
0.8450626229378956
 40
0.92247299675414
 40
1.0
 40
1.0
 40
1.0
 40
1.0
 10
6634.924255078484
 20
5255.962031361018
 30
0.0
 10
6633.678044950013
 20
5255.704944867332
 30
0.0
 10
6631.177587092511
 20
5255.189113765889
 30
0.0
 10
6627.266079643308
 20
5253.938269986874
 30
0.0
 10
6623.126377622746
 20
5252.513373500774
 30
0.0
 10
6618.763808269748
 20
5250.894682535887
 30
0.0
 10
6614.477960787513
 20
5249.066141252186
 30
0.0
 10
6610.241367521846
 20
5246.895376253436
 30
0.0
 10
6606.103714204033
 20
5244.361822094987
 30
0.0
 10
6602.065766258832
 20
5241.513000519083
 30
0.0
 10
6598.162880910282
 20
5238.410411587558
 30
0.0
 10
6594.352175572339
 20
5235.129207708463
 30
0.0
 10
6590.646062243424
 20
5231.668035213603
 30
0.0
 10
6587.375410479537
 20
5228.304472558849
 30
0.0
 10
6584.565528568614
 20
5225.036993781197
 30
0.0
 10
6582.247811579851
 20
5221.798608052484
 30
0.0
 10
6580.266920996533
 20
5218.283905536949
 30
0.0
 10
6578.648285038782
 20
5214.571558650641
 30
0.0
 10
6577.409123360879
 20
5210.751481025294
 30
0.0
 10
6576.480415222304
 20
5206.853822195637
 30
0.0
 10
6575.806918913469
 20
5202.876950222561
 30
0.0
 10
6575.174739623774
 20
5197.499745983507
 30
0.0
 10
6574.742916422704
 20
5190.73809372095
 30
0.0
 10
6574.566046976533
 20
5185.321950407784
 30
0.0
 10
6574.477545684029
 20
5182.611840244685
 30
0.0
  0
SPLINE
  5
E6
330
1F
100
AcDbEntity
  8
0
  6
Continuous
 62
     7
370
    25
100
AcDbSpline
210
0.0
220
0.0
230
1.0
 70
     8
 71
     3
 72
    27
 73
    23
 74
     0
 42
0.000000001
 43
0.00000001
 40
0.0
 40
0.0
 40
0.0
 40
0.0
 40
0.0694656148004557
 40
0.1389173016383435
 40
0.2104044018262743
 40
0.2818841900815867
 40
0.3378673295348282
 40
0.3938455691029231
 40
0.4512592816793692
 40
0.5086596943136373
 40
0.5618214511018172
 40
0.6155368464334164
 40
0.6593822797162402
 40
0.7041156637295914
 40
0.7491542706805016
 40
0.7715727114595955
 40
0.7948804294238877
 40
0.8336159132838483
 40
0.8610798304467564
 40
0.8892882623213821
 40
0.9439926359916582
 40
1.0
 40
1.0
 40
1.0
 40
1.0
 10
6574.477545684029
 20
5182.611840244685
 30
0.0
 10
6574.500291601872
 20
5183.488170665618
 30
0.0
 10
6574.545778876967
 20
5185.240655801885
 30
0.0
 10
6574.538192117254
 20
5187.797076349833
 30
0.0
 10
6574.422338658168
 20
5190.274044179512
 30
0.0
 10
6574.165387449113
 20
5192.479213921147
 30
0.0
 10
6573.771947406783
 20
5194.409702148706
 30
0.0
 10
6573.264651568974
 20
5196.1134898957
 30
0.0
 10
6572.589037565046
 20
5197.752763227936
 30
0.0
 10
6571.747510916393
 20
5199.286651891116
 30
0.0
 10
6570.743103925844
 20
5200.705843915346
 30
0.0
 10
6569.643039079102
 20
5201.915945514133
 30
0.0
 10
6568.42529413077
 20
5202.933740698187
 30
0.0
 10
6567.103346364997
 20
5203.717602660839
 30
0.0
 10
6565.808702182443
 20
5204.110000615097
 30
0.0
 10
6564.686536228217
 20
5204.131574311756
 30
0.0
 10
6563.632759157384
 20
5203.931025909135
 30
0.0
 10
6562.577723314522
 20
5203.388762322817
 30
0.0
 10
6561.630557590905
 20
5202.569718860692
 30
0.0
 10
6560.670862537901
 20
5201.452858457258
 30
0.0
 10
6559.687883816343
 20
5199.862672913342
 30
0.0
 10
6559.109676505898
 20
5198.49597752265
 30
0.0
 10
6558.817170327355
 20
5197.804587360774
 30
0.0
  0
SPLINE
  5
E7
330
1F
100
AcDbEntity
  8
0
  6
Continuous
 62
     7
370
    25
100
AcDbSpline
210
0.0
220
0.0
230
1.0
 70
     8
 71
     3
 72
    29
 73
    25
 74
     0
 42
0.000000001
 43
0.00000001
 40
0.0
 40
0.0
 40
0.0
 40
0.0
 40
0.0164521436958612
 40
0.0267348607959424
 40
0.0365561717422428
 40
0.0466817369774956
 40
0.0577038790778714
 40
0.0732566910448691
 40
0.1085522819624037
 40
0.1566937162821116
 40
0.2049145081105528
 40
0.207507819703002
 40
0.2181689017913696
 40
0.2634463328996856
 40
0.3200818658221238
 40
0.3796361726874046
 40
0.4391754743183235
 40
0.5289541738840536
 40
0.6189143839965119
 40
0.7309290241691869
 40
0.8433958045764586
 40
0.9558694625663028
 40
0.9984447150597531
 40
1.0
 40
1.0
 40
1.0
 40
1.0
 10
6663.043670123268
 20
5264.764802929317
 30
0.0
 10
6662.91368486064
 20
5264.628880264236
 30
0.0
 10
6662.702457803177
 20
5264.408004881846
 30
0.0
 10
6662.384875706912
 20
5264.135518887024
 30
0.0
 10
6662.111459726077
 20
5263.923666759112
 30
0.0
 10
6661.819990778202
 20
5263.721958698188
 30
0.0
 10
6661.462334328049
 20
5263.501893698379
 30
0.0
 10
6660.837329976885
 20
5263.169878185484
 30
0.0
 10
6659.78493181389
 20
5262.751445522651
 30
0.0
 10
6658.338613278025
 20
5262.375481444088
 30
0.0
 10
6657.246057306374
 20
5262.180295922682
 30
0.0
 10
6656.571650745163
 20
5262.067266623581
 30
0.0
 10
6655.930038286793
 20
5261.96160047763
 30
0.0
 10
6654.704991242168
 20
5261.769897455062
 30
0.0
 10
6652.984551036513
 20
5261.472769891634
 30
0.0
 10
6651.181487332163
 20
5261.070114850771
 30
0.0
 10
6649.149344223092
 20
5260.484145545048
 30
0.0
 10
6647.027556516834
 20
5259.650822172528
 30
0.0
 10
6644.77269873133
 20
5258.544683750079
 30
0.0
 10
6642.23425259208
 20
5257.56088286164
 30
0.0
 10
6639.224393195656
 20
5256.791222340398
 30
0.0
 10
6636.779614025964
 20
5256.300465584349
 30
0.0
 10
6635.346702215349
 20
5256.035522871418
 30
0.0
 10
6634.93863646938
 20
5255.964533236513
 30
0.0
 10
6634.924255078484
 20
5255.962031361018
 30
0.0
  0
LWPOLYLINE
  5
E8
330
1F
100
AcDbEntity
  8
0
  6
Continuous
 62
     7
370
    25
100
AcDbPolyline
 90
       71
 70
   128
 43
0.0
 10
6548.6426723654
 20
5139.8469381298
 10
6548.642642563
 20
5139.8469381298
 10
6548.6426276619
 20
5139.8469381298
 10
6548.6426127607
 20
5139.8469381298
 10
6548.6425680572
 20
5139.8469381298
 10
6548.6425531561
 20
5139.8469381298
 10
6548.6425382549
 20
5139.8469381298
 10
6548.6425233537
 20
5139.8469381298
 10
6548.6425084526
 20
5139.8469381298
 10
6548.6424935514
 20
5139.8469381298
 10
6548.6424637491
 20
5139.8469381298
 10
6548.6424488479
 20
5139.8469381298
 10
6548.6424339468
 20
5139.8469381298
 10
6548.6424190456
 20
5139.8469381298
 10
6548.6424041445
 20
5139.8469381298
 10
6548.642359441
 20
5139.8470573391
 10
6548.6422998363
 20
5139.8470573391
 10
6548.6422849352
 20
5139.8470573391
 10
6548.6422551328
 20
5139.8470573391
 10
6548.6422253305
 20
5139.8470573391
 10
6548.6422253305
 20
5139.8470573391
 10
6548.6422104294
 20
5139.8470573391
 10
6548.642180627
 20
5139.8470573391
 10
6548.6421508247
 20
5139.8470573391
 10
6548.6421061212
 20
5139.8470573391
 10
6548.6420763189
 20
5139.8470573391
 10
6548.6420614177
 20
5139.8470573391
 10
6548.6420316154
 20
5139.8470573391
 10
6548.6420018131
 20
5139.8470573391
 10
6548.6419869119
 20
5139.8470573391
 10
6548.6419571096
 20
5139.8470573391
 10
6548.6419273073
 20
5139.8470573391
 10
6548.6419124061
 20
5139.8470573391
 10
6548.6418826038
 20
5139.8470573391
 10
6548.6418528015
 20
5139.8470573391
 10
6548.6418379003
 20
5139.8470573391
 10
6548.641808098
 20
5139.8470573391
 10
6548.6417633945
 20
5139.8470573391
 10
6548.6417335922
 20
5139.8470573391
 10
6548.6416888887
 20
5139.8470573391
 10
6548.6416441852
 20
5139.8470573391
 10
6548.6415845806
 20
5139.8470573391
 10
6548.6415696794
 20
5139.8470573391
 10
6548.6415398771
 20
5139.8470573391
 10
6548.6414951736
 20
5139.8471765484
 10
6548.6414504701
 20
5139.8471765484
 10
6548.6413908655
 20
5139.8471765484
 10
6548.641346162
 20
5139.8471765484
 10
6548.641256755
 20
5139.8471765484
 10
6548.6411971504
 20
5139.8471765484
 10
6548.6410183365
 20
5139.8472957577
 10
6548.6406309063
 20
5139.8475341763
 10
6548.6404371912
 20
5139.8478918041
 10
6548.6403775865
 20
5139.8480110134
 10
6548.6403477842
 20
5139.8481302227
 10
6548.6402881796
 20
5139.8484878506
 10
6548.6402732784
 20
5139.8486070599
 10
6548.640049761
 20
5139.8497991528
 10
6548.6400944645
 20
5139.8546867336
 10
6548.6400944645
 20
5139.8643426861
 10
6548.6400795633
 20
5139.8835353817
 10
6548.6400795633
 20
5139.9220399822
 10
6548.6400795633
 20
5139.9991683926
 10
6548.6400795633
 20
5140.1531867947
 10
6548.640049761
 20
5140.4614620175
 10
6548.6399305517
 20
5141.0778932537
 10
6548.6395282203
 20
5142.310636517
 10
6548.6382318193
 20
5144.776361462
 10
6548.6359966451
 20
5149.70650005
 10
6548.6391556913
 20
5154.6305589642
 10
6548.6400795633
 20
5155.1523380245
  0
LINE
  5
E9
330
1F
100
AcDbEntity
  8
0
  6
Continuous
 62
     7
370
    25
100
AcDbLine
 10
6548.6413759643
 20
5139.8463420834
 30
0.0
 11
6523.1400800401
 21
5139.8463420834
 31
0.0
  0
SPLINE
  5
EA
330
1F
100
AcDbEntity
  8
0
  6
Continuous
 62
     7
370
    25
100
AcDbSpline
210
0.0
220
0.0
230
1.0
 70
     8
 71
     3
 72
     9
 73
     5
 74
     0
 42
0.000000001
 43
0.00000001
 40
0.0
 40
0.0
 40
0.0
 40
0.0
 40
0.2266048063517313
 40
1.0
 40
1.0
 40
1.0
 40
1.0
 10
6548.640079563309
 20
5155.152338024533
 30
0.0
 10
6548.813990532803
 20
5155.147575514893
 30
0.0
 10
6549.581454260933
 20
5155.126558707192
 30
0.0
 10
6550.34720505781
 20
5155.105199427876
 30
0.0
 10
6550.939433043648
 20
5155.088680263912
 30
0.0
  0
SPLINE
  5
EB
330
1F
100
AcDbEntity
  8
0
  6
Continuous
 62
     7
370
    25
100
AcDbSpline
210
0.0
220
0.0
230
1.0
 70
     8
 71
     3
 72
     9
 73
     5
 74
     0
 42
0.000000001
 43
0.00000001
 40
0.0
 40
0.0
 40
0.0
 40
0.0
 40
0.628035036351234
 40
1.0
 40
1.0
 40
1.0
 40
1.0
 10
6574.477545684029
 20
5182.611840244685
 30
0.0
 10
6574.448163447377
 20
5181.553656145622
 30
0.0
 10
6574.401379056457
 20
5179.868743620341
 30
0.0
 10
6574.364282209762
 20
5178.170555434623
 30
0.0
 10
6574.350483482529
 20
5177.538888927852
 30
0.0
  0
SPLINE
  5
EC
330
1F
100
AcDbEntity
  8
0
  6
Continuous
 62
     7
370
    25
100
AcDbSpline
210
0.0
220
0.0
230
1.0
 70
     8
 71
     3
 72
    23
 73
    19
 74
     0
 42
0.000000001
 43
0.00000001
 40
0.0
 40
0.0
 40
0.0
 40
0.0
 40
0.0809477986492464
 40
0.142068531346695
 40
0.2032098018861745
 40
0.2671210964543985
 40
0.3310348259090694
 40
0.3985362902947495
 40
0.4659952016761263
 40
0.5300150981132101
 40
0.5940189067518902
 40
0.6521065188401766
 40
0.7102184920995386
 40
0.7696170997931988
 40
0.8290378323587974
 40
0.8951664219745192
 40
0.9612854520543976
 40
1.0
 40
1.0
 40
1.0
 40
1.0
 10
6574.135742848564
 20
5156.882064815914
 30
0.0
 10
6574.089467414554
 20
5156.991014241374
 30
0.0
 10
6574.008251086784
 20
5157.182227407443
 30
0.0
 10
6573.715770193399
 20
5157.904900362179
 30
0.0
 10
6573.384791038879
 20
5158.784487324708
 30
0.0
 10
6573.000151573503
 20
5159.915475161016
 30
0.0
 10
6572.598185556541
 20
5161.292224303751
 30
0.0
 10
6572.230222131257
 20
5162.892301130786
 30
0.0
 10
6571.952222988408
 20
5164.651743868762
 30
0.0
 10
6571.819234765096
 20
5166.488738545073
 30
0.0
 10
6571.837285590358
 20
5168.278634352991
 30
0.0
 10
6572.00444865457
 20
5169.990167375483
 30
0.0
 10
6572.281082236278
 20
5171.594672243041
 30
0.0
 10
6572.656163235575
 20
5173.106642613896
 30
0.0
 10
6573.109592666729
 20
5174.551957322406
 30
0.0
 10
6573.60655342516
 20
5175.869367614448
 30
0.0
 10
6574.038088508051
 20
5176.871517027404
 30
0.0
 10
6574.266231388428
 20
5177.358900500538
 30
0.0
 10
6574.350483482529
 20
5177.538888927852
 30
0.0
  0
SPLINE
  5
ED
330
1F
100
AcDbEntity
  8
0
  6
Continuous
 62
     7
370
    25
100
AcDbSpline
210
0.0
220
0.0
230
1.0
 70
     8
 71
     3
 72
    21
 73
    17
 74
     0
 42
0.000000001
 43
0.00000001
 40
0.0
 40
0.0
 40
0.0
 40
0.0
 40
0.1538281167369964
 40
0.3668533165383019
 40
0.5561474074631723
 40
0.9032795266290455
 40
0.9913610153566557
 40
0.9942188229357389
 40
0.9960951687898834
 40
0.9973564783016771
 40
0.9982161984288138
 40
0.9988033690211287
 40
0.9994154189452973
 40
0.999653224593227
 40
0.9998874151783035
 40
1.0
 40
1.0
 40
1.0
 40
1.0
 10
6574.135742848564
 20
5156.882064815914
 30
0.0
 10
6574.134012532413
 20
5156.010262037234
 30
0.0
 10
6574.129886029197
 20
5153.931163966545
 30
0.0
 10
6574.129329416136
 20
5150.768610722997
 30
0.0
 10
6574.132736908733
 20
5146.502387030949
 30
0.0
 10
6574.138625180894
 20
5142.958537982603
 30
0.0
 10
6574.140083373916
 20
5140.45782008965
 30
0.0
 10
6574.140079034677
 20
5139.939473152153
 30
0.0
 10
6574.140079093851
 20
5139.906296615837
 30
0.0
 10
6574.140079085391
 20
5139.884437661633
 30
0.0
 10
6574.140079086628
 20
5139.869995356714
 30
0.0
 10
6574.140079086434
 20
5139.859387517834
 30
0.0
 10
6574.140079086475
 20
5139.852276825836
 30
0.0
 10
6574.140079086471
 20
5139.848305365204
 30
0.0
 10
6574.140079086472
 20
5139.846537069854
 30
0.0
 10
6574.140079086472
 20
5139.846389872702
 30
0.0
 10
6574.140079086472
 20
5139.84634208337
 30
0.0
  0
LINE
  5
EE
330
1F
100
AcDbEntity
  8
0
  6
Continuous
 62
     7
370
    25
100
AcDbLine
 10
6574.1400790865
 20
5139.8463420834
 30
0.0
 11
6548.6413759643
 21
5139.8463420834
 31
0.0
  0
SPLINE
  5
EF
330
1F
100
AcDbEntity
  8
0
  6
Continuous
 62
     7
370
    25
100
AcDbSpline
210
0.0
220
0.0
230
1.0
 70
     8
 71
     3
 72
    14
 73
    10
 74
     0
 42
0.000000001
 43
0.00000001
 40
0.0
 40
0.0
 40
0.0
 40
0.0
 40
0.1459941242949745
 40
0.2919966505966656
 40
0.5178765547049095
 40
0.6951211214075216
 40
0.8280219356037612
 40
0.988885425756961
 40
1.0
 40
1.0
 40
1.0
 40
1.0
 10
6550.939433043648
 20
5202.016728397762
 30
0.0
 10
6550.655048934003
 20
5199.749273282176
 30
0.0
 10
6550.086264348322
 20
5195.214232558263
 30
0.0
 10
6549.406914534052
 20
5187.134970466838
 30
0.0
 10
6548.966747699024
 20
5178.549672642926
 30
0.0
 10
6548.757641855907
 20
5170.161901068192
 30
0.0
 10
6548.666707475224
 20
5162.79011114055
 30
0.0
 10
6548.645909175354
 20
5158.018116632034
 30
0.0
 10
6548.640433447858
 20
5155.326304107134
 30
0.0
 10
6548.640079563309
 20
5155.152338024532
 30
0.0
  0
SPLINE
  5
F0
330
1F
100
AcDbEntity
  8
0
  6
Continuous
 62
     7
370
    25
100
AcDbSpline
210
0.0
220
0.0
230
1.0
 70
     8
 71
     3
 72
    12
 73
     8
 74
     0
 42
0.000000001
 43
0.00000001
 40
0.0
 40
0.0
 40
0.0
 40
0.0
 40
0.0419236320146723
 40
0.2662788709285021
 40
0.4964814547769922
 40
0.7456893343945789
 40
1.0
 40
1.0
 40
1.0
 40
1.0
 10
6676.741115515877
 20
5262.172120090877
 30
0.0
 10
6676.747618480087
 20
5262.177435629579
 30
0.0
 10
6676.788922200316
 20
5262.211197390565
 30
0.0
 10
6676.602291077212
 20
5262.052042708129
 30
0.0
 10
6676.168301056542
 20
5261.768525472826
 30
0.0
 10
6675.445856346963
 20
5261.413096469159
 30
0.0
 10
6674.734744963112
 20
5261.159651526884
 30
0.0
 10
6674.375585978676
 20
5261.031644817745
 30
0.0
  0
SPLINE
  5
F1
330
1F
100
AcDbEntity
  8
0
  6
Continuous
 62
     7
370
    25
100
AcDbSpline
210
0.0
220
0.0
230
1.0
 70
     8
 71
     3
 72
    14
 73
    10
 74
     0
 42
0.000000001
 43
0.00000001
 40
0.0
 40
0.0
 40
0.0
 40
0.0
 40
0.1637545428713193
 40
0.3275104816181605
 40
0.4912245507171439
 40
0.6549390432206523
 40
0.8193142220769617
 40
0.9836936595423194
 40
0.9999999999999999
 40
0.9999999999999999
 40
0.9999999999999999
 40
0.9999999999999999
 10
6674.375585978676
 20
5261.031644817745
 30
0.0
 10
6673.936896198835
 20
5260.871973348016
 30
0.0
 10
6673.059512899675
 20
5260.552629047483
 30
0.0
 10
6671.417945285179
 20
5259.955118116504
 30
0.0
 10
6669.589822440882
 20
5259.289718036022
 30
0.0
 10
6667.604606161794
 20
5258.567138435144
 30
0.0
 10
6665.521106872068
 20
5257.80882458241
 30
0.0
 10
6664.033649228472
 20
5257.267443003414
 30
0.0
 10
6663.260872736286
 20
5256.986152407375
 30
0.0
 10
6663.191132014443
 20
5256.960766788875
 30
0.0
  0
SPLINE
  5
F2
330
1F
100
AcDbEntity
  8
0
  6
Continuous
 62
     7
370
    25
100
AcDbSpline
210
0.0
220
0.0
230
1.0
 70
     8
 71
     3
 72
    13
 73
     9
 74
     0
 42
0.000000001
 43
0.00000001
 40
0.0
 40
0.0
 40
0.0
 40
0.0
 40
0.153920419243937
 40
0.3097451152984428
 40
0.4594843768661417
 40
0.6109498385977328
 40
0.8036046585564555
 40
1.0
 40
1.0
 40
1.0
 40
1.0
 10
6663.191132014443
 20
5256.960766788875
 30
0.0
 10
6662.725171102281
 20
5256.79114485924
 30
0.0
 10
6661.787484490126
 20
5256.449802466791
 30
0.0
 10
6660.428570273896
 20
5255.955387768703
 30
0.0
 10
6659.120296935494
 20
5255.479150504774
 30
0.0
 10
6657.772781908524
 20
5254.988743085667
 30
0.0
 10
6656.384607181019
 20
5254.483347016539
 30
0.0
 10
6655.517022237726
 20
5254.167588362544
 30
0.0
 10
6655.079059069802
 20
5254.008191105281
 30
0.0
  0
SPLINE
  5
F3
330
1F
100
AcDbEntity
  8
0
  6
Continuous
 62
     7
370
    25
100
AcDbSpline
210
0.0
220
0.0
230
1.0
 70
     8
 71
     3
 72
    12
 73
     8
 74
     0
 42
0.000000001
 43
0.00000001
 40
0.0
 40
0.0
 40
0.0
 40
0.0
 40
0.1724444920910227
 40
0.3482896002566823
 40
0.5567381278940586
 40
0.7709337722924465
 40
1.0
 40
1.0
 40
1.0
 40
1.0
 10
6651.474080746819
 20
5252.696173664485
 30
0.0
 10
6651.496285650932
 20
5252.70425443251
 30
0.0
 10
6651.541133341246
 20
5252.720575321801
 30
0.0
 10
6651.923904019747
 20
5252.859874451277
 30
0.0
 10
6652.601513314976
 20
5253.106453788204
 30
0.0
 10
6653.638626941993
 20
5253.483918105613
 30
0.0
 10
6654.588295179556
 20
5253.829568140756
 30
0.0
 10
6655.079059069802
 20
5254.008191105282
 30
0.0
  0
SPLINE
  5
F4
330
1F
100
AcDbEntity
  8
0
  6
Continuous
 62
     7
370
    25
100
AcDbSpline
210
0.0
220
0.0
230
1.0
 70
     8
 71
     3
 72
    16
 73
    12
 74
     0
 42
0.000000001
 43
0.00000001
 40
0.0
 40
0.0
 40
0.0
 40
0.0
 40
0.113351208065167
 40
0.2267125100449351
 40
0.3399669743944059
 40
0.4532294858681093
 40
0.5687996041835349
 40
0.6843392925256498
 40
0.7992659085547038
 40
0.9142078537102911
 40
1.0
 40
1.0
 40
1.0
 40
1.0
 10
6663.043670123268
 20
5277.576702114498
 30
0.0
 10
6663.895700762741
 20
5277.494426071734
 30
0.0
 10
6665.599837914938
 20
5277.329866659533
 30
0.0
 10
6668.025270134875
 20
5276.985521308846
 30
0.0
 10
6670.262992998334
 20
5276.580600038892
 30
0.0
 10
6672.273910340309
 20
5276.136195572379
 30
0.0
 10
6673.991558741513
 20
5275.687136117323
 30
0.0
 10
6675.378237997496
 20
5275.284558272961
 30
0.0
 10
6676.350301096069
 20
5275.03048561914
 30
0.0
 10
6676.903671208742
 20
5274.886126741701
 30
0.0
 10
6676.925793117093
 20
5274.879043136129
 30
0.0
 10
6676.93524784391
 20
5274.876015659725
 30
0.0
  0
LWPOLYLINE
  5
F5
330
1F
100
AcDbEntity
  8
0
  6
Continuous
 62
     7
370
    25
100
AcDbPolyline
 90
        5
 70
   128
 43
0.0
 10
6675.4184884483
 20
5261.4112071957
 10
6675.4010242874
 20
5261.404769894
 10
6675.3487212116
 20
5261.385815617
 10
6675.2616984302
 20
5261.354105946
 10
6675.1402837688
 20
5261.3098792996
  0
LWPOLYLINE
  5
F6
330
1F
100
AcDbEntity
  8
0
  6
Continuous
 62
     7
370
    25
100
AcDbPolyline
 90
       29
 70
   128
 43
0.0
 10
6655.6020004207
 20
5245.6851177181
 10
6655.6782645637
 20
5245.7128934826
 10
6655.9059543068
 20
5245.7957439388
 10
6656.2820596153
 20
5245.9327154125
 10
6656.8014544899
 20
5246.1216621365
 10
6657.4571055824
 20
5246.3603191342
 10
6658.2401616031
 20
5246.6453485455
 10
6659.1400427276
 20
5246.9729356732
 10
6660.1445896084
 20
5247.3385505642
 10
6661.240182584
 20
5247.7373056378
 10
6662.4120099003
 20
5248.1638364758
 10
6663.644246524
 20
5248.6123018231
 10
6664.9202031547
 20
5249.0767412151
 10
6666.22265405
 20
5249.5507173504
 10
6667.5339860374
 20
5250.0280313458
 10
6668.8364369327
 20
5250.5021266903
 10
6670.1123935634
 20
5250.9664468731
 10
6671.3446301872
 20
5251.4150314297
 10
6672.5164873058
 20
5251.8415622677
 10
6673.6120802814
 20
5252.2403173412
 10
6674.6165973598
 20
5252.6059322323
 10
6675.5164784843
 20
5252.9334001507
 10
6676.2995345051
 20
5253.218429562
 10
6676.9552153999
 20
5253.4570865597
 10
6677.4745804722
 20
5253.6461524929
 10
6677.8506857807
 20
5253.7830047573
 10
6678.0783755237
 20
5253.8658552136
 10
6678.1546396667
 20
5253.893630978
 10
6678.1546396667
 20
5253.893630978
  0
LWPOLYLINE
  5
F7
330
1F
100
AcDbEntity
  8
0
  6
Continuous
 62
     7
370
    25
100
AcDbPolyline
 90
       28
 70
   128
 43
0.0
 10
6677.5569540912
 20
5252.6118926968
 10
6677.4815840179
 20
5252.5844745602
 10
6677.2566062862
 20
5252.5025777783
 10
6676.8852395469
 20
5252.3673944439
 10
6676.3729674274
 20
5252.180951115
 10
6675.7272107059
 20
5251.9459896053
 10
6674.9574167187
 20
5251.6657285656
 10
6674.0747911388
 20
5251.3444595303
 10
6673.0922085697
 20
5250.9868316616
 10
6672.0240039284
 20
5250.5980901684
 10
6670.8857638294
 20
5250.1838378872
 10
6669.6940583641
 20
5249.7500352825
 10
6668.4662920887
 20
5249.3032388653
 10
6667.2203463966
 20
5248.8496475186
 10
6665.9744007046
 20
5248.3961753811
 10
6664.7466344291
 20
5247.9493789639
 10
6663.5549289638
 20
5247.5155763592
 10
6662.4166888649
 20
5247.101324078
 10
6661.3484842235
 20
5246.7124633755
 10
6660.3659016544
 20
5246.3548355068
 10
6659.4832760746
 20
5246.0336856808
 10
6658.7134820873
 20
5245.753424641
 10
6658.0677253658
 20
5245.5184631313
 10
6657.5554532463
 20
5245.3319005932
 10
6657.184086507
 20
5245.1968364681
 10
6656.959078973
 20
5245.1149396862
 10
6656.883738702
 20
5245.0875215496
 10
6656.883738702
 20
5245.0875215496
  0
SPLINE
  5
F8
330
1F
100
AcDbEntity
  8
0
  6
Continuous
 62
     8
370
    25
100
AcDbSpline
210
0.0
220
0.0
230
1.0
 70
     8
 71
     3
 72
    24
 73
    20
 74
     0
 42
0.000000001
 43
0.00000001
 40
0.0
 40
0.0
 40
0.0
 40
0.0
 40
0.0867990675842197
 40
0.1801452407222955
 40
0.2737901267240198
 40
0.3673528229260984
 40
0.4605862682429319
 40
0.5260416644071463
 40
0.5918364153429905
 40
0.6577975407924309
 40
0.72368711406569
 40
0.7893144175625936
 40
0.8546572843725081
 40
0.8932513894093119
 40
0.9317017199562709
 40
0.9477250404308671
 40
0.9637264982210043
 40
0.9837404474146103
 40
1.0
 40
1.0
 40
1.0
 40
1.0
 10
6560.321174328972
 20
5233.354585644161
 30
0.0
 10
6558.683741068106
 20
5232.210228143099
 30
0.0
 10
6555.285365749628
 20
5229.835196207402
 30
0.0
 10
6550.373641135283
 20
5225.966222306389
 30
0.0
 10
6545.614390703507
 20
5221.770331285761
 30
0.0
 10
6541.208909272337
 20
5217.299273366996
 30
0.0
 10
6537.613330666149
 20
5213.045200105402
 30
0.0
 10
6534.782835345343
 20
5208.995218214715
 30
0.0
 10
6532.576349649591
 20
5205.242686916854
 30
0.0
 10
6530.613102610898
 20
5201.378015422601
 30
0.0
 10
6528.878795040726
 20
5197.468569885185
 30
0.0
 10
6527.356874804357
 20
5193.593596628457
 30
0.0
 10
6526.211958897703
 20
5190.329246949764
 30
0.0
 10
6525.358092352521
 20
5187.718010213336
 30
0.0
 10
6524.876708370129
 20
5186.193995732841
 30
0.0
 10
6524.579609743658
 20
5185.229826038523
 30
0.0
 10
6524.402498538501
 20
5184.648848704748
 30
0.0
 10
6524.27674517257
 20
5184.231384445724
 30
0.0
 10
6524.267008547668
 20
5184.198893851897
 30
0.0
 10
6524.262644117523
 20
5184.18432998315
 30
0.0
  0
SPLINE
  5
F9
330
1F
100
AcDbEntity
  8
0
  6
Continuous
 62
     8
370
    25
100
AcDbSpline
210
0.0
220
0.0
230
1.0
 70
     8
 71
     3
 72
    27
 73
    23
 74
     0
 42
0.000000001
 43
0.00000001
 40
0.0
 40
0.0
 40
0.0
 40
0.0
 40
0.0130303203002669
 40
0.0539987589180741
 40
0.1069456633028972
 40
0.1598928332410145
 40
0.214377584667506
 40
0.2688611175356123
 40
0.3217768284854125
 40
0.3746953443274417
 40
0.4291456910268046
 40
0.4835993331177623
 40
0.5365022282005741
 40
0.5894111805493243
 40
0.6438487988103859
 40
0.6982943752310756
 40
0.751193936661992
 40
0.8040935480026576
 40
0.8585349485972262
 40
0.9129756635242796
 40
0.9658809208341101
 40
1.0
 40
1.0
 40
1.0
 40
1.0
 10
6548.640079563309
 20
5155.152338024532
 30
0.0
 10
6548.466188881681
 20
5155.157112111145
 30
0.0
 10
6547.745571062705
 20
5155.176896333332
 30
0.0
 10
6546.319294072765
 20
5155.215496251247
 30
0.0
 10
6544.372742709422
 20
5155.267972034233
 30
0.0
 10
6542.276732943542
 20
5155.32310533497
 30
0.0
 10
6540.206077872478
 20
5155.37723866931
 30
0.0
 10
6538.196508036176
 20
5155.428806537807
 30
0.0
 10
6536.280826084502
 20
5155.477541500557
 30
0.0
 10
6534.451411550504
 20
5155.523379496723
 30
0.0
 10
6532.705688059673
 20
5155.566812223838
 30
0.0
 10
6531.075224986072
 20
5155.606801505747
 30
0.0
 10
6529.584896796945
 20
5155.643275723329
 30
0.0
 10
6528.227238781938
 20
5155.675938391727
 30
0.0
 10
6527.002343835186
 20
5155.705465613962
 30
0.0
 10
6525.933840371571
 20
5155.730769006818
 30
0.0
 10
6525.036513198174
 20
5155.752193817432
 30
0.0
 10
6524.303466568166
 20
5155.769317302623
 30
0.0
 10
6523.736026181451
 20
5155.782747379504
 30
0.0
 10
6523.355340335929
 20
5155.791744400694
 30
0.0
 10
6523.157351255146
 20
5155.796285060843
 30
0.0
 10
6523.159470167407
 20
5155.796214903529
 30
0.0
 10
6523.160300915886
 20
5155.796187397395
 30
0.0
  0
LINE
  5
FA
330
1F
100
AcDbEntity
  8
0
  6
Continuous
 62
     8
370
    25
100
AcDbLine
 10
6663.0436701233
 20
5264.7648029293
 30
0.0
 11
6676.9719345028
 21
5264.7648029293
 31
0.0
  0
SPLINE
  5
FB
330
1F
100
AcDbEntity
  8
0
  6
Continuous
 62
     7
370
    25
100
AcDbSpline
210
0.0
220
0.0
230
1.0
 70
    24
 71
     3
 72
    11
 73
     7
 74
     0
 42
0.000000001
 43
0.00000001
 40
0.0
 40
0.0
 40
0.0
 40
0.0
 40
0.1533987422622528
 40
0.4272031925262562
 40
0.7146310506179442
 40
1.0
 40
1.0
 40
1.0
 40
1.0
 10
6299.39811868039
 20
4894.669276180377
 30
0.0
 10
6299.39811868039
 20
4894.83949343026
 30
0.0
 10
6299.39811868039
 20
4895.313534817434
 30
0.0
 10
6299.39811868039
 20
4895.675734443709
 30
0.0
 10
6299.398118680391
 20
4895.921331972993
 30
0.0
 10
6299.39811868039
 20
4895.951736552784
 30
0.0
 10
6299.39811868039
 20
4895.966884198298
 30
0.0
  0
SPLINE
  5
FC
330
1F
100
AcDbEntity
  8
0
  6
Continuous
 62
     7
370
    25
100
AcDbSpline
210
0.0
220
0.0
230
1.0
 70
     8
 71
     3
 72
    71
 73
    67
 74
     0
 42
0.000000001
 43
0.00000001
 40
0.0
 40
0.0
 40
0.0
 40
0.0
 40
0.0198369925789756
 40
0.0397126864465798
 40
0.0596149041914466
 40
0.0794879887686357
 40
0.0975100327407041
 40
0.1155445148807487
 40
0.1335692169793805
 40
0.1515776689635078
 40
0.1702716296125554
 40
0.1889987922690503
 40
0.207732073229691
 40
0.2264342173889091
 40
0.2473662495891215
 40
0.2683688621810297
 40
0.2893850877531107
 40
0.3103723351322236
 40
0.331308467516658
 40
0.3521957321387471
 40
0.3683619786915786
 40
0.3845423759707947
 40
0.4007040736529867
 40
0.4156629786175467
 40
0.4306761831917568
 40
0.4457074350119546
 40
0.4607140940461028
 40
0.475667557894589
 40
0.4853432095119206
 40
0.4902072417184517
 40
0.4950265373588271
 40
0.4975850125204683
 40
0.4996706834312076
 40
0.501760899283665
 40
0.5042713838279567
 40
0.5065441405786454
 40
0.5088242520802063
 40
0.5137681370776994
 40
0.5187373452708371
 40
0.5237053227089443
 40
0.5379479514984428
 40
0.5522376637671617
 40
0.5665517825163793
 40
0.5808512353468265
 40
0.5951018856901279
 40
0.6127261282863171
 40
0.6303931472714458
 40
0.6480703097615442
 40
0.665708215485964
 40
0.6882881111575412
 40
0.7109368642925554
 40
0.7336268771018909
 40
0.7563221216409473
 40
0.7789824639621845
 40
0.8015704219252638
 40
0.8185004148090487
 40
0.8354552590702033
 40
0.8524137775795757
 40
0.8693484410438148
 40
0.8926906255322758
 40
0.916044869998578
 40
0.939388561247623
 40
0.954540469623157
 40
0.9697079238662804
 40
0.9848638054641565
 40
1.0
 40
1.0
 40
1.0
 40
1.0
 10
6289.240533536347
 20
4781.914469304194
 30
0.0
 10
6289.279883942017
 20
4784.326265278591
 30
0.0
 10
6289.358661524643
 20
4789.15456255818
 30
0.0
 10
6289.389215363055
 20
4796.411491443115
 30
0.0
 10
6289.390345294401
 20
4803.642382146514
 30
0.0
 10
6289.384025452377
 20
4810.612808309163
 30
0.0
 10
6289.388145984
 20
4817.328942964207
 30
0.0
 10
6289.390516235127
 20
4823.78842103027
 30
0.0
 10
6289.392778943443
 20
4830.191991638574
 30
0.0
 10
6289.394249634008
 20
4836.598341630753
 30
0.0
 10
6289.393264272041
 20
4842.965835372111
 30
0.0
 10
6289.391403534996
 20
4849.261057179378
 30
0.0
 10
6289.391265295085
 20
4855.394416568251
 30
0.0
 10
6289.395256571312
 20
4861.575029922415
 30
0.0
 10
6289.408714676198
 20
4867.820293624169
 30
0.0
 10
6289.380544925777
 20
4874.140728383095
 30
0.0
 10
6289.254652100624
 20
4880.264698652647
 30
0.0
 10
6288.976233634045
 20
4886.153595019048
 30
0.0
 10
6288.48957682066
 20
4891.761903403623
 30
0.0
 10
6287.79269373309
 20
4896.655099559745
 30
0.0
 10
6286.921895759235
 20
4900.860611169657
 30
0.0
 10
6285.992557733575
 20
4904.416317936791
 30
0.0
 10
6284.933800323193
 20
4907.592626705633
 30
0.0
 10
6283.898115080776
 20
4910.339455202887
 30
0.0
 10
6282.908810752273
 20
4912.673615438433
 30
0.0
 10
6281.813232859121
 20
4914.701450339597
 30
0.0
 10
6280.5135579726
 20
4916.440687237819
 30
0.0
 10
6279.134795332887
 20
4917.735308369646
 30
0.0
 10
6277.8304805237
 20
4918.57060349876
 30
0.0
 10
6276.715379810911
 20
4919.061757045438
 30
0.0
 10
6275.777425040905
 20
4919.331214529336
 30
0.0
 10
6274.829385723549
 20
4919.482751125125
 30
0.0
 10
6274.019638745515
 20
4919.53261954999
 30
0.0
 10
6273.192351723418
 20
4919.504135971339
 30
0.0
 10
6272.464188647689
 20
4919.405788330027
 30
0.0
 10
6271.844639060128
 20
4919.270458278298
 30
0.0
 10
6271.135309344464
 20
4919.061084693076
 30
0.0
 10
6270.375276262732
 20
4918.760018126628
 30
0.0
 10
6269.633331788295
 20
4918.356135347673
 30
0.0
 10
6268.619912663055
 20
4917.656673203399
 30
0.0
 10
6267.419485418563
 20
4916.575331702827
 30
0.0
 10
6266.177320237586
 20
4914.953928310969
 30
0.0
 10
6265.124309146845
 20
4913.072552039705
 30
0.0
 10
6264.173994812391
 20
4910.912557432775
 30
0.0
 10
6263.118355086014
 20
4908.244411178401
 30
0.0
 10
6261.987325197339
 20
4904.987122192058
 30
0.0
 10
6260.959066293777
 20
4901.138871511674
 30
0.0
 10
6260.088238088387
 20
4896.96468831841
 30
0.0
 10
6259.346157574299
 20
4892.088726907076
 30
0.0
 10
6258.81436637507
 20
4886.504585456611
 30
0.0
 10
6258.492877020027
 20
4880.19432867141
 30
0.0
 10
6258.360371378651
 20
4873.601409457505
 30
0.0
 10
6258.34904219441
 20
4866.755352779611
 30
0.0
 10
6258.396684309369
 20
4859.677101869704
 30
0.0
 10
6258.424957210677
 20
4852.998711708465
 30
0.0
 10
6258.418416341237
 20
4846.755762688823
 30
0.0
 10
6258.418714563972
 20
4840.994256579954
 30
0.0
 10
6258.417695159531
 20
4835.122779366368
 30
0.0
 10
6258.420337113783
 20
4828.404653700428
 30
0.0
 10
6258.422238105737
 20
4820.846086379262
 30
0.0
 10
6258.423330631301
 20
4812.455836490932
 30
0.0
 10
6258.428987907399
 20
4804.995219345896
 30
0.0
 10
6258.431949815725
 20
4798.495662457627
 30
0.0
 10
6258.443866452025
 20
4792.970488847407
 30
0.0
 10
6258.478024320386
 20
4787.435210388508
 30
0.0
 10
6258.540076733888
 20
4783.753918832045
 30
0.0
 10
6258.57108277646
 20
4781.914469304194
 30
0.0
  0
SPLINE
  5
FD
330
1F
100
AcDbEntity
  8
0
  6
Continuous
 62
     7
370
    25
100
AcDbSpline
210
0.0
220
0.0
230
1.0
 70
     8
 71
     3
 72
    26
 73
    22
 74
     0
 42
0.000000001
 43
0.00000001
 40
0.0
 40
0.0
 40
0.0
 40
0.0
 40
0.0577684949656505
 40
0.1156229460603244
 40
0.1734443090136741
 40
0.2430987977746562
 40
0.3129415010298032
 40
0.3827709668209733
 40
0.4524644779316169
 40
0.5219935798180665
 40
0.5810605459316476
 40
0.640280353081341
 40
0.6996015010078529
 40
0.7589131582457131
 40
0.8180570537199977
 40
0.8550068860835539
 40
0.8920257585387376
 40
0.9289590607519107
 40
0.9657923849043758
 40
0.9829023437266533
 40
1.0
 40
1.0
 40
1.0
 40
1.0
 10
6258.57108277646
 20
4781.914469304194
 30
0.0
 10
6258.369664019468
 20
4784.139076717943
 30
0.0
 10
6257.9665268062
 20
4788.591601630669
 30
0.0
 10
6257.36097629093
 20
4795.278235306748
 30
0.0
 10
6256.717041582745
 20
4802.390766744228
 30
0.0
 10
6256.034979413864
 20
4809.926369319126
 30
0.0
 10
6255.31637380998
 20
4817.863575567694
 30
0.0
 10
6254.605394365063
 20
4825.714150048624
 30
0.0
 10
6253.907230162541
 20
4833.425064383628
 30
0.0
 10
6253.259804765851
 20
4840.575250713715
 30
0.0
 10
6252.666098906321
 20
4847.135013914161
 30
0.0
 10
6252.123714015201
 20
4853.123850111187
 30
0.0
 10
6251.600542683103
 20
4858.904032458034
 30
0.0
 10
6251.097143796619
 20
4864.463856881386
 30
0.0
 10
6250.674514837382
 20
4869.130521541114
 30
0.0
 10
6250.323639330597
 20
4873.0069586099
 30
0.0
 10
6250.042084476939
 20
4876.115492390239
 30
0.0
 10
6249.778104982494
 20
4879.03318116888
 30
0.0
 10
6249.581976720624
 20
4881.199515381594
 30
0.0
 10
6249.442517541038
 20
4882.737344429963
 30
0.0
 10
6249.386876321432
 20
4883.35273071091
 30
0.0
 10
6249.359065717133
 20
4883.660313191524
 30
0.0
  0
SPLINE
  5
FE
330
1F
100
AcDbEntity
  8
0
  6
Continuous
 62
     7
370
    25
100
AcDbSpline
210
0.0
220
0.0
230
1.0
 70
     8
 71
     3
 72
    41
 73
    37
 74
     0
 42
0.000000001
 43
0.00000001
 40
0.0
 40
0.0
 40
0.0
 40
0.0
 40
0.0434408866617249
 40
0.0901584452767684
 40
0.1370255026366176
 40
0.1838514259397249
 40
0.2305125669382835
 40
0.263271449323846
 40
0.2962001707708498
 40
0.3292121587389084
 40
0.3621883365299408
 40
0.3950332544820538
 40
0.4277358185791564
 40
0.4470512581267963
 40
0.4662947419323755
 40
0.4743140360106909
 40
0.4823223883309421
 40
0.4923388979867557
 40
0.5013264100731241
 40
0.5101759179182449
 40
0.5201266102474547
 40
0.5307251093868854
 40
0.5414099205192427
 40
0.5520764840125069
 40
0.5664016228382762
 40
0.580735999005621
 40
0.620527760658187
 40
0.6605175163982523
 40
0.7005977478819725
 40
0.7406026647349738
 40
0.7804067540877525
 40
0.8232228115609712
 40
0.8661119164019658
 40
0.9089456772709474
 40
0.9544690017191179
 40
1.0
 40
1.0
 40
1.0
 40
1.0
 10
6249.359065717133
 20
4883.660313191524
 30
0.0
 10
6249.589416448625
 20
4885.297746452427
 30
0.0
 10
6250.067492874213
 20
4888.696121770984
 30
0.0
 10
6251.169489537131
 20
4893.607846384702
 30
0.0
 10
6252.596670301597
 20
4898.367096818903
 30
0.0
 10
6254.295546545164
 20
4902.772578241034
 30
0.0
 10
6256.087419791455
 20
4906.368156877495
 30
0.0
 10
6257.720744588754
 20
4909.198652116715
 30
0.0
 10
6259.115210804905
 20
4911.405138093095
 30
0.0
 10
6260.594061200563
 20
4913.36838407786
 30
0.0
 10
6262.223995949022
 20
4915.102695574778
 30
0.0
 10
6264.092659080672
 20
4916.624601237252
 30
0.0
 10
6265.964698662842
 20
4917.769563887828
 30
0.0
 10
6267.798075112514
 20
4918.623321893068
 30
0.0
 10
6269.266617012174
 20
4919.104988198042
 30
0.0
 10
6270.555348330204
 20
4919.401581116789
 30
0.0
 10
6271.597741593457
 20
4919.580245529642
 30
0.0
 10
6272.786310103681
 20
4919.703065119798
 30
0.0
 10
6274.083727285477
 20
4919.737011493586
 30
0.0
 10
6275.365337825009
 20
4919.676742027274
 30
0.0
 10
6276.628384796682
 20
4919.521915142308
 30
0.0
 10
6277.829521056502
 20
4919.282630533181
 30
0.0
 10
6278.916998098589
 20
4918.982779049275
 30
0.0
 10
6279.998393187423
 20
4918.604497769265
 30
0.0
 10
6281.061640274846
 20
4918.145192534943
 30
0.0
 10
6282.681703731992
 20
4917.279863507682
 30
0.0
 10
6284.612669756161
 20
4915.942016085678
 30
0.0
 10
6286.724417791562
 20
4913.940196161913
 30
0.0
 10
6288.583401821602
 20
4911.609799217123
 30
0.0
 10
6290.293192801688
 20
4908.928435729515
 30
0.0
 10
6292.04610351122
 20
4905.773230595563
 30
0.0
 10
6293.790583099766
 20
4902.125648935422
 30
0.0
 10
6295.327828685859
 20
4898.058143628601
 30
0.0
 10
6296.649925879836
 20
4893.601425561043
 30
0.0
 10
6297.72099324197
 20
4888.805885119007
 30
0.0
 10
6298.208684443971
 20
4885.375600199322
 30
0.0
 10
6298.452550595674
 20
4883.660313191524
 30
0.0
  0
SPLINE
  5
FF
330
1F
100
AcDbEntity
  8
0
  6
Continuous
 62
     7
370
    25
100
AcDbSpline
210
0.0
220
0.0
230
1.0
 70
     8
 71
     3
 72
    25
 73
    21
 74
     0
 42
0.000000001
 43
0.00000001
 40
0.0
 40
0.0
 40
0.0
 40
0.0
 40
0.0314173291908511
 40
0.0630166740608117
 40
0.0946047690912392
 40
0.1595738246058584
 40
0.2247666306596901
 40
0.2900655461442846
 40
0.3553156086933761
 40
0.4203320003707618
 40
0.4851050408547196
 40
0.5500378054508704
 40
0.6151281511780845
 40
0.68025106929818
 40
0.7451832593189981
 40
0.7961238181917185
 40
0.847171135467143
 40
0.8982018355840964
 40
0.9491459154474661
 40
1.0
 40
1.0
 40
1.0
 40
1.0
 10
6298.452550595674
 20
4883.660313191524
 30
0.0
 10
6298.399594016298
 20
4883.075397319264
 30
0.0
 10
6298.293374054646
 20
4881.902176876138
 30
0.0
 10
6298.086889940429
 20
4879.620932950728
 30
0.0
 10
6297.785510370237
 20
4876.295404789753
 30
0.0
 10
6297.380929108437
 20
4871.825469443101
 30
0.0
 10
6296.859491504145
 20
4866.066292967528
 30
0.0
 10
6296.308054798164
 20
4859.976789571649
 30
0.0
 10
6295.731768155611
 20
4853.609257779836
 30
0.0
 10
6295.135229772299
 20
4847.020870299985
 30
0.0
 10
6294.51681750371
 20
4840.19170415362
 30
0.0
 10
6293.878835190988
 20
4833.142785036468
 30
0.0
 10
6293.225915853933
 20
4825.934609031462
 30
0.0
 10
6292.563900967871
 20
4818.621861383913
 30
0.0
 10
6291.943933782765
 20
4811.774862274578
 30
0.0
 10
6291.369043889727
 20
4805.423120517806
 30
0.0
 10
6290.838932622383
 20
4799.567611674922
 30
0.0
 10
6290.306050560577
 20
4793.685380629448
 30
0.0
 10
6289.772646966275
 20
4787.791758070418
 30
0.0
 10
6289.417800111455
 20
4783.872410584961
 30
0.0
 10
6289.240533536347
 20
4781.914469304194
 30
0.0
  0
SPLINE
  5
100
330
1F
100
AcDbEntity
  8
0
  6
Continuous
 62
     7
370
    25
100
AcDbSpline
210
0.0
220
0.0
230
1.0
 70
     8
 71
     3
 72
    25
 73
    21
 74
     0
 42
0.000000001
 43
0.00000001
 40
0.0
 40
0.0
 40
0.0
 40
0.0
 40
0.0566737493965419
 40
0.1133525455852291
 40
0.1699779247068295
 40
0.2266073272588804
 40
0.2843904954750636
 40
0.3421584492024822
 40
0.3996198768043708
 40
0.457088968718713
 40
0.5121137438858963
 40
0.567143090570023
 40
0.6216144451277306
 40
0.6760772697366646
 40
0.7309561445333456
 40
0.7858383845315157
 40
0.843524961445826
 40
0.9012037210235635
 40
0.9506026203556868
 40
1.0
 40
1.0
 40
1.0
 40
1.0
 10
6258.659536069306
 20
4780.937817397227
 30
0.0
 10
6258.77969157222
 20
4780.085785801661
 30
0.0
 10
6259.020013277885
 20
4778.381646737193
 30
0.0
 10
6259.906839719846
 20
4775.956228855765
 30
0.0
 10
6261.156765977658
 20
4773.718451553222
 30
0.0
 10
6262.769115596732
 20
4771.707738996672
 30
0.0
 10
6264.711211950627
 20
4769.989311211481
 30
0.0
 10
6266.930659792559
 20
4768.605546933265
 30
0.0
 10
6269.369148211877
 20
4767.622662858236
 30
0.0
 10
6271.904425949108
 20
4767.066534119705
 30
0.0
 10
6274.463241429348
 20
4766.953770067177
 30
0.0
 10
6276.960225410277
 20
4767.246290882518
 30
0.0
 10
6279.360793354643
 20
4767.945821320944
 30
0.0
 10
6281.608757270852
 20
4769.010142123022
 30
0.0
 10
6283.644326920475
 20
4770.423000513934
 30
0.0
 10
6285.461402213796
 20
4772.169263267179
 30
0.0
 10
6286.989486202126
 20
4774.231653945581
 30
0.0
 10
6288.111934035019
 20
4776.452550143776
 30
0.0
 10
6288.852635248403
 20
4778.708762867823
 30
0.0
 10
6289.052266268712
 20
4780.194806840219
 30
0.0
 10
6289.152080243501
 20
4780.937817397227
 30
0.0
  0
LINE
  5
101
330
1F
100
AcDbEntity
  8
0
  6
Continuous
 62
     7
370
    25
100
AcDbLine
 10
6258.5710827765
 20
4781.9144693042
 30
0.0
 11
6258.6595360693
 21
4780.9378173972
 31
0.0
  0
LINE
  5
102
330
1F
100
AcDbEntity
  8
0
  6
Continuous
 62
     7
370
    25
100
AcDbLine
 10
6289.1520802435
 20
4780.9378173972
 30
0.0
 11
6289.2405335363
 21
4781.9144693042
 31
0.0
  0
ARC
  5
103
330
1F
100
AcDbEntity
  8
0
  6
Continuous
 62
     7
370
    25
100
AcDbCircle
 10
6274.0255930434
 20
4778.0399467361
 30
0.0
 40
12.21368745722664
100
AcDbArc
 50
269.437507383
 51
321.4814966315
  0
ARC
  5
104
330
1F
100
AcDbEntity
  8
0
  6
Continuous
 62
     7
370
    25
100
AcDbCircle
 10
6273.7951574944
 20
4778.0573533424
 30
0.0
 40
12.23100493453069
100
AcDbArc
 50
218.1701827724
 51
270.5177883567
  0
SPLINE
  5
105
330
1F
100
AcDbEntity
  8
0
  6
Continuous
 62
     7
370
    25
100
AcDbSpline
210
0.0
220
0.0
230
1.0
 70
     8
 71
     3
 72
    14
 73
    10
 74
     0
 42
0.000000001
 43
0.00000001
 40
0.0
 40
0.0
 40
0.0
 40
0.0
 40
0.145921693947716
 40
0.2919969517420177
 40
0.5178767597734799
 40
0.6951212510860849
 40
0.8280220087536903
 40
0.9888854304844844
 40
1.0
 40
1.0
 40
1.0
 40
1.0
 10
6248.509580319795
 20
4893.042054476848
 30
0.0
 10
6248.487040690163
 20
4893.326655029777
 30
0.0
 10
6248.441937710835
 20
4893.896155641174
 30
0.0
 10
6248.415473196957
 20
4894.574058083926
 30
0.0
 10
6248.407057469707
 20
4895.014851312992
 30
0.0
 10
6248.406051029102
 20
4895.223826344308
 30
0.0
 10
6248.405812481962
 20
4895.314785938443
 30
0.0
 10
6248.405868984976
 20
4895.335578266177
 30
0.0
 10
6248.405868283237
 20
4895.341054067843
 30
0.0
 10
6248.405868237885
 20
4895.341407957187
 30
0.0
  0
SPLINE
  5
106
330
1F
100
AcDbEntity
  8
0
  6
Continuous
 62
     7
370
    25
100
AcDbSpline
210
0.0
220
0.0
230
1.0
 70
     8
 71
     3
 72
    45
 73
    41
 74
     0
 42
0.000000001
 43
0.00000001
 40
0.0
 40
0.0
 40
0.0
 40
0.0
 40
0.0065664725101079
 40
0.0272120222561384
 40
0.0538939751265623
 40
0.080576061819361
 40
0.1080329941293663
 40
0.1354893123615934
 40
0.1621555456772517
 40
0.188823192484466
 40
0.216262786947841
 40
0.2437040420840023
 40
0.2703638169983065
 40
0.297026644398609
 40
0.3244598245192607
 40
0.351897015058323
 40
0.3785551100190247
 40
0.4052132301311416
 40
0.4326483163130739
 40
0.4600830569611447
 40
0.4867440222912193
 40
0.5134064127735523
 40
0.5408406709315371
 40
0.5682798873507166
 40
0.5949453615318105
 40
0.6216153332064456
 40
0.6490573578501699
 40
0.67650077764068
 40
0.7031761616984687
 40
0.729852949542945
 40
0.7573035142599679
 40
0.7847543305615506
 40
0.8114360292408042
 40
0.8381177809676352
 40
0.8655739227790233
 40
0.8930311738219239
 40
0.9197122622138991
 40
0.9463936037507726
 40
0.9738499442361457
 40
1.0
 40
1.0
 40
1.0
 40
1.0
 10
6248.405868237885
 20
4895.341407957187
 30
0.0
 10
6248.40694088994
 20
4895.515298638815
 30
0.0
 10
6248.411386051556
 20
4896.235916457789
 30
0.0
 10
6248.489141432077
 20
4897.662193447733
 30
0.0
 10
6248.735524798743
 20
4899.608744811061
 30
0.0
 10
6249.181261704208
 20
4901.704754576997
 30
0.0
 10
6249.808331724524
 20
4903.775409647846
 30
0.0
 10
6250.609005001274
 20
4905.784979484949
 30
0.0
 10
6251.567673410692
 20
4907.700661433719
 30
0.0
 10
6252.68141430248
 20
4909.530075978591
 30
0.0
 10
6253.957766668466
 20
4911.275799427688
 30
0.0
 10
6255.378191876756
 20
4912.906262656485
 30
0.0
 10
6256.91631305754
 20
4914.39659028244
 30
0.0
 10
6258.572512857427
 20
4915.754250406712
 30
0.0
 10
6260.35451305636
 20
4916.97913725827
 30
0.0
 10
6262.234365962144
 20
4918.047670828527
 30
0.0
 10
6264.178984375782
 20
4918.944888743791
 30
0.0
 10
6266.191090494918
 20
4919.678344578529
 30
0.0
 10
6268.278139029891
 20
4920.24421421458
 30
0.0
 10
6270.405813344336
 20
4920.630741584024
 30
0.0
 10
6272.538020617973
 20
4920.833824309356
 30
0.0
 10
6274.679711493631
 20
4920.860068855147
 30
0.0
 10
6276.83667344715
 20
4920.703361343132
 30
0.0
 10
6278.972612634435
 20
4920.364027707979
 30
0.0
 10
6281.05223088833
 20
4919.849740529547
 30
0.0
 10
6283.082395085049
 20
4919.165669751535
 30
0.0
 10
6285.066270449481
 20
4918.303610682813
 30
0.0
 10
6286.969877855713
 20
4917.276178380685
 30
0.0
 10
6288.762376944841
 20
4916.102295981113
 30
0.0
 10
6290.451995649562
 20
4914.784410136342
 30
0.0
 10
6292.03892584947
 20
4913.313921885146
 30
0.0
 10
6293.495164756763
 20
4911.7138251904
 30
0.0
 10
6294.798162590834
 20
4910.012540733607
 30
0.0
 10
6295.9562588597
 20
4908.209395808093
 30
0.0
 10
6296.966803867202
 20
4906.296163347685
 30
0.0
 10
6297.811158990333
 20
4904.304214635625
 30
0.0
 10
6298.477995180611
 20
4902.26751464361
 30
0.0
 10
6298.970467848648
 20
4900.182759692412
 30
0.0
 10
6299.297400934314
 20
4898.077747030864
 30
0.0
 10
6299.362211511768
 20
4896.658800664398
 30
0.0
 10
6299.393827145966
 20
4895.966615977397
 30
0.0
  0
SPLINE
  5
107
330
1F
100
AcDbEntity
  8
0
  6
Continuous
 62
     7
370
    25
100
AcDbSpline
210
0.0
220
0.0
230
1.0
 70
     8
 71
     3
 72
    10
 73
     6
 74
     0
 42
0.000000001
 43
0.00000001
 40
0.0
 40
0.0
 40
0.0
 40
0.0
 40
0.2396916339093044
 40
0.6196603516545853
 40
1.0
 40
1.0
 40
1.0
 40
1.0
 10
6299.39549607602
 20
4894.669216575732
 30
0.0
 10
6299.394048465047
 20
4894.600665806139
 30
0.0
 10
6299.390306043543
 20
4894.423445628282
 30
0.0
 10
6299.369390806854
 20
4893.889153535592
 30
0.0
 10
6299.324335978852
 20
4893.324512653287
 30
0.0
 10
6299.301797574433
 20
4893.042054476848
 30
0.0
  0
SPLINE
  5
108
330
1F
100
AcDbEntity
  8
0
  6
Continuous
 62
     7
370
    25
100
AcDbSpline
210
0.0
220
0.0
230
1.0
 70
     8
 71
     3
 72
    13
 73
     9
 74
     0
 42
0.000000001
 43
0.00000001
 40
0.0
 40
0.0
 40
0.0
 40
0.0
 40
0.166791469947399
 40
0.3335919220936606
 40
0.5023567061558819
 40
0.6711225386790128
 40
0.8353430920028794
 40
1.0
 40
1.0
 40
1.0
 40
1.0
 10
6249.359065717133
 20
4883.660313191524
 30
0.0
 10
6249.289332696616
 20
4884.430341120586
 30
0.0
 10
6249.149862900257
 20
4885.970438446924
 30
0.0
 10
6248.972070192888
 20
4887.937253243022
 30
0.0
 10
6248.815710684747
 20
4889.658689091347
 30
0.0
 10
6248.687079598531
 20
4891.083357069569
 30
0.0
 10
6248.582252513579
 20
4892.239471005763
 30
0.0
 10
6248.533825801912
 20
4892.774290120454
 30
0.0
 10
6248.509580319795
 20
4893.042054476848
 30
0.0
  0
SPLINE
  5
109
330
1F
100
AcDbEntity
  8
0
  6
Continuous
 62
     7
370
    25
100
AcDbSpline
210
0.0
220
0.0
230
1.0
 70
     8
 71
     3
 72
    13
 73
     9
 74
     0
 42
0.000000001
 43
0.00000001
 40
0.0
 40
0.0
 40
0.0
 40
0.0
 40
0.1642251889338037
 40
0.3288774281586538
 40
0.4956979964190538
 40
0.6625181998675402
 40
0.831262024728975
 40
1.0
 40
1.0
 40
1.0
 40
1.0
 10
6299.301797574433
 20
4893.042054476848
 30
0.0
 10
6299.277587524128
 20
4892.775049588334
 30
0.0
 10
6299.229104467831
 20
4892.24034549324
 30
0.0
 10
6299.125235417178
 20
4891.089095781973
 30
0.0
 10
6298.997072573273
 20
4889.675793082472
 30
0.0
 10
6298.842166753387
 20
4887.965842488976
 30
0.0
 10
6298.663971052559
 20
4885.996414383445
 30
0.0
 10
6298.52302326695
 20
4884.439004590608
 30
0.0
 10
6298.452550595674
 20
4883.660313191524
 30
0.0
  0
ENDSEC
  0
SECTION
  2
OBJECTS
  0
DICTIONARY
  5
C
330
0
100
AcDbDictionary
281
     1
  3
ACAD_GROUP
350
D
  3
ACAD_LAYOUT
350
1A
  3
ACAD_MLINESTYLE
350
17
  3
ACAD_PLOTSETTINGS
350
19
  3
ACAD_PLOTSTYLENAME
350
E
  3
ACAD_SCALELIST
350
47
  0
DICTIONARY
  5
D
102
{ACAD_REACTORS
330
C
102
}
330
C
100
AcDbDictionary
281
     1
  0
DICTIONARY
  5
1A
102
{ACAD_REACTORS
330
C
102
}
330
C
100
AcDbDictionary
281
     1
  3
Layout1
350
1E
  3
Layout2
350
26
  3
Model
350
22
  0
DICTIONARY
  5
17
102
{ACAD_REACTORS
330
C
102
}
330
C
100
AcDbDictionary
281
     1
  3
Standard
350
18
  0
DICTIONARY
  5
19
102
{ACAD_REACTORS
330
C
102
}
330
C
100
AcDbDictionary
281
     1
  0
ACDBDICTIONARYWDFLT
  5
E
102
{ACAD_REACTORS
330
C
102
}
330
C
100
AcDbDictionary
281
     1
  3
Normal
350
F
100
AcDbDictionaryWithDefault
340
F
  0
DICTIONARY
  5
47
102
{ACAD_REACTORS
330
C
102
}
330
C
100
AcDbDictionary
281
     1
  3
A0
350
48
  3
A1
350
49
  3
A2
350
4A
  3
A3
350
4B
  3
A4
350
4C
  3
A5
350
4D
  3
A6
350
4E
  3
A7
350
4F
  3
A8
350
50
  3
A9
350
51
  3
B0
350
52
  3
B1
350
53
  3
B2
350
54
  3
B3
350
55
  3
B4
350
56
  3
B5
350
57
  3
B6
350
58
  3
B7
350
59
  3
B8
350
5A
  3
B9
350
5B
  3
C0
350
5C
  3
C1
350
5D
  3
C2
350
5E
  3
C3
350
5F
  3
C4
350
60
  3
C5
350
61
  3
C6
350
62
  3
C7
350
63
  3
C8
350
64
  3
C9
350
65
  3
D0
350
66
  3
D1
350
67
  3
D2
350
68
  0
LAYOUT
  5
1E
102
{ACAD_REACTORS
330
1A
102
}
330
1A
100
AcDbPlotSettings
  1

  2
none_device
  4

  6

 40
0.0
 41
0.0
 42
0.0
 43
0.0
 44
0.0
 45
0.0
 46
0.0
 47
0.0
 48
0.0
 49
0.0
140
0.0
141
0.0
142
1.0
143
1.0
 70
   688
 72
     1
 73
     0
 74
     5
  7

 75
    16
147
1.0
148
0.0
149
0.0
100
AcDbLayout
  1
Layout1
 70
     1
 71
     1
 10
0.0
 20
0.0
 11
420.0
 21
297.0
 12
0.0
 22
0.0
 32
0.0
 14
1.0000000000E+20
 24
1.0000000000E+20
 34
1.0000000000E+20
 15
-1.0000000000E+20
 25
-1.0000000000E+20
 35
-1.0000000000E+20
146
0.0
 13
0.0
 23
0.0
 33
0.0
 16
1.0
 26
0.0
 36
0.0
 17
0.0
 27
1.0
 37
0.0
 76
     0
330
1B
  0
LAYOUT
  5
26
102
{ACAD_REACTORS
330
1A
102
}
330
1A
100
AcDbPlotSettings
  1

  2
none_device
  4

  6

 40
0.0
 41
0.0
 42
0.0
 43
0.0
 44
0.0
 45
0.0
 46
0.0
 47
0.0
 48
0.0
 49
0.0
140
0.0
141
0.0
142
1.0
143
1.0
 70
   688
 72
     1
 73
     0
 74
     5
  7

 75
    16
147
1.0
148
0.0
149
0.0
100
AcDbLayout
  1
Layout2
 70
     1
 71
     2
 10
0.0
 20
0.0
 11
0.0
 21
0.0
 12
0.0
 22
0.0
 32
0.0
 14
0.0
 24
0.0
 34
0.0
 15
0.0
 25
0.0
 35
0.0
146
0.0
 13
0.0
 23
0.0
 33
0.0
 16
1.0
 26
0.0
 36
0.0
 17
0.0
 27
1.0
 37
0.0
 76
     0
330
23
  0
LAYOUT
  5
22
102
{ACAD_REACTORS
330
1A
102
}
330
1A
100
AcDbPlotSettings
  1

  2
none_device
  4
Letter_(8.50_x_11.00_Inches)
  6

 40
6.35
 41
6.35
 42
6.35000508
 43
6.35000508
 44
215.9
 45
279.4
 46
0.0
 47
0.0
 48
0.0
 49
0.0
140
0.0
141
0.0
142
1.0
143
1.0
 70
  1712
 72
     1
 73
     0
 74
     0
  7

 75
     0
147
1.0
148
0.0
149
0.0
100
AcDbLayout
  1
Model
 70
     1
 71
     0
 10
0.0
 20
0.0
 11
20000.0
 21
10000.0
 12
0.0
 22
0.0
 32
0.0
 14
0.0
 24
0.0
 34
0.0
 15
20000.0
 25
10000.0
 35
0.0
146
0.0
 13
0.0
 23
0.0
 33
0.0
 16
1.0
 26
0.0
 36
0.0
 17
0.0
 27
1.0
 37
0.0
 76
     0
330
1F
331
29
  0
MLINESTYLE
  5
18
102
{ACAD_REACTORS
330
17
102
}
330
17
100
AcDbMlineStyle
  2
Standard
 70
     0
  3

 62
   256
 51
90.0
 52
90.0
 71
     2
 49
0.5
 62
   256
  6
BYLAYER
 49
-0.5
 62
   256
  6
BYLAYER
  0
ACDBPLACEHOLDER
  5
F
102
{ACAD_REACTORS
330
E
102
}
330
E
  0
SCALE
  5
48
102
{ACAD_REACTORS
330
47
102
}
330
47
100
AcDbScale
 70
     0
300
1:1
140
1.0
141
1.0
290
     1
  0
SCALE
  5
49
102
{ACAD_REACTORS
330
47
102
}
330
47
100
AcDbScale
 70
     0
300
1:2
140
1.0
141
2.0
290
     0
  0
SCALE
  5
4A
102
{ACAD_REACTORS
330
47
102
}
330
47
100
AcDbScale
 70
     0
300
1:4
140
1.0
141
4.0
290
     0
  0
SCALE
  5
4B
102
{ACAD_REACTORS
330
47
102
}
330
47
100
AcDbScale
 70
     0
300
1:5
140
1.0
141
5.0
290
     0
  0
SCALE
  5
4C
102
{ACAD_REACTORS
330
47
102
}
330
47
100
AcDbScale
 70
     0
300
1:8
140
1.0
141
8.0
290
     0
  0
SCALE
  5
4D
102
{ACAD_REACTORS
330
47
102
}
330
47
100
AcDbScale
 70
     0
300
1:10
140
1.0
141
10.0
290
     0
  0
SCALE
  5
4E
102
{ACAD_REACTORS
330
47
102
}
330
47
100
AcDbScale
 70
     0
300
1:16
140
1.0
141
16.0
290
     0
  0
SCALE
  5
4F
102
{ACAD_REACTORS
330
47
102
}
330
47
100
AcDbScale
 70
     0
300
1:20
140
1.0
141
20.0
290
     0
  0
SCALE
  5
50
102
{ACAD_REACTORS
330
47
102
}
330
47
100
AcDbScale
 70
     0
300
1:30
140
1.0
141
30.0
290
     0
  0
SCALE
  5
51
102
{ACAD_REACTORS
330
47
102
}
330
47
100
AcDbScale
 70
     0
300
1:40
140
1.0
141
40.0
290
     0
  0
SCALE
  5
52
102
{ACAD_REACTORS
330
47
102
}
330
47
100
AcDbScale
 70
     0
300
1:50
140
1.0
141
50.0
290
     0
  0
SCALE
  5
53
102
{ACAD_REACTORS
330
47
102
}
330
47
100
AcDbScale
 70
     0
300
1:100
140
1.0
141
100.0
290
     0
  0
SCALE
  5
54
102
{ACAD_REACTORS
330
47
102
}
330
47
100
AcDbScale
 70
     0
300
2:1
140
2.0
141
1.0
290
     0
  0
SCALE
  5
55
102
{ACAD_REACTORS
330
47
102
}
330
47
100
AcDbScale
 70
     0
300
4:1
140
4.0
141
1.0
290
     0
  0
SCALE
  5
56
102
{ACAD_REACTORS
330
47
102
}
330
47
100
AcDbScale
 70
     0
300
8:1
140
8.0
141
1.0
290
     0
  0
SCALE
  5
57
102
{ACAD_REACTORS
330
47
102
}
330
47
100
AcDbScale
 70
     0
300
10:1
140
10.0
141
1.0
290
     0
  0
SCALE
  5
58
102
{ACAD_REACTORS
330
47
102
}
330
47
100
AcDbScale
 70
     0
300
100:1
140
100.0
141
1.0
290
     0
  0
SCALE
  5
59
102
{ACAD_REACTORS
330
47
102
}
330
47
100
AcDbScale
 70
     0
300
1/128" = 1'-0"
140
0.0078125
141
12.0
290
     0
  0
SCALE
  5
5A
102
{ACAD_REACTORS
330
47
102
}
330
47
100
AcDbScale
 70
     0
300
1/64" = 1'-0"
140
0.015625
141
12.0
290
     0
  0
SCALE
  5
5B
102
{ACAD_REACTORS
330
47
102
}
330
47
100
AcDbScale
 70
     0
300
1/32" = 1'-0"
140
0.03125
141
12.0
290
     0
  0
SCALE
  5
5C
102
{ACAD_REACTORS
330
47
102
}
330
47
100
AcDbScale
 70
     0
300
1/16" = 1'-0"
140
0.0625
141
12.0
290
     0
  0
SCALE
  5
5D
102
{ACAD_REACTORS
330
47
102
}
330
47
100
AcDbScale
 70
     0
300
3/32" = 1'-0"
140
0.09375
141
12.0
290
     0
  0
SCALE
  5
5E
102
{ACAD_REACTORS
330
47
102
}
330
47
100
AcDbScale
 70
     0
300
1/8" = 1'-0"
140
0.125
141
12.0
290
     0
  0
SCALE
  5
5F
102
{ACAD_REACTORS
330
47
102
}
330
47
100
AcDbScale
 70
     0
300
3/16" = 1'-0"
140
0.1875
141
12.0
290
     0
  0
SCALE
  5
60
102
{ACAD_REACTORS
330
47
102
}
330
47
100
AcDbScale
 70
     0
300
1/4" = 1'-0"
140
0.25
141
12.0
290
     0
  0
SCALE
  5
61
102
{ACAD_REACTORS
330
47
102
}
330
47
100
AcDbScale
 70
     0
300
3/8" = 1'-0"
140
0.375
141
12.0
290
     0
  0
SCALE
  5
62
102
{ACAD_REACTORS
330
47
102
}
330
47
100
AcDbScale
 70
     0
300
1/2" = 1'-0"
140
0.5
141
12.0
290
     0
  0
SCALE
  5
63
102
{ACAD_REACTORS
330
47
102
}
330
47
100
AcDbScale
 70
     0
300
3/4" = 1'-0"
140
0.75
141
12.0
290
     0
  0
SCALE
  5
64
102
{ACAD_REACTORS
330
47
102
}
330
47
100
AcDbScale
 70
     0
300
1" = 1'-0"
140
1.0
141
12.0
290
     0
  0
SCALE
  5
65
102
{ACAD_REACTORS
330
47
102
}
330
47
100
AcDbScale
 70
     0
300
1-1/2" = 1'-0"
140
1.5
141
12.0
290
     0
  0
SCALE
  5
66
102
{ACAD_REACTORS
330
47
102
}
330
47
100
AcDbScale
 70
     0
300
3" = 1'-0"
140
3.0
141
12.0
290
     0
  0
SCALE
  5
67
102
{ACAD_REACTORS
330
47
102
}
330
47
100
AcDbScale
 70
     0
300
6" = 1'-0"
140
6.0
141
12.0
290
     0
  0
SCALE
  5
68
102
{ACAD_REACTORS
330
47
102
}
330
47
100
AcDbScale
 70
     0
300
1'-0" = 1'-0"
140
12.0
141
12.0
290
     0
  0
ENDSEC
  0
EOF
